  0
SECTION
  2
HEADER
  9
$ACADVER
  1
AC1009
  9
$INSBASE
 10
0.0
 20
0.0
 30
0.0
  9
$EXTMIN
 10
-74.024374123127913
 20
220.1215240183769
 30
-0.0000000005819913
  9
$EXTMAX
 10
1290.882972358643
 20
734.75958475791822
 30
0.0000000023284805
  9
$LIMMIN
 10
0.0
 20
0.0
  9
$LIMMAX
 10
1680.0
 20
1188.0
  9
$ORTHOMODE
 70
     1
  9
$REGENMODE
 70
     1
  9
$FILLMODE
 70
     1
  9
$QTEXTMODE
 70
     0
  9
$MIRRTEXT
 70
     1
  9
$DRAGMODE
 70
     2
  9
$LTSCALE
 40
14.0
  9
$OSMODE
 70
    55
  9
$ATTMODE
 70
     1
  9
$TEXTSIZE
 40
7.0
  9
$TRACEWID
 40
0.05
  9
$TEXTSTYLE
  7
STANDARD
  9
$CLAYER
  8
L23
  9
$CELTYPE
  6
CONTINUOUS
  9
$CECOLOR
 62
   256
  9
$DIMSCALE
 40
1.0
  9
$DIMASZ
 40
3.5
  9
$DIMEXO
 40
0.1
  9
$DIMDLI
 40
0.38
  9
$DIMRND
 40
0.0
  9
$DIMDLE
 40
0.0
  9
$DIMEXE
 40
0.18
  9
$DIMTP
 40
0.0
  9
$DIMTM
 40
0.0
  9
$DIMTXT
 40
5.0
  9
$DIMCEN
 40
1.0
  9
$DIMTSZ
 40
0.0
  9
$DIMTOL
 70
     0
  9
$DIMLIM
 70
     0
  9
$DIMTIH
 70
     0
  9
$DIMTOH
 70
     0
  9
$DIMSE1
 70
     0
  9
$DIMSE2
 70
     0
  9
$DIMTAD
 70
     1
  9
$DIMZIN
 70
     8
  9
$DIMBLK
  1

  9
$DIMASO
 70
     1
  9
$DIMSHO
 70
     1
  9
$DIMPOST
  1

  9
$DIMAPOST
  1

  9
$DIMALT
 70
     0
  9
$DIMALTD
 70
     2
  9
$DIMALTF
 40
25.399999999999999
  9
$DIMLFAC
 40
1.0
  9
$DIMTOFL
 70
     1
  9
$DIMTVP
 40
0.0
  9
$DIMTIX
 70
     0
  9
$DIMSOXD
 70
     0
  9
$DIMSAH
 70
     0
  9
$DIMBLK1
  1

  9
$DIMBLK2
  1

  9
$DIMSTYLE
  2
FIBOX
  9
$DIMCLRD
 70
     1
  9
$DIMCLRE
 70
     1
  9
$DIMCLRT
 70
     3
  9
$DIMTFAC
 40
1.0
  9
$DIMGAP
 40
1.0
  9
$LUNITS
 70
     2
  9
$LUPREC
 70
     2
  9
$SKETCHINC
 40
1.0
  9
$FILLETRAD
 40
0.2
  9
$AUNITS
 70
     0
  9
$AUPREC
 70
     2
  9
$MENU
  1
CAESAR
  9
$ELEVATION
 40
0.0
  9
$PELEVATION
 40
0.0
  9
$THICKNESS
 40
0.0
  9
$LIMCHECK
 70
     0
  9
$BLIPMODE
 70
     0
  9
$CHAMFERA
 40
5.0
  9
$CHAMFERB
 40
5.0
  9
$SKPOLY
 70
     0
  9
$TDCREATE
 40
2449036.3560293978
  9
$TDUPDATE
 40
2453482.4117158102
  9
$TDINDWG
 40
1.4078760185000001
  9
$TDUSRTIMER
 40
1.4078760185000001
  9
$USRTIMER
 70
     1
  9
$ANGBASE
 50
0.0
  9
$ANGDIR
 70
     0
  9
$PDMODE
 70
     0
  9
$PDSIZE
 40
0.0
  9
$PLINEWID
 40
0.0
  9
$COORDS
 70
     2
  9
$SPLFRAME
 70
     0
  9
$SPLINETYPE
 70
     6
  9
$SPLINESEGS
 70
     8
  9
$ATTDIA
 70
     0
  9
$ATTREQ
 70
     1
  9
$HANDLING
 70
-16383
  9
$HANDSEED
  5
1F329
  9
$SURFTAB1
 70
     6
  9
$SURFTAB2
 70
     6
  9
$SURFTYPE
 70
     6
  9
$SURFU
 70
     6
  9
$SURFV
 70
     6
  9
$UCSNAME
  2

  9
$UCSORG
 10
478.93261307452963
 20
279.74700502020738
 30
0.0
  9
$UCSXDIR
 10
1.0
 20
0.0
 30
0.0
  9
$UCSYDIR
 10
0.0
 20
1.0
 30
0.0
  9
$PUCSNAME
  2

  9
$PUCSORG
 10
0.0
 20
0.0
 30
0.0
  9
$PUCSXDIR
 10
1.0
 20
0.0
 30
0.0
  9
$PUCSYDIR
 10
0.0
 20
1.0
 30
0.0
  9
$USERI1
 70
   101
  9
$USERI2
 70
     0
  9
$USERI3
 70
     0
  9
$USERI4
 70
     0
  9
$USERI5
 70
     0
  9
$USERR1
 40
2.0
  9
$USERR2
 40
0.0
  9
$USERR3
 40
3.5
  9
$USERR4
 40
0.0
  9
$USERR5
 40
0.0
  9
$WORLDVIEW
 70
     1
  9
$SHADEDGE
 70
     3
  9
$SHADEDIF
 70
    70
  9
$TILEMODE
 70
     1
  9
$MAXACTVP
 70
     4
  9
$PLIMCHECK
 70
     0
  9
$PEXTMIN
 10
13.0
 20
3.0
 30
0.0
  9
$PEXTMAX
 10
420.0
 20
283.0
 30
0.0
  9
$PLIMMIN
 10
0.0
 20
0.0
  9
$PLIMMAX
 10
420.0
 20
297.0
  9
$UNITMODE
 70
     0
  9
$VISRETAIN
 70
     0
  9
$PLINEGEN
 70
     0
  9
$PSLTSCALE
 70
     0
  0
ENDSEC
  0
SECTION
  2
TABLES
  0
TABLE
  2
VPORT
 70
     3
  0
VPORT
  2
*ACTIVE
 70
     0
 10
0.0
 20
0.0
 11
1.0
 21
1.0
 12
608.42929911775775
 22
477.44055438814758
 13
0.0
 23
0.0
 14
1.0
 24
1.0
 15
10.0
 25
10.0
 16
0.0
 26
0.0
 36
1.0
 17
0.0
 27
0.0
 37
0.0
 40
881.02531375707747
 41
1.5552208835341359
 42
50.0
 43
0.0
 44
0.0
 50
0.0
 51
0.0
 71
     0
 72
   100
 73
     1
 74
     0
 75
     0
 76
     0
 77
     0
 78
     1
  0
ENDTAB
  0
TABLE
  2
LTYPE
 70
     4
  0
LTYPE
  2
CONTINUOUS
 70
     0
  3
Solid line
 72
    65
 73
     0
 40
0.0
  0
LTYPE
  2
CENTER
 70
     0
  3
____ _ ____ _ ____ _ ____ _ ____ _ ____ _ ____ 
 72
    65
 73
     4
 40
2.0
 49
1.25
 49
-0.25
 49
0.25
 49
-0.25
  0
LTYPE
  2
DASHED
 70
     0
  3
__ __ __ __ __ __ __ __ __ __ __ __ __ __ __ __
 72
    65
 73
     2
 40
0.75
 49
0.5
 49
-0.25
  0
LTYPE
  2
DOTX2
 70
     0
  3
.  .  .  .  .  .  .  .  .  .  .  .  .  .  .  . 
 72
    65
 73
     2
 40
0.5
 49
0.0
 49
-0.5
  0
ENDTAB
  0
TABLE
  2
LAYER
 70
    24
  0
LAYER
  2
0
 70
     0
 62
     7
  6
CONTINUOUS
  0
LAYER
  2
L1
 70
     0
 62
     7
  6
CONTINUOUS
  0
LAYER
  2
L6
 70
     0
 62
     1
  6
CENTER
  0
LAYER
  2
L23
 70
     0
 62
     1
  6
CONTINUOUS
  0
LAYER
  2
L16
 70
     1
 62
     5
  6
DOTX2
  0
LAYER
  2
ASHADE
 70
     4
 62
     7
  6
CONTINUOUS
  0
ENDTAB
  0
TABLE
  2
STYLE
 70
     4
  0
STYLE
  2
STANDARD
 70
     0
 40
0.0
 41
1.0
 50
0.0
 71
     0
 42
7.0
  3
CAEISO
  4

  0
STYLE
  2
SIMPLEX
 70
     0
 40
0.0
 41
0.8
 50
0.0
 71
     0
 42
2.5
  3
simplex.shx
  4

  0
ENDTAB
  0
TABLE
  2
VIEW
 70
     0
  0
ENDTAB
  0
TABLE
  2
UCS
 70
     0
  0
ENDTAB
  0
TABLE
  2
APPID
 70
    11
  0
APPID
  2
ACAD
 70
     0
  0
APPID
  2
MCAD_NO_VIS
 70
     0
  0
APPID
  2
ACAD_TEMP_GRAPHIC
 70
     0
  0
APPID
  2
AD_DRAW
 70
     0
  0
APPID
  2
DESIGNERASSEMBLIES
 70
     0
  0
APPID
  2
ASURF_PCURVE_APPNAME
 70
     0
  0
APPID
  2
AVE_RENDER
 70
     0
  0
APPID
  2
AVE_ENTITY_MATERIAL
 70
     0
  0
APPID
  2
AVE_FINISH
 70
     0
  0
APPID
  2
AVE_MATERIAL
 70
     0
  0
APPID
  2
AVE_GLOBAL
 70
     0
  0
ENDTAB
  0
TABLE
  2
DIMSTYLE
 70
     5
  0
DIMSTYLE
  2
ACADUS
 70
     0
  3

  4

  5

  6

  7

 40
1.0
 41
0.18
 42
0.0625
 43
0.38
 44
0.18
 45
0.0
 46
0.0
 47
0.0
 48
0.0
140
0.18
141
0.09
142
0.0
143
25.399999999999999
144
1.0
145
0.0
146
1.0
147
0.09
 71
     0
 72
     0
 73
     1
 74
     1
 75
     0
 76
     0
 77
     0
 78
     0
170
     0
171
     2
172
     0
173
     0
174
     0
175
     0
176
     0
177
     0
178
     0
  0
DIMSTYLE
  2
FIBOX
 70
     0
  3

  4

  5

  6

  7

 40
1.0
 41
3.5
 42
0.1
 43
0.38
 44
0.18
 45
0.0
 46
0.0
 47
0.0
 48
0.0
140
5.0
141
1.0
142
0.0
143
25.399999999999999
144
1.0
145
0.0
146
1.0
147
1.0
 71
     0
 72
     0
 73
     0
 74
     0
 75
     0
 76
     0
 77
     1
 78
     8
170
     0
171
     2
172
     1
173
     0
174
     0
175
     0
176
     1
177
     1
178
     3
  0
ENDTAB
  0
ENDSEC
  0
SECTION
  2
BLOCKS
  0
BLOCK
  8
0
  2
$MODEL_SPACE
 70
     0
 10
0.0
 20
0.0
 30
0.0
  3
$MODEL_SPACE
  1

  0
ENDBLK
  5
1F2E5
  8
0
  0
BLOCK
 67
     1
  8
0
  2
$PAPER_SPACE
 70
     0
 10
0.0
 20
0.0
 30
0.0
  3
$PAPER_SPACE
  1

  0
ENDBLK
  5
1F2E3
 67
     1
  8
0
  0
BLOCK
  8
0
  2
AVE_RENDER
 70
     0
 10
0.0
 20
0.0
 30
0.0
  3
AVE_RENDER
  1
AVE_RENDER
  0
ENDBLK
  5
1DE1D
  8
0
  0
BLOCK
  8
0
  2
AVE_GLOBAL
 70
     0
 10
0.0
 20
0.0
 30
0.0
  3
AVE_GLOBAL
  1
AVE_GLOBAL
  0
ENDBLK
  5
1DE20
  8
0
  0
ENDSEC
  0
SECTION
  2
ENTITIES
  0
LINE
  5
248C
  8
L1
 10
188.9326130745296
 20
731.74462549858094
 30
0.0
 11
194.4326130745296
 21
731.74462549858094
 31
0.0
  0
LINE
  5
248D
  8
L1
 10
188.9326130745296
 20
731.74462549858094
 30
0.0
 11
188.9326130745296
 21
711.74462549858094
 31
0.0
  0
LINE
  5
248E
  8
L1
 10
190.9326130745296
 20
709.74462549858094
 30
0.0
 11
197.9326130745296
 21
709.74462549858094
 31
0.0
  0
LINE
  5
248F
  8
L1
 10
197.9326130745296
 20
731.74462549858094
 30
0.0
 11
197.9326130745296
 21
645.74462549858094
 31
0.0
  0
LINE
  5
2490
  8
L1
 10
197.9326130745296
 20
645.74462549858094
 30
0.0
 11
345.93261307452963
 21
645.74462549858094
 31
0.0
  0
LINE
  5
2495
  8
L1
 10
201.4326130745296
 20
645.74462549858094
 30
0.0
 11
201.4326130745296
 21
639.74462549858094
 31
0.0
  0
LINE
  5
2496
  8
L1
 10
201.4326130745296
 20
639.74462549858094
 30
0.0
 11
210.4326130745296
 21
639.74462549858094
 31
0.0
  0
LINE
  5
2497
  8
L1
 10
210.4326130745296
 20
639.74462549858094
 30
0.0
 11
210.4326130745296
 21
645.74462549858094
 31
0.0
  0
LINE
  5
2498
  8
L1
 10
335.43261307452963
 20
645.74462549858094
 30
0.0
 11
335.43261307452963
 21
639.74462549858094
 31
0.0
  0
LINE
  5
2499
  8
L1
 10
335.43261307452963
 20
639.74462549858094
 30
0.0
 11
356.43261307452963
 21
639.74462549858094
 31
0.0
  0
LINE
  5
249A
  8
L1
 10
356.43261307452963
 20
639.74462549858094
 30
0.0
 11
356.43261307452963
 21
645.74462549858094
 31
0.0
  0
CIRCLE
  5
249B
  8
L1
 10
233.9326130745296
 20
670.74462549858094
 30
0.0
 40
9.5
  0
LINE
  5
249D
  8
L6
 10
233.9326130745296
 20
681.74462549858094
 30
0.0
 11
233.9326130745296
 21
659.74462549858094
 31
0.0
  0
LINE
  5
249E
  8
L6
 10
222.9326130745296
 20
670.74462549858094
 30
0.0
 11
244.9326130745296
 21
670.74462549858094
 31
0.0
  0
LINE
  5
249F
  8
L6
 10
250.9326130745296
 20
670.74462549858094
 30
0.0
 11
272.93261307452963
 21
670.74462549858094
 31
0.0
  0
LINE
  5
24A0
  8
L6
 10
261.93261307452963
 20
681.74462549858094
 30
0.0
 11
261.93261307452963
 21
659.74462549858094
 31
0.0
  0
CIRCLE
  5
24A2
  8
L1
 10
261.93261307452963
 20
670.74462549858094
 30
0.0
 40
9.5
  0
LINE
  5
24A3
  8
L6
 10
278.93261307452963
 20
670.74462549858094
 30
0.0
 11
300.93261307452963
 21
670.74462549858094
 31
0.0
  0
LINE
  5
24A4
  8
L6
 10
289.93261307452963
 20
681.74462549858094
 30
0.0
 11
289.93261307452963
 21
659.74462549858094
 31
0.0
  0
CIRCLE
  5
24A6
  8
L1
 10
289.93261307452963
 20
670.74462549858094
 30
0.0
 40
9.5
  0
LINE
  5
24A7
  8
L6
 10
306.93261307452963
 20
670.74462549858094
 30
0.0
 11
328.93261307452963
 21
670.74462549858094
 31
0.0
  0
LINE
  5
24A8
  8
L6
 10
317.93261307452963
 20
681.74462549858094
 30
0.0
 11
317.93261307452963
 21
659.74462549858094
 31
0.0
  0
CIRCLE
  5
24AA
  8
L1
 10
317.93261307452963
 20
670.74462549858094
 30
0.0
 40
9.5
  0
LINE
  5
24AB
  8
L6
 10
334.93261307452963
 20
670.74462549858094
 30
0.0
 11
356.93261307452963
 21
670.74462549858094
 31
0.0
  0
LINE
  5
24AC
  8
L6
 10
345.93261307452963
 20
681.74462549858094
 30
0.0
 11
345.93261307452963
 21
659.74462549858094
 31
0.0
  0
CIRCLE
  5
24AE
  8
L1
 10
345.93261307452963
 20
670.74462549858094
 30
0.0
 40
9.5
  0
LINE
  5
24AF
  8
L6
 10
362.93261307452963
 20
670.74462549858094
 30
0.0
 11
384.93261307452963
 21
670.74462549858094
 31
0.0
  0
LINE
  5
24B0
  8
L6
 10
373.93261307452963
 20
681.74462549858094
 30
0.0
 11
373.93261307452963
 21
659.74462549858094
 31
0.0
  0
CIRCLE
  5
24B2
  8
L1
 10
373.93261307452963
 20
670.74462549858094
 30
0.0
 40
9.5
  0
LINE
  5
24B3
  8
L6
 10
390.93261307452963
 20
670.74462549858094
 30
0.0
 11
412.93261307452963
 21
670.74462549858094
 31
0.0
  0
LINE
  5
24B4
  8
L6
 10
401.93261307452963
 20
681.74462549858094
 30
0.0
 11
401.93261307452963
 21
659.74462549858094
 31
0.0
  0
CIRCLE
  5
24B6
  8
L1
 10
401.93261307452963
 20
670.74462549858094
 30
0.0
 40
9.5
  0
LINE
  5
24B7
  8
L6
 10
418.93261307452963
 20
670.74462549858094
 30
0.0
 11
440.93261307452963
 21
670.74462549858094
 31
0.0
  0
LINE
  5
24B8
  8
L6
 10
429.93261307452963
 20
681.74462549858094
 30
0.0
 11
429.93261307452963
 21
659.74462549858094
 31
0.0
  0
CIRCLE
  5
24BA
  8
L1
 10
429.93261307452963
 20
670.74462549858094
 30
0.0
 40
9.5
  0
LINE
  5
24BB
  8
L6
 10
446.93261307452963
 20
670.74462549858094
 30
0.0
 11
468.93261307452963
 21
670.74462549858094
 31
0.0
  0
LINE
  5
24BC
  8
L6
 10
457.93261307452963
 20
681.74462549858094
 30
0.0
 11
457.93261307452963
 21
659.74462549858094
 31
0.0
  0
CIRCLE
  5
24BE
  8
L1
 10
457.93261307452963
 20
670.74462549858094
 30
0.0
 40
9.5
  0
LINE
  5
24BF
  8
L1
 10
199.8373753830048
 20
734.74462549858094
 30
0.0
 11
345.93261307452963
 21
734.74462549858094
 31
0.0
  0
LINE
  5
24C0
  8
L1
 10
199.73261307452961
 20
731.74462549858094
 30
0.0
 11
199.8373753830048
 21
734.74462549858094
 31
0.0
  0
LINE
  5
24C1
  8
L1
 10
199.7849942287672
 20
695.24462549858094
 30
0.0
 11
345.93261307452963
 21
695.24462549858094
 31
0.0
  0
LINE
  5
24C2
  8
L1
 10
197.9326130745296
 20
693.74462549858094
 30
0.0
 11
345.93261307452963
 21
693.74462549858094
 31
0.0
  0
LINE
  5
24C3
  8
L1
 10
197.9326130745296
 20
690.94462549858099
 30
0.0
 11
345.93261307452963
 21
690.94462549858099
 31
0.0
  0
LINE
  5
24C4
  8
L1
 10
197.9326130745296
 20
692.74462549858094
 30
0.0
 11
345.93261307452963
 21
692.74462549858094
 31
0.0
  0
LINE
  5
24C5
  8
L1
 10
199.73261307452961
 20
693.74462549858094
 30
0.0
 11
199.7849942287672
 21
695.24462549858094
 31
0.0
  0
ARC
  5
24C6
  8
L1
 10
190.9326130745296
 20
711.74462549858094
 30
0.0
 40
2.0
 50
180.0
 51
270.0
  0
ARC
  5
24C7
  8
L1
 10
500.93261307452963
 20
711.74462549858094
 30
0.0
 40
2.0
 50
270.0
 51
0.0
  0
LINE
  5
24C8
  8
L1
 10
492.13261307452962
 20
693.74462549858094
 30
0.0
 11
492.08023192029202
 21
695.24462549858094
 31
0.0
  0
LINE
  5
24C9
  8
L1
 10
493.93261307452963
 20
692.74462549858094
 30
0.0
 11
345.93261307452963
 21
692.74462549858094
 31
0.0
  0
LINE
  5
24CA
  8
L1
 10
493.93261307452963
 20
690.94462549858099
 30
0.0
 11
345.93261307452963
 21
690.94462549858099
 31
0.0
  0
LINE
  5
24CB
  8
L1
 10
493.93261307452963
 20
693.74462549858094
 30
0.0
 11
345.93261307452963
 21
693.74462549858094
 31
0.0
  0
LINE
  5
24CC
  8
L1
 10
492.08023192029202
 20
695.24462549858094
 30
0.0
 11
345.93261307452963
 21
695.24462549858094
 31
0.0
  0
LINE
  5
24CD
  8
L1
 10
492.13261307452962
 20
731.74462549858094
 30
0.0
 11
492.02785076605431
 21
734.74462549858094
 31
0.0
  0
LINE
  5
24CE
  8
L1
 10
492.02785076605431
 20
734.74462549858094
 30
0.0
 11
345.93261307452963
 21
734.74462549858094
 31
0.0
  0
LINE
  5
24CF
  8
L1
 10
500.93261307452963
 20
709.74462549858094
 30
0.0
 11
493.93261307452963
 21
709.74462549858094
 31
0.0
  0
LINE
  5
24D0
  8
L1
 10
502.93261307452963
 20
731.74462549858094
 30
0.0
 11
502.93261307452963
 21
711.74462549858094
 31
0.0
  0
LINE
  5
24D1
  8
L1
 10
502.93261307452963
 20
731.74462549858094
 30
0.0
 11
497.43261307452951
 21
731.74462549858083
 31
0.0
  0
LINE
  5
24D2
  8
L1
 10
493.93261307452963
 20
731.74462549858094
 30
0.0
 11
493.93261307452963
 21
645.74462549858094
 31
0.0
  0
LINE
  5
24D3
  8
L1
 10
493.93261307452963
 20
645.74462549858094
 30
0.0
 11
345.93261307452963
 21
645.74462549858094
 31
0.0
  0
LINE
  5
24D4
  8
L1
 10
481.43261307452963
 20
639.74462549858094
 30
0.0
 11
481.43261307452963
 21
645.74462549858094
 31
0.0
  0
LINE
  5
24D5
  8
L1
 10
490.43261307452963
 20
639.74462549858094
 30
0.0
 11
481.43261307452963
 21
639.74462549858094
 31
0.0
  0
LINE
  5
24D6
  8
L1
 10
490.43261307452963
 20
645.74462549858094
 30
0.0
 11
490.43261307452963
 21
639.74462549858094
 31
0.0
  0
LINE
  5
264B
  8
L1
 10
230.9326130745296
 20
477.74700502020738
 30
0.0
 11
230.9326130745296
 21
475.24700502020738
 31
0.0
  0
LINE
  5
264C
  8
L1
 10
230.9326130745296
 20
475.24700502020738
 30
0.0
 11
232.4326130745296
 21
475.24700502020738
 31
0.0
  0
LINE
  5
264D
  8
L1
 10
232.4326130745296
 20
475.24700502020738
 30
0.0
 11
232.4326130745296
 21
477.74700502020738
 31
0.0
  0
LINE
  5
264E
  8
L1
 10
234.4326130745296
 20
477.74700502020738
 30
0.0
 11
234.4326130745296
 21
475.24700502020738
 31
0.0
  0
LINE
  5
264F
  8
L1
 10
235.9326130745296
 20
475.24700502020738
 30
0.0
 11
235.9326130745296
 21
477.74700502020738
 31
0.0
  0
LINE
  5
2650
  8
L1
 10
234.4326130745296
 20
475.24700502020738
 30
0.0
 11
235.9326130745296
 21
475.24700502020738
 31
0.0
  0
LINE
  5
2684
  8
L1
 10
259.43261307452963
 20
475.24700502020738
 30
0.0
 11
260.93261307452963
 21
475.24700502020738
 31
0.0
  0
LINE
  5
2685
  8
L1
 10
260.93261307452963
 20
475.24700502020738
 30
0.0
 11
260.93261307452963
 21
477.74700502020738
 31
0.0
  0
LINE
  5
2686
  8
L1
 10
259.43261307452963
 20
477.74700502020738
 30
0.0
 11
259.43261307452963
 21
475.24700502020738
 31
0.0
  0
LINE
  5
2687
  8
L1
 10
257.43261307452963
 20
475.24700502020738
 30
0.0
 11
257.43261307452963
 21
477.74700502020738
 31
0.0
  0
LINE
  5
2688
  8
L1
 10
255.9326130745296
 20
475.24700502020738
 30
0.0
 11
257.43261307452963
 21
475.24700502020738
 31
0.0
  0
LINE
  5
2689
  8
L1
 10
255.9326130745296
 20
477.74700502020738
 30
0.0
 11
255.9326130745296
 21
475.24700502020738
 31
0.0
  0
LINE
  5
268A
  8
L1
 10
284.43261307452963
 20
475.24700502020738
 30
0.0
 11
285.93261307452963
 21
475.24700502020738
 31
0.0
  0
LINE
  5
268B
  8
L1
 10
285.93261307452963
 20
475.24700502020738
 30
0.0
 11
285.93261307452963
 21
477.74700502020738
 31
0.0
  0
LINE
  5
268C
  8
L1
 10
284.43261307452963
 20
477.74700502020738
 30
0.0
 11
284.43261307452963
 21
475.24700502020738
 31
0.0
  0
LINE
  5
268D
  8
L1
 10
282.43261307452963
 20
475.24700502020738
 30
0.0
 11
282.43261307452963
 21
477.74700502020738
 31
0.0
  0
LINE
  5
268E
  8
L1
 10
280.93261307452963
 20
475.24700502020738
 30
0.0
 11
282.43261307452963
 21
475.24700502020738
 31
0.0
  0
LINE
  5
268F
  8
L1
 10
280.93261307452963
 20
477.74700502020738
 30
0.0
 11
280.93261307452963
 21
475.24700502020738
 31
0.0
  0
LINE
  5
2690
  8
L1
 10
309.43261307452963
 20
475.24700502020738
 30
0.0
 11
310.93261307452963
 21
475.24700502020738
 31
0.0
  0
LINE
  5
2691
  8
L1
 10
310.93261307452963
 20
475.24700502020738
 30
0.0
 11
310.93261307452963
 21
477.74700502020738
 31
0.0
  0
LINE
  5
2692
  8
L1
 10
309.43261307452963
 20
477.74700502020738
 30
0.0
 11
309.43261307452963
 21
475.24700502020738
 31
0.0
  0
LINE
  5
2693
  8
L1
 10
307.43261307452963
 20
475.24700502020738
 30
0.0
 11
307.43261307452963
 21
477.74700502020738
 31
0.0
  0
LINE
  5
2694
  8
L1
 10
305.93261307452963
 20
475.24700502020738
 30
0.0
 11
307.43261307452963
 21
475.24700502020738
 31
0.0
  0
LINE
  5
2695
  8
L1
 10
305.93261307452963
 20
477.74700502020738
 30
0.0
 11
305.93261307452963
 21
475.24700502020738
 31
0.0
  0
LINE
  5
2696
  8
L1
 10
334.43261307452963
 20
475.24700502020738
 30
0.0
 11
335.93261307452963
 21
475.24700502020738
 31
0.0
  0
LINE
  5
2697
  8
L1
 10
335.93261307452963
 20
475.24700502020738
 30
0.0
 11
335.93261307452963
 21
477.74700502020738
 31
0.0
  0
LINE
  5
2698
  8
L1
 10
334.43261307452963
 20
477.74700502020738
 30
0.0
 11
334.43261307452963
 21
475.24700502020738
 31
0.0
  0
LINE
  5
2699
  8
L1
 10
332.43261307452963
 20
475.24700502020738
 30
0.0
 11
332.43261307452963
 21
477.74700502020738
 31
0.0
  0
LINE
  5
269A
  8
L1
 10
330.93261307452963
 20
475.24700502020738
 30
0.0
 11
332.43261307452963
 21
475.24700502020738
 31
0.0
  0
LINE
  5
269B
  8
L1
 10
330.93261307452963
 20
477.74700502020738
 30
0.0
 11
330.93261307452963
 21
475.24700502020738
 31
0.0
  0
LINE
  5
269C
  8
L1
 10
359.43261307452963
 20
475.24700502020738
 30
0.0
 11
360.93261307452963
 21
475.24700502020738
 31
0.0
  0
LINE
  5
269D
  8
L1
 10
360.93261307452963
 20
475.24700502020738
 30
0.0
 11
360.93261307452963
 21
477.74700502020738
 31
0.0
  0
LINE
  5
269E
  8
L1
 10
359.43261307452963
 20
477.74700502020738
 30
0.0
 11
359.43261307452963
 21
475.24700502020738
 31
0.0
  0
LINE
  5
269F
  8
L1
 10
357.43261307452963
 20
475.24700502020738
 30
0.0
 11
357.43261307452963
 21
477.74700502020738
 31
0.0
  0
LINE
  5
26A0
  8
L1
 10
355.93261307452963
 20
475.24700502020738
 30
0.0
 11
357.43261307452963
 21
475.24700502020738
 31
0.0
  0
LINE
  5
26A1
  8
L1
 10
355.93261307452963
 20
477.74700502020738
 30
0.0
 11
355.93261307452963
 21
475.24700502020738
 31
0.0
  0
LINE
  5
26A2
  8
L1
 10
384.43261307452963
 20
475.24700502020738
 30
0.0
 11
385.93261307452963
 21
475.24700502020738
 31
0.0
  0
LINE
  5
26A3
  8
L1
 10
385.93261307452963
 20
475.24700502020738
 30
0.0
 11
385.93261307452963
 21
477.74700502020738
 31
0.0
  0
LINE
  5
26A4
  8
L1
 10
384.43261307452963
 20
477.74700502020738
 30
0.0
 11
384.43261307452963
 21
475.24700502020738
 31
0.0
  0
LINE
  5
26A5
  8
L1
 10
382.43261307452963
 20
475.24700502020738
 30
0.0
 11
382.43261307452963
 21
477.74700502020738
 31
0.0
  0
LINE
  5
26A6
  8
L1
 10
380.93261307452963
 20
475.24700502020738
 30
0.0
 11
382.43261307452963
 21
475.24700502020738
 31
0.0
  0
LINE
  5
26A7
  8
L1
 10
380.93261307452963
 20
477.74700502020738
 30
0.0
 11
380.93261307452963
 21
475.24700502020738
 31
0.0
  0
LINE
  5
26A8
  8
L1
 10
409.43261307452963
 20
475.24700502020738
 30
0.0
 11
410.93261307452963
 21
475.24700502020738
 31
0.0
  0
LINE
  5
26A9
  8
L1
 10
410.93261307452963
 20
475.24700502020738
 30
0.0
 11
410.93261307452963
 21
477.74700502020738
 31
0.0
  0
LINE
  5
26AA
  8
L1
 10
409.43261307452963
 20
477.74700502020738
 30
0.0
 11
409.43261307452963
 21
475.24700502020738
 31
0.0
  0
LINE
  5
26AB
  8
L1
 10
407.43261307452963
 20
475.24700502020738
 30
0.0
 11
407.43261307452963
 21
477.74700502020738
 31
0.0
  0
LINE
  5
26AC
  8
L1
 10
405.93261307452951
 20
475.24700502020738
 30
0.0
 11
407.43261307452963
 21
475.24700502020738
 31
0.0
  0
LINE
  5
26AD
  8
L1
 10
405.93261307452951
 20
477.74700502020738
 30
0.0
 11
405.93261307452951
 21
475.24700502020738
 31
0.0
  0
LINE
  5
26AE
  8
L1
 10
434.43261307452963
 20
475.24700502020738
 30
0.0
 11
435.93261307452963
 21
475.24700502020738
 31
0.0
  0
LINE
  5
26AF
  8
L1
 10
435.93261307452963
 20
475.24700502020738
 30
0.0
 11
435.93261307452963
 21
477.74700502020738
 31
0.0
  0
LINE
  5
26B0
  8
L1
 10
434.43261307452963
 20
477.74700502020738
 30
0.0
 11
434.43261307452963
 21
475.24700502020738
 31
0.0
  0
LINE
  5
26B1
  8
L1
 10
432.43261307452963
 20
475.24700502020738
 30
0.0
 11
432.43261307452963
 21
477.74700502020738
 31
0.0
  0
LINE
  5
26B2
  8
L1
 10
430.93261307452963
 20
475.24700502020738
 30
0.0
 11
432.43261307452963
 21
475.24700502020738
 31
0.0
  0
LINE
  5
26B3
  8
L1
 10
430.93261307452963
 20
477.74700502020738
 30
0.0
 11
430.93261307452963
 21
475.24700502020738
 31
0.0
  0
LINE
  5
26B4
  8
L1
 10
455.93261307452963
 20
477.74700502020738
 30
0.0
 11
455.93261307452963
 21
475.24700502020738
 31
0.0
  0
LINE
  5
26B5
  8
L1
 10
455.93261307452963
 20
475.24700502020738
 30
0.0
 11
457.43261307452963
 21
475.24700502020738
 31
0.0
  0
LINE
  5
26B6
  8
L1
 10
457.43261307452963
 20
475.24700502020738
 30
0.0
 11
457.43261307452963
 21
477.74700502020738
 31
0.0
  0
LINE
  5
26B7
  8
L1
 10
459.43261307452963
 20
477.74700502020738
 30
0.0
 11
459.43261307452963
 21
475.24700502020738
 31
0.0
  0
LINE
  5
26B8
  8
L1
 10
460.93261307452963
 20
475.24700502020738
 30
0.0
 11
460.93261307452963
 21
477.74700502020738
 31
0.0
  0
LINE
  5
26B9
  8
L1
 10
459.43261307452963
 20
475.24700502020738
 30
0.0
 11
460.93261307452963
 21
475.24700502020738
 31
0.0
  0
LINE
  5
26BA
  8
L1
 10
459.43261307452963
 20
290.24700502020738
 30
0.0
 11
460.93261307452963
 21
290.24700502020738
 31
0.0
  0
LINE
  5
26BB
  8
L1
 10
460.93261307452963
 20
290.24700502020738
 30
0.0
 11
460.93261307452963
 21
287.74700502020738
 31
0.0
  0
LINE
  5
26BC
  8
L1
 10
459.43261307452963
 20
287.74700502020738
 30
0.0
 11
459.43261307452963
 21
290.24700502020738
 31
0.0
  0
LINE
  5
26BD
  8
L1
 10
457.43261307452963
 20
290.24700502020738
 30
0.0
 11
457.43261307452963
 21
287.74700502020738
 31
0.0
  0
LINE
  5
26BE
  8
L1
 10
455.93261307452963
 20
290.24700502020738
 30
0.0
 11
457.43261307452963
 21
290.24700502020738
 31
0.0
  0
LINE
  5
26BF
  8
L1
 10
455.93261307452963
 20
287.74700502020738
 30
0.0
 11
455.93261307452963
 21
290.24700502020738
 31
0.0
  0
LINE
  5
26C0
  8
L1
 10
430.93261307452963
 20
287.74700502020738
 30
0.0
 11
430.93261307452963
 21
290.24700502020738
 31
0.0
  0
LINE
  5
26C1
  8
L1
 10
430.93261307452963
 20
290.24700502020738
 30
0.0
 11
432.43261307452963
 21
290.24700502020738
 31
0.0
  0
LINE
  5
26C2
  8
L1
 10
432.43261307452963
 20
290.24700502020738
 30
0.0
 11
432.43261307452963
 21
287.74700502020738
 31
0.0
  0
LINE
  5
26C3
  8
L1
 10
434.43261307452963
 20
287.74700502020738
 30
0.0
 11
434.43261307452963
 21
290.24700502020738
 31
0.0
  0
LINE
  5
26C4
  8
L1
 10
435.93261307452963
 20
290.24700502020738
 30
0.0
 11
435.93261307452963
 21
287.74700502020738
 31
0.0
  0
LINE
  5
26C5
  8
L1
 10
434.43261307452963
 20
290.24700502020738
 30
0.0
 11
435.93261307452963
 21
290.24700502020738
 31
0.0
  0
LINE
  5
26C6
  8
L1
 10
405.93261307452951
 20
287.74700502020738
 30
0.0
 11
405.93261307452951
 21
290.24700502020738
 31
0.0
  0
LINE
  5
26C7
  8
L1
 10
405.93261307452951
 20
290.24700502020738
 30
0.0
 11
407.43261307452963
 21
290.24700502020738
 31
0.0
  0
LINE
  5
26C8
  8
L1
 10
407.43261307452963
 20
290.24700502020738
 30
0.0
 11
407.43261307452963
 21
287.74700502020738
 31
0.0
  0
LINE
  5
26C9
  8
L1
 10
409.43261307452963
 20
287.74700502020738
 30
0.0
 11
409.43261307452963
 21
290.24700502020738
 31
0.0
  0
LINE
  5
26CA
  8
L1
 10
410.93261307452963
 20
290.24700502020738
 30
0.0
 11
410.93261307452963
 21
287.74700502020738
 31
0.0
  0
LINE
  5
26CB
  8
L1
 10
409.43261307452963
 20
290.24700502020738
 30
0.0
 11
410.93261307452963
 21
290.24700502020738
 31
0.0
  0
LINE
  5
26CC
  8
L1
 10
380.93261307452963
 20
287.74700502020738
 30
0.0
 11
380.93261307452963
 21
290.24700502020738
 31
0.0
  0
LINE
  5
26CD
  8
L1
 10
380.93261307452963
 20
290.24700502020738
 30
0.0
 11
382.43261307452963
 21
290.24700502020738
 31
0.0
  0
LINE
  5
26CE
  8
L1
 10
382.43261307452963
 20
290.24700502020738
 30
0.0
 11
382.43261307452963
 21
287.74700502020738
 31
0.0
  0
LINE
  5
26CF
  8
L1
 10
384.43261307452963
 20
287.74700502020738
 30
0.0
 11
384.43261307452963
 21
290.24700502020738
 31
0.0
  0
LINE
  5
26D0
  8
L1
 10
385.93261307452963
 20
290.24700502020738
 30
0.0
 11
385.93261307452963
 21
287.74700502020738
 31
0.0
  0
LINE
  5
26D1
  8
L1
 10
384.43261307452963
 20
290.24700502020738
 30
0.0
 11
385.93261307452963
 21
290.24700502020738
 31
0.0
  0
LINE
  5
26D2
  8
L1
 10
355.93261307452963
 20
287.74700502020738
 30
0.0
 11
355.93261307452963
 21
290.24700502020738
 31
0.0
  0
LINE
  5
26D3
  8
L1
 10
355.93261307452963
 20
290.24700502020738
 30
0.0
 11
357.43261307452963
 21
290.24700502020738
 31
0.0
  0
LINE
  5
26D4
  8
L1
 10
357.43261307452963
 20
290.24700502020738
 30
0.0
 11
357.43261307452963
 21
287.74700502020738
 31
0.0
  0
LINE
  5
26D5
  8
L1
 10
359.43261307452963
 20
287.74700502020738
 30
0.0
 11
359.43261307452963
 21
290.24700502020738
 31
0.0
  0
LINE
  5
26D6
  8
L1
 10
360.93261307452963
 20
290.24700502020738
 30
0.0
 11
360.93261307452963
 21
287.74700502020738
 31
0.0
  0
LINE
  5
26D7
  8
L1
 10
359.43261307452963
 20
290.24700502020738
 30
0.0
 11
360.93261307452963
 21
290.24700502020738
 31
0.0
  0
LINE
  5
26D8
  8
L1
 10
330.93261307452963
 20
287.74700502020738
 30
0.0
 11
330.93261307452963
 21
290.24700502020738
 31
0.0
  0
LINE
  5
26D9
  8
L1
 10
330.93261307452963
 20
290.24700502020738
 30
0.0
 11
332.43261307452963
 21
290.24700502020738
 31
0.0
  0
LINE
  5
26DA
  8
L1
 10
332.43261307452963
 20
290.24700502020738
 30
0.0
 11
332.43261307452963
 21
287.74700502020738
 31
0.0
  0
LINE
  5
26DB
  8
L1
 10
334.43261307452963
 20
287.74700502020738
 30
0.0
 11
334.43261307452963
 21
290.24700502020738
 31
0.0
  0
LINE
  5
26DC
  8
L1
 10
335.93261307452963
 20
290.24700502020738
 30
0.0
 11
335.93261307452963
 21
287.74700502020738
 31
0.0
  0
LINE
  5
26DD
  8
L1
 10
334.43261307452963
 20
290.24700502020738
 30
0.0
 11
335.93261307452963
 21
290.24700502020738
 31
0.0
  0
LINE
  5
26DE
  8
L1
 10
305.93261307452963
 20
287.74700502020738
 30
0.0
 11
305.93261307452963
 21
290.24700502020738
 31
0.0
  0
LINE
  5
26DF
  8
L1
 10
305.93261307452963
 20
290.24700502020738
 30
0.0
 11
307.43261307452963
 21
290.24700502020738
 31
0.0
  0
LINE
  5
26E0
  8
L1
 10
307.43261307452963
 20
290.24700502020738
 30
0.0
 11
307.43261307452963
 21
287.74700502020738
 31
0.0
  0
LINE
  5
26E1
  8
L1
 10
309.43261307452963
 20
287.74700502020738
 30
0.0
 11
309.43261307452963
 21
290.24700502020738
 31
0.0
  0
LINE
  5
26E2
  8
L1
 10
310.93261307452963
 20
290.24700502020738
 30
0.0
 11
310.93261307452963
 21
287.74700502020738
 31
0.0
  0
LINE
  5
26E3
  8
L1
 10
309.43261307452963
 20
290.24700502020738
 30
0.0
 11
310.93261307452963
 21
290.24700502020738
 31
0.0
  0
LINE
  5
26E4
  8
L1
 10
280.93261307452963
 20
287.74700502020738
 30
0.0
 11
280.93261307452963
 21
290.24700502020738
 31
0.0
  0
LINE
  5
26E5
  8
L1
 10
280.93261307452963
 20
290.24700502020738
 30
0.0
 11
282.43261307452963
 21
290.24700502020738
 31
0.0
  0
LINE
  5
26E6
  8
L1
 10
282.43261307452963
 20
290.24700502020738
 30
0.0
 11
282.43261307452963
 21
287.74700502020738
 31
0.0
  0
LINE
  5
26E7
  8
L1
 10
284.43261307452963
 20
287.74700502020738
 30
0.0
 11
284.43261307452963
 21
290.24700502020738
 31
0.0
  0
LINE
  5
26E8
  8
L1
 10
285.93261307452963
 20
290.24700502020738
 30
0.0
 11
285.93261307452963
 21
287.74700502020738
 31
0.0
  0
LINE
  5
26E9
  8
L1
 10
284.43261307452963
 20
290.24700502020738
 30
0.0
 11
285.93261307452963
 21
290.24700502020738
 31
0.0
  0
LINE
  5
26EA
  8
L1
 10
255.9326130745296
 20
287.74700502020738
 30
0.0
 11
255.9326130745296
 21
290.24700502020738
 31
0.0
  0
LINE
  5
26EB
  8
L1
 10
255.9326130745296
 20
290.24700502020738
 30
0.0
 11
257.43261307452963
 21
290.24700502020738
 31
0.0
  0
LINE
  5
26EC
  8
L1
 10
257.43261307452963
 20
290.24700502020738
 30
0.0
 11
257.43261307452963
 21
287.74700502020738
 31
0.0
  0
LINE
  5
26ED
  8
L1
 10
259.43261307452963
 20
287.74700502020738
 30
0.0
 11
259.43261307452963
 21
290.24700502020738
 31
0.0
  0
LINE
  5
26EE
  8
L1
 10
260.93261307452963
 20
290.24700502020738
 30
0.0
 11
260.93261307452963
 21
287.74700502020738
 31
0.0
  0
LINE
  5
26EF
  8
L1
 10
259.43261307452963
 20
290.24700502020738
 30
0.0
 11
260.93261307452963
 21
290.24700502020738
 31
0.0
  0
LINE
  5
26F0
  8
L1
 10
234.4326130745296
 20
290.24700502020738
 30
0.0
 11
235.9326130745296
 21
290.24700502020738
 31
0.0
  0
LINE
  5
26F1
  8
L1
 10
235.9326130745296
 20
290.24700502020738
 30
0.0
 11
235.9326130745296
 21
287.74700502020738
 31
0.0
  0
LINE
  5
26F2
  8
L1
 10
234.4326130745296
 20
287.74700502020738
 30
0.0
 11
234.4326130745296
 21
290.24700502020738
 31
0.0
  0
LINE
  5
26F3
  8
L1
 10
232.4326130745296
 20
290.24700502020738
 30
0.0
 11
232.4326130745296
 21
287.74700502020738
 31
0.0
  0
LINE
  5
26F4
  8
L1
 10
230.9326130745296
 20
290.24700502020738
 30
0.0
 11
232.4326130745296
 21
290.24700502020738
 31
0.0
  0
LINE
  5
26F5
  8
L1
 10
230.9326130745296
 20
287.74700502020738
 30
0.0
 11
230.9326130745296
 21
290.24700502020738
 31
0.0
  0
CIRCLE
  5
26FA
  8
L1
 10
208.4326130745296
 20
470.24700502020738
 30
0.0
 40
2.149999999999999
  0
CIRCLE
  5
26FB
  8
L1
 10
208.4326130745296
 20
470.24700502020738
 30
0.0
 40
4.5
  0
LINE
  5
26FC
  8
L6
 10
208.4326130745296
 20
475.64700502020742
 30
0.0
 11
208.4326130745296
 21
464.84700502020752
 31
0.0
  0
LINE
  5
26FD
  8
L6
 10
213.8326130745296
 20
470.24700502020738
 30
0.0
 11
203.03261307452959
 21
470.24700502020738
 31
0.0
  0
LINE
  5
270A
  8
L6
 10
213.8326130745296
 20
295.24700502020738
 30
0.0
 11
203.03261307452959
 21
295.24700502020738
 31
0.0
  0
LINE
  5
270B
  8
L6
 10
208.4326130745296
 20
300.64700502020742
 30
0.0
 11
208.4326130745296
 21
289.8470050202074
 31
0.0
  0
CIRCLE
  5
270C
  8
L1
 10
208.4326130745296
 20
295.24700502020738
 30
0.0
 40
4.5
  0
CIRCLE
  5
270D
  8
L1
 10
208.4326130745296
 20
295.24700502020738
 30
0.0
 40
2.149999999999999
  0
LINE
  5
270E
  8
L6
 10
488.8326130745296
 20
470.24700502020738
 30
0.0
 11
478.03261307452959
 21
470.24700502020738
 31
0.0
  0
LINE
  5
270F
  8
L6
 10
483.43261307452963
 20
475.64700502020742
 30
0.0
 11
483.43261307452963
 21
464.84700502020752
 31
0.0
  0
CIRCLE
  5
2710
  8
L1
 10
483.43261307452963
 20
470.24700502020738
 30
0.0
 40
4.5
  0
CIRCLE
  5
2711
  8
L1
 10
483.43261307452963
 20
470.24700502020738
 30
0.0
 40
2.149999999999999
  0
LINE
  5
2712
  8
L6
 10
488.8326130745296
 20
295.24700502020738
 30
0.0
 11
478.03261307452959
 21
295.24700502020738
 31
0.0
  0
LINE
  5
2713
  8
L6
 10
483.43261307452963
 20
300.64700502020742
 30
0.0
 11
483.43261307452963
 21
289.8470050202074
 31
0.0
  0
CIRCLE
  5
2714
  8
L1
 10
483.43261307452963
 20
295.24700502020738
 30
0.0
 40
4.5
  0
CIRCLE
  5
2715
  8
L1
 10
483.43261307452963
 20
295.24700502020738
 30
0.0
 40
2.149999999999999
  0
LINE
  5
2716
  8
L1
 10
212.9326130745296
 20
477.74700502020738
 30
0.0
 11
212.9326130745296
 21
287.74700502020738
 31
0.0
  0
LINE
  5
2717
  8
L1
 10
478.93261307452963
 20
477.74700502020738
 30
0.0
 11
478.93261307452963
 21
287.74700502020738
 31
0.0
  0
LINE
  5
2718
  8
L1
 10
200.9326130745296
 20
299.74700502020738
 30
0.0
 11
212.9326130745296
 21
299.74700502020738
 31
0.0
  0
LINE
  5
2719
  8
L1
 10
200.9326130745296
 20
465.74700502020738
 30
0.0
 11
490.93261307452963
 21
465.74700502020738
 31
0.0
  0
LINE
  5
2720
  8
L6
 10
260.58261307452949
 20
470.24700502020738
 30
0.0
 11
255.78261307452959
 21
470.24700502020738
 31
0.0
  0
LINE
  5
2721
  8
L6
 10
258.18261307452963
 20
472.64700502020742
 30
0.0
 11
258.18261307452963
 21
467.8470050202074
 31
0.0
  0
LINE
  5
2726
  8
L6
 10
210.8326130745296
 20
430.74700502020738
 30
0.0
 11
206.03261307452959
 21
430.74700502020738
 31
0.0
  0
LINE
  5
2727
  8
L6
 10
208.4326130745296
 20
433.1470050202073
 30
0.0
 11
208.4326130745296
 21
428.3470050202074
 31
0.0
  0
LINE
  5
273C
  8
L1
 10
197.9326130745296
 20
287.94700502020731
 30
0.0
 11
197.9326130745296
 21
223.74700502020741
 31
0.0
  0
LINE
  5
273E
  8
L1
 10
200.9326130745296
 20
220.74700502020741
 30
0.0
 11
490.93261307452963
 21
220.74700502020741
 31
0.0
  0
LINE
  5
2740
  8
L1
 10
493.93261307452963
 20
223.74700502020741
 30
0.0
 11
493.93261307452963
 21
287.94700502020731
 31
0.0
  0
CIRCLE
  5
2761
  8
L1
 10
258.18261307452963
 20
470.24700502020738
 30
0.0
 40
2.149999999999999
  0
CIRCLE
  5
2764
  8
L1
 10
208.4326130745296
 20
430.74700502020738
 30
0.0
 40
2.149999999999999
  0
CIRCLE
  5
2767
  8
L1
 10
208.4326130745296
 20
320.74700502020738
 30
0.0
 40
2.149999999999999
  0
LINE
  5
2768
  8
L6
 10
208.4326130745296
 20
323.14700502020742
 30
0.0
 11
208.4326130745296
 21
318.3470050202074
 31
0.0
  0
LINE
  5
2769
  8
L6
 10
210.8326130745296
 20
320.74700502020738
 30
0.0
 11
206.03261307452959
 21
320.74700502020738
 31
0.0
  0
CIRCLE
  5
276A
  8
L1
 10
483.43261307452963
 20
430.74700502020738
 30
0.0
 40
2.149999999999999
  0
LINE
  5
276B
  8
L6
 10
483.43261307452963
 20
433.1470050202073
 30
0.0
 11
483.43261307452963
 21
428.3470050202074
 31
0.0
  0
LINE
  5
276C
  8
L6
 10
485.8326130745296
 20
430.74700502020738
 30
0.0
 11
481.03261307452959
 21
430.74700502020738
 31
0.0
  0
CIRCLE
  5
276D
  8
L1
 10
483.43261307452963
 20
320.74700502020738
 30
0.0
 40
2.149999999999999
  0
LINE
  5
276E
  8
L6
 10
483.43261307452963
 20
323.14700502020742
 30
0.0
 11
483.43261307452963
 21
318.3470050202074
 31
0.0
  0
LINE
  5
276F
  8
L6
 10
485.8326130745296
 20
320.74700502020738
 30
0.0
 11
481.03261307452959
 21
320.74700502020738
 31
0.0
  0
CIRCLE
  5
2773
  8
L1
 10
433.68261307452963
 20
470.24700502020738
 30
0.0
 40
2.149999999999999
  0
LINE
  5
2774
  8
L6
 10
433.68261307452963
 20
472.64700502020742
 30
0.0
 11
433.68261307452963
 21
467.8470050202074
 31
0.0
  0
LINE
  5
2775
  8
L6
 10
436.08261307452949
 20
470.24700502020738
 30
0.0
 11
431.28261307452959
 21
470.24700502020738
 31
0.0
  0
CIRCLE
  5
277C
  8
L1
 10
208.4326130745296
 20
254.74700502020741
 30
0.0
 40
2.149999999999999
  0
LINE
  5
277D
  8
L6
 10
208.4326130745296
 20
257.32700502020742
 30
0.0
 11
208.4326130745296
 21
252.16700502020731
 31
0.0
  0
LINE
  5
277E
  8
L6
 10
211.01261307452961
 20
254.74700502020741
 30
0.0
 11
205.85261307452959
 21
254.74700502020741
 31
0.0
  0
ARC
  5
277F
  8
L1
 10
208.4326130745296
 20
254.74700502020741
 30
0.0
 40
6.0
 50
180.0
 51
311.81031489577862
  0
LINE
  5
2784
  8
L1
 10
199.9326130745296
 20
227.74700502020741
 30
0.0
 11
199.9326130745296
 21
258.74700502020738
 31
0.0
  0
LINE
  5
2785
  8
L1
 10
199.9326130745296
 20
258.74700502020738
 30
0.0
 11
202.4326130745296
 21
258.74700502020738
 31
0.0
  0
LINE
  5
2786
  8
L1
 10
200.9326130745296
 20
226.74700502020741
 30
0.0
 11
212.4326130745296
 21
226.74700502020741
 31
0.0
  0
LINE
  5
2787
  8
L1
 10
212.4326130745296
 20
226.74700502020741
 30
0.0
 11
212.4326130745296
 21
250.27486906520789
 31
0.0
  0
LINE
  5
2789
  8
L1
 10
202.4326130745296
 20
254.74700502020741
 30
0.0
 11
202.4326130745296
 21
258.74700502020738
 31
0.0
  0
ARC
  5
278B
  8
L1
 10
205.9326130745296
 20
243.74700502020741
 30
0.0
 40
2.5
 50
0.0
 51
180.0
  0
ARC
  5
278C
  8
L1
 10
205.9326130745296
 20
231.74700502020741
 30
0.0
 40
2.5
 50
180.0
 51
0.0
  0
LINE
  5
278D
  8
L1
 10
203.4326130745296
 20
243.74700502020741
 30
0.0
 11
203.4326130745296
 21
231.74700502020741
 31
0.0
  0
LINE
  5
278E
  8
L1
 10
208.4326130745296
 20
231.74700502020741
 30
0.0
 11
208.4326130745296
 21
243.74700502020741
 31
0.0
  0
CIRCLE
  5
27A8
  8
L1
 10
275.93261307452963
 20
254.74700502020741
 30
0.0
 40
2.1000000000000001
  0
CIRCLE
  5
27A9
  8
L1
 10
275.93261307452963
 20
254.74700502020741
 30
0.0
 40
2.399999999999999
  0
ARC
  5
27AA
  8
L1
 10
275.93261307452963
 20
254.74700502020741
 30
0.0
 40
4.5
 50
99.594068226860458
 51
80.405931773139542
  0
LINE
  5
27AB
  8
L1
 10
208.4326130745296
 20
260.74700502020738
 30
0.0
 11
275.18261307452963
 21
260.74700502020738
 31
0.0
  0
LINE
  5
27AC
  8
L1
 10
275.18261307452963
 20
260.74700502020738
 30
0.0
 11
275.18261307452963
 21
259.18406485753212
 31
0.0
  0
LINE
  5
27AD
  8
L1
 10
276.68261307452963
 20
260.74700502020738
 30
0.0
 11
276.68261307452963
 21
259.18406485753212
 31
0.0
  0
LINE
  5
27AE
  8
L1
 10
276.68261307452963
 20
260.74700502020738
 30
0.0
 11
345.93261307452963
 21
260.74700502020738
 31
0.0
  0
LINE
  5
27AF
  8
L6
 10
269.93261307452963
 20
254.74700502020741
 30
0.0
 11
281.93261307452963
 21
254.74700502020741
 31
0.0
  0
LINE
  5
27B0
  8
L6
 10
275.93261307452963
 20
248.74700502020741
 30
0.0
 11
275.93261307452963
 21
260.74700502020738
 31
0.0
  0
LINE
  5
27B1
  8
L6
 10
205.9326130745296
 20
227.74700502020741
 30
0.0
 11
205.9326130745296
 21
247.74700502020741
 31
0.0
  0
LINE
  5
27B2
  8
L6
 10
202.9326130745296
 20
243.74700502020741
 30
0.0
 11
208.9326130745296
 21
243.74700502020741
 31
0.0
  0
LINE
  5
27B3
  8
L6
 10
208.9326130745296
 20
231.74700502020741
 30
0.0
 11
202.9326130745296
 21
231.74700502020741
 31
0.0
  0
ARC
  5
27B4
  8
L1
 10
261.93261307452963
 20
244.74700502020741
 30
0.0
 40
13.0
 50
193.34236379708821
 51
346.6576362029117
  0
ARC
  5
27B5
  8
L1
 10
233.9326130745296
 20
244.74700502020741
 30
0.0
 40
13.0
 50
193.34236379708821
 51
346.6576362029117
  0
LINE
  5
27B6
  8
L1
 10
246.58172371520311
 20
241.74700502020741
 30
0.0
 11
249.28350243385611
 21
241.74700502020741
 31
0.0
  0
LINE
  5
27B7
  8
L1
 10
274.58172371520311
 20
241.74700502020741
 30
0.0
 11
345.93261307452963
 21
241.74700502020741
 31
0.0
  0
LINE
  5
27B8
  8
L1
 10
478.93261307452963
 20
299.74700502020738
 30
0.0
 11
490.93261307452963
 21
299.74700502020738
 31
0.0
  0
LINE
  5
27B9
  8
L6
 10
260.58261307452949
 20
269.24700502020738
 30
0.0
 11
255.78261307452959
 21
269.24700502020738
 31
0.0
  0
LINE
  5
27BA
  8
L6
 10
258.18261307452963
 20
271.64700502020742
 30
0.0
 11
258.18261307452963
 21
266.8470050202074
 31
0.0
  0
CIRCLE
  5
27BB
  8
L1
 10
258.18261307452963
 20
269.24700502020738
 30
0.0
 40
2.149999999999999
  0
CIRCLE
  5
27BC
  8
L1
 10
308.18261307452963
 20
269.24700502020738
 30
0.0
 40
2.149999999999999
  0
LINE
  5
27BD
  8
L6
 10
308.18261307452963
 20
271.64700502020742
 30
0.0
 11
308.18261307452963
 21
266.8470050202074
 31
0.0
  0
LINE
  5
27BE
  8
L6
 10
310.58261307452949
 20
269.24700502020738
 30
0.0
 11
305.78261307452959
 21
269.24700502020738
 31
0.0
  0
LINE
  5
27BF
  8
L1
 10
213.1326130745295
 20
273.74700502020738
 30
0.0
 11
345.93261307452963
 21
273.74700502020738
 31
0.0
  0
LINE
  5
27C1
  8
L1
 10
212.9326130745296
 20
273.94700502020731
 30
0.0
 11
212.9326130745296
 21
279.74700502020738
 31
0.0
  0
ARC
  5
27C2
  8
L1
 10
213.1326130745295
 20
273.94700502020731
 30
0.0
 40
0.2
 50
180.0
 51
270.0
  0
ARC
  5
27C4
  8
L1
 10
478.73261307452958
 20
273.94700502020731
 30
0.0
 40
0.2
 50
270.0
 51
0.0
  0
LINE
  5
27C5
  8
L1
 10
478.93261307452963
 20
273.94700502020731
 30
0.0
 11
478.93261307452963
 21
279.74700502020738
 31
0.0
  0
LINE
  5
27C6
  8
L1
 10
478.73261307452958
 20
273.74700502020738
 30
0.0
 11
345.93261307452963
 21
273.74700502020738
 31
0.0
  0
LINE
  5
27C7
  8
L6
 10
381.28261307452959
 20
269.24700502020738
 30
0.0
 11
386.0826130745296
 21
269.24700502020738
 31
0.0
  0
LINE
  5
27C8
  8
L6
 10
383.68261307452963
 20
271.64700502020742
 30
0.0
 11
383.68261307452963
 21
266.8470050202074
 31
0.0
  0
CIRCLE
  5
27C9
  8
L1
 10
383.68261307452963
 20
269.24700502020738
 30
0.0
 40
2.149999999999999
  0
CIRCLE
  5
27CA
  8
L1
 10
433.68261307452963
 20
269.24700502020738
 30
0.0
 40
2.149999999999999
  0
LINE
  5
27CB
  8
L6
 10
433.68261307452963
 20
271.64700502020742
 30
0.0
 11
433.68261307452963
 21
266.8470050202074
 31
0.0
  0
LINE
  5
27CC
  8
L6
 10
431.28261307452959
 20
269.24700502020738
 30
0.0
 11
436.08261307452949
 21
269.24700502020738
 31
0.0
  0
LINE
  5
27CD
  8
L1
 10
417.28350243385609
 20
241.74700502020741
 30
0.0
 11
345.93261307452963
 21
241.74700502020741
 31
0.0
  0
LINE
  5
27CE
  8
L1
 10
445.28350243385609
 20
241.74700502020741
 30
0.0
 11
442.581723715203
 21
241.74700502020741
 31
0.0
  0
ARC
  5
27CF
  8
L1
 10
457.93261307452963
 20
244.74700502020741
 30
0.0
 40
13.0
 50
193.3423637970883
 51
346.6576362029117
  0
ARC
  5
27D0
  8
L1
 10
429.93261307452963
 20
244.74700502020741
 30
0.0
 40
13.0
 50
193.3423637970883
 51
346.6576362029117
  0
LINE
  5
27D1
  8
L6
 10
482.93261307452963
 20
231.74700502020741
 30
0.0
 11
488.93261307452951
 21
231.74700502020741
 31
0.0
  0
LINE
  5
27D2
  8
L6
 10
488.93261307452951
 20
243.74700502020741
 30
0.0
 11
482.93261307452963
 21
243.74700502020741
 31
0.0
  0
LINE
  5
27D3
  8
L6
 10
485.93261307452963
 20
227.74700502020741
 30
0.0
 11
485.93261307452963
 21
247.74700502020741
 31
0.0
  0
LINE
  5
27D4
  8
L6
 10
415.93261307452963
 20
248.74700502020741
 30
0.0
 11
415.93261307452963
 21
260.74700502020738
 31
0.0
  0
LINE
  5
27D5
  8
L6
 10
421.93261307452963
 20
254.74700502020741
 30
0.0
 11
409.93261307452951
 21
254.74700502020741
 31
0.0
  0
LINE
  5
27D6
  8
L1
 10
415.18261307452963
 20
260.74700502020738
 30
0.0
 11
345.93261307452963
 21
260.74700502020738
 31
0.0
  0
LINE
  5
27D7
  8
L1
 10
415.18261307452963
 20
260.74700502020738
 30
0.0
 11
415.18261307452963
 21
259.18406485753212
 31
0.0
  0
LINE
  5
27D8
  8
L1
 10
416.68261307452963
 20
260.74700502020738
 30
0.0
 11
416.68261307452963
 21
259.18406485753212
 31
0.0
  0
LINE
  5
27D9
  8
L1
 10
483.43261307452963
 20
260.74700502020738
 30
0.0
 11
416.68261307452963
 21
260.74700502020738
 31
0.0
  0
ARC
  5
27DA
  8
L1
 10
415.93261307452963
 20
254.74700502020741
 30
0.0
 40
4.5
 50
99.594068226860458
 51
80.405931773139542
  0
CIRCLE
  5
27DB
  8
L1
 10
415.93261307452963
 20
254.74700502020741
 30
0.0
 40
2.399999999999999
  0
CIRCLE
  5
27DC
  8
L1
 10
415.93261307452963
 20
254.74700502020741
 30
0.0
 40
2.1000000000000001
  0
LINE
  5
27F5
  8
L1
 10
483.43261307452963
 20
231.74700502020741
 30
0.0
 11
483.43261307452963
 21
243.74700502020741
 31
0.0
  0
LINE
  5
27F6
  8
L1
 10
488.43261307452963
 20
243.74700502020741
 30
0.0
 11
488.43261307452963
 21
231.74700502020741
 31
0.0
  0
ARC
  5
27F7
  8
L1
 10
485.93261307452963
 20
231.74700502020741
 30
0.0
 40
2.5
 50
180.0
 51
0.0
  0
ARC
  5
27F8
  8
L1
 10
485.93261307452963
 20
243.74700502020741
 30
0.0
 40
2.5
 50
0.0
 51
180.0
  0
LINE
  5
27F9
  8
L1
 10
489.43261307452963
 20
254.74700502020741
 30
0.0
 11
489.43261307452963
 21
258.74700502020738
 31
0.0
  0
LINE
  5
27FA
  8
L1
 10
479.43261307452963
 20
226.74700502020741
 30
0.0
 11
479.43261307452963
 21
250.27486906520789
 31
0.0
  0
LINE
  5
27FB
  8
L1
 10
490.93261307452963
 20
226.74700502020741
 30
0.0
 11
479.43261307452963
 21
226.74700502020741
 31
0.0
  0
LINE
  5
27FC
  8
L1
 10
491.93261307452963
 20
258.74700502020738
 30
0.0
 11
489.43261307452963
 21
258.74700502020738
 31
0.0
  0
LINE
  5
27FD
  8
L1
 10
491.93261307452963
 20
227.74700502020741
 30
0.0
 11
491.93261307452963
 21
258.74700502020738
 31
0.0
  0
ARC
  5
27FF
  8
L1
 10
483.43261307452963
 20
254.74700502020741
 30
0.0
 40
6.0
 50
228.1896851042213
 51
0.0
  0
LINE
  5
2800
  8
L6
 10
480.85261307452959
 20
254.74700502020741
 30
0.0
 11
486.01261307452961
 21
254.74700502020741
 31
0.0
  0
LINE
  5
2801
  8
L6
 10
483.43261307452963
 20
257.32700502020742
 30
0.0
 11
483.43261307452963
 21
252.16700502020731
 31
0.0
  0
CIRCLE
  5
2802
  8
L1
 10
483.43261307452963
 20
254.74700502020741
 30
0.0
 40
2.149999999999999
  0
LINE
  5
2806
  8
L1
 10
346.68261307452963
 20
273.74700502020738
 30
0.0
 11
346.68261307452963
 21
279.74700502020733
 31
0.0
  0
LINE
  5
2807
  8
L1
 10
345.18261307452963
 20
273.74700502020738
 30
0.0
 11
345.18261307452963
 21
279.74700502020733
 31
0.0
  0
LINE
  5
2808
  8
L1
 10
346.68261307452963
 20
287.74700502020738
 30
0.0
 11
346.68261307452963
 21
361.3099451828827
 31
0.0
  0
LINE
  5
2809
  8
L1
 10
345.18261307452963
 20
287.74700502020738
 30
0.0
 11
345.18261307452963
 21
361.3099451828827
 31
0.0
  0
CIRCLE
  5
280A
  8
L1
 10
345.93261307452963
 20
448.74700502020738
 30
0.0
 40
10.5
  0
ARC
  5
280B
  8
L1
 10
345.93261307452963
 20
445.74700502020738
 30
0.0
 40
5.0
 50
119.9999999999998
 51
60.000000000000099
  0
ARC
  5
280C
  8
L1
 10
345.93261307452963
 20
452.74700502020738
 30
0.0
 40
2.5
 50
0.0
 51
180.0
  0
LINE
  5
280D
  8
L1
 10
348.43261307452963
 20
452.74700502020738
 30
0.0
 11
348.43261307452963
 21
450.07713203912959
 31
0.0
  0
LINE
  5
280E
  8
L1
 10
343.43261307452963
 20
452.74700502020738
 30
0.0
 11
343.43261307452963
 21
450.07713203912959
 31
0.0
  0
CIRCLE
  5
2811
  8
L1
 10
345.93261307452963
 20
365.74700502020738
 30
0.0
 40
4.5
  0
LINE
  5
2813
  8
L1
 10
346.68261307452963
 20
370.18406485753218
 30
0.0
 11
346.68261307452963
 21
438.27382498738069
 31
0.0
  0
LINE
  5
2814
  8
L1
 10
345.18261307452963
 20
370.18406485753218
 30
0.0
 11
345.18261307452963
 21
438.27382498738069
 31
0.0
  0
CIRCLE
  5
2816
  8
L1
 10
345.93261307452963
 20
448.74700502020738
 30
0.0
 40
8.5
  0
LINE
  5
2817
  8
L16
 10
258.0
 20
367.60850715832379
 30
0.0
 11
258.0
 21
1207.6085071583229
 31
0.0
  0
LINE
  5
2818
  8
L16
 10
258.0
 20
367.60850715832379
 30
0.0
 11
1446.0
 21
367.60850715832379
 31
0.0
  0
LINE
  5
2824
  8
L1
 10
676.88210705108065
 20
480.74700502020738
 30
0.0
 11
676.88210705108065
 21
224.74700502020741
 31
0.0
  0
LINE
  5
2825
  8
L1
 10
762.88210705108077
 20
480.74700502020738
 30
0.0
 11
762.88210705108065
 21
284.74700502020733
 31
0.0
  0
LINE
  5
2827
  8
L1
 10
762.88210705108077
 20
480.74700502020738
 30
0.0
 11
676.88210705108065
 21
480.74700502020738
 31
0.0
  0
LINE
  5
2828
  8
L1
 10
676.88210705108065
 20
224.74700502020741
 30
0.0
 11
722.08210705108058
 21
224.7470050202073
 31
0.0
  0
LINE
  5
282B
  8
L1
 10
724.88210705108065
 20
224.7470050202073
 30
0.0
 11
724.88210705108065
 21
284.74700502020733
 31
0.0
  0
LINE
  5
282C
  8
L1
 10
724.88210705108065
 20
284.74700502020733
 30
0.0
 11
762.88210705108065
 21
284.74700502020733
 31
0.0
  0
LINE
  5
282D
  8
L1
 10
762.88210705108077
 20
478.9470050202072
 30
0.0
 11
765.88210705108065
 21
478.84224271173213
 31
0.0
  0
LINE
  5
282E
  8
L1
 10
762.88210705108077
 20
286.54700502020722
 30
0.0
 11
765.88210705108065
 21
286.65176732868252
 31
0.0
  0
LINE
  5
282F
  8
L1
 10
765.88210705108065
 20
478.84224271173213
 30
0.0
 11
765.88210705108065
 21
286.65176732868252
 31
0.0
  0
LINE
  5
2830
  8
L1
 10
762.88210705108077
 20
462.74700502020733
 30
0.0
 11
742.88210705108065
 21
462.74700502020733
 31
0.0
  0
LINE
  5
2831
  8
L1
 10
762.88210705108077
 20
460.24700502020733
 30
0.0
 11
758.88210705108077
 21
460.24700502020733
 31
0.0
  0
LINE
  5
2832
  8
L1
 10
762.88210705108077
 20
442.74700502020733
 30
0.0
 11
742.88210705108065
 21
442.74700502020733
 31
0.0
  0
LINE
  5
2833
  8
L1
 10
762.88210705108077
 20
445.24700502020733
 30
0.0
 11
758.88210705108077
 21
445.24700502020733
 31
0.0
  0
LINE
  5
2834
  8
L1
 10
748.88210705108065
 20
460.24700502020733
 30
0.0
 11
748.88210705108065
 21
445.24700502020733
 31
0.0
  0
LINE
  5
2835
  8
L1
 10
758.88210705108077
 20
445.24700502020733
 30
0.0
 11
758.88210705108077
 21
460.24700502020733
 31
0.0
  0
LINE
  5
2837
  8
L1
 10
740.88210705108065
 20
444.74700502020733
 30
0.0
 11
740.88210705108065
 21
444.74700502019732
 31
0.0
  0
LINE
  5
2838
  8
L1
 10
748.88210705108065
 20
445.24700502020733
 30
0.0
 11
740.88210705108065
 21
445.24700502020733
 31
0.0
  0
LINE
  5
2839
  8
L1
 10
748.88210705108065
 20
460.24700502020733
 30
0.0
 11
740.88210705108065
 21
460.24700502020733
 31
0.0
  0
LINE
  5
283C
  8
L1
 10
740.88210705108065
 20
445.24700502020733
 30
0.0
 11
740.88210705108065
 21
444.74700502020733
 31
0.0
  0
LINE
  5
283D
  8
L1
 10
740.88210705108065
 20
460.24700502020733
 30
0.0
 11
740.88210705108065
 21
460.74700502020733
 31
0.0
  0
ARC
  5
283E
  8
L1
 10
742.88210705108065
 20
444.74700502020733
 30
0.0
 40
2.0
 50
180.0
 51
270.0
  0
ARC
  5
283F
  8
L1
 10
742.88210705108065
 20
460.74700502020733
 30
0.0
 40
2.0
 50
89.999999999999986
 51
180.0
  0
ARC
  5
2840
  8
L1
 10
742.88210705108065
 20
320.74700502020733
 30
0.0
 40
2.0
 50
89.999999999999986
 51
180.0
  0
ARC
  5
2841
  8
L1
 10
742.88210705108065
 20
304.74700502020733
 30
0.0
 40
2.0
 50
180.0
 51
270.0
  0
LINE
  5
2842
  8
L1
 10
740.88210705108065
 20
320.24700502020733
 30
0.0
 11
740.88210705108065
 21
320.74700502020733
 31
0.0
  0
LINE
  5
2843
  8
L1
 10
740.88210705108065
 20
305.24700502020733
 30
0.0
 11
740.88210705108065
 21
304.74700502020733
 31
0.0
  0
LINE
  5
2844
  8
L1
 10
748.88210705108065
 20
320.24700502020733
 30
0.0
 11
740.88210705108065
 21
320.24700502020733
 31
0.0
  0
LINE
  5
2845
  8
L1
 10
748.88210705108065
 20
305.24700502020733
 30
0.0
 11
740.88210705108065
 21
305.24700502020733
 31
0.0
  0
LINE
  5
2846
  8
L1
 10
740.88210705108065
 20
304.74700502020733
 30
0.0
 11
740.88210705108065
 21
304.74700502019732
 31
0.0
  0
LINE
  5
2847
  8
L1
 10
758.88210705108077
 20
305.24700502020733
 30
0.0
 11
758.88210705108077
 21
320.24700502020733
 31
0.0
  0
LINE
  5
2848
  8
L1
 10
748.88210705108065
 20
320.24700502020733
 30
0.0
 11
748.88210705108065
 21
305.24700502020733
 31
0.0
  0
LINE
  5
2849
  8
L1
 10
762.88210705108077
 20
305.24700502020733
 30
0.0
 11
758.88210705108077
 21
305.24700502020733
 31
0.0
  0
LINE
  5
284A
  8
L1
 10
762.88210705108077
 20
302.74700502020733
 30
0.0
 11
742.88210705108065
 21
302.74700502020733
 31
0.0
  0
LINE
  5
284B
  8
L1
 10
762.88210705108077
 20
320.24700502020733
 30
0.0
 11
758.88210705108077
 21
320.24700502020733
 31
0.0
  0
LINE
  5
284C
  8
L1
 10
762.88210705108077
 20
322.74700502020733
 30
0.0
 11
742.88210705108065
 21
322.74700502020733
 31
0.0
  0
LINE
  5
284D
  8
L1
 10
724.88210705108065
 20
226.7470050202073
 30
0.0
 11
726.38210705108065
 21
226.79938617444489
 31
0.0
  0
LINE
  5
284E
  8
L1
 10
724.88210705108065
 20
280.74700502020733
 30
0.0
 11
726.38210705108065
 21
280.69462386596962
 31
0.0
  0
LINE
  5
284F
  8
L1
 10
726.38210705108065
 20
226.79938617444489
 30
0.0
 11
726.38210705108065
 21
280.69462386596962
 31
0.0
  0
LINE
  5
2850
  8
L1
 10
724.88210705108065
 20
224.7470050202073
 30
0.0
 11
724.88210705108065
 21
220.7470050202073
 31
0.0
  0
LINE
  5
2851
  8
L1
 10
722.08210705108058
 20
224.7470050202073
 30
0.0
 11
723.15390382080523
 21
220.7470050202073
 31
0.0
  0
LINE
  5
2852
  8
L1
 10
724.88210705108065
 20
220.7470050202073
 30
0.0
 11
723.15390382080523
 21
220.7470050202073
 31
0.0
  0
LINE
  5
2853
  8
L1
 10
676.88210705108065
 20
467.74700502020738
 30
0.0
 11
671.38210705108077
 21
467.74700502020738
 31
0.0
  0
LINE
  5
2854
  8
L1
 10
670.88210705108077
 20
467.24700502020738
 30
0.0
 11
670.88210705108077
 21
452.74700502020738
 31
0.0
  0
LINE
  5
2855
  8
L1
 10
670.88210705108077
 20
452.74700502020738
 30
0.0
 11
676.88210705108065
 21
452.74700502020738
 31
0.0
  0
LINE
  5
2856
  8
L1
 10
676.88210705108065
 20
438.24700502020738
 30
0.0
 11
670.88210705108077
 21
438.24700502020738
 31
0.0
  0
LINE
  5
2857
  8
L1
 10
670.88210705108077
 20
438.24700502020738
 30
0.0
 11
670.88210705108077
 21
452.74700502020738
 31
0.0
  0
LINE
  5
2858
  8
L1
 10
676.88210705108065
 20
248.24700502020741
 30
0.0
 11
670.88210705108065
 21
248.24700502020741
 31
0.0
  0
LINE
  5
2859
  8
L1
 10
670.88210705108065
 20
248.24700502020741
 30
0.0
 11
670.88210705108065
 21
227.24700502020741
 31
0.0
  0
LINE
  5
285A
  8
L1
 10
670.88210705108065
 20
227.24700502020741
 30
0.0
 11
676.88210705108065
 21
227.24700502020741
 31
0.0
  0
LINE
  5
28C9
  8
L1
 10
1130.9089739612809
 20
452.74700502020738
 30
0.0
 11
1130.9089739612809
 21
450.07713203912959
 31
0.0
  0
LINE
  5
28CA
  8
L1
 10
1135.9089739612809
 20
452.74700502020738
 30
0.0
 11
1135.9089739612809
 21
450.07713203912959
 31
0.0
  0
ARC
  5
28CB
  8
L1
 10
1133.4089739612821
 20
452.74700502020738
 30
0.0
 40
2.5
 50
0.0
 51
180.0
  0
ARC
  5
28CC
  8
L1
 10
1133.4089739612821
 20
445.74700502020738
 30
0.0
 40
5.0
 50
119.9999999999998
 51
60.000000000000099
  0
CIRCLE
  5
28CD
  8
L1
 10
1133.4089739612821
 20
448.74700502020738
 30
0.0
 40
10.5
  0
ARC
  5
28DD
  8
L1
 10
1273.4089739612809
 20
243.74700502020741
 30
0.0
 40
2.5
 50
0.0
 51
180.0
  0
ARC
  5
28DE
  8
L1
 10
1273.4089739612809
 20
231.74700502020741
 30
0.0
 40
2.5
 50
180.0
 51
0.0
  0
LINE
  5
28DF
  8
L1
 10
1275.9089739612809
 20
243.74700502020741
 30
0.0
 11
1275.9089739612809
 21
231.74700502020741
 31
0.0
  0
LINE
  5
28E0
  8
L1
 10
1270.9089739612809
 20
231.74700502020741
 30
0.0
 11
1270.9089739612809
 21
243.74700502020741
 31
0.0
  0
LINE
  5
2902
  8
L6
 10
1273.4089739612809
 20
227.74700502020741
 30
0.0
 11
1273.4089739612809
 21
247.74700502020741
 31
0.0
  0
LINE
  5
2903
  8
L6
 10
1276.4089739612821
 20
243.74700502020741
 30
0.0
 11
1270.4089739612821
 21
243.74700502020741
 31
0.0
  0
LINE
  5
2904
  8
L6
 10
1270.4089739612821
 20
231.74700502020741
 30
0.0
 11
1276.4089739612821
 21
231.74700502020741
 31
0.0
  0
LINE
  5
290F
  8
L1
 10
1268.4089739612821
 20
271.74700502020738
 30
0.0
 11
1133.4089739612821
 21
271.74700502020738
 31
0.0
  0
LINE
  5
2914
  8
L1
 10
998.40897396128184
 20
271.74700502020738
 30
0.0
 11
1133.4089739612821
 21
271.74700502020738
 31
0.0
  0
LINE
  5
2920
  8
L6
 10
996.40897396128184
 20
231.74700502020741
 30
0.0
 11
990.40897396128184
 21
231.74700502020741
 31
0.0
  0
LINE
  5
2921
  8
L6
 10
990.40897396128184
 20
243.74700502020741
 30
0.0
 11
996.40897396128184
 21
243.74700502020741
 31
0.0
  0
LINE
  5
2928
  8
L1
 10
988.40897396128184
 20
262.74700502020738
 30
0.0
 11
1278.4089739612821
 21
262.74700502020733
 31
0.0
  0
LINE
  5
2944
  8
L1
 10
995.90897396128184
 20
231.74700502020741
 30
0.0
 11
995.90897396128184
 21
243.74700502020741
 31
0.0
  0
LINE
  5
2945
  8
L1
 10
990.90897396128184
 20
243.74700502020741
 30
0.0
 11
990.90897396128184
 21
231.74700502020741
 31
0.0
  0
ARC
  5
2946
  8
L1
 10
993.40897396128184
 20
231.74700502020741
 30
0.0
 40
2.5
 50
180.0
 51
0.0
  0
ARC
  5
2947
  8
L1
 10
993.40897396128184
 20
243.74700502020741
 30
0.0
 40
2.5
 50
0.0
 51
180.0
  0
LINE
  5
294F
  8
L6
 10
998.48897396128177
 20
254.74700502020741
 30
0.0
 11
993.32897396128169
 21
254.74700502020741
 31
0.0
  0
LINE
  5
2950
  8
L6
 10
995.90897396128184
 20
257.32700502020742
 30
0.0
 11
995.90897396128184
 21
252.16700502020731
 31
0.0
  0
LINE
  5
2960
  8
L1
 10
1281.4089739612809
 20
223.74700502020741
 30
0.0
 11
1281.4089739612809
 21
287.94700502020731
 31
0.0
  0
LINE
  5
2962
  8
L1
 10
988.40897396128184
 20
220.74700502020741
 30
0.0
 11
1278.4089739612809
 21
220.74700502020741
 31
0.0
  0
LINE
  5
2964
  8
L1
 10
985.40897396128184
 20
477.54700502020728
 30
0.0
 11
985.40897396128184
 21
223.74700502020741
 31
0.0
  0
LINE
  5
296B
  8
L1
 10
1268.4089739612821
 20
477.74700502020738
 30
0.0
 11
1268.4089739612821
 21
271.74700502020738
 31
0.0
  0
LINE
  5
296C
  8
L1
 10
998.40897396128184
 20
477.74700502020738
 30
0.0
 11
998.40897396128184
 21
271.74700502020738
 31
0.0
  0
LINE
  5
2A13
  8
L1
 10
988.40897396128184
 20
467.74700502020738
 30
0.0
 11
1041.1589739612809
 21
467.74700502020738
 31
0.0
  0
ARC
  5
2A15
  8
L1
 10
1002.108973961281
 20
227.9470050202074
 30
0.0
 40
0.200000000000017
 50
180.0000000000081
 51
270.0
  0
ARC
  5
2A26
  8
L1
 10
1278.2089739612809
 20
477.54700502020728
 30
0.0
 40
3.200000000000045
 50
0.0000000000010178
 51
90.0
  0
LINE
  5
2A27
  8
L1
 10
1278.2089739612809
 20
480.74700502020738
 30
0.0
 11
988.60897396128166
 21
480.74700502020738
 31
0.0
  0
ARC
  5
2A28
  8
L1
 10
988.60897396128166
 20
477.54700502020728
 30
0.0
 40
3.200000000000045
 50
90.0
 51
179.99999999999889
  0
LINE
  5
2A2D
  8
L1
 10
1281.4089739612809
 20
287.94700502020731
 30
0.0
 11
1281.4089739612809
 21
477.54700502020728
 31
0.0
  0
ARC
  5
2A2E
  8
L1
 10
1278.2089739612809
 20
477.54700502020728
 30
0.0
 40
0.2000000000000455
 50
0.0000000000162844
 51
90.0
  0
LINE
  5
2A2F
  8
L1
 10
1278.2089739612809
 20
477.74700502020738
 30
0.0
 11
988.60897396128166
 21
477.74700502020738
 31
0.0
  0
ARC
  5
2A30
  8
L1
 10
988.60897396128166
 20
477.54700502020728
 30
0.0
 40
0.2000000000000455
 50
90.0
 51
179.99999999998369
  0
LINE
  5
2A31
  8
L1
 10
988.40897396128184
 20
477.54700502020728
 30
0.0
 11
988.40897396128184
 21
262.74700502020738
 31
0.0
  0
LINE
  5
2A35
  8
L1
 10
1278.4089739612821
 20
262.74700502020733
 30
0.0
 11
1278.4089739612821
 21
477.54700502020728
 31
0.0
  0
LINE
  5
2A36
  8
L1
 10
997.90897396128184
 20
231.74700502020741
 30
0.0
 11
997.90897396128184
 21
243.74700502020741
 31
0.0
  0
LINE
  5
2A37
  8
L1
 10
988.90897396128184
 20
243.74700502020741
 30
0.0
 11
988.90897396128184
 21
231.74700502020741
 31
0.0
  0
ARC
  5
2A38
  8
L1
 10
993.40897396128184
 20
231.74700502020741
 30
0.0
 40
4.5
 50
180.0
 51
0.0
  0
ARC
  5
2A39
  8
L1
 10
993.40897396128184
 20
243.74700502020741
 30
0.0
 40
4.5
 50
0.0
 51
180.0
  0
ARC
  5
2A3B
  8
L1
 10
1021.408973961281
 20
243.74700502020741
 30
0.0
 40
15.0
 50
212.2783737008935
 51
327.76904736449779
  0
ARC
  5
2A3D
  8
L1
 10
1049.4089739612809
 20
243.74700502020741
 30
0.0
 40
15.0
 50
212.23095263550209
 51
327.76904736449779
  0
LINE
  5
2A3F
  8
L1
 10
988.40897396128184
 20
224.74700502020741
 30
0.0
 11
1278.4089739612809
 21
224.74700502020741
 31
0.0
  0
LINE
  5
2A40
  8
L1
 10
1002.408973961282
 20
227.24700502020741
 30
0.0
 11
1133.4089739612821
 21
227.24700502020741
 31
0.0
  0
LINE
  5
2A42
  8
L1
 10
1034.097551501731
 20
235.74700502020741
 30
0.0
 11
1036.720396420832
 21
235.74700502020741
 31
0.0
  0
LINE
  5
2A43
  8
L1
 10
1002.408973961282
 20
227.24700502020741
 30
0.0
 11
1002.408973961282
 21
235.73650601297089
 31
0.0
  0
LINE
  5
2A44
  8
L1
 10
1062.097551501731
 20
235.74700502020741
 30
0.0
 11
1133.4089739612821
 21
235.74700502020741
 31
0.0
  0
LINE
  5
2A45
  8
L1
 10
1002.408973961282
 20
235.73650601297089
 30
0.0
 11
1008.727021995788
 21
235.73650601297089
 31
0.0
  0
ARC
  5
2A46
  8
L1
 10
988.40897396128184
 20
227.74700502020741
 30
0.0
 40
3.0
 50
180.0
 51
270.0
  0
ARC
  5
2A47
  8
L1
 10
200.9326130745296
 20
223.74700502020741
 30
0.0
 40
3.0
 50
180.0
 51
270.0
  0
ARC
  5
2A48
  8
L1
 10
490.93261307452963
 20
223.74700502020741
 30
0.0
 40
3.0
 50
270.0
 51
0.0
  0
ARC
  5
2A4A
  8
L1
 10
988.40897396128184
 20
223.74700502020741
 30
0.0
 40
3.0
 50
180.0
 51
270.0
  0
ARC
  5
2A4B
  8
L1
 10
1278.4089739612809
 20
223.74700502020741
 30
0.0
 40
3.0
 50
270.0
 51
0.0
  0
ARC
  5
2A4C
  8
L1
 10
1278.4089739612809
 20
227.74700502020741
 30
0.0
 40
3.0
 50
270.0
 51
359.99999999999977
  0
ARC
  5
2A4E
  8
L1
 10
1273.4089739612809
 20
231.74700502020741
 30
0.0
 40
4.5
 50
180.0
 51
0.0
  0
LINE
  5
2A4F
  8
L1
 10
1268.9089739612809
 20
231.74700502020741
 30
0.0
 11
1268.9089739612809
 21
243.74700502020741
 31
0.0
  0
ARC
  5
2A50
  8
L1
 10
1273.4089739612809
 20
243.74700502020741
 30
0.0
 40
4.5
 50
0.0
 51
180.0
  0
LINE
  5
2A51
  8
L1
 10
1277.9089739612809
 20
243.74700502020741
 30
0.0
 11
1277.9089739612809
 21
231.74700502020741
 31
0.0
  0
CIRCLE
  5
2A52
  8
L1
 10
1021.408973961281
 20
243.74700502020741
 30
0.0
 40
9.5
  0
CIRCLE
  5
2A53
  8
L1
 10
1049.4089739612809
 20
243.74700502020741
 30
0.0
 40
9.5
  0
CIRCLE
  5
2A54
  8
L1
 10
1021.408973961281
 20
243.74700502020741
 30
0.0
 40
8.0999999999999996
  0
CIRCLE
  5
2A55
  8
L1
 10
1049.4089739612809
 20
243.74700502020741
 30
0.0
 40
8.0999999999999996
  0
CIRCLE
  5
2A57
  8
L1
 10
1217.4089739612821
 20
243.74700502020741
 30
0.0
 40
8.0999999999999996
  0
CIRCLE
  5
2A58
  8
L1
 10
1245.4089739612809
 20
243.74700502020741
 30
0.0
 40
8.0999999999999996
  0
CIRCLE
  5
2A59
  8
L1
 10
1217.4089739612821
 20
243.74700502020741
 30
0.0
 40
9.5
  0
CIRCLE
  5
2A5A
  8
L1
 10
1245.4089739612809
 20
243.74700502020741
 30
0.0
 40
9.5
  0
LINE
  5
2A5B
  8
L1
 10
1264.4089739612809
 20
235.73650601297089
 30
0.0
 11
1258.0909259267751
 21
235.73650601297089
 31
0.0
  0
LINE
  5
2A5C
  8
L1
 10
1204.720396420832
 20
235.74700502020741
 30
0.0
 11
1133.4089739612821
 21
235.74700502020741
 31
0.0
  0
LINE
  5
2A5D
  8
L1
 10
1264.4089739612809
 20
227.24700502020741
 30
0.0
 11
1264.4089739612809
 21
235.73650601297089
 31
0.0
  0
LINE
  5
2A5E
  8
L1
 10
1232.720396420832
 20
235.74700502020741
 30
0.0
 11
1230.097551501731
 21
235.74700502020741
 31
0.0
  0
LINE
  5
2A5F
  8
L1
 10
1264.4089739612809
 20
227.24700502020741
 30
0.0
 11
1133.4089739612821
 21
227.24700502020741
 31
0.0
  0
ARC
  5
2A60
  8
L1
 10
1217.4089739612821
 20
243.74700502020741
 30
0.0
 40
15.0
 50
212.23095263550201
 51
327.76904736449779
  0
ARC
  5
2A61
  8
L1
 10
1245.4089739612809
 20
243.74700502020741
 30
0.0
 40
15.0
 50
212.23095263550201
 51
327.72162629910639
  0
ARC
  5
2A62
  8
L1
 10
1264.7089739612809
 20
227.9470050202074
 30
0.0
 40
0.200000000000017
 50
270.0
 51
359.99999999999181
  0
ARC
  5
2A63
  8
L1
 10
995.90897396128184
 20
254.74700502020741
 30
0.0
 40
4.0
 50
180.0
 51
0.0
  0
LINE
  5
2A64
  8
L1
 10
991.90897396128184
 20
260.74700502020738
 30
0.0
 11
999.90897396128184
 21
260.74700502020738
 31
0.0
  0
LINE
  5
2A65
  8
L1
 10
999.90897396128184
 20
260.74700502020738
 30
0.0
 11
999.90897396128184
 21
254.74700502020741
 31
0.0
  0
LINE
  5
2A66
  8
L1
 10
991.90897396128184
 20
254.74700502020741
 30
0.0
 11
991.90897396128184
 21
260.74700502020738
 31
0.0
  0
LINE
  5
2A67
  8
L1
 10
1274.9089739612809
 20
254.74700502020741
 30
0.0
 11
1274.9089739612809
 21
260.74700502020738
 31
0.0
  0
LINE
  5
2A68
  8
L1
 10
1266.9089739612809
 20
260.74700502020738
 30
0.0
 11
1266.9089739612809
 21
254.74700502020741
 31
0.0
  0
LINE
  5
2A69
  8
L1
 10
1274.9089739612809
 20
260.74700502020738
 30
0.0
 11
1266.9089739612809
 21
260.74700502020738
 31
0.0
  0
ARC
  5
2A6A
  8
L1
 10
1270.9089739612809
 20
254.74700502020741
 30
0.0
 40
4.0
 50
180.0
 51
0.0
  0
LINE
  5
2A6C
  8
L6
 10
1270.9089739612809
 20
257.32700502020742
 30
0.0
 11
1270.9089739612809
 21
252.16700502020731
 31
0.0
  0
LINE
  5
2A6D
  8
L6
 10
1268.328973961281
 20
254.74700502020741
 30
0.0
 11
1273.4889739612811
 21
254.74700502020741
 31
0.0
  0
ARC
  5
2F6C
  8
L1
 10
1045.6589739612809
 20
470.13849786188371
 30
0.0
 40
4.5
 50
0.0
 51
180.0
  0
LINE
  5
2F79
  8
L1
 10
1050.1589739612809
 20
470.13849786188371
 30
0.0
 11
1050.1589739612809
 21
467.74700502020738
 31
0.0
  0
LINE
  5
2F7A
  8
L1
 10
1041.1589739612809
 20
470.13849786188371
 30
0.0
 11
1041.1589739612809
 21
467.74700502020738
 31
0.0
  0
LINE
  5
2F7B
  8
L1
 10
1050.1589739612809
 20
467.74700502020738
 30
0.0
 11
1278.4089739612821
 21
467.74700502020738
 31
0.0
  0
LINE
  5
2F7C
  8
L6
 10
1040.6589739612809
 20
470.13849786188371
 30
0.0
 11
1050.6589739612809
 21
470.13849786188371
 31
0.0
  0
LINE
  5
2F7D
  8
L6
 10
1045.6589739612809
 20
475.13849786188371
 30
0.0
 11
1045.6589739612809
 21
466.13849786188371
 31
0.0
  0
LINE
  5
2F7E
  8
L6
 10
1221.1589739612821
 20
475.13849786188371
 30
0.0
 11
1221.1589739612821
 21
466.13849786188371
 31
0.0
  0
LINE
  5
2F7F
  8
L6
 10
1216.1589739612809
 20
470.13849786188371
 30
0.0
 11
1226.1589739612809
 21
470.13849786188371
 31
0.0
  0
LINE
  5
2F80
  8
L1
 10
1216.6589739612821
 20
470.13849786188371
 30
0.0
 11
1216.6589739612821
 21
467.74700502020738
 31
0.0
  0
LINE
  5
2F81
  8
L1
 10
1225.6589739612809
 20
470.13849786188371
 30
0.0
 11
1225.6589739612809
 21
467.74700502020738
 31
0.0
  0
ARC
  5
2F82
  8
L1
 10
1221.1589739612821
 20
470.13849786188371
 30
0.0
 40
4.5
 50
0.0
 51
180.0
  0
LINE
  5
2F84
  8
L1
 10
1041.1589739612809
 20
467.74700502020738
 30
0.0
 11
1050.6589739612809
 21
467.74700502020738
 31
0.0
  0
ARC
  5
2F86
  8
L1
 10
1221.1589739612821
 20
269.13849786188371
 30
0.0
 40
4.5
 50
180.0
 51
0.0
  0
LINE
  5
2F87
  8
L1
 10
1225.6589739612809
 20
269.13849786188371
 30
0.0
 11
1225.6589739612809
 21
271.52999070355992
 31
0.0
  0
LINE
  5
2F88
  8
L1
 10
1216.6589739612821
 20
269.13849786188371
 30
0.0
 11
1216.6589739612821
 21
271.52999070355992
 31
0.0
  0
LINE
  5
2F89
  8
L6
 10
1216.1589739612809
 20
269.13849786188371
 30
0.0
 11
1226.1589739612809
 21
269.13849786188371
 31
0.0
  0
LINE
  5
2F8A
  8
L6
 10
1221.1589739612821
 20
264.13849786188371
 30
0.0
 11
1221.1589739612821
 21
273.13849786188371
 31
0.0
  0
LINE
  5
2F8B
  8
L6
 10
1045.6589739612809
 20
264.13849786188371
 30
0.0
 11
1045.6589739612809
 21
273.13849786188371
 31
0.0
  0
LINE
  5
2F8C
  8
L6
 10
1040.6589739612809
 20
269.13849786188371
 30
0.0
 11
1050.6589739612809
 21
269.13849786188371
 31
0.0
  0
LINE
  5
2F8D
  8
L1
 10
1041.1589739612809
 20
269.13849786188371
 30
0.0
 11
1041.1589739612809
 21
271.52999070355992
 31
0.0
  0
LINE
  5
2F8E
  8
L1
 10
1050.1589739612809
 20
269.13849786188371
 30
0.0
 11
1050.1589739612809
 21
271.52999070355992
 31
0.0
  0
ARC
  5
2F8F
  8
L1
 10
1045.6589739612809
 20
269.13849786188371
 30
0.0
 40
4.5
 50
180.0
 51
0.0
  0
ARC
  5
2F90
  8
L1
 10
1095.6589739612809
 20
269.13849786188371
 30
0.0
 40
4.5
 50
180.0
 51
0.0
  0
LINE
  5
2F91
  8
L1
 10
1100.1589739612809
 20
269.13849786188371
 30
0.0
 11
1100.1589739612809
 21
271.52999070355992
 31
0.0
  0
LINE
  5
2F92
  8
L1
 10
1091.1589739612809
 20
269.13849786188371
 30
0.0
 11
1091.1589739612809
 21
271.52999070355992
 31
0.0
  0
LINE
  5
2F93
  8
L6
 10
1090.6589739612809
 20
269.13849786188371
 30
0.0
 11
1100.6589739612809
 21
269.13849786188371
 31
0.0
  0
LINE
  5
2F94
  8
L6
 10
1095.6589739612809
 20
264.13849786188371
 30
0.0
 11
1095.6589739612809
 21
273.13849786188371
 31
0.0
  0
LINE
  5
2F95
  8
L6
 10
1166.1589739612809
 20
269.13849786188371
 30
0.0
 11
1176.1589739612809
 21
269.13849786188371
 31
0.0
  0
LINE
  5
2F96
  8
L1
 10
1166.6589739612821
 20
269.13849786188371
 30
0.0
 11
1166.6589739612821
 21
271.52999070355992
 31
0.0
  0
LINE
  5
2F97
  8
L1
 10
1175.6589739612809
 20
269.13849786188371
 30
0.0
 11
1175.6589739612809
 21
271.52999070355992
 31
0.0
  0
ARC
  5
2F98
  8
L1
 10
1171.1589739612809
 20
269.13849786188371
 30
0.0
 40
4.5
 50
180.0
 51
0.0
  0
LINE
  5
2F99
  8
L6
 10
1171.1589739612809
 20
264.13849786188371
 30
0.0
 11
1171.1589739612809
 21
273.13849786188371
 31
0.0
  0
LINE
  5
2F9B
  8
L6
 10
990.90897396128184
 20
423.13849786188359
 30
0.0
 11
999.90897396128184
 21
423.13849786188359
 31
0.0
  0
LINE
  5
2F9C
  8
L6
 10
995.90897396128184
 20
418.13849786188371
 30
0.0
 11
995.90897396128184
 21
428.13849786188371
 31
0.0
  0
LINE
  5
2F9D
  8
L1
 10
995.90897396128184
 20
418.63849786188359
 30
0.0
 11
998.30046680295789
 21
418.63849786188359
 31
0.0
  0
LINE
  5
2F9E
  8
L1
 10
995.90897396128184
 20
427.63849786188359
 30
0.0
 11
998.30046680295789
 21
427.63849786188359
 31
0.0
  0
ARC
  5
2F9F
  8
L1
 10
995.90897396128184
 20
423.13849786188359
 30
0.0
 40
4.5
 50
90.0
 51
270.0
  0
ARC
  5
2FA0
  8
L1
 10
995.90897396128184
 20
313.13849786188371
 30
0.0
 40
4.5
 50
90.0
 51
270.0
  0
LINE
  5
2FA1
  8
L1
 10
995.90897396128184
 20
317.63849786188371
 30
0.0
 11
998.30046680295789
 21
317.63849786188371
 31
0.0
  0
LINE
  5
2FA2
  8
L1
 10
995.90897396128184
 20
308.63849786188371
 30
0.0
 11
998.30046680295789
 21
308.63849786188371
 31
0.0
  0
LINE
  5
2FA3
  8
L6
 10
995.90897396128184
 20
308.13849786188359
 30
0.0
 11
995.90897396128184
 21
318.13849786188371
 31
0.0
  0
LINE
  5
2FA4
  8
L6
 10
990.90897396128184
 20
313.13849786188371
 30
0.0
 11
999.90897396128184
 21
313.13849786188371
 31
0.0
  0
LINE
  5
2FA5
  8
L6
 10
1275.9089739612809
 20
313.13849786188371
 30
0.0
 11
1266.9089739612809
 21
313.13849786188371
 31
0.0
  0
LINE
  5
2FA6
  8
L6
 10
1270.9089739612809
 20
308.13849786188359
 30
0.0
 11
1270.9089739612809
 21
318.13849786188371
 31
0.0
  0
LINE
  5
2FA7
  8
L1
 10
1270.9089739612809
 20
308.63849786188371
 30
0.0
 11
1268.517481119605
 21
308.63849786188371
 31
0.0
  0
LINE
  5
2FA8
  8
L1
 10
1270.9089739612809
 20
317.63849786188371
 30
0.0
 11
1268.517481119605
 21
317.63849786188371
 31
0.0
  0
ARC
  5
2FA9
  8
L1
 10
1270.9089739612809
 20
313.13849786188371
 30
0.0
 40
4.5
 50
270.0
 51
90.0
  0
ARC
  5
2FAA
  8
L1
 10
1270.9089739612809
 20
423.13849786188359
 30
0.0
 40
4.5
 50
270.0
 51
90.0
  0
LINE
  5
2FAB
  8
L1
 10
1270.9089739612809
 20
427.63849786188359
 30
0.0
 11
1268.517481119605
 21
427.63849786188359
 31
0.0
  0
LINE
  5
2FAC
  8
L1
 10
1270.9089739612809
 20
418.63849786188359
 30
0.0
 11
1268.517481119605
 21
418.63849786188359
 31
0.0
  0
LINE
  5
2FAD
  8
L6
 10
1270.9089739612809
 20
418.13849786188371
 30
0.0
 11
1270.9089739612809
 21
428.13849786188371
 31
0.0
  0
LINE
  5
2FAE
  8
L6
 10
1275.9089739612809
 20
423.13849786188359
 30
0.0
 11
1266.9089739612809
 21
423.13849786188359
 31
0.0
  0
ARC
  5
2FAF
  8
L1
 10
995.90897396128184
 20
254.74700502020741
 30
0.0
 40
4.0
 50
0.0
 51
90.0
  0
LINE
  5
2FB3
  8
L1
 10
991.90897396128184
 20
258.74700502020738
 30
0.0
 11
995.90897396128184
 21
258.74700502020738
 31
0.0
  0
LINE
  5
2FB6
  8
L1
 10
1274.9089739612809
 20
258.74700502020738
 30
0.0
 11
1270.9089739612809
 21
258.74700502020738
 31
0.0
  0
ARC
  5
2FB7
  8
L1
 10
1270.9089739612809
 20
254.74700502020741
 30
0.0
 40
4.0
 50
90.0
 51
180.0
  0
LINE
  5
312C
  8
L1
 10
203.4326130745296
 20
458.24700502020738
 30
0.0
 11
203.4326130745296
 21
459.74700502020738
 31
0.0
  0
LINE
  5
312D
  8
L1
 10
203.4326130745296
 20
459.74700502020738
 30
0.0
 11
200.9326130745296
 21
459.74700502020738
 31
0.0
  0
LINE
  5
312E
  8
L1
 10
200.9326130745296
 20
458.24700502020738
 30
0.0
 11
203.4326130745296
 21
458.24700502020738
 31
0.0
  0
LINE
  5
312F
  8
L1
 10
203.4326130745296
 20
456.24700502020738
 30
0.0
 11
200.9326130745296
 21
456.24700502020738
 31
0.0
  0
LINE
  5
3130
  8
L1
 10
203.4326130745296
 20
454.74700502020738
 30
0.0
 11
203.4326130745296
 21
456.24700502020738
 31
0.0
  0
LINE
  5
3131
  8
L1
 10
200.9326130745296
 20
454.74700502020738
 30
0.0
 11
203.4326130745296
 21
454.74700502020738
 31
0.0
  0
LINE
  5
3132
  8
L1
 10
200.9326130745296
 20
429.74700502020738
 30
0.0
 11
203.4326130745296
 21
429.74700502020738
 31
0.0
  0
LINE
  5
3133
  8
L1
 10
203.4326130745296
 20
429.74700502020738
 30
0.0
 11
203.4326130745296
 21
431.24700502020738
 31
0.0
  0
LINE
  5
3134
  8
L1
 10
203.4326130745296
 20
431.24700502020738
 30
0.0
 11
200.9326130745296
 21
431.24700502020738
 31
0.0
  0
LINE
  5
3135
  8
L1
 10
200.9326130745296
 20
433.24700502020738
 30
0.0
 11
203.4326130745296
 21
433.24700502020738
 31
0.0
  0
LINE
  5
3136
  8
L1
 10
203.4326130745296
 20
434.74700502020738
 30
0.0
 11
200.9326130745296
 21
434.74700502020738
 31
0.0
  0
LINE
  5
3137
  8
L1
 10
203.4326130745296
 20
433.24700502020738
 30
0.0
 11
203.4326130745296
 21
434.74700502020738
 31
0.0
  0
LINE
  5
3138
  8
L1
 10
200.9326130745296
 20
404.74700502020738
 30
0.0
 11
203.4326130745296
 21
404.74700502020738
 31
0.0
  0
LINE
  5
3139
  8
L1
 10
203.4326130745296
 20
404.74700502020738
 30
0.0
 11
203.4326130745296
 21
406.24700502020738
 31
0.0
  0
LINE
  5
313A
  8
L1
 10
203.4326130745296
 20
406.24700502020738
 30
0.0
 11
200.9326130745296
 21
406.24700502020738
 31
0.0
  0
LINE
  5
313B
  8
L1
 10
200.9326130745296
 20
408.24700502020738
 30
0.0
 11
203.4326130745296
 21
408.24700502020738
 31
0.0
  0
LINE
  5
313C
  8
L1
 10
203.4326130745296
 20
409.74700502020738
 30
0.0
 11
200.9326130745296
 21
409.74700502020738
 31
0.0
  0
LINE
  5
313D
  8
L1
 10
203.4326130745296
 20
408.24700502020738
 30
0.0
 11
203.4326130745296
 21
409.74700502020738
 31
0.0
  0
LINE
  5
313E
  8
L1
 10
200.9326130745296
 20
379.74700502020738
 30
0.0
 11
203.4326130745296
 21
379.74700502020738
 31
0.0
  0
LINE
  5
313F
  8
L1
 10
203.4326130745296
 20
379.74700502020738
 30
0.0
 11
203.4326130745296
 21
381.24700502020738
 31
0.0
  0
LINE
  5
3140
  8
L1
 10
203.4326130745296
 20
381.24700502020738
 30
0.0
 11
200.9326130745296
 21
381.24700502020738
 31
0.0
  0
LINE
  5
3141
  8
L1
 10
200.9326130745296
 20
383.24700502020738
 30
0.0
 11
203.4326130745296
 21
383.24700502020738
 31
0.0
  0
LINE
  5
3142
  8
L1
 10
203.4326130745296
 20
384.74700502020738
 30
0.0
 11
200.9326130745296
 21
384.74700502020738
 31
0.0
  0
LINE
  5
3143
  8
L1
 10
203.4326130745296
 20
383.24700502020738
 30
0.0
 11
203.4326130745296
 21
384.74700502020738
 31
0.0
  0
LINE
  5
3144
  8
L1
 10
200.9326130745296
 20
354.74700502020738
 30
0.0
 11
203.4326130745296
 21
354.74700502020738
 31
0.0
  0
LINE
  5
3145
  8
L1
 10
203.4326130745296
 20
354.74700502020738
 30
0.0
 11
203.4326130745296
 21
356.24700502020738
 31
0.0
  0
LINE
  5
3146
  8
L1
 10
203.4326130745296
 20
356.24700502020738
 30
0.0
 11
200.9326130745296
 21
356.24700502020738
 31
0.0
  0
LINE
  5
3147
  8
L1
 10
200.9326130745296
 20
358.24700502020738
 30
0.0
 11
203.4326130745296
 21
358.24700502020738
 31
0.0
  0
LINE
  5
3148
  8
L1
 10
203.4326130745296
 20
359.74700502020738
 30
0.0
 11
200.9326130745296
 21
359.74700502020738
 31
0.0
  0
LINE
  5
3149
  8
L1
 10
203.4326130745296
 20
358.24700502020738
 30
0.0
 11
203.4326130745296
 21
359.74700502020738
 31
0.0
  0
LINE
  5
314A
  8
L1
 10
200.9326130745296
 20
329.74700502020738
 30
0.0
 11
203.4326130745296
 21
329.74700502020738
 31
0.0
  0
LINE
  5
314B
  8
L1
 10
203.4326130745296
 20
329.74700502020738
 30
0.0
 11
203.4326130745296
 21
331.24700502020738
 31
0.0
  0
LINE
  5
314C
  8
L1
 10
203.4326130745296
 20
331.24700502020738
 30
0.0
 11
200.9326130745296
 21
331.24700502020738
 31
0.0
  0
LINE
  5
314D
  8
L1
 10
200.9326130745296
 20
333.24700502020738
 30
0.0
 11
203.4326130745296
 21
333.24700502020738
 31
0.0
  0
LINE
  5
314E
  8
L1
 10
203.4326130745296
 20
334.74700502020738
 30
0.0
 11
200.9326130745296
 21
334.74700502020738
 31
0.0
  0
LINE
  5
314F
  8
L1
 10
203.4326130745296
 20
333.24700502020738
 30
0.0
 11
203.4326130745296
 21
334.74700502020738
 31
0.0
  0
LINE
  5
3150
  8
L1
 10
488.43261307452963
 20
333.24700502020738
 30
0.0
 11
488.43261307452963
 21
334.74700502020738
 31
0.0
  0
LINE
  5
3151
  8
L1
 10
488.43261307452963
 20
334.74700502020738
 30
0.0
 11
490.93261307452963
 21
334.74700502020738
 31
0.0
  0
LINE
  5
3152
  8
L1
 10
490.93261307452963
 20
333.24700502020738
 30
0.0
 11
488.43261307452963
 21
333.24700502020738
 31
0.0
  0
LINE
  5
3153
  8
L1
 10
488.43261307452963
 20
331.24700502020738
 30
0.0
 11
490.93261307452963
 21
331.24700502020738
 31
0.0
  0
LINE
  5
3154
  8
L1
 10
488.43261307452963
 20
329.74700502020738
 30
0.0
 11
488.43261307452963
 21
331.24700502020738
 31
0.0
  0
LINE
  5
3155
  8
L1
 10
490.93261307452963
 20
329.74700502020738
 30
0.0
 11
488.43261307452963
 21
329.74700502020738
 31
0.0
  0
LINE
  5
3156
  8
L1
 10
488.43261307452963
 20
358.24700502020738
 30
0.0
 11
488.43261307452963
 21
359.74700502020738
 31
0.0
  0
LINE
  5
3157
  8
L1
 10
488.43261307452963
 20
359.74700502020738
 30
0.0
 11
490.93261307452963
 21
359.74700502020738
 31
0.0
  0
LINE
  5
3158
  8
L1
 10
490.93261307452963
 20
358.24700502020738
 30
0.0
 11
488.43261307452963
 21
358.24700502020738
 31
0.0
  0
LINE
  5
3159
  8
L1
 10
488.43261307452963
 20
356.24700502020738
 30
0.0
 11
490.93261307452963
 21
356.24700502020738
 31
0.0
  0
LINE
  5
315A
  8
L1
 10
488.43261307452963
 20
354.74700502020738
 30
0.0
 11
488.43261307452963
 21
356.24700502020738
 31
0.0
  0
LINE
  5
315B
  8
L1
 10
490.93261307452963
 20
354.74700502020738
 30
0.0
 11
488.43261307452963
 21
354.74700502020738
 31
0.0
  0
LINE
  5
315C
  8
L1
 10
488.43261307452963
 20
383.24700502020738
 30
0.0
 11
488.43261307452963
 21
384.74700502020738
 31
0.0
  0
LINE
  5
315D
  8
L1
 10
488.43261307452963
 20
384.74700502020738
 30
0.0
 11
490.93261307452963
 21
384.74700502020738
 31
0.0
  0
LINE
  5
315E
  8
L1
 10
490.93261307452963
 20
383.24700502020738
 30
0.0
 11
488.43261307452963
 21
383.24700502020738
 31
0.0
  0
LINE
  5
315F
  8
L1
 10
488.43261307452963
 20
381.24700502020738
 30
0.0
 11
490.93261307452963
 21
381.24700502020738
 31
0.0
  0
LINE
  5
3160
  8
L1
 10
488.43261307452963
 20
379.74700502020738
 30
0.0
 11
488.43261307452963
 21
381.24700502020738
 31
0.0
  0
LINE
  5
3161
  8
L1
 10
490.93261307452963
 20
379.74700502020738
 30
0.0
 11
488.43261307452963
 21
379.74700502020738
 31
0.0
  0
LINE
  5
3162
  8
L1
 10
488.43261307452963
 20
408.24700502020738
 30
0.0
 11
488.43261307452963
 21
409.74700502020738
 31
0.0
  0
LINE
  5
3163
  8
L1
 10
488.43261307452963
 20
409.74700502020738
 30
0.0
 11
490.93261307452963
 21
409.74700502020738
 31
0.0
  0
LINE
  5
3164
  8
L1
 10
490.93261307452963
 20
408.24700502020738
 30
0.0
 11
488.43261307452963
 21
408.24700502020738
 31
0.0
  0
LINE
  5
3165
  8
L1
 10
488.43261307452963
 20
406.24700502020738
 30
0.0
 11
490.93261307452963
 21
406.24700502020738
 31
0.0
  0
LINE
  5
3166
  8
L1
 10
488.43261307452963
 20
404.74700502020738
 30
0.0
 11
488.43261307452963
 21
406.24700502020738
 31
0.0
  0
LINE
  5
3167
  8
L1
 10
490.93261307452963
 20
404.74700502020738
 30
0.0
 11
488.43261307452963
 21
404.74700502020738
 31
0.0
  0
LINE
  5
3168
  8
L1
 10
488.43261307452963
 20
433.24700502020738
 30
0.0
 11
488.43261307452963
 21
434.74700502020738
 31
0.0
  0
LINE
  5
3169
  8
L1
 10
488.43261307452963
 20
434.74700502020738
 30
0.0
 11
490.93261307452963
 21
434.74700502020738
 31
0.0
  0
LINE
  5
316A
  8
L1
 10
490.93261307452963
 20
433.24700502020738
 30
0.0
 11
488.43261307452963
 21
433.24700502020738
 31
0.0
  0
LINE
  5
316B
  8
L1
 10
488.43261307452963
 20
431.24700502020738
 30
0.0
 11
490.93261307452963
 21
431.24700502020738
 31
0.0
  0
LINE
  5
316C
  8
L1
 10
488.43261307452963
 20
429.74700502020738
 30
0.0
 11
488.43261307452963
 21
431.24700502020738
 31
0.0
  0
LINE
  5
316D
  8
L1
 10
490.93261307452963
 20
429.74700502020738
 30
0.0
 11
488.43261307452963
 21
429.74700502020738
 31
0.0
  0
LINE
  5
316E
  8
L1
 10
490.93261307452963
 20
454.74700502020738
 30
0.0
 11
488.43261307452963
 21
454.74700502020738
 31
0.0
  0
LINE
  5
316F
  8
L1
 10
488.43261307452963
 20
454.74700502020738
 30
0.0
 11
488.43261307452963
 21
456.24700502020738
 31
0.0
  0
LINE
  5
3170
  8
L1
 10
488.43261307452963
 20
456.24700502020738
 30
0.0
 11
490.93261307452963
 21
456.24700502020738
 31
0.0
  0
LINE
  5
3171
  8
L1
 10
490.93261307452963
 20
458.24700502020738
 30
0.0
 11
488.43261307452963
 21
458.24700502020738
 31
0.0
  0
LINE
  5
3172
  8
L1
 10
488.43261307452963
 20
459.74700502020738
 30
0.0
 11
490.93261307452963
 21
459.74700502020738
 31
0.0
  0
LINE
  5
3173
  8
L1
 10
488.43261307452963
 20
458.24700502020738
 30
0.0
 11
488.43261307452963
 21
459.74700502020738
 31
0.0
  0
LINE
  5
A59C
  8
L1
 10
221.28350243385611
 20
241.74700502020741
 30
0.0
 11
214.4326130745296
 21
241.74700502020741
 31
0.0
  0
LINE
  5
A59D
  8
L1
 10
470.58172371520311
 20
241.74700502020741
 30
0.0
 11
477.43261307452951
 21
241.7470050202073
 31
0.0
  0
ARC
  5
A9F3
  8
L1
 10
200.9326130745296
 20
227.74700502020741
 30
0.0
 40
1.0
 50
180.0
 51
270.0
  0
ARC
  5
A9F4
  8
L1
 10
490.93261307452963
 20
227.74700502020741
 30
0.0
 40
1.0
 50
270.0
 51
0.0
  0
ARC
  5
E431
  8
L1
 10
671.38210705108077
 20
467.24700502020738
 30
0.0
 40
0.5
 50
89.999999999999986
 51
180.0
  0
LINE
  5
EB36
  8
L1
 10
197.9326130745296
 20
462.74700502020738
 30
0.0
 11
190.9326130745296
 21
462.74700502020738
 31
0.0
  0
LINE
  5
EB37
  8
L1
 10
188.9326130745296
 20
460.74700502020738
 30
0.0
 11
188.9326130745296
 21
444.74700502020738
 31
0.0
  0
LINE
  5
EB38
  8
L1
 10
190.9326130745296
 20
442.74700502020738
 30
0.0
 11
197.9326130745296
 21
442.74700502020738
 31
0.0
  0
LINE
  5
EB39
  8
L1
 10
197.9326130745296
 20
460.24700502020738
 30
0.0
 11
188.9326130745296
 21
460.24700502020738
 31
0.0
  0
LINE
  5
EB3A
  8
L1
 10
188.9326130745296
 20
445.24700502020738
 30
0.0
 11
197.9326130745296
 21
445.24700502020738
 31
0.0
  0
LINE
  5
EB3B
  8
L1
 10
191.4326130745296
 20
460.24700502020738
 30
0.0
 11
191.4326130745296
 21
445.24700502020738
 31
0.0
  0
ARC
  5
EB3C
  8
L1
 10
190.9326130745296
 20
460.74700502020738
 30
0.0
 40
2.0
 50
90.0
 51
180.0
  0
ARC
  5
EB3D
  8
L1
 10
190.9326130745296
 20
444.74700502020738
 30
0.0
 40
2.0
 50
180.0
 51
270.0
  0
ARC
  5
EB58
  8
L1
 10
190.9326130745296
 20
304.74700502020738
 30
0.0
 40
2.0
 50
180.0
 51
270.0
  0
ARC
  5
EB59
  8
L1
 10
190.9326130745296
 20
320.74700502020738
 30
0.0
 40
2.0
 50
90.0
 51
180.0
  0
LINE
  5
EB5A
  8
L1
 10
191.4326130745296
 20
320.24700502020738
 30
0.0
 11
191.4326130745296
 21
305.24700502020738
 31
0.0
  0
LINE
  5
EB5B
  8
L1
 10
188.9326130745296
 20
305.24700502020738
 30
0.0
 11
197.9326130745296
 21
305.24700502020738
 31
0.0
  0
LINE
  5
EB5C
  8
L1
 10
197.9326130745296
 20
320.24700502020738
 30
0.0
 11
188.9326130745296
 21
320.24700502020738
 31
0.0
  0
LINE
  5
EB5D
  8
L1
 10
190.9326130745296
 20
302.74700502020738
 30
0.0
 11
197.9326130745296
 21
302.74700502020738
 31
0.0
  0
LINE
  5
EB5E
  8
L1
 10
188.9326130745296
 20
320.74700502020738
 30
0.0
 11
188.9326130745296
 21
304.74700502020738
 31
0.0
  0
LINE
  5
EB5F
  8
L1
 10
197.9326130745296
 20
322.74700502020738
 30
0.0
 11
190.9326130745296
 21
322.74700502020738
 31
0.0
  0
ARC
  5
EB60
  8
L1
 10
500.93261307452963
 20
444.74700502020738
 30
0.0
 40
2.0
 50
270.0
 51
0.0
  0
ARC
  5
EB61
  8
L1
 10
500.93261307452963
 20
460.74700502020738
 30
0.0
 40
2.0
 50
0.0
 51
90.0
  0
LINE
  5
EB62
  8
L1
 10
500.43261307452963
 20
460.24700502020738
 30
0.0
 11
500.43261307452963
 21
445.24700502020738
 31
0.0
  0
LINE
  5
EB63
  8
L1
 10
502.93261307452963
 20
445.24700502020738
 30
0.0
 11
493.93261307452963
 21
445.24700502020738
 31
0.0
  0
LINE
  5
EB64
  8
L1
 10
493.93261307452963
 20
460.24700502020738
 30
0.0
 11
502.93261307452963
 21
460.24700502020738
 31
0.0
  0
LINE
  5
EB65
  8
L1
 10
500.93261307452963
 20
442.74700502020738
 30
0.0
 11
493.93261307452963
 21
442.74700502020738
 31
0.0
  0
LINE
  5
EB66
  8
L1
 10
502.93261307452963
 20
460.74700502020738
 30
0.0
 11
502.93261307452963
 21
444.74700502020738
 31
0.0
  0
LINE
  5
EB67
  8
L1
 10
493.93261307452963
 20
462.74700502020738
 30
0.0
 11
500.93261307452963
 21
462.74700502020738
 31
0.0
  0
LINE
  5
EB68
  8
L1
 10
493.93261307452963
 20
322.74700502020738
 30
0.0
 11
500.93261307452963
 21
322.74700502020738
 31
0.0
  0
LINE
  5
EB69
  8
L1
 10
502.93261307452963
 20
320.74700502020738
 30
0.0
 11
502.93261307452963
 21
304.74700502020738
 31
0.0
  0
LINE
  5
EB6A
  8
L1
 10
500.93261307452963
 20
302.74700502020738
 30
0.0
 11
493.93261307452963
 21
302.74700502020738
 31
0.0
  0
LINE
  5
EB6B
  8
L1
 10
493.93261307452963
 20
320.24700502020738
 30
0.0
 11
502.93261307452963
 21
320.24700502020738
 31
0.0
  0
LINE
  5
EB6C
  8
L1
 10
502.93261307452963
 20
305.24700502020738
 30
0.0
 11
493.93261307452963
 21
305.24700502020738
 31
0.0
  0
LINE
  5
EB6D
  8
L1
 10
500.43261307452963
 20
320.24700502020738
 30
0.0
 11
500.43261307452963
 21
305.24700502020738
 31
0.0
  0
ARC
  5
EB6E
  8
L1
 10
500.93261307452963
 20
320.74700502020738
 30
0.0
 40
2.0
 50
0.0
 51
90.0
  0
ARC
  5
EB6F
  8
L1
 10
500.93261307452963
 20
304.74700502020738
 30
0.0
 40
2.0
 50
270.0
 51
0.0
  0
ARC
  5
EBB8
  8
L1
 10
978.40897396128184
 20
444.74700502020738
 30
0.0
 40
2.0
 50
180.0
 51
270.0
  0
ARC
  5
EBB9
  8
L1
 10
978.40897396128184
 20
460.74700502020738
 30
0.0
 40
2.0
 50
90.0
 51
180.0
  0
LINE
  5
EBBA
  8
L1
 10
978.90897396128173
 20
460.24700502020738
 30
0.0
 11
978.90897396128173
 21
445.24700502020738
 31
0.0
  0
LINE
  5
EBBB
  8
L1
 10
976.40897396128184
 20
445.24700502020738
 30
0.0
 11
985.40897396128184
 21
445.24700502020738
 31
0.0
  0
LINE
  5
EBBC
  8
L1
 10
985.40897396128184
 20
460.24700502020738
 30
0.0
 11
976.40897396128184
 21
460.24700502020738
 31
0.0
  0
LINE
  5
EBBD
  8
L1
 10
978.40897396128184
 20
442.74700502020738
 30
0.0
 11
985.40897396128184
 21
442.74700502020738
 31
0.0
  0
LINE
  5
EBBE
  8
L1
 10
976.40897396128184
 20
460.74700502020738
 30
0.0
 11
976.40897396128184
 21
444.74700502020738
 31
0.0
  0
LINE
  5
EBBF
  8
L1
 10
985.40897396128184
 20
462.74700502020738
 30
0.0
 11
978.40897396128184
 21
462.74700502020738
 31
0.0
  0
LINE
  5
EBC0
  8
L1
 10
985.40897396128184
 20
322.74700502020738
 30
0.0
 11
978.40897396128184
 21
322.74700502020738
 31
0.0
  0
LINE
  5
EBC1
  8
L1
 10
976.40897396128184
 20
320.74700502020738
 30
0.0
 11
976.40897396128184
 21
304.74700502020738
 31
0.0
  0
LINE
  5
EBC2
  8
L1
 10
978.40897396128184
 20
302.74700502020738
 30
0.0
 11
985.40897396128184
 21
302.74700502020738
 31
0.0
  0
LINE
  5
EBC3
  8
L1
 10
985.40897396128184
 20
320.24700502020738
 30
0.0
 11
976.40897396128184
 21
320.24700502020738
 31
0.0
  0
LINE
  5
EBC4
  8
L1
 10
976.40897396128184
 20
305.24700502020738
 30
0.0
 11
985.40897396128184
 21
305.24700502020738
 31
0.0
  0
LINE
  5
EBC5
  8
L1
 10
978.90897396128173
 20
320.24700502020738
 30
0.0
 11
978.90897396128173
 21
305.24700502020738
 31
0.0
  0
ARC
  5
EBC6
  8
L1
 10
978.40897396128184
 20
320.74700502020738
 30
0.0
 40
2.0
 50
90.0
 51
180.0
  0
ARC
  5
EBC7
  8
L1
 10
978.40897396128184
 20
304.74700502020738
 30
0.0
 40
2.0
 50
180.0
 51
270.0
  0
LINE
  5
EBC8
  8
L1
 10
1281.4089739612809
 20
320.24700502020738
 30
0.0
 11
1290.4089739612809
 21
320.24700502020738
 31
0.0
  0
LINE
  5
EBC9
  8
L1
 10
1287.9089739612821
 20
320.24700502020738
 30
0.0
 11
1287.9089739612821
 21
305.24700502020738
 31
0.0
  0
LINE
  5
EBCA
  8
L1
 10
1290.4089739612809
 20
320.74700502020738
 30
0.0
 11
1290.4089739612809
 21
304.74700502020738
 31
0.0
  0
ARC
  5
EBCB
  8
L1
 10
1288.4089739612809
 20
320.74700502020738
 30
0.0
 40
2.0
 50
0.0
 51
90.0
  0
LINE
  5
EBCC
  8
L1
 10
1281.4089739612809
 20
322.74700502020738
 30
0.0
 11
1288.4089739612809
 21
322.74700502020738
 31
0.0
  0
LINE
  5
EBCD
  8
L1
 10
1290.4089739612809
 20
305.24700502020738
 30
0.0
 11
1281.4089739612809
 21
305.24700502020738
 31
0.0
  0
LINE
  5
EBCE
  8
L1
 10
1288.4089739612809
 20
302.74700502020738
 30
0.0
 11
1281.4089739612809
 21
302.74700502020738
 31
0.0
  0
ARC
  5
EBCF
  8
L1
 10
1288.4089739612809
 20
304.74700502020738
 30
0.0
 40
2.0
 50
270.0
 51
0.0
  0
LINE
  5
EBD0
  8
L1
 10
1288.4089739612809
 20
442.74700502020738
 30
0.0
 11
1281.4089739612809
 21
442.74700502020738
 31
0.0
  0
LINE
  5
EBD1
  8
L1
 10
1290.4089739612809
 20
445.24700502020738
 30
0.0
 11
1281.4089739612809
 21
445.24700502020738
 31
0.0
  0
ARC
  5
EBD2
  8
L1
 10
1288.4089739612809
 20
444.74700502020738
 30
0.0
 40
2.0
 50
270.0
 51
0.0
  0
LINE
  5
EBD3
  8
L1
 10
1287.9089739612821
 20
460.24700502020738
 30
0.0
 11
1287.9089739612821
 21
445.24700502020738
 31
0.0
  0
LINE
  5
EBD4
  8
L1
 10
1290.4089739612809
 20
460.74700502020738
 30
0.0
 11
1290.4089739612809
 21
444.74700502020738
 31
0.0
  0
LINE
  5
EBD5
  8
L1
 10
1281.4089739612809
 20
460.24700502020738
 30
0.0
 11
1290.4089739612809
 21
460.24700502020738
 31
0.0
  0
LINE
  5
EBD6
  8
L1
 10
1281.4089739612809
 20
462.74700502020738
 30
0.0
 11
1288.4089739612809
 21
462.74700502020738
 31
0.0
  0
ARC
  5
EBD7
  8
L1
 10
1288.4089739612809
 20
460.74700502020738
 30
0.0
 40
2.0
 50
0.0
 51
90.0
  0
LINE
  5
12152
  8
L1
 10
1000.908973961281
 20
467.74700502020738
 30
0.0
 11
1000.908973961281
 21
452.74700502020738
 31
0.0
  0
LINE
  5
12153
  8
L1
 10
1000.908973961281
 20
452.74700502020738
 30
0.0
 11
998.40897396128184
 21
452.74700502020738
 31
0.0
  0
LINE
  5
12154
  8
L1
 10
1265.9089739612809
 20
467.74700502020738
 30
0.0
 11
1265.9089739612809
 21
452.74700502020738
 31
0.0
  0
LINE
  5
12155
  8
L1
 10
1265.9089739612809
 20
452.74700502020738
 30
0.0
 11
1268.4089739612821
 21
452.74700502020738
 31
0.0
  0
LINE
  5
15881
  8
L6
 10
1009.408973961281
 20
243.74700502020741
 30
0.0
 11
1033.4089739612809
 21
243.74700502020741
 31
0.0
  0
LINE
  5
15882
  8
L6
 10
1021.408973961281
 20
231.74700502020741
 30
0.0
 11
1021.408973961281
 21
255.74700502020741
 31
0.0
  0
LINE
  5
15883
  8
L6
 10
1037.4089739612809
 20
243.74700502020741
 30
0.0
 11
1061.4089739612809
 21
243.74700502020741
 31
0.0
  0
LINE
  5
15884
  8
L6
 10
1049.4089739612809
 20
231.74700502020741
 30
0.0
 11
1049.4089739612809
 21
255.74700502020741
 31
0.0
  0
LINE
  5
15885
  8
L6
 10
1205.4089739612809
 20
243.74700502020741
 30
0.0
 11
1229.4089739612809
 21
243.74700502020741
 31
0.0
  0
LINE
  5
15886
  8
L6
 10
1217.4089739612821
 20
231.74700502020741
 30
0.0
 11
1217.4089739612821
 21
255.74700502020741
 31
0.0
  0
LINE
  5
15887
  8
L6
 10
1233.4089739612821
 20
243.74700502020741
 30
0.0
 11
1257.4089739612809
 21
243.74700502020741
 31
0.0
  0
LINE
  5
15888
  8
L6
 10
1245.4089739612809
 20
231.74700502020741
 30
0.0
 11
1245.4089739612809
 21
255.74700502020741
 31
0.0
  0
LINE
  5
15976
  8
L6
 10
993.40897396128184
 20
246.74700502020741
 30
0.0
 11
993.40897396128184
 21
228.74700502020741
 31
0.0
  0
LINE
  5
19159
  8
L6
 10
483.42556308368682
 20
257.74700502020738
 30
0.0
 11
483.42556308368682
 21
252.74700502020741
 31
0.0
  0
LINE
  5
1A6F9
  8
L1
 10
988.40897396128184
 20
297.74700502020738
 30
0.0
 11
998.40897396128184
 21
297.74700502020738
 31
0.0
  0
LINE
  5
1A6FA
  8
L1
 10
988.40897396128184
 20
287.74700502020738
 30
0.0
 11
998.40897396128184
 21
287.74700502020738
 31
0.0
  0
LINE
  5
1A6FB
  8
L1
 10
988.40897396128184
 20
281.74700502020738
 30
0.0
 11
998.40897396128184
 21
281.74700502020738
 31
0.0
  0
LINE
  5
1A6FC
  8
L1
 10
1268.4089739612821
 20
281.74700502020738
 30
0.0
 11
1278.4089739612821
 21
281.74700502020738
 31
0.0
  0
LINE
  5
1A6FD
  8
L1
 10
1268.4089739612821
 20
287.74700502020738
 30
0.0
 11
1278.4089739612821
 21
287.74700502020738
 31
0.0
  0
LINE
  5
1A6FE
  8
L1
 10
1268.4089739612821
 20
297.74700502020738
 30
0.0
 11
1278.4089739612821
 21
297.74700502020738
 31
0.0
  0
INSERT
  5
1E485
  8
ASHADE
  6
CENTER
 62
     1
  2
AVE_RENDER
 10
-478.93261307452963
 20
-279.74700502020738
 30
0.0
1001
AVE_RENDER
1002
{
1070
     7
1000
Pref
1070
    30
1070
    20
1070
     1
1070
     0
1000

1070
    10
1070
     1
1070
    10
1040
1.0
1070
     1
1040
0.3
1040
0.7
1040
0.0
1040
10.0
1010
-1.0
1020
-1.0
1030
-1.0
1040
0.3
1070
    49
1070
     0
1070
     0
1010
1.0
1020
1.0
1030
1.0
1040
45.0
1070
     1
1070
     0
1000
WCS
1040
0.0
1070
     0
1040
10.0
1002
}
  0
INSERT
  5
1E486
  8
ASHADE
  6
CENTER
 62
     3
  2
AVE_RENDER
 10
-478.93261307452963
 20
-279.74700502020738
 30
0.0
1001
AVE_RENDER
1002
{
1070
     0
1000
Full Opt
1070
     0
1070
     1
1070
     1
1070
     1
1070
     0
1070
     0
1070
     0
1070
     1
1070
     1
1040
0.0001
1040
0.0001
1002
}
  0
INSERT
  5
1E487
  8
ASHADE
  6
CENTER
 62
     4
  2
AVE_RENDER
 10
-478.93261307452963
 20
-279.74700502020738
 30
0.0
1001
AVE_RENDER
1002
{
1070
     0
1000
Quick Opt
1070
     0
1070
     1
1070
     1
1070
     1
1070
     0
1070
     0
1070
     1
1002
}
  0
INSERT
  5
1E488
  8
ASHADE
  6
CENTER
 62
     5
  2
AVE_RENDER
 10
-478.93261307452963
 20
-279.74700502020738
 30
0.0
1001
AVE_RENDER
1002
{
1070
     1
1000
Scanl Opt
1070
     2
1070
     0
1070
     2
1040
2.0
1040
4.0
1070
     0
1070
     1
1070
     0
1040
0.03
1002
}
  0
INSERT
  5
1E489
  8
ASHADE
  6
CENTER
 62
     6
  2
AVE_RENDER
 10
-478.93261307452963
 20
-279.74700502020738
 30
0.0
1001
AVE_RENDER
1002
{
1070
     2
1000
Raytr Opt
1070
     2
1070
     0
1070
     2
1040
2.0
1040
4.0
1070
     0
1070
     1
1070
     1
1040
0.03
1070
     3
1040
0.03
1002
}
  0
INSERT
  5
1E48A
  8
ASHADE
  6
CENTER
 62
     7
  2
AVE_RENDER
 10
-478.93261307452963
 20
-279.74700502020738
 30
0.0
1001
AVE_RENDER
1002
{
1070
     0
1000
RFile Opt
1070
     1
1070
   640
1070
   480
1070
 10000
1070
     1
1070
     8
1070
     8
1070
     0
1070
     0
1070
     0
1070
     0
1070
     0
1070
     0
1070
     0
1002
}
  0
INSERT
  5
1E48B
  8
ASHADE
  6
CENTER
 62
     8
  2
AVE_RENDER
 10
-478.93261307452963
 20
-279.74700502020738
 30
0.0
1001
AVE_RENDER
1002
{
1070
     0
1000
Fog Opt
1070
     0
1070
     0
1040
0.0
1040
1.0
1040
0.0
1040
1.0
1010
0.5
1020
0.5
1030
0.5
1002
}
  0
INSERT
  5
1E48C
  8
ASHADE
  6
CENTER
 62
     9
  2
AVE_RENDER
 10
-478.93261307452963
 20
-279.74700502020738
 30
0.0
1001
AVE_RENDER
1002
{
1070
     0
1000
BG Opt
1070
     0
1070
     1
1010
0.0
1020
0.0
1030
0.0
1010
1.0
1020
0.0
1030
0.0
1010
0.0
1020
1.0
1030
0.0
1010
0.0
1020
0.0
1030
1.0
1040
0.5
1040
0.33
1040
0.0
1000

1070
     1
1000

1070
     1
1070
     1
1040
1.0
1040
1.0
1040
0.0
1040
0.0
1070
     0
1002
}
  0
INSERT
  5
1E48D
  8
ASHADE
  6
CENTER
 62
     1
  2
AVE_GLOBAL
 10
-478.93261307452963
 20
-279.74700502020738
 30
0.0
1001
AVE_MATERIAL
1002
{
1000
*GLOBAL*
1000
1
1000
Global finish.
1002
{
1002
}
1002
{
1070
    63
1002
{
1002
{
1010
-1.0
1020
-1.0
1030
-1.0
1002
}
1040
0.1000000014901161
1000

1040
0.0
1002
{
1002
}
1040
0.0
1002
{
1002
}
1040
0.0
1002
}
1002
{
1002
{
1010
-1.0
1020
-1.0
1030
-1.0
1002
}
1040
0.699999988079071
1000

1040
0.0
1002
{
1002
}
1040
0.0
1002
{
1002
}
1040
0.0
1002
}
1002
{
1002
{
1010
-1.0
1020
-1.0
1030
-1.0
1002
}
1040
0.2000000029802322
1000

1040
0.0
1002
{
1002
}
1040
0.0
1002
{
1002
}
1040
0.0
1002
}
1002
{
1070
     0
1002
{
1070
     1
1002
{
1040
1.0
1040
1.0
1000

1040
0.0
1002
{
1002
}
1040
0.0
1002
{
1002
}
1040
0.0
1002
}
1002
}
1040
1.0
1040
0.0
1040
0.0
1002
}
1002
{
1040
1.0
1040
1.0
1000

1040
0.0
1002
{
1002
}
1040
0.0
1002
{
1002
}
1040
0.0
1002
}
1002
{
1040
0.5
1040
1.0
1000

1040
0.0
1002
{
1002
}
1040
0.0
1002
{
1002
}
1040
0.0
1002
}
1002
{
1070
     0
1040
0.0
1002
{
1002
}
1040
1.0
1002
{
1002
}
1040
0.0
1002
}
1002
{
1040
0.0
1002
{
1002
{
1010
0.0
1020
0.0
1030
0.0
1002
}
1040
1.0
1000

1040
0.0
1002
{
1002
}
1040
0.0
1002
{
1002
}
1040
0.0
1002
}
1002
}
1002
{
1002
{
1070
     1
1002
{
1040
0.0
1040
1.0
1000

1040
0.0
1002
{
1002
}
1040
0.0
1002
{
1002
}
1040
0.0
1002
}
1002
}
1040
0.0
1002
{
1002
}
1010
1.0
1020
0.0
1030
0.0
1010
0.0
1020
1.0
1030
0.0
1010
0.0
1020
0.0
1030
1.0
1070
     0
1002
}
1002
{
1002
{
1040
1.0
1040
1.0
1002
{
1070
     1
1002
{
1040
1.0
1040
1.0
1000

1040
0.0
1002
{
1002
}
1040
0.0
1002
{
1002
}
1040
0.0
1002
}
1002
}
1002
}
1070
     0
1040
0.0
1002
{
1002
}
1002
}
1002
{
1002
}
1002
}
1002
{
1071
        3
1070
     3
1070
     0
1002
{
1070
     2
1070
     0
1070
     0
1040
0.0
1002
}
1070
     0
1070
     2
1002
{
1002
}
1002
}
1002
{
1040
8030.0
1040
190.30000305175781
1040
0.3050000071525574
1040
228.0
1040
545.0
1040
14.0
1040
17.39999961853027
1040
0.4560000002384186
1002
}
1002
}
  0
LINE
  5
1EDC7
  8
L1
 10
194.63261307452959
 20
728.54462549858067
 30
0.0
 11
197.9326130745296
 21
728.54462549858101
 31
0.0
  0
LINE
  5
1EDC8
  8
L1
 10
497.23261307452958
 20
728.54462549858079
 30
0.0
 11
493.93261307452963
 21
728.54462549858067
 31
0.0
  0
LINE
  5
1EDCA
  8
L1
 10
194.4326130745296
 20
731.74462549858094
 30
0.0
 11
194.4326130745296
 21
728.74462549858083
 31
0.0
  0
LINE
  5
1EDCB
  8
L1
 10
497.43261307452951
 20
731.74462549858094
 30
0.0
 11
497.43261307452951
 21
728.74462549858094
 31
0.0
  0
LINE
  5
1EDCF
  8
L1
 10
197.9326130745296
 20
731.74462549858094
 30
0.0
 11
345.93261307452963
 21
731.74462549858094
 31
0.0
  0
ARC
  5
1EDD0
  8
L1
 10
194.63261307452959
 20
728.74462549858083
 30
0.0
 40
0.2
 50
180.00000000000051
 51
270.00000000000182
  0
ARC
  5
1EDD1
  8
L1
 10
497.23261307452958
 20
728.74462549858094
 30
0.0
 40
0.2
 50
270.0
 51
0.0
  0
LINE
  5
1EDD2
  8
L1
 10
493.93261307452963
 20
731.74462549858094
 30
0.0
 11
345.93261307452963
 21
731.74462549858094
 31
0.0
  0
LINE
  5
1EDD3
  8
L1
  6
CONTINUOUS
 10
197.9326130745296
 20
460.24700502020738
 30
0.0
 11
197.9326130745296
 21
462.74700502020738
 31
0.0
  0
LINE
  5
1EDD4
  8
L1
  6
CONTINUOUS
 10
197.9326130745296
 20
442.74700502020738
 30
0.0
 11
197.9326130745296
 21
445.24700502020738
 31
0.0
  0
LINE
  5
1EDD5
  8
L1
  6
CONTINUOUS
 10
197.9326130745296
 20
322.74700502020738
 30
0.0
 11
197.9326130745296
 21
320.24700502020733
 31
0.0
  0
LINE
  5
1EDD6
  8
L1
  6
CONTINUOUS
 10
197.9326130745296
 20
305.24700502020738
 30
0.0
 11
197.9326130745296
 21
302.74700502020738
 31
0.0
  0
LINE
  5
1EDD7
  8
L1
  6
CONTINUOUS
 10
493.93261307452951
 20
462.74700502020738
 30
0.0
 11
493.93261307452951
 21
459.74700502020738
 31
0.0
  0
LINE
  5
1EDD8
  8
L1
  6
CONTINUOUS
 10
493.93261307452963
 20
445.24700502020738
 30
0.0
 11
493.93261307452963
 21
442.74700502020738
 31
0.0
  0
LINE
  5
1EDDA
  8
L1
  6
CONTINUOUS
 10
493.93261307452963
 20
302.74700502020738
 30
0.0
 11
493.93261307452963
 21
305.24700502020738
 31
0.0
  0
LINE
  5
1EDDC
  8
L1
  6
CONTINUOUS
 10
493.93261307452963
 20
322.74700502020738
 30
0.0
 11
493.93261307452963
 21
320.24700502020738
 31
0.0
  0
LINE
  5
1EDDD
  8
L1
  6
CONTINUOUS
 10
497.43261307452951
 20
322.74700502020738
 30
0.0
 11
497.43261307452951
 21
320.24700502020738
 31
0.0
  0
LINE
  5
1EDDE
  8
L1
  6
CONTINUOUS
 10
497.43261307452951
 20
302.74700502020738
 30
0.0
 11
497.43261307452951
 21
305.24700502020738
 31
0.0
  0
LINE
  5
1EDDF
  8
L1
  6
CONTINUOUS
 10
497.43261307452951
 20
462.74700502020738
 30
0.0
 11
497.43261307452951
 21
460.24700502020738
 31
0.0
  0
LINE
  5
1EDE0
  8
L1
  6
CONTINUOUS
 10
497.43261307452951
 20
445.24700502020738
 30
0.0
 11
497.43261307452951
 21
442.74700502020738
 31
0.0
  0
LINE
  5
1EDE1
  8
L1
  6
CONTINUOUS
 10
194.4326130745296
 20
460.24700502020738
 30
0.0
 11
194.4326130745296
 21
462.74700502020738
 31
0.0
  0
LINE
  5
1EDE2
  8
L1
  6
CONTINUOUS
 10
194.4326130745296
 20
442.74700502020738
 30
0.0
 11
194.4326130745296
 21
445.24700502020738
 31
0.0
  0
LINE
  5
1EDE3
  8
L1
  6
CONTINUOUS
 10
194.4326130745296
 20
322.74700502020738
 30
0.0
 11
194.4326130745296
 21
320.24700502020733
 31
0.0
  0
LINE
  5
1EDE4
  8
L1
  6
CONTINUOUS
 10
194.4326130745296
 20
305.24700502020738
 30
0.0
 11
194.4326130745296
 21
302.74700502020738
 31
0.0
  0
LINE
  5
1F11F
  8
L1
 10
346.68261307452963
 20
459.22018505303407
 30
0.0
 11
346.68261307452963
 21
465.74700502020738
 31
0.0
  0
LINE
  5
1F120
  8
L1
 10
345.18261307452963
 20
459.22018505303407
 30
0.0
 11
345.18261307452963
 21
465.74700502020738
 31
0.0
  0
LINE
  5
1F121
  8
L23
  6
DASHED
 10
758.4906142094045
 20
299.78802314875679
 30
0.0
 11
689.88210705108065
 21
299.78802314875708
 31
0.0
  0
LINE
  5
1F122
  8
L23
  6
DASHED
 10
751.99061420940438
 20
299.78802314875679
 30
0.0
 11
751.99061420940438
 21
290.28802314875668
 31
0.0
  0
LINE
  5
1F123
  8
L23
  6
DASHED
 10
758.4906142094045
 20
299.78802314875679
 30
0.0
 11
758.4906142094045
 21
290.78802314875668
 31
0.0
  0
LINE
  5
1F124
  8
L23
  6
DASHED
 10
758.4906142094045
 20
465.7059868916578
 30
0.0
 11
679.88210705108077
 21
465.7059868916578
 31
0.0
  0
LINE
  5
1F125
  8
L23
  6
DASHED
 10
758.4906142094045
 20
465.7059868916578
 30
0.0
 11
758.4906142094045
 21
474.7059868916578
 31
0.0
  0
LINE
  5
1F126
  8
L23
  6
DASHED
 10
751.99061420940438
 20
465.7059868916578
 30
0.0
 11
751.99061420940438
 21
475.2059868916578
 31
0.0
  0
LINE
  5
1F127
  8
L23
  6
DASHED
 10
681.25327455137585
 20
370.24700502020738
 30
0.0
 11
689.88210705108065
 21
370.24700502020738
 31
0.0
  0
LINE
  5
1F128
  8
L23
  6
DASHED
 10
689.88210705108065
 20
361.24700502020738
 30
0.0
 11
681.25327455137585
 21
361.24700502020738
 31
0.0
  0
LINE
  5
1F12D
  8
L23
  6
DASHED
 10
689.88210705108065
 20
273.74700502020738
 30
0.0
 11
679.88210705108065
 21
273.74700502020738
 31
0.0
  0
LINE
  5
1F12E
  8
L23
  6
DASHED
 10
679.88210705108077
 20
354.31435071194721
 30
0.0
 11
679.88210705108065
 21
273.74700502020738
 31
0.0
  0
LINE
  5
1F12F
  8
L23
  6
DASHED
 10
689.88210705108065
 20
477.74700502020738
 30
0.0
 11
689.88210705108065
 21
250.24700502020741
 31
0.0
  0
LINE
  5
1F130
  8
L23
  6
DASHED
 10
689.88210705108065
 20
259.24700502020738
 30
0.0
 11
679.88210705108065
 21
259.24700502020738
 31
0.0
  0
LINE
  5
1F131
  8
L23
  6
DASHED
 10
679.88210705108065
 20
260.74700502020733
 30
0.0
 11
679.88210705108077
 21
239.74700502020741
 31
0.0
  0
LINE
  5
1F132
  8
L23
  6
DASHED
 10
679.88210705108077
 20
239.74700502020741
 30
0.0
 11
684.88210705108065
 21
239.7470050202075
 31
0.0
  0
LINE
  5
1F133
  8
L23
  6
DASHED
 10
684.88210705108065
 20
239.74700502020741
 30
0.0
 11
684.88210705108065
 21
227.74700502020741
 31
0.0
  0
LINE
  5
1F134
  8
L23
  6
DASHED
 10
679.88210705108077
 20
438.24700502020738
 30
0.0
 11
679.88210705108077
 21
377.17965932846772
 31
0.0
  0
LINE
  5
1F135
  8
L23
  6
DASHED
 10
684.88210705108065
 20
438.24700502020738
 30
0.0
 11
679.88210705108077
 21
438.24700502020738
 31
0.0
  0
LINE
  5
1F136
  8
L23
  6
DASHED
 10
684.88210705108065
 20
459.24700502020733
 30
0.0
 11
684.88210705108065
 21
438.24700502020738
 31
0.0
  0
LINE
  5
1F137
  8
L23
  6
DASHED
 10
684.88210705108088
 20
459.24700502020738
 30
0.0
 11
679.88210705108077
 21
459.24700502020738
 31
0.0
  0
LINE
  5
1F138
  8
L23
  6
DASHED
 10
679.88210705108077
 20
465.7059868916578
 30
0.0
 11
679.88210705108077
 21
459.24700502020738
 31
0.0
  0
LINE
  5
1F139
  8
L23
  6
DASHED
 10
689.88210705108065
 20
250.24700502020741
 30
0.0
 11
679.88210705108065
 21
250.2470050202073
 31
0.0
  0
LINE
  5
1F13B
  8
L1
 10
14.983119097978481
 20
480.74700502020738
 30
0.0
 11
14.9831190979786
 21
224.74700502020741
 31
0.0
  0
LINE
  5
1F13D
  8
L1
 10
-71.016880902021512
 20
480.74700502020738
 30
0.0
 11
-71.016880902021398
 21
284.74700502020733
 31
0.0
  0
LINE
  5
1F13E
  8
L1
 10
-74.016880902021512
 20
478.84224271173213
 30
0.0
 11
-74.016880902021512
 21
286.65176732868252
 31
0.0
  0
LINE
  5
1F140
  8
L1
 10
14.9831190979786
 20
224.74700502020741
 30
0.0
 11
-30.21688090202144
 21
224.7470050202073
 31
0.0
  0
LINE
  5
1F143
  8
L1
 10
20.983119097978602
 20
248.24700502020741
 30
0.0
 11
20.983119097978602
 21
227.24700502020741
 31
0.0
  0
LINE
  5
1F144
  8
L1
 10
20.983119097978602
 20
227.24700502020741
 30
0.0
 11
14.9831190979786
 21
227.24700502020741
 31
0.0
  0
LINE
  5
1F145
  8
L1
 10
14.9831190979786
 20
248.24700502020741
 30
0.0
 11
20.983119097978602
 21
248.24700502020741
 31
0.0
  0
LINE
  5
1F152
  8
L1
 10
-67.016880902021512
 20
305.24700502020733
 30
0.0
 11
-67.016880902021512
 21
320.24700502020733
 31
0.0
  0
LINE
  5
1F153
  8
L1
 10
-57.016880902021512
 20
320.24700502020733
 30
0.0
 11
-57.016880902021512
 21
305.24700502020733
 31
0.0
  0
LINE
  5
1F154
  8
L1
 10
-34.516880902021391
 20
226.79938617444489
 30
0.0
 11
-34.516880902021391
 21
280.69462386596962
 31
0.0
  0
LINE
  5
1F155
  8
L1
 10
-33.016880902021391
 20
224.7470050202073
 30
0.0
 11
-33.016880902021391
 21
284.74700502020733
 31
0.0
  0
LINE
  5
1F156
  8
L1
 10
-33.016880902021391
 20
220.7470050202073
 30
0.0
 11
-31.288677671745969
 21
220.7470050202073
 31
0.0
  0
LINE
  5
1F157
  8
L1
 10
-33.016880902021391
 20
224.7470050202073
 30
0.0
 11
-33.016880902021391
 21
220.7470050202073
 31
0.0
  0
LINE
  5
1F158
  8
L1
 10
-30.21688090202144
 20
224.7470050202073
 30
0.0
 11
-31.288677671745969
 21
220.7470050202073
 31
0.0
  0
LINE
  5
1F159
  8
L1
 10
-33.016880902021391
 20
226.7470050202073
 30
0.0
 11
-34.516880902021391
 21
226.79938617444489
 31
0.0
  0
LINE
  5
1F15A
  8
L1
 10
-57.016880902021512
 20
305.24700502020733
 30
0.0
 11
-49.016880902021512
 21
305.24700502020733
 31
0.0
  0
LINE
  5
1F15B
  8
L1
 10
-71.016880902021512
 20
302.74700502020733
 30
0.0
 11
-51.016880902021512
 21
302.74700502020733
 31
0.0
  0
LINE
  5
1F15C
  8
L1
 10
-33.016880902021391
 20
284.74700502020733
 30
0.0
 11
-71.016880902021398
 21
284.74700502020733
 31
0.0
  0
LINE
  5
1F15D
  8
L1
 10
-33.016880902021391
 20
280.74700502020733
 30
0.0
 11
-34.516880902021391
 21
280.69462386596962
 31
0.0
  0
ARC
  5
1F15E
  8
L1
 10
-51.016880902021398
 20
304.74700502020733
 30
0.0
 40
2.0
 50
270.0
 51
0.000000000000007
  0
LINE
  5
1F15F
  8
L1
 10
-49.016880902021512
 20
305.24700502020733
 30
0.0
 11
-49.016880902021512
 21
304.74700502020733
 31
0.0
  0
LINE
  5
1F160
  8
L1
 10
-49.016880902021512
 20
304.74700502020733
 30
0.0
 11
-49.016880902021512
 21
304.74700502019732
 31
0.0
  0
LINE
  5
1F161
  8
L1
 10
-71.016880902021512
 20
305.24700502020733
 30
0.0
 11
-67.016880902021512
 21
305.24700502020733
 31
0.0
  0
LINE
  5
1F164
  8
L1
 10
-71.016880902021512
 20
286.54700502020722
 30
0.0
 11
-74.016880902021512
 21
286.65176732868252
 31
0.0
  0
LINE
  5
1F165
  8
L1
 10
-57.016880902021512
 20
320.24700502020733
 30
0.0
 11
-49.016880902021512
 21
320.24700502020733
 31
0.0
  0
LINE
  5
1F166
  8
L1
 10
-71.016880902021512
 20
322.74700502020733
 30
0.0
 11
-51.016880902021512
 21
322.74700502020733
 31
0.0
  0
ARC
  5
1F167
  8
L1
 10
-51.016880902021398
 20
320.74700502020733
 30
0.0
 40
2.0
 50
0.000000000000007
 51
90.000000000000028
  0
LINE
  5
1F168
  8
L1
 10
-49.016880902021512
 20
320.24700502020733
 30
0.0
 11
-49.016880902021512
 21
320.74700502020733
 31
0.0
  0
LINE
  5
1F169
  8
L1
 10
-71.016880902021512
 20
320.24700502020733
 30
0.0
 11
-67.016880902021512
 21
320.24700502020733
 31
0.0
  0
LINE
  5
1F16A
  8
L1
 10
-71.016880902021512
 20
480.74700502020738
 30
0.0
 11
14.983119097978481
 21
480.74700502020738
 31
0.0
  0
LINE
  5
1F16D
  8
L1
 10
20.983119097978481
 20
438.24700502020738
 30
0.0
 11
20.983119097978481
 21
452.74700502020738
 31
0.0
  0
LINE
  5
1F16E
  8
L1
 10
14.983119097978481
 20
438.24700502020738
 30
0.0
 11
20.983119097978481
 21
438.24700502020738
 31
0.0
  0
LINE
  5
1F170
  8
L1
 10
20.983119097978481
 20
467.24700502020738
 30
0.0
 11
20.983119097978481
 21
452.74700502020738
 31
0.0
  0
LINE
  5
1F171
  8
L1
 10
20.983119097978481
 20
452.74700502020738
 30
0.0
 11
14.983119097978481
 21
452.74700502020738
 31
0.0
  0
LINE
  5
1F172
  8
L1
 10
14.983119097978481
 20
467.74700502020738
 30
0.0
 11
20.483119097978491
 21
467.74700502020738
 31
0.0
  0
ARC
  5
1F173
  8
L1
 10
20.483119097978491
 20
467.24700502020738
 30
0.0
 40
0.5
 50
0.000000000000007
 51
90.000000000000028
  0
LINE
  5
1F176
  8
L1
 10
-67.016880902021512
 20
445.24700502020733
 30
0.0
 11
-67.016880902021512
 21
460.24700502020733
 31
0.0
  0
LINE
  5
1F177
  8
L1
 10
-57.016880902021512
 20
460.24700502020733
 30
0.0
 11
-57.016880902021512
 21
445.24700502020733
 31
0.0
  0
LINE
  5
1F178
  8
L1
 10
-57.016880902021512
 20
445.24700502020733
 30
0.0
 11
-49.016880902021512
 21
445.24700502020733
 31
0.0
  0
LINE
  5
1F179
  8
L1
 10
-71.016880902021512
 20
442.74700502020733
 30
0.0
 11
-51.016880902021512
 21
442.74700502020733
 31
0.0
  0
ARC
  5
1F17A
  8
L1
 10
-51.016880902021512
 20
444.74700502020733
 30
0.0
 40
2.0
 50
270.0
 51
0.000000000000007
  0
LINE
  5
1F17B
  8
L1
 10
-49.016880902021512
 20
444.74700502020733
 30
0.0
 11
-49.016880902021512
 21
444.74700502019732
 31
0.0
  0
LINE
  5
1F17C
  8
L1
 10
-49.016880902021512
 20
445.24700502020733
 30
0.0
 11
-49.016880902021512
 21
444.74700502020733
 31
0.0
  0
LINE
  5
1F17D
  8
L1
 10
-71.016880902021512
 20
445.24700502020733
 30
0.0
 11
-67.016880902021512
 21
445.24700502020733
 31
0.0
  0
LINE
  5
1F17E
  8
L1
 10
-57.016880902021512
 20
460.24700502020733
 30
0.0
 11
-49.016880902021512
 21
460.24700502020733
 31
0.0
  0
LINE
  5
1F17F
  8
L1
 10
-71.016880902021512
 20
462.74700502020733
 30
0.0
 11
-51.016880902021512
 21
462.74700502020733
 31
0.0
  0
LINE
  5
1F180
  8
L1
 10
-49.016880902021512
 20
460.24700502020733
 30
0.0
 11
-49.016880902021512
 21
460.74700502020733
 31
0.0
  0
ARC
  5
1F181
  8
L1
 10
-51.016880902021512
 20
460.74700502020733
 30
0.0
 40
2.0
 50
0.000000000000007
 51
90.000000000000028
  0
LINE
  5
1F184
  8
L1
 10
-71.016880902021512
 20
460.24700502020733
 30
0.0
 11
-67.016880902021512
 21
460.24700502020733
 31
0.0
  0
LINE
  5
1F185
  8
L1
 10
-71.016880902021512
 20
478.9470050202072
 30
0.0
 11
-74.016880902021512
 21
478.84224271173213
 31
0.0
  0
LINE
  5
1F186
  8
L23
  6
DASHED
 10
689.88210705108065
 20
365.7470050202075
 30
0.0
 11
689.88210705108065
 21
364.2470050202075
 31
0.0
  0
LINE
  5
1F187
  8
L23
  6
DASHED
 10
689.88210705108065
 20
364.2470050202075
 30
0.0
 11
689.08210705108047
 21
364.26700502020748
 31
0.0
  0
LINE
  5
1F188
  8
L23
  6
DASHED
 10
689.08210705108047
 20
364.26700502020748
 30
0.0
 11
689.08210705108047
 21
364.54700502020739
 31
0.0
  0
LINE
  5
1F189
  8
L23
  6
DASHED
 10
689.88210705108065
 20
365.7470050202075
 30
0.0
 11
689.88210705108065
 21
367.2470050202075
 31
0.0
  0
LINE
  5
1F18A
  8
L23
  6
DASHED
 10
689.88210705108065
 20
367.2470050202075
 30
0.0
 11
689.08210705108047
 21
367.22700502020751
 31
0.0
  0
LINE
  5
1F18B
  8
L23
  6
DASHED
 10
689.08210705108047
 20
367.22700502020751
 30
0.0
 11
689.08210705108047
 21
366.94700502020748
 31
0.0
  0
LINE
  5
1F18C
  8
L23
  6
DASHED
 10
689.08210705108047
 20
365.7470050202075
 30
0.0
 11
689.08210705108047
 21
366.94700502020748
 31
0.0
  0
LINE
  5
1F18D
  8
L23
  6
DASHED
 10
689.08210705108047
 20
366.94700502020748
 30
0.0
 11
680.88210705108065
 21
366.8670050202075
 31
0.0
  0
LINE
  5
1F18E
  8
L23
  6
DASHED
 10
680.88210705108065
 20
366.8670050202075
 30
0.0
 11
680.88210705108065
 21
365.7470050202075
 31
0.0
  0
LINE
  5
1F18F
  8
L23
  6
DASHED
 10
689.08210705108047
 20
365.7470050202075
 30
0.0
 11
689.08210705108047
 21
364.54700502020739
 31
0.0
  0
LINE
  5
1F190
  8
L23
  6
DASHED
 10
689.08210705108047
 20
364.54700502020739
 30
0.0
 11
680.88210705108065
 21
364.62700502020749
 31
0.0
  0
LINE
  5
1F191
  8
L23
  6
DASHED
 10
680.88210705108065
 20
364.62700502020749
 30
0.0
 11
680.88210705108065
 21
365.7470050202075
 31
0.0
  0
LINE
  5
1F192
  8
L1
  6
CENTER
 10
1275.4089739612809
 20
297.74700502020738
 30
0.0
 11
1275.4089739612809
 21
295.24700502020738
 31
0.0
  0
ARC
  5
1F193
  8
L1
  6
CENTER
 10
1270.9089739612809
 20
295.24700502020738
 30
0.0
 40
4.5
 50
270.0
 51
0.0
  0
LINE
  5
1F194
  8
L1
  6
CENTER
 10
1270.9089739612809
 20
290.7470050202075
 30
0.0
 11
1268.4089739612821
 21
290.74700502020738
 31
0.0
  0
LINE
  5
1F195
  8
L1
  6
CENTER
 10
998.40897396128184
 20
290.74700502020738
 30
0.0
 11
995.90897396128184
 21
290.74700502020738
 31
0.0
  0
ARC
  5
1F196
  8
L1
  6
CENTER
 10
995.90897396128184
 20
295.24700502020738
 30
0.0
 40
4.5
 50
180.0
 51
270.0
  0
LINE
  5
1F197
  8
L1
  6
CENTER
 10
991.40897396128173
 20
295.24700502020738
 30
0.0
 11
991.40897396128162
 21
297.74700502020738
 31
0.0
  0
LINE
  5
1F198
  8
L1
  6
DASHED
 10
1268.4089739612821
 20
474.74700502020738
 30
0.0
 11
1270.9089739612809
 21
474.74700502020738
 31
0.0
  0
ARC
  5
1F199
  8
L1
  6
DASHED
 10
1270.9089739612809
 20
470.24700502020733
 30
0.0
 40
4.5
 50
0.0
 51
90.0
  0
LINE
  5
1F19A
  8
L1
  6
DASHED
 10
1275.4089739612809
 20
470.24700502020733
 30
0.0
 11
1275.4089739612809
 21
467.74700502020738
 31
0.0
  0
LINE
  5
1F19B
  8
L1
  6
CENTER
 10
991.40897396128173
 20
467.74700502020738
 30
0.0
 11
991.40897396128173
 21
470.24700502020738
 31
0.0
  0
ARC
  5
1F19C
  8
L1
  6
CENTER
 10
995.90897396128184
 20
470.24700502020738
 30
0.0
 40
4.5
 50
90.0
 51
180.0
  0
LINE
  5
1F19D
  8
L1
  6
CENTER
 10
995.90897396128184
 20
474.74700502020738
 30
0.0
 11
998.40897396128184
 21
474.7470050202075
 31
0.0
  0
LINE
  5
1F19E
  8
L1
 10
493.93261307452963
 20
305.24700502020738
 30
0.0
 11
493.93261307452963
 21
320.24700502020738
 31
0.0
  0
LINE
  5
1F19F
  8
L1
 10
197.9326130745296
 20
302.74700502020738
 30
0.0
 11
197.9326130745296
 21
287.94700502020731
 31
0.0
  0
ARC
  5
1F1A0
  8
L1
 10
201.1326130745295
 20
287.94700502020731
 30
0.0
 40
3.1999999999999309
 50
180.0
 51
270.0
  0
LINE
  5
1F1A1
  8
L1
 10
201.1326130745295
 20
284.74700502020738
 30
0.0
 11
490.73261307452958
 21
284.74700502020738
 31
0.0
  0
ARC
  5
1F1A2
  8
L1
 10
490.73261307452958
 20
287.94700502020731
 30
0.0
 40
3.1999999999999309
 50
269.99999999999892
 51
0.0
  0
LINE
  5
1F1A3
  8
L1
 10
493.93261307452963
 20
287.94700502020731
 30
0.0
 11
493.93261307452963
 21
302.74700502020738
 31
0.0
  0
LINE
  5
1F1A4
  8
L1
 10
493.93261307452963
 20
322.7470050202075
 30
0.0
 11
493.93261307452963
 21
442.74700502020738
 31
0.0
  0
LINE
  5
1F1A5
  8
L1
 10
493.93261307452963
 20
445.24700502020733
 30
0.0
 11
493.93261307452963
 21
460.24700502020738
 31
0.0
  0
LINE
  5
1F1A6
  8
L1
 10
493.93261307452951
 20
462.74700502020738
 30
0.0
 11
493.93261307452963
 21
477.54700502020728
 31
0.0
  0
LINE
  5
1F1A7
  8
L1
 10
197.9326130745296
 20
320.24700502020733
 30
0.0
 11
197.9326130745296
 21
305.24700502020738
 31
0.0
  0
LINE
  5
1F1A8
  8
L1
 10
197.9326130745296
 20
442.74700502020738
 30
0.0
 11
197.9326130745296
 21
322.7470050202075
 31
0.0
  0
LINE
  5
1F1A9
  8
L1
 10
197.9326130745296
 20
460.24700502020738
 30
0.0
 11
197.9326130745296
 21
445.24700502020738
 31
0.0
  0
ARC
  5
1F1AA
  8
L1
 10
490.73261307452952
 20
477.54700502020728
 30
0.0
 40
3.200000000000045
 50
0.0
 51
89.999999999998977
  0
LINE
  5
1F1AB
  8
L1
 10
490.73261307452958
 20
480.74700502020738
 30
0.0
 11
201.1326130745295
 21
480.74700502020738
 31
0.0
  0
ARC
  5
1F1AC
  8
L1
 10
201.13261307452959
 20
477.54700502020739
 30
0.0
 40
3.1999999999999882
 50
90.000000000001023
 51
180.00000000000091
  0
LINE
  5
1F1AD
  8
L1
 10
197.9326130745296
 20
477.54700502020728
 30
0.0
 11
197.9326130745296
 21
462.74700502020738
 31
0.0
  0
LINE
  5
1F1AE
  8
L1
 10
345.93261307452963
 20
227.74700502020741
 30
0.0
 11
477.23261307452958
 21
227.74700502020741
 31
0.0
  0
ARC
  5
1F1AF
  8
L1
 10
477.23261307452958
 20
227.94700502020731
 30
0.0
 40
0.1999999999999602
 50
269.99999999998369
 51
359.99999999999181
  0
LINE
  5
1F1B0
  8
L1
 10
477.43261307452963
 20
227.94700502020731
 30
0.0
 11
477.43261307452963
 21
254.74700502020741
 31
0.0
  0
ARC
  5
1F1B1
  8
L1
 10
483.43261307452963
 20
254.74700502020741
 30
0.0
 40
6.0
 50
90.0
 51
180.0
  0
LINE
  5
1F1B2
  8
L1
 10
483.43261307452963
 20
260.74700502020738
 30
0.0
 11
490.73261307452958
 21
260.74700502020738
 31
0.0
  0
ARC
  5
1F1B3
  8
L1
 10
490.73261307452958
 20
260.94700502020731
 30
0.0
 40
0.1999999999999318
 50
269.99999999998369
 51
0.0
  0
LINE
  5
1F1B4
  8
L1
 10
490.93261307452963
 20
260.94700502020731
 30
0.0
 11
490.93261307452963
 21
279.54700502020728
 31
0.0
  0
ARC
  5
1F1B5
  8
L1
 10
490.73261307452952
 20
279.54700502020728
 30
0.0
 40
0.2000000000000455
 50
0.0
 51
89.999999999983714
  0
LINE
  5
1F1B6
  8
L1
 10
490.73261307452958
 20
279.74700502020738
 30
0.0
 11
345.93261307452963
 21
279.74700502020733
 31
0.0
  0
LINE
  5
1F1B7
  8
L1
 10
345.93261307452963
 20
226.74700502020741
 30
0.0
 11
477.23261307452958
 21
226.74700502020741
 31
0.0
  0
ARC
  5
1F1B8
  8
L1
 10
477.23261307452958
 20
227.94700502020731
 30
0.0
 40
1.19999999999996
 50
269.99999999999721
 51
359.99999999999858
  0
LINE
  5
1F1B9
  8
L1
 10
478.43261307452963
 20
227.94700502020731
 30
0.0
 11
478.43261307452963
 21
254.74700502020741
 31
0.0
  0
ARC
  5
1F1BA
  8
L1
 10
483.43261307452963
 20
254.74700502020741
 30
0.0
 40
5.0
 50
90.0
 51
180.0
  0
LINE
  5
1F1BB
  8
L1
 10
483.43261307452963
 20
259.74700502020738
 30
0.0
 11
490.73261307452958
 21
259.74700502020738
 31
0.0
  0
ARC
  5
1F1BC
  8
L1
 10
490.73261307452958
 20
260.94700502020731
 30
0.0
 40
1.1999999999999309
 50
269.99999999999721
 51
0.0
  0
LINE
  5
1F1BD
  8
L1
 10
491.93261307452963
 20
260.94700502020731
 30
0.0
 11
491.93261307452963
 21
279.54700502020728
 31
0.0
  0
ARC
  5
1F1BE
  8
L1
 10
490.73261307452952
 20
279.54700502020728
 30
0.0
 40
1.200000000000045
 50
0.0
 51
89.999999999997286
  0
LINE
  5
1F1BF
  8
L1
 10
490.73261307452958
 20
280.74700502020738
 30
0.0
 11
345.93261307452963
 21
280.74700502020733
 31
0.0
  0
LINE
  5
1F1C0
  8
L1
 10
345.93261307452963
 20
226.74700502020741
 30
0.0
 11
214.6326130745295
 21
226.74700502020741
 31
0.0
  0
ARC
  5
1F1C1
  8
L1
 10
214.6326130745295
 20
227.94700502020731
 30
0.0
 40
1.1999999999999309
 50
180.0
 51
270.0
  0
LINE
  5
1F1C2
  8
L1
 10
213.4326130745296
 20
227.94700502020731
 30
0.0
 11
213.4326130745296
 21
254.74700502020741
 31
0.0
  0
ARC
  5
1F1C3
  8
L1
 10
208.4326130745296
 20
254.74700502020741
 30
0.0
 40
5.0
 50
0.0
 51
90.0
  0
LINE
  5
1F1C4
  8
L1
 10
208.4326130745296
 20
259.74700502020738
 30
0.0
 11
201.1326130745295
 21
259.74700502020738
 31
0.0
  0
ARC
  5
1F1C5
  8
L1
 10
201.1326130745295
 20
260.94700502020731
 30
0.0
 40
1.1999999999999309
 50
180.0
 51
270.0
  0
LINE
  5
1F1C6
  8
L1
 10
199.9326130745296
 20
260.94700502020731
 30
0.0
 11
199.9326130745296
 21
279.54700502020728
 31
0.0
  0
ARC
  5
1F1C7
  8
L1
 10
201.13261307452959
 20
279.54700502020739
 30
0.0
 40
1.199999999999988
 50
90.000000000002728
 51
180.0000000000027
  0
LINE
  5
1F1C8
  8
L1
 10
201.1326130745295
 20
280.74700502020738
 30
0.0
 11
345.93261307452963
 21
280.74700502020733
 31
0.0
  0
LINE
  5
1F1C9
  8
L1
 10
345.93261307452963
 20
227.74700502020741
 30
0.0
 11
214.6326130745295
 21
227.74700502020741
 31
0.0
  0
ARC
  5
1F1CA
  8
L1
 10
214.6326130745295
 20
227.94700502020731
 30
0.0
 40
0.1999999999999318
 50
180.0
 51
270.0
  0
LINE
  5
1F1CB
  8
L1
 10
214.4326130745296
 20
227.94700502020731
 30
0.0
 11
214.4326130745296
 21
254.74700502020741
 31
0.0
  0
ARC
  5
1F1CC
  8
L1
 10
208.4326130745296
 20
254.74700502020741
 30
0.0
 40
6.0
 50
0.0
 51
90.0
  0
LINE
  5
1F1CD
  8
L1
 10
208.4326130745296
 20
260.74700502020738
 30
0.0
 11
201.1326130745295
 21
260.74700502020738
 31
0.0
  0
ARC
  5
1F1CE
  8
L1
 10
201.1326130745295
 20
260.94700502020731
 30
0.0
 40
0.1999999999999318
 50
180.0
 51
270.0
  0
LINE
  5
1F1CF
  8
L1
 10
200.9326130745296
 20
260.94700502020731
 30
0.0
 11
200.9326130745296
 21
279.54700502020728
 31
0.0
  0
ARC
  5
1F1D0
  8
L1
 10
201.13261307452959
 20
279.54700502020739
 30
0.0
 40
0.1999999999999886
 50
90.000000000016286
 51
180.0000000000162
  0
LINE
  5
1F1D1
  8
L1
 10
201.1326130745295
 20
279.74700502020738
 30
0.0
 11
345.93261307452963
 21
279.74700502020733
 31
0.0
  0
ARC
  5
1F1D2
  8
L1
 10
490.73261307452952
 20
477.54700502020739
 30
0.0
 40
1.4000000000000341
 50
359.99999999999761
 51
89.999999999997669
  0
LINE
  5
1F1D3
  8
L1
 10
490.73261307452958
 20
478.94700502020748
 30
0.0
 11
201.1326130745295
 21
478.94700502020748
 31
0.0
  0
ARC
  5
1F1D4
  8
L1
 10
201.13261307452959
 20
477.54700502020739
 30
0.0
 40
1.399999999999977
 50
90.000000000004633
 51
180.0000000000046
  0
LINE
  5
1F1D5
  8
L1
 10
199.73261307452961
 20
477.54700502020728
 30
0.0
 11
199.73261307452961
 21
287.94700502020731
 31
0.0
  0
ARC
  5
1F1D6
  8
L1
 10
201.13261307452959
 20
287.94700502020731
 30
0.0
 40
1.39999999999992
 50
179.99999999999761
 51
269.99999999999761
  0
LINE
  5
1F1D7
  8
L1
 10
201.1326130745295
 20
286.54700502020728
 30
0.0
 11
490.73261307452958
 21
286.54700502020728
 31
0.0
  0
ARC
  5
1F1D8
  8
L1
 10
490.73261307452958
 20
287.94700502020731
 30
0.0
 40
1.399999999999977
 50
270.0
 51
0.0
  0
LINE
  5
1F1D9
  8
L1
 10
492.13261307452962
 20
287.94700502020731
 30
0.0
 11
492.13261307452962
 21
477.54700502020728
 31
0.0
  0
ARC
  5
1F1DA
  8
L1
 10
490.73261307452952
 20
477.54700502020728
 30
0.0
 40
0.1999999999999886
 50
0.0
 51
90.0
  0
LINE
  5
1F1DB
  8
L1
 10
490.73261307452952
 20
477.74700502020738
 30
0.0
 11
201.1326130745295
 21
477.74700502020738
 31
0.0
  0
ARC
  5
1F1DC
  8
L1
 10
201.13261307452959
 20
477.54700502020739
 30
0.0
 40
0.1999999999999886
 50
90.000000000016286
 51
180.0000000000162
  0
LINE
  5
1F1DD
  8
L1
 10
200.9326130745296
 20
477.54700502020728
 30
0.0
 11
200.9326130745296
 21
287.94700502020731
 31
0.0
  0
ARC
  5
1F1DE
  8
L1
 10
201.1326130745295
 20
287.94700502020731
 30
0.0
 40
0.1999999999999318
 50
180.0
 51
270.0
  0
LINE
  5
1F1DF
  8
L1
 10
201.1326130745295
 20
287.74700502020738
 30
0.0
 11
490.73261307452958
 21
287.74700502020738
 31
0.0
  0
ARC
  5
1F1E0
  8
L1
 10
490.73261307452958
 20
287.94700502020731
 30
0.0
 40
0.1999999999999318
 50
269.99999999998369
 51
0.0
  0
LINE
  5
1F1E1
  8
L1
 10
490.93261307452963
 20
287.94700502020731
 30
0.0
 11
490.93261307452951
 21
477.54700502020728
 31
0.0
  0
TEXT
  5
1F2E7
  8
L23
  6
CONTINUOUS
 10
226.22534309410861
 20
540.10539682902595
 30
0.0
 40
28.0
  1
FIBOX CARDMASTER 30/25 -3 BASE
  0
VIEWPORT
  5
1
 67
     1
  8
0
 10
210.0
 20
152.0942408376963
 30
0.0
 40
420.0
 41
304.18848167539261
 68
    -1
 69
     1
1001
ACAD
1000
MVIEW
1002
{
1070
    16
1010
0.0
1020
0.0
1030
0.0
1010
0.0
1020
0.0
1030
1.0
1040
0.0
1040
304.18848167539261
1040
210.0
1040
152.0942408376963
1040
50.0
1040
0.0
1040
0.0
1070
     0
1070
   100
1070
     1
1070
     1
1070
     1
1070
     0
1070
     0
1070
     0
1040
0.0
1040
0.0
1040
0.0
1040
1.0
1040
1.0
1040
0.0
1040
0.0
1070
     0
1002
{
1002
}
1002
}
  0
VIEWPORT
  5
104AC
 67
     1
  8
L23
 10
64.0
 20
228.0
 30
0.0
 40
102.0
 41
110.0
 68
    -1
 69
     2
1001
ACAD
1000
MVIEW
1002
{
1070
    16
1010
0.0
1020
0.0
1030
0.0
1010
0.0
1020
0.0
1030
1.0
1040
0.0
1040
87.851878100637961
1040
993.21739130435128
1040
649.52628606219935
1040
50.0
1040
0.0
1040
0.0
1070
     0
1070
   100
1070
     1
1070
     0
1070
     1
1070
     0
1070
     0
1070
     0
1040
0.0
1040
0.0
1040
0.0
1040
1.0
1040
1.0
1040
10.0
1040
10.0
1070
     0
1002
{
1002
}
1002
}
  0
VIEWPORT
  5
104AE
 67
     1
  8
L23
 10
269.0
 20
117.5
 30
0.0
 40
302.0
 41
229.0
 68
     1
 69
     3
1001
ACAD
1000
MVIEW
1002
{
1070
    16
1010
0.0
1020
0.0
1030
0.0
1010
0.0
1020
0.0
1030
1.0
1040
0.0
1040
26.561432190259769
1040
987.09517177273005
1040
643.32614941855024
1040
50.0
1040
0.0
1040
0.0
1070
     0
1070
   100
1070
     1
1070
     0
1070
     0
1070
     0
1070
     0
1070
     0
1040
0.0
1040
0.0
1040
0.0
1040
1.0
1040
1.0
1040
10.0
1040
10.0
1070
     0
1002
{
1002
}
1002
}
  0
ENDSEC
  0
EOF
