  0
SECTION
  2
HEADER
  9
$ACADVER
  1
AC1009
  9
$INSBASE
 10
0.0
 20
0.0
 30
0.0
  9
$EXTMIN
 10
-2061.1919382898482
 20
922.13192037322904
 30
0.0
  9
$EXTMAX
 10
-1184.419603286605
 20
1435.1379865747051
 30
0.0
  9
$LIMMIN
 10
-412.57855704083528
 20
-366.0
  9
$LIMMAX
 10
427.42144295916461
 20
228.0
  9
$ORTHOMODE
 70
     1
  9
$REGENMODE
 70
     1
  9
$FILLMODE
 70
     1
  9
$QTEXTMODE
 70
     0
  9
$MIRRTEXT
 70
     1
  9
$DRAGMODE
 70
     2
  9
$LTSCALE
 40
7.0
  9
$OSMODE
 70
    55
  9
$ATTMODE
 70
     1
  9
$TEXTSIZE
 40
3.0
  9
$TRACEWID
 40
0.5
  9
$TEXTSTYLE
  7
SIMP
  9
$CLAYER
  8
2
  9
$CELTYPE
  6
BYLAYER
  9
$CECOLOR
 62
   256
  9
$DIMSCALE
 40
1.0
  9
$DIMASZ
 40
3.5
  9
$DIMEXO
 40
0.1
  9
$DIMDLI
 40
0.38
  9
$DIMRND
 40
0.0
  9
$DIMDLE
 40
0.0
  9
$DIMEXE
 40
0.18
  9
$DIMTP
 40
0.0
  9
$DIMTM
 40
0.0
  9
$DIMTXT
 40
3.5
  9
$DIMCEN
 40
1.0
  9
$DIMTSZ
 40
0.0
  9
$DIMTOL
 70
     0
  9
$DIMLIM
 70
     0
  9
$DIMTIH
 70
     0
  9
$DIMTOH
 70
     0
  9
$DIMSE1
 70
     0
  9
$DIMSE2
 70
     0
  9
$DIMTAD
 70
     1
  9
$DIMZIN
 70
     8
  9
$DIMBLK
  1

  9
$DIMASO
 70
     1
  9
$DIMSHO
 70
     1
  9
$DIMPOST
  1

  9
$DIMAPOST
  1

  9
$DIMALT
 70
     0
  9
$DIMALTD
 70
     2
  9
$DIMALTF
 40
25.399999999999999
  9
$DIMLFAC
 40
1.0
  9
$DIMTOFL
 70
     1
  9
$DIMTVP
 40
0.0
  9
$DIMTIX
 70
     0
  9
$DIMSOXD
 70
     0
  9
$DIMSAH
 70
     0
  9
$DIMBLK1
  1

  9
$DIMBLK2
  1

  9
$DIMSTYLE
  2
FIBOX
  9
$DIMCLRD
 70
     1
  9
$DIMCLRE
 70
     1
  9
$DIMCLRT
 70
     3
  9
$DIMTFAC
 40
1.0
  9
$DIMGAP
 40
1.0
  9
$LUNITS
 70
     2
  9
$LUPREC
 70
     1
  9
$SKETCHINC
 40
1.0
  9
$FILLETRAD
 40
0.0
  9
$AUNITS
 70
     0
  9
$AUPREC
 70
     2
  9
$MENU
  1
RL-CONS
  9
$ELEVATION
 40
0.0
  9
$PELEVATION
 40
0.0
  9
$THICKNESS
 40
0.0
  9
$LIMCHECK
 70
     0
  9
$BLIPMODE
 70
     0
  9
$CHAMFERA
 40
5.0
  9
$CHAMFERB
 40
5.0
  9
$SKPOLY
 70
     0
  9
$TDCREATE
 40
2449608.4648865741
  9
$TDUPDATE
 40
2453482.4089280441
  9
$TDINDWG
 40
0.9618667361
  9
$TDUSRTIMER
 40
0.9618667361
  9
$USRTIMER
 70
     1
  9
$ANGBASE
 50
0.0
  9
$ANGDIR
 70
     0
  9
$PDMODE
 70
    34
  9
$PDSIZE
 40
0.0
  9
$PLINEWID
 40
0.0
  9
$COORDS
 70
     2
  9
$SPLFRAME
 70
     0
  9
$SPLINETYPE
 70
     6
  9
$SPLINESEGS
 70
     8
  9
$ATTDIA
 70
     0
  9
$ATTREQ
 70
     1
  9
$HANDLING
 70
-16383
  9
$HANDSEED
  5
1DF7
  9
$SURFTAB1
 70
     6
  9
$SURFTAB2
 70
     6
  9
$SURFTYPE
 70
     6
  9
$SURFU
 70
     6
  9
$SURFV
 70
     6
  9
$UCSNAME
  2

  9
$UCSORG
 10
0.0
 20
0.0
 30
0.0
  9
$UCSXDIR
 10
1.0
 20
0.0
 30
0.0
  9
$UCSYDIR
 10
0.0
 20
1.0
 30
0.0
  9
$PUCSNAME
  2

  9
$PUCSORG
 10
0.0
 20
0.0
 30
0.0
  9
$PUCSXDIR
 10
1.0
 20
0.0
 30
0.0
  9
$PUCSYDIR
 10
0.0
 20
1.0
 30
0.0
  9
$USERI1
 70
     0
  9
$USERI2
 70
     0
  9
$USERI3
 70
     0
  9
$USERI4
 70
     0
  9
$USERI5
 70
     0
  9
$USERR1
 40
1.0
  9
$USERR2
 40
0.0
  9
$USERR3
 40
3.5
  9
$USERR4
 40
0.0
  9
$USERR5
 40
0.0
  9
$WORLDVIEW
 70
     1
  9
$SHADEDGE
 70
     3
  9
$SHADEDIF
 70
    70
  9
$TILEMODE
 70
     1
  9
$MAXACTVP
 70
    16
  9
$PLIMCHECK
 70
     0
  9
$PEXTMIN
 10
1.0000000000000000E+020
 20
1.0000000000000000E+020
 30
1.0000000000000000E+020
  9
$PEXTMAX
 10
-1.0000000000000000E+020
 20
-1.0000000000000000E+020
 30
-1.0000000000000000E+020
  9
$PLIMMIN
 10
-412.57855704083528
 20
-366.0
  9
$PLIMMAX
 10
7.421442959164664
 20
-69.0
  9
$UNITMODE
 70
     0
  9
$VISRETAIN
 70
     0
  9
$PLINEGEN
 70
     0
  9
$PSLTSCALE
 70
     0
  0
ENDSEC
  0
SECTION
  2
TABLES
  0
TABLE
  2
VPORT
 70
     4
  0
VPORT
  2
*ACTIVE
 70
     0
 10
0.0
 20
0.0
 11
1.0
 21
1.0
 12
-1210.2151475922769
 22
1550.78161250567
 13
0.0
 23
0.0
 14
1.0
 24
1.0
 15
10.0
 25
10.0
 16
0.0
 26
0.0
 36
1.0
 17
-412.57855704083528
 27
-366.0
 37
0.0
 40
567.40057003465449
 41
1.5552208835341359
 42
50.0
 43
0.0
 44
0.0
 50
0.0
 51
0.0
 71
     0
 72
   100
 73
     1
 74
     0
 75
     0
 76
     0
 77
     0
 78
     1
  0
ENDTAB
  0
TABLE
  2
LTYPE
 70
     2
  0
LTYPE
  2
CONTINUOUS
 70
     0
  3
Solid line
 72
    65
 73
     0
 40
0.0
  0
LTYPE
  2
HIDDEN
 70
     0
  3
__ __ __ __ __ __ __ __ __ __ __ __ __ __ __ __
 72
    65
 73
     2
 40
0.375
 49
0.25
 49
-0.125
  0
ENDTAB
  0
TABLE
  2
LAYER
 70
     3
  0
LAYER
  2
0
 70
     0
 62
     7
  6
CONTINUOUS
  0
LAYER
  2
1
 70
     0
 62
     7
  6
CONTINUOUS
  0
LAYER
  2
2
 70
     0
 62
     1
  6
HIDDEN
  0
ENDTAB
  0
TABLE
  2
STYLE
 70
     3
  0
STYLE
  2
STANDARD
 70
     0
 40
0.0
 41
1.0
 50
0.0
 71
     0
 42
3.5
  3
CAEISO.SHX
  4

  0
STYLE
  2
SIMP
 70
     0
 40
0.0
 41
1.0
 50
0.0
 71
     0
 42
3.0
  3
simplex.shx
  4

  0
STYLE
  2
SIMPLEX
 70
     0
 40
0.0
 41
1.0
 50
0.0
 71
     0
 42
3.5
  3
simplex.shx
  4

  0
ENDTAB
  0
TABLE
  2
VIEW
 70
     0
  0
ENDTAB
  0
TABLE
  2
UCS
 70
     0
  0
ENDTAB
  0
TABLE
  2
APPID
 70
     1
  0
APPID
  2
ACAD
 70
     0
  0
ENDTAB
  0
TABLE
  2
DIMSTYLE
 70
     2
  0
DIMSTYLE
  2
STANDARD
 70
     0
  3

  4

  5

  6

  7

 40
1.0
 41
3.5
 42
1.0
 43
7.0
 44
1.0
 45
0.0
 46
0.0
 47
0.0
 48
0.0
140
3.5
141
1.0
142
0.0
143
25.399999999999999
144
1.0
145
0.0
146
1.0
147
2.0
 71
     0
 72
     0
 73
     0
 74
     0
 75
     0
 76
     0
 77
     1
 78
     8
170
     0
171
     2
172
     0
173
     0
174
     0
175
     0
176
   256
177
   256
178
     2
  0
DIMSTYLE
  2
FIBOX
 70
     0
  3

  4

  5

  6

  7

 40
1.0
 41
3.5
 42
0.1
 43
0.38
 44
0.18
 45
0.0
 46
0.0
 47
0.0
 48
0.0
140
3.5
141
1.0
142
0.0
143
25.399999999999999
144
1.0
145
0.0
146
1.0
147
1.0
 71
     0
 72
     0
 73
     0
 74
     0
 75
     0
 76
     0
 77
     1
 78
     8
170
     0
171
     2
172
     1
173
     0
174
     0
175
     0
176
     1
177
     1
178
     3
  0
ENDTAB
  0
ENDSEC
  0
SECTION
  2
BLOCKS
  0
BLOCK
  8
0
  2
$MODEL_SPACE
 70
     0
 10
0.0
 20
0.0
 30
0.0
  3
$MODEL_SPACE
  1

  0
ENDBLK
  5
A
  8
0
  0
BLOCK
 67
     1
  8
0
  2
$PAPER_SPACE
 70
     0
 10
0.0
 20
0.0
 30
0.0
  3
$PAPER_SPACE
  1

  0
ENDBLK
  5
F
 67
     1
  8
0
  0
ENDSEC
  0
SECTION
  2
ENTITIES
  0
LINE
  5
2B0
  8
1
 10
-1882.9076205108249
 20
1279.593783963016
 30
0.0
 11
-1677.9076205108261
 21
1279.593783963016
 31
0.0
  0
LINE
  5
2B1
  8
1
 10
-1882.9076205108249
 20
1278.393783963015
 30
0.0
 11
-1677.9076205108261
 21
1278.393783963015
 31
0.0
  0
LINE
  5
2B2
  8
1
 10
-1883.9076205108249
 20
1281.393783963015
 30
0.0
 11
-1676.9076205108261
 21
1281.393783963015
 31
0.0
  0
ARC
  5
2B4
  8
1
 10
-1683.9076205108261
 20
1271.393783963015
 30
0.0
 40
4.5
 50
180.0
 51
270.0
  0
CIRCLE
  5
2B8
  8
1
 10
-1684.4076205108249
 20
1246.6437839630159
 30
0.0
 40
4.5
  0
CIRCLE
  5
2C8
  8
1
 10
-1684.4076205108249
 20
1191.143783963015
 30
0.0
 40
4.5
  0
ARC
  5
2D6
  8
1
 10
-1684.377882487843
 20
1167.393783963015
 30
0.0
 40
3.0
 50
90.0
 51
179.0
  0
ARC
  5
2D8
  8
1
 10
-1683.9076205108261
 20
1166.393783963015
 30
0.0
 40
4.0
 50
234.11642825910371
 51
44.427004000804601
  0
LINE
  5
2DB
  8
1
 10
-1682.1576205108261
 20
1151.893783963015
 30
0.0
 11
-1687.340165445898
 21
1151.893783963015
 31
0.0
  0
ARC
  5
2DC
  8
1
 10
-1684.857620510825
 20
1130.8437839630139
 30
0.0
 40
2.1000000000000001
 50
90.000000000026048
 51
180.0
  0
LINE
  5
2DD
  8
1
 10
-1676.5107293191161
 20
1119.393783963015
 30
0.0
 11
-1686.6576205108261
 21
1119.393783963015
 31
0.0
  0
LINE
  5
2DF
  8
1
 10
-1677.2107293191159
 20
1098.393783963015
 30
0.0
 11
-1686.6576205108261
 21
1098.393783963015
 31
0.0
  0
ARC
  5
2E2
  8
1
 10
-1684.857620510825
 20
1130.8437839630139
 30
0.0
 40
3.2999999999999989
 50
90.000000000026048
 51
180.0
  0
LINE
  5
2E6
  8
1
 10
-1780.4076205108261
 20
1153.5937839630151
 30
0.0
 11
-1682.6576205108261
 21
1153.5937839630151
 31
0.0
  0
LINE
  5
2E7
  8
1
 10
-1780.4076205108261
 20
1152.393783963015
 30
0.0
 11
-1682.6576205108261
 21
1152.393783963015
 31
0.0
  0
LINE
  5
2E8
  8
1
 10
-1780.4076205108261
 20
1152.193783963015
 30
0.0
 11
-1682.2576205108489
 21
1152.193783963015
 31
0.0
  0
LINE
  5
2E9
  8
1
 10
-1882.9076205108249
 20
1158.193783963015
 30
0.0
 11
-1677.9076205108261
 21
1158.193783963015
 31
0.0
  0
LINE
  5
2EA
  8
1
 10
-1882.9076205108249
 20
1159.393783963015
 30
0.0
 11
-1677.9076205108261
 21
1159.393783963015
 31
0.0
  0
LINE
  5
2EB
  8
1
 10
-1883.604511702536
 20
1096.393783963015
 30
0.0
 11
-1677.2107293191159
 21
1096.393783963015
 31
0.0
  0
LINE
  5
2EC
  8
1
 10
-1883.9076205108249
 20
1156.393783963015
 30
0.0
 11
-1676.9076205108261
 21
1156.393783963015
 31
0.0
  0
ARC
  5
2FC
  8
1
 10
-1683.9076205108261
 20
1271.393783963015
 30
0.0
 40
4.5
 50
318.18968510422138
 51
131.8103148957785
  0
CIRCLE
  5
436
  8
1
 10
-1849.9076205108261
 20
1125.893783963015
 30
0.0
 40
1.1999999999999991
  0
CIRCLE
  5
437
  8
1
 10
-1849.9076205108261
 20
1125.893783963015
 30
0.0
 40
4.5
  0
LINE
  5
446
  8
1
 10
-1780.4076205108261
 20
1152.193783963015
 30
0.0
 11
-1878.5576205108021
 21
1152.193783963015
 31
0.0
  0
LINE
  5
447
  8
1
 10
-1872.1576205108261
 20
1098.1937839630159
 30
0.0
 11
-1688.6576205108261
 21
1098.1937839630159
 31
0.0
  0
LINE
  5
448
  8
1
 10
-1780.4076205108261
 20
1152.393783963015
 30
0.0
 11
-1878.1576205108249
 21
1152.393783963015
 31
0.0
  0
LINE
  5
449
  8
1
 10
-1780.4076205108261
 20
1153.5937839630151
 30
0.0
 11
-1878.1576205108249
 21
1153.5937839630151
 31
0.0
  0
LINE
  5
44A
  8
1
 10
-1872.1576205108261
 20
1099.393783963015
 30
0.0
 11
-1688.6576205108261
 21
1099.393783963015
 31
0.0
  0
LINE
  5
466
  8
1
 10
-1878.6576205108249
 20
1151.893783963015
 30
0.0
 11
-1878.6576205108249
 21
1134.643783963015
 31
0.0
  0
LINE
  5
467
  8
1
 10
-1879.8576205108261
 20
1151.893783963015
 30
0.0
 11
-1879.8576205108261
 21
1134.643783963015
 31
0.0
  0
LINE
  5
469
  8
1
 10
-1886.604511702536
 20
1099.393783963015
 30
0.0
 11
-1886.6045117025351
 21
1158.079714748678
 31
0.0
  0
ARC
  5
491
  8
1
 10
-1879.4076205108249
 20
1104.093783963016
 30
0.0
 40
2.7000000000000002
 50
180.0
 51
0.0
  0
LINE
  5
492
  8
1
 10
-1873.8576205108261
 20
1130.8437839630139
 30
0.0
 11
-1873.8576205108261
 21
1098.693783963015
 31
0.0
  0
LINE
  5
493
  8
1
 10
-1872.6576205108261
 20
1130.8437839630139
 30
0.0
 11
-1872.6576205108261
 21
1099.893783963015
 31
0.0
  0
LINE
  5
494
  8
1
 10
-1884.6045117025351
 20
1099.393783963015
 30
0.0
 11
-1884.6045117025351
 21
1119.093783963016
 31
0.0
  0
ARC
  5
4A3
  8
1
 10
-1874.1576205108261
 20
1098.693783963015
 30
0.0
 40
0.3
 50
270.0
 51
0.0
  0
ARC
  5
4A4
  8
1
 10
-1872.1576205108261
 20
1099.8937839630159
 30
0.0
 40
1.7
 50
180.0
 51
269.99999999999989
  0
ARC
  5
4A5
  8
1
 10
-1872.1576205108261
 20
1099.893783963015
 30
0.0
 40
0.5
 50
180.0
 51
269.99999999999989
  0
ARC
  5
4A6
  8
1
 10
-1883.604511702536
 20
1099.393783963015
 30
0.0
 40
3.0
 50
180.0
 51
270.0
  0
ARC
  5
4A7
  8
1
 10
-1883.6045117025351
 20
1099.393783963015
 30
0.0
 40
1.0
 50
180.0
 51
269.99999999999972
  0
LINE
  5
4A8
  8
1
 10
-1883.6045117025351
 20
1098.393783963015
 30
0.0
 11
-1874.1576205108261
 21
1098.393783963015
 31
0.0
  0
LINE
  5
4AB
  8
1
 10
-1877.1576205108249
 20
1141.893783963015
 30
0.0
 11
-1877.1576205108249
 21
1142.893783963015
 31
0.0
  0
LINE
  5
4AC
  8
1
 10
-1878.6576205108249
 20
1142.893783963015
 30
0.0
 11
-1877.1576205108249
 21
1142.893783963015
 31
0.0
  0
LINE
  5
4AD
  8
1
 10
-1878.6576205108249
 20
1141.893783963015
 30
0.0
 11
-1877.1576205108249
 21
1141.893783963015
 31
0.0
  0
LINE
  5
4AE
  8
1
 10
-1877.1576205108249
 20
1137.893783963015
 30
0.0
 11
-1877.1576205108249
 21
1138.893783963015
 31
0.0
  0
LINE
  5
4AF
  8
1
 10
-1878.6576205108249
 20
1134.893783963015
 30
0.0
 11
-1877.1576205108249
 21
1134.893783963015
 31
0.0
  0
LINE
  5
4B0
  8
1
 10
-1878.6576205108249
 20
1135.893783963015
 30
0.0
 11
-1877.1576205108249
 21
1135.893783963015
 31
0.0
  0
LINE
  5
4B1
  8
1
 10
-1878.6576205108249
 20
1137.893783963015
 30
0.0
 11
-1877.1576205108249
 21
1137.893783963015
 31
0.0
  0
LINE
  5
4B2
  8
1
 10
-1877.1576205108249
 20
1134.893783963015
 30
0.0
 11
-1877.1576205108249
 21
1135.893783963015
 31
0.0
  0
LINE
  5
4B3
  8
1
 10
-1878.6576205108249
 20
1138.893783963015
 30
0.0
 11
-1877.1576205108249
 21
1138.893783963015
 31
0.0
  0
LINE
  5
4B4
  8
1
 10
-1875.957620510826
 20
1134.143783963015
 30
0.0
 11
-1878.1576205108249
 21
1134.143783963015
 31
0.0
  0
ARC
  5
4B5
  8
1
 10
-1875.957620510826
 20
1130.8437839630139
 30
0.0
 40
2.1000000000000001
 50
0.0
 51
89.999999999973952
  0
ARC
  5
4B8
  8
1
 10
-1874.1576205108261
 20
1119.093783963016
 30
0.0
 40
0.3
 50
0.0
 51
89.999999999999673
  0
LINE
  5
4B9
  8
1
 10
-1875.9576205108251
 20
1132.9437839630141
 30
0.0
 11
-1878.1576205108249
 21
1132.943783963015
 31
0.0
  0
CIRCLE
  5
4BA
  8
1
 10
-1877.9076205108249
 20
1125.893783963015
 30
0.0
 40
1.6000000000000001
  0
ARC
  5
4BB
  8
1
 10
-1884.3045117025349
 20
1119.093783963016
 30
0.0
 40
0.3
 50
90.0
 51
180.0
  0
LINE
  5
4BC
  8
1
 10
-1884.604511702536
 20
1125.893783963015
 30
0.0
 11
-1881.904511702535
 21
1125.893783963015
 31
0.0
  0
LINE
  5
4BD
  8
1
 10
-1884.604511702536
 20
1127.8937839630159
 30
0.0
 11
-1881.904511702535
 21
1127.893783963015
 31
0.0
  0
LINE
  5
4C0
  8
1
 10
-1881.904511702535
 20
1125.893783963015
 30
0.0
 11
-1881.904511702535
 21
1127.893783963015
 31
0.0
  0
LINE
  5
4C1
  8
1
 10
-1884.604511702536
 20
1125.893783963015
 30
0.0
 11
-1884.604511702536
 21
1127.893783963015
 31
0.0
  0
LINE
  5
4C3
  8
1
 10
-1884.3045117025349
 20
1119.393783963015
 30
0.0
 11
-1874.1576205108261
 21
1119.393783963015
 31
0.0
  0
ARC
  5
4C5
  8
1
 10
-1879.4076205108249
 20
1113.693783963015
 30
0.0
 40
2.7000000000000002
 50
0.0
 51
180.0
  0
LINE
  5
4C8
  8
1
 10
-1876.707620510826
 20
1113.693783963015
 30
0.0
 11
-1876.707620510826
 21
1104.093783963016
 31
0.0
  0
LINE
  5
4C9
  8
1
 10
-1882.1076205108261
 20
1113.693783963015
 30
0.0
 11
-1882.1076205108261
 21
1104.093783963016
 31
0.0
  0
ARC
  5
4CA
  8
1
 10
-1875.957620510826
 20
1130.8437839630139
 30
0.0
 40
3.2999999999999989
 50
0.0
 51
89.999999999973952
  0
ARC
  5
4CB
  8
1
 10
-1878.1576205108249
 20
1134.643783963015
 30
0.0
 40
1.7
 50
180.0
 51
270.00000000000171
  0
ARC
  5
4CC
  8
1
 10
-1878.1576205108249
 20
1134.643783963015
 30
0.0
 40
0.5
 50
180.0
 51
269.99999999999562
  0
CIRCLE
  5
4CE
  8
1
 10
-1865.4076205108261
 20
1136.893783963015
 30
0.0
 40
1.1999999999999991
  0
CIRCLE
  5
4CF
  8
1
 10
-1865.4076205108261
 20
1125.893783963015
 30
0.0
 40
1.1999999999999991
  0
CIRCLE
  5
4D3
  8
1
 10
-1865.4076205108261
 20
1136.893783963015
 30
0.0
 40
4.5
  0
CIRCLE
  5
4D4
  8
1
 10
-1865.4076205108261
 20
1125.893783963015
 30
0.0
 40
4.5
  0
LINE
  5
4EF
  8
1
 10
-1885.107620510825
 20
1160.393783963015
 30
0.0
 11
-1885.1076205108261
 21
1277.393783963015
 31
0.0
  0
LINE
  5
4F0
  8
1
 10
-1883.9076205108249
 20
1160.393783963015
 30
0.0
 11
-1883.9076205108249
 21
1277.393783963015
 31
0.0
  0
LINE
  5
4F1
  8
1
 10
-1886.9076205108249
 20
1159.393783963015
 30
0.0
 11
-1886.9076205108249
 21
1278.393783963015
 31
0.0
  0
LINE
  5
4F2
  8
1
 10
-1886.9076205108249
 20
1194.393783963015
 30
0.0
 11
-1893.9425253237
 21
1194.2709892427431
 31
0.0
  0
LINE
  5
4F3
  8
1
 10
-1886.9076205108249
 20
1191.893783963015
 30
0.0
 11
-1895.9076205108249
 21
1191.893783963015
 31
0.0
  0
LINE
  5
4F4
  8
1
 10
-1886.9076205108249
 20
1176.893783963015
 30
0.0
 11
-1895.9076205108249
 21
1176.893783963015
 31
0.0
  0
LINE
  5
4F5
  8
1
 10
-1886.9076205108249
 20
1174.393783963015
 30
0.0
 11
-1893.9425253237
 21
1174.5165786832879
 31
0.0
  0
LINE
  5
4F6
  8
1
 10
-1893.4076205108249
 20
1176.893783963015
 30
0.0
 11
-1893.4076205108249
 21
1191.893783963015
 31
0.0
  0
LINE
  5
4F7
  8
1
 10
-1895.9076205108249
 20
1176.5162740736009
 30
0.0
 11
-1895.9076205108249
 21
1192.2712938524301
 31
0.0
  0
ARC
  5
4F8
  8
1
 10
-1893.9076205108249
 20
1176.5162740736009
 30
0.0
 40
2.0
 50
180.0
 51
268.99999999999909
  0
ARC
  5
4F9
  8
1
 10
-1893.9076205108249
 20
1192.2712938524301
 30
0.0
 40
2.0
 50
91.000000000000838
 51
180.0
  0
LINE
  5
4FA
  8
1
 10
-1882.4076205108249
 20
1184.393783963015
 30
0.0
 11
-1882.4076205108249
 21
1183.393783963015
 31
0.0
  0
LINE
  5
4FC
  8
1
 10
-1883.9076205108249
 20
1183.393783963015
 30
0.0
 11
-1882.4076205108249
 21
1183.393783963015
 31
0.0
  0
LINE
  5
4FE
  8
1
 10
-1874.497443823904
 20
1159.393783963015
 30
0.0
 11
-1874.5630602242079
 21
1163.1529450187891
 31
0.0
  0
LINE
  5
4FF
  8
1
 10
-1873.2972610302511
 20
1159.393783963015
 30
0.0
 11
-1873.4378154483391
 21
1167.446141182327
 31
0.0
  0
ARC
  5
501
  8
1
 10
-1876.437358533808
 20
1167.393783963015
 30
0.0
 40
3.0
 50
0.9999999999999378
 51
90.0
  0
CIRCLE
  5
503
  8
1
 10
-1876.9076205108249
 20
1166.393783963015
 30
0.0
 40
1.1999999999999991
  0
LINE
  5
504
  8
1
 10
-1888.9076205108261
 20
1174.4286940928721
 30
0.0
 11
-1888.9076205108261
 21
1176.893783963015
 31
0.0
  0
ARC
  5
505
  8
1
 10
-1882.9076205108249
 20
1160.393783963015
 30
0.0
 40
2.2000000000000002
 50
180.0
 51
270.0
  0
ARC
  5
506
  8
1
 10
-1882.9076205108249
 20
1160.393783963015
 30
0.0
 40
1.0
 50
180.0
 51
270.0
  0
LINE
  5
507
  8
1
 10
-1879.764191882243
 20
1169.193783963015
 30
0.0
 11
-1883.9076205108249
 21
1169.193783963015
 31
0.0
  0
ARC
  5
508
  8
1
 10
-1876.9076205108249
 20
1166.393783963015
 30
0.0
 40
4.0
 50
135.5729959991954
 51
305.88357174089259
  0
LINE
  5
509
  8
1
 10
-1876.437358533808
 20
1170.393783963015
 30
0.0
 11
-1883.9076205108249
 21
1170.393783963015
 31
0.0
  0
LINE
  5
50A
  8
1
 10
-1874.6576205108249
 20
1156.393783963015
 30
0.0
 11
-1874.6576205108249
 21
1153.5937839630151
 31
0.0
  0
ARC
  5
50B
  8
1
 10
-1873.4750755757541
 20
1152.0937839630151
 30
0.0
 40
0.2
 50
270.0
 51
0.0
  0
LINE
  5
50C
  8
1
 10
-1873.275075575754
 20
1152.393783963015
 30
0.0
 11
-1873.275075575754
 21
1152.0937839630151
 31
0.0
  0
LINE
  5
50D
  8
1
 10
-1878.6576205108249
 20
1148.893783963015
 30
0.0
 11
-1877.1576205108249
 21
1148.893783963015
 31
0.0
  0
LINE
  5
50E
  8
1
 10
-1878.6576205108249
 20
1149.893783963015
 30
0.0
 11
-1877.1576205108249
 21
1149.893783963015
 31
0.0
  0
LINE
  5
50F
  8
1
 10
-1878.6576205108249
 20
1151.893783963015
 30
0.0
 11
-1873.4750755757541
 21
1151.893783963015
 31
0.0
  0
LINE
  5
510
  8
1
 10
-1877.1576205108249
 20
1148.893783963015
 30
0.0
 11
-1877.1576205108249
 21
1149.893783963015
 31
0.0
  0
LINE
  5
511
  8
1
 10
-1878.6576205108249
 20
1145.893783963015
 30
0.0
 11
-1877.1576205108249
 21
1145.893783963015
 31
0.0
  0
LINE
  5
512
  8
1
 10
-1878.6576205108249
 20
1144.893783963015
 30
0.0
 11
-1877.1576205108249
 21
1144.893783963015
 31
0.0
  0
LINE
  5
513
  8
1
 10
-1877.1576205108249
 20
1144.893783963015
 30
0.0
 11
-1877.1576205108249
 21
1145.893783963015
 31
0.0
  0
ARC
  5
514
  8
1
 10
-1878.1576205108249
 20
1151.893783963015
 30
0.0
 40
0.5
 50
90.0
 51
180.0
  0
ARC
  5
515
  8
1
 10
-1878.1576205108249
 20
1151.893783963015
 30
0.0
 40
1.7
 50
90.000000000000099
 51
180.0
  0
ARC
  5
517
  8
1
 10
-1883.9076205108249
 20
1159.393783963015
 30
0.0
 40
3.0
 50
180.0
 51
270.0
  0
LINE
  5
518
  8
1
 10
-1853.4076205108249
 20
1160.8937839630159
 30
0.0
 11
-1854.4076205108249
 21
1160.8937839630159
 31
0.0
  0
LINE
  5
519
  8
1
 10
-1854.4076205108249
 20
1159.393783963015
 30
0.0
 11
-1854.4076205108249
 21
1160.8937839630159
 31
0.0
  0
LINE
  5
51A
  8
1
 10
-1853.4076205108249
 20
1159.393783963015
 30
0.0
 11
-1853.4076205108249
 21
1160.8937839630159
 31
0.0
  0
LINE
  5
51B
  8
1
 10
-1857.4076205108261
 20
1159.393783963015
 30
0.0
 11
-1857.4076205108261
 21
1160.8937839630159
 31
0.0
  0
LINE
  5
51C
  8
1
 10
-1856.4076205108249
 20
1159.393783963015
 30
0.0
 11
-1856.4076205108249
 21
1160.8937839630159
 31
0.0
  0
LINE
  5
51D
  8
1
 10
-1856.4076205108249
 20
1160.8937839630159
 30
0.0
 11
-1857.4076205108261
 21
1160.8937839630159
 31
0.0
  0
LINE
  5
51F
  8
1
 10
-1882.4076205108249
 20
1212.393783963015
 30
0.0
 11
-1882.4076205108249
 21
1211.393783963015
 31
0.0
  0
LINE
  5
520
  8
1
 10
-1883.9076205108249
 20
1215.3937839630159
 30
0.0
 11
-1882.4076205108249
 21
1215.3937839630159
 31
0.0
  0
LINE
  5
521
  8
1
 10
-1883.9076205108249
 20
1214.393783963015
 30
0.0
 11
-1882.4076205108249
 21
1214.393783963015
 31
0.0
  0
LINE
  5
522
  8
1
 10
-1883.9076205108249
 20
1212.393783963015
 30
0.0
 11
-1882.4076205108249
 21
1212.393783963015
 31
0.0
  0
LINE
  5
523
  8
1
 10
-1882.4076205108249
 20
1215.3937839630159
 30
0.0
 11
-1882.4076205108249
 21
1214.393783963015
 31
0.0
  0
LINE
  5
524
  8
1
 10
-1883.9076205108249
 20
1211.393783963015
 30
0.0
 11
-1882.4076205108249
 21
1211.393783963015
 31
0.0
  0
CIRCLE
  5
527
  8
1
 10
-1876.4076205108261
 20
1191.143783963015
 30
0.0
 40
1.1999999999999991
  0
LINE
  5
528
  8
1
 10
-1883.9076205108249
 20
1187.393783963015
 30
0.0
 11
-1882.4076205108249
 21
1187.393783963015
 31
0.0
  0
LINE
  5
529
  8
1
 10
-1883.9076205108249
 20
1186.393783963015
 30
0.0
 11
-1882.4076205108249
 21
1186.393783963015
 31
0.0
  0
LINE
  5
52A
  8
1
 10
-1883.9076205108249
 20
1184.393783963015
 30
0.0
 11
-1882.4076205108249
 21
1184.393783963015
 31
0.0
  0
LINE
  5
52B
  8
1
 10
-1882.4076205108249
 20
1187.393783963015
 30
0.0
 11
-1882.4076205108249
 21
1186.393783963015
 31
0.0
  0
LINE
  5
52C
  8
1
 10
-1882.4076205108249
 20
1198.393783963015
 30
0.0
 11
-1882.4076205108249
 21
1197.393783963015
 31
0.0
  0
LINE
  5
52D
  8
1
 10
-1883.9076205108249
 20
1201.393783963015
 30
0.0
 11
-1882.4076205108249
 21
1201.393783963015
 31
0.0
  0
LINE
  5
52E
  8
1
 10
-1883.9076205108249
 20
1200.393783963015
 30
0.0
 11
-1882.4076205108249
 21
1200.393783963015
 31
0.0
  0
LINE
  5
52F
  8
1
 10
-1883.9076205108249
 20
1198.393783963015
 30
0.0
 11
-1882.4076205108249
 21
1198.393783963015
 31
0.0
  0
LINE
  5
530
  8
1
 10
-1882.4076205108249
 20
1201.393783963015
 30
0.0
 11
-1882.4076205108249
 21
1200.393783963015
 31
0.0
  0
LINE
  5
531
  8
1
 10
-1883.9076205108249
 20
1197.393783963015
 30
0.0
 11
-1882.4076205108249
 21
1197.393783963015
 31
0.0
  0
LINE
  5
532
  8
1
 10
-1888.9076205108261
 20
1191.893783963015
 30
0.0
 11
-1888.9076205108261
 21
1194.3588738331589
 31
0.0
  0
CIRCLE
  5
533
  8
1
 10
-1876.4076205108261
 20
1191.143783963015
 30
0.0
 40
4.5
  0
LINE
  5
53F
  8
1
 10
-1886.9076205108249
 20
1260.893783963015
 30
0.0
 11
-1895.9076205108249
 21
1260.893783963015
 31
0.0
  0
LINE
  5
540
  8
1
 10
-1886.9076205108249
 20
1263.393783963015
 30
0.0
 11
-1893.9425253237
 21
1263.2709892427431
 31
0.0
  0
LINE
  5
541
  8
1
 10
-1886.9076205108249
 20
1243.393783963015
 30
0.0
 11
-1893.9425253237
 21
1243.5165786832879
 31
0.0
  0
LINE
  5
542
  8
1
 10
-1886.9076205108249
 20
1245.893783963015
 30
0.0
 11
-1895.9076205108249
 21
1245.893783963015
 31
0.0
  0
ARC
  5
569
  8
1
 10
-1893.9076205108249
 20
1261.2712938524301
 30
0.0
 40
2.0
 50
90.999999999999005
 51
180.0
  0
ARC
  5
56A
  8
1
 10
-1893.9076205108249
 20
1245.5162740736009
 30
0.0
 40
2.0
 50
180.0
 51
269.00000000000091
  0
LINE
  5
56B
  8
1
 10
-1893.4076205108249
 20
1245.893783963015
 30
0.0
 11
-1893.4076205108249
 21
1260.893783963015
 31
0.0
  0
LINE
  5
56C
  8
1
 10
-1895.9076205108249
 20
1245.5162740736009
 30
0.0
 11
-1895.9076205108249
 21
1261.2712938524301
 31
0.0
  0
LINE
  5
582
  8
1
 10
-1888.9076205108261
 20
1260.893783963015
 30
0.0
 11
-1888.9076205108261
 21
1263.3588738331589
 31
0.0
  0
LINE
  5
585
  8
1
 10
-1883.9076205108249
 20
1253.393783963015
 30
0.0
 11
-1882.4076205108249
 21
1253.393783963015
 31
0.0
  0
LINE
  5
586
  8
1
 10
-1882.4076205108249
 20
1257.393783963015
 30
0.0
 11
-1882.4076205108249
 21
1256.393783963015
 31
0.0
  0
LINE
  5
587
  8
1
 10
-1883.9076205108249
 20
1254.393783963015
 30
0.0
 11
-1882.4076205108249
 21
1254.393783963015
 31
0.0
  0
LINE
  5
588
  8
1
 10
-1883.9076205108249
 20
1256.393783963015
 30
0.0
 11
-1882.4076205108249
 21
1256.393783963015
 31
0.0
  0
LINE
  5
589
  8
1
 10
-1883.9076205108249
 20
1257.393783963015
 30
0.0
 11
-1882.4076205108249
 21
1257.393783963015
 31
0.0
  0
LINE
  5
58A
  8
1
 10
-1882.4076205108249
 20
1254.393783963015
 30
0.0
 11
-1882.4076205108249
 21
1253.393783963015
 31
0.0
  0
CIRCLE
  5
58D
  8
1
 10
-1876.4076205108261
 20
1246.6437839630159
 30
0.0
 40
1.1999999999999991
  0
LINE
  5
58E
  8
1
 10
-1883.9076205108249
 20
1229.393783963015
 30
0.0
 11
-1882.4076205108249
 21
1229.393783963015
 31
0.0
  0
LINE
  5
58F
  8
1
 10
-1883.9076205108249
 20
1228.393783963015
 30
0.0
 11
-1882.4076205108249
 21
1228.393783963015
 31
0.0
  0
LINE
  5
590
  8
1
 10
-1882.4076205108249
 20
1229.393783963015
 30
0.0
 11
-1882.4076205108249
 21
1228.393783963015
 31
0.0
  0
LINE
  5
591
  8
1
 10
-1882.4076205108249
 20
1240.393783963015
 30
0.0
 11
-1882.4076205108249
 21
1239.393783963015
 31
0.0
  0
LINE
  5
592
  8
1
 10
-1883.9076205108249
 20
1243.393783963015
 30
0.0
 11
-1882.4076205108249
 21
1243.393783963015
 31
0.0
  0
LINE
  5
593
  8
1
 10
-1883.9076205108249
 20
1242.393783963015
 30
0.0
 11
-1882.4076205108249
 21
1242.393783963015
 31
0.0
  0
LINE
  5
594
  8
1
 10
-1883.9076205108249
 20
1240.393783963015
 30
0.0
 11
-1882.4076205108249
 21
1240.393783963015
 31
0.0
  0
LINE
  5
595
  8
1
 10
-1882.4076205108249
 20
1243.393783963015
 30
0.0
 11
-1882.4076205108249
 21
1242.393783963015
 31
0.0
  0
LINE
  5
596
  8
1
 10
-1883.9076205108249
 20
1239.393783963015
 30
0.0
 11
-1882.4076205108249
 21
1239.393783963015
 31
0.0
  0
LINE
  5
597
  8
1
 10
-1888.9076205108261
 20
1243.4286940928721
 30
0.0
 11
-1888.9076205108261
 21
1245.893783963015
 31
0.0
  0
CIRCLE
  5
598
  8
1
 10
-1876.4076205108261
 20
1246.6437839630159
 30
0.0
 40
4.5
  0
LINE
  5
59A
  8
1
 10
-1882.4076205108249
 20
1226.393783963015
 30
0.0
 11
-1882.4076205108249
 21
1225.393783963015
 31
0.0
  0
LINE
  5
59B
  8
1
 10
-1883.9076205108249
 20
1226.393783963015
 30
0.0
 11
-1882.4076205108249
 21
1226.393783963015
 31
0.0
  0
LINE
  5
59C
  8
1
 10
-1883.9076205108249
 20
1225.393783963015
 30
0.0
 11
-1882.4076205108249
 21
1225.393783963015
 31
0.0
  0
ARC
  5
5AE
  8
1
 10
-1876.9076205108249
 20
1271.393783963015
 30
0.0
 40
4.5
 50
270.0
 51
0.0
  0
ARC
  5
5B0
  8
1
 10
-1883.9076205108249
 20
1278.393783963015
 30
0.0
 40
3.0
 50
90.0
 51
180.0
  0
ARC
  5
5B1
  8
1
 10
-1882.9076205108249
 20
1277.393783963015
 30
0.0
 40
2.2000000000000002
 50
90.0
 51
180.0
  0
ARC
  5
5B2
  8
1
 10
-1882.9076205108249
 20
1277.393783963015
 30
0.0
 40
1.0
 50
90.0
 51
180.0
  0
CIRCLE
  5
5B5
  8
1
 10
-1876.9076205108249
 20
1271.393783963015
 30
0.0
 40
1.1999999999999991
  0
LINE
  5
5B6
  8
1
 10
-1880.261722477075
 20
1268.393783963015
 30
0.0
 11
-1883.9076205108249
 21
1268.393783963015
 31
0.0
  0
LINE
  5
5B7
  8
1
 10
-1876.9076205108249
 20
1266.893783963015
 30
0.0
 11
-1883.9076205108249
 21
1266.893783963015
 31
0.0
  0
LINE
  5
5B9
  8
1
 10
-1873.9076205108249
 20
1274.7478859292651
 30
0.0
 11
-1873.9076205108249
 21
1278.393783963015
 31
0.0
  0
LINE
  5
5BA
  8
1
 10
-1872.4076205108249
 20
1271.393783963015
 30
0.0
 11
-1872.4076205108249
 21
1278.393783963015
 31
0.0
  0
ARC
  5
5BB
  8
1
 10
-1876.9076205108249
 20
1271.393783963015
 30
0.0
 40
4.5
 50
48.189685104221411
 51
221.8103148957785
  0
LINE
  5
5BC
  8
1
 10
-1856.4076205108249
 20
1276.893783963015
 30
0.0
 11
-1857.4076205108261
 21
1276.893783963015
 31
0.0
  0
LINE
  5
5BD
  8
1
 10
-1856.4076205108249
 20
1278.393783963015
 30
0.0
 11
-1856.4076205108249
 21
1276.893783963015
 31
0.0
  0
LINE
  5
5BE
  8
1
 10
-1857.4076205108261
 20
1278.393783963015
 30
0.0
 11
-1857.4076205108261
 21
1276.893783963015
 31
0.0
  0
LINE
  5
5BF
  8
1
 10
-1853.4076205108249
 20
1278.393783963015
 30
0.0
 11
-1853.4076205108249
 21
1276.893783963015
 31
0.0
  0
LINE
  5
5C0
  8
1
 10
-1854.4076205108249
 20
1278.393783963015
 30
0.0
 11
-1854.4076205108249
 21
1276.893783963015
 31
0.0
  0
LINE
  5
5C1
  8
1
 10
-1853.4076205108249
 20
1276.893783963015
 30
0.0
 11
-1854.4076205108249
 21
1276.893783963015
 31
0.0
  0
LINE
  5
5CF
  8
1
 10
-1780.4076205108261
 20
1128.893783963015
 30
0.0
 11
-1732.4076205108261
 21
1128.893783963015
 31
0.0
  0
LINE
  5
5E9
  8
1
 10
-1828.9076205108249
 20
1128.893783963015
 30
0.0
 11
-1780.4076205108261
 21
1128.893783963015
 31
0.0
  0
ARC
  5
5EE
  8
1
 10
-1828.9076205108249
 20
1112.393783963015
 30
0.0
 40
16.5
 50
90.0
 51
231.98772045564979
  0
CIRCLE
  5
5F7
  8
1
 10
-1841.9076205108249
 20
1136.893783963015
 30
0.0
 40
1.1999999999999991
  0
CIRCLE
  5
5FB
  8
1
 10
-1841.9076205108249
 20
1136.893783963015
 30
0.0
 40
4.5
  0
CIRCLE
  5
5FE
  8
1
 10
-1780.4076205108261
 20
1106.393783963015
 30
0.0
 40
4.5
  0
LINE
  5
607
  8
1
 10
-1776.4076205108261
 20
1101.393783963015
 30
0.0
 11
-1776.4076205108261
 21
1099.393783963015
 31
0.0
  0
LINE
  5
60B
  8
1
 10
-1784.4076205108249
 20
1101.393783963015
 30
0.0
 11
-1784.4076205108249
 21
1099.393783963015
 31
0.0
  0
LINE
  5
60D
  8
1
 10
-1784.4076205108249
 20
1101.393783963015
 30
0.0
 11
-1776.4076205108261
 21
1101.393783963015
 31
0.0
  0
CIRCLE
  5
610
  8
1
 10
-1800.9076205108249
 20
1136.893783963015
 30
0.0
 40
1.1999999999999991
  0
CIRCLE
  5
613
  8
1
 10
-1800.9076205108249
 20
1136.893783963015
 30
0.0
 40
4.5
  0
ARC
  5
62E
  8
1
 10
-1732.4076205108261
 20
1112.393783963015
 30
0.0
 40
16.5
 50
308.01227954434938
 51
90.000000000001577
  0
CIRCLE
  5
641
  8
1
 10
-1759.9076205108249
 20
1136.893783963015
 30
0.0
 40
1.1999999999999991
  0
CIRCLE
  5
645
  8
1
 10
-1759.9076205108249
 20
1136.893783963015
 30
0.0
 40
4.5
  0
LINE
  5
648
  8
1
 10
-1688.1576205108261
 20
1130.8437839630139
 30
0.0
 11
-1688.1576205108261
 21
1099.893783963015
 31
0.0
  0
LINE
  5
649
  8
1
 10
-1686.957620510826
 20
1130.8437839630139
 30
0.0
 11
-1686.957620510826
 21
1098.693783963015
 31
0.0
  0
ARC
  5
64A
  8
1
 10
-1688.6576205108261
 20
1099.893783963015
 30
0.0
 40
0.5
 50
270.0
 51
0.0
  0
ARC
  5
64B
  8
1
 10
-1688.6576205108261
 20
1099.8937839630159
 30
0.0
 40
1.7
 50
270.0
 51
0.0
  0
ARC
  5
64C
  8
1
 10
-1686.6576205108261
 20
1098.693783963015
 30
0.0
 40
0.3
 50
180.0
 51
270.0
  0
CIRCLE
  5
64E
  8
1
 10
-1709.9076205108249
 20
1125.893783963015
 30
0.0
 40
4.5
  0
CIRCLE
  5
651
  8
1
 10
-1718.9076205108249
 20
1136.893783963015
 30
0.0
 40
1.1999999999999991
  0
CIRCLE
  5
653
  8
1
 10
-1709.9076205108249
 20
1125.893783963015
 30
0.0
 40
1.1999999999999991
  0
CIRCLE
  5
658
  8
1
 10
-1718.9076205108249
 20
1136.893783963015
 30
0.0
 40
4.5
  0
CIRCLE
  5
65A
  8
1
 10
-1695.4076205108249
 20
1136.893783963015
 30
0.0
 40
1.1999999999999991
  0
CIRCLE
  5
660
  8
1
 10
-1695.4076205108249
 20
1125.893783963015
 30
0.0
 40
1.1999999999999991
  0
ARC
  5
661
  8
1
 10
-1686.6576205108261
 20
1119.093783963016
 30
0.0
 40
0.3
 50
90.000000000000327
 51
180.0
  0
CIRCLE
  5
664
  8
1
 10
-1695.4076205108249
 20
1125.893783963015
 30
0.0
 40
4.5
  0
CIRCLE
  5
665
  8
1
 10
-1695.4076205108249
 20
1136.893783963015
 30
0.0
 40
4.5
  0
LINE
  5
6A5
  8
1
 10
-1832.4076205108249
 20
1159.393783963015
 30
0.0
 11
-1832.4076205108249
 21
1160.8937839630159
 31
0.0
  0
LINE
  5
6A6
  8
1
 10
-1831.4076205108249
 20
1159.393783963015
 30
0.0
 11
-1831.4076205108249
 21
1160.8937839630159
 31
0.0
  0
LINE
  5
6A7
  8
1
 10
-1831.4076205108249
 20
1160.8937839630159
 30
0.0
 11
-1832.4076205108249
 21
1160.8937839630159
 31
0.0
  0
LINE
  5
6A8
  8
1
 10
-1828.4076205108261
 20
1160.8937839630159
 30
0.0
 11
-1829.4076205108249
 21
1160.8937839630159
 31
0.0
  0
LINE
  5
6A9
  8
1
 10
-1829.4076205108249
 20
1159.393783963015
 30
0.0
 11
-1829.4076205108249
 21
1160.8937839630159
 31
0.0
  0
LINE
  5
6AA
  8
1
 10
-1828.4076205108261
 20
1159.393783963015
 30
0.0
 11
-1828.4076205108261
 21
1160.8937839630159
 31
0.0
  0
CIRCLE
  5
6AE
  8
1
 10
-1841.9076205108249
 20
1191.143783963015
 30
0.0
 40
1.1999999999999991
  0
CIRCLE
  5
6AF
  8
1
 10
-1841.9076205108249
 20
1191.143783963015
 30
0.0
 40
4.5
  0
LINE
  5
6C1
  8
1
 10
-1803.4076205108249
 20
1160.8937839630159
 30
0.0
 11
-1804.4076205108249
 21
1160.8937839630159
 31
0.0
  0
LINE
  5
6C2
  8
1
 10
-1804.4076205108249
 20
1159.393783963015
 30
0.0
 11
-1804.4076205108249
 21
1160.8937839630159
 31
0.0
  0
LINE
  5
6C3
  8
1
 10
-1803.4076205108249
 20
1159.393783963015
 30
0.0
 11
-1803.4076205108249
 21
1160.8937839630159
 31
0.0
  0
LINE
  5
6C4
  8
1
 10
-1807.4076205108261
 20
1159.393783963015
 30
0.0
 11
-1807.4076205108261
 21
1160.8937839630159
 31
0.0
  0
LINE
  5
6C5
  8
1
 10
-1806.4076205108249
 20
1159.393783963015
 30
0.0
 11
-1806.4076205108249
 21
1160.8937839630159
 31
0.0
  0
LINE
  5
6C6
  8
1
 10
-1806.4076205108249
 20
1160.8937839630159
 30
0.0
 11
-1807.4076205108261
 21
1160.8937839630159
 31
0.0
  0
LINE
  5
6C7
  8
1
 10
-1778.4076205108261
 20
1159.393783963015
 30
0.0
 11
-1778.4076205108261
 21
1160.8937839630159
 31
0.0
  0
LINE
  5
6C8
  8
1
 10
-1779.4076205108249
 20
1159.393783963015
 30
0.0
 11
-1779.4076205108249
 21
1160.8937839630159
 31
0.0
  0
LINE
  5
6C9
  8
1
 10
-1778.4076205108261
 20
1160.8937839630159
 30
0.0
 11
-1779.4076205108249
 21
1160.8937839630159
 31
0.0
  0
LINE
  5
6CA
  8
1
 10
-1781.4076205108249
 20
1160.8937839630159
 30
0.0
 11
-1782.4076205108249
 21
1160.8937839630159
 31
0.0
  0
LINE
  5
6CB
  8
1
 10
-1781.4076205108249
 20
1159.393783963015
 30
0.0
 11
-1781.4076205108249
 21
1160.8937839630159
 31
0.0
  0
LINE
  5
6CC
  8
1
 10
-1782.4076205108249
 20
1159.393783963015
 30
0.0
 11
-1782.4076205108249
 21
1160.8937839630159
 31
0.0
  0
CIRCLE
  5
6D2
  8
1
 10
-1780.4076205108261
 20
1206.393783963015
 30
0.0
 40
1.1999999999999991
  0
CIRCLE
  5
6D4
  8
1
 10
-1780.4076205108261
 20
1206.393783963015
 30
0.0
 40
4.5
  0
LINE
  5
751
  8
1
 10
-1831.4076205108249
 20
1276.893783963015
 30
0.0
 11
-1832.4076205108249
 21
1276.893783963015
 31
0.0
  0
LINE
  5
752
  8
1
 10
-1831.4076205108249
 20
1278.393783963015
 30
0.0
 11
-1831.4076205108249
 21
1276.893783963015
 31
0.0
  0
LINE
  5
753
  8
1
 10
-1832.4076205108249
 20
1278.393783963015
 30
0.0
 11
-1832.4076205108249
 21
1276.893783963015
 31
0.0
  0
CIRCLE
  5
755
  8
1
 10
-1841.9076205108249
 20
1271.393783963015
 30
0.0
 40
1.1999999999999991
  0
CIRCLE
  5
758
  8
1
 10
-1841.9076205108249
 20
1271.393783963015
 30
0.0
 40
4.5
  0
LINE
  5
759
  8
1
 10
-1828.4076205108261
 20
1278.393783963015
 30
0.0
 11
-1828.4076205108261
 21
1276.893783963015
 31
0.0
  0
LINE
  5
75A
  8
1
 10
-1829.4076205108249
 20
1278.393783963015
 30
0.0
 11
-1829.4076205108249
 21
1276.893783963015
 31
0.0
  0
LINE
  5
75B
  8
1
 10
-1828.4076205108261
 20
1276.893783963015
 30
0.0
 11
-1829.4076205108249
 21
1276.893783963015
 31
0.0
  0
CIRCLE
  5
763
  8
1
 10
-1780.4076205108261
 20
1246.693783963015
 30
0.0
 40
10.5
  0
CIRCLE
  5
764
  8
1
 10
-1780.4076205108261
 20
1246.693783963015
 30
0.0
 40
8.6500000000000004
  0
LINE
  5
766
  8
1
 10
-1777.9076205108249
 20
1250.693783963015
 30
0.0
 11
-1777.9076205108249
 21
1248.023910981937
 31
0.0
  0
LINE
  5
767
  8
1
 10
-1782.9076205108249
 20
1250.693783963015
 30
0.0
 11
-1782.9076205108249
 21
1248.023910981937
 31
0.0
  0
ARC
  5
822
  8
1
 10
-1780.4076205108261
 20
1243.693783963015
 30
0.0
 40
5.0
 50
119.9999999999998
 51
60.000000000000099
  0
CIRCLE
  5
823
  8
1
 10
-1780.4076205108261
 20
1246.693783963015
 30
0.0
 40
8.5
  0
ARC
  5
824
  8
1
 10
-1780.4076205108261
 20
1250.693783963015
 30
0.0
 40
2.5
 50
0.0
 51
180.0
  0
LINE
  5
828
  8
1
 10
-1806.4076205108249
 20
1276.893783963015
 30
0.0
 11
-1807.4076205108261
 21
1276.893783963015
 31
0.0
  0
LINE
  5
829
  8
1
 10
-1806.4076205108249
 20
1278.393783963015
 30
0.0
 11
-1806.4076205108249
 21
1276.893783963015
 31
0.0
  0
LINE
  5
82A
  8
1
 10
-1807.4076205108261
 20
1278.393783963015
 30
0.0
 11
-1807.4076205108261
 21
1276.893783963015
 31
0.0
  0
LINE
  5
82B
  8
1
 10
-1803.4076205108249
 20
1278.393783963015
 30
0.0
 11
-1803.4076205108249
 21
1276.893783963015
 31
0.0
  0
LINE
  5
82C
  8
1
 10
-1804.4076205108249
 20
1278.393783963015
 30
0.0
 11
-1804.4076205108249
 21
1276.893783963015
 31
0.0
  0
LINE
  5
82D
  8
1
 10
-1803.4076205108249
 20
1276.893783963015
 30
0.0
 11
-1804.4076205108249
 21
1276.893783963015
 31
0.0
  0
CIRCLE
  5
82E
  8
1
 10
-1800.9076205108249
 20
1271.393783963015
 30
0.0
 40
1.1999999999999991
  0
CIRCLE
  5
831
  8
1
 10
-1800.9076205108249
 20
1271.393783963015
 30
0.0
 40
4.5
  0
LINE
  5
833
  8
1
 10
-1778.4076205108261
 20
1276.893783963015
 30
0.0
 11
-1779.4076205108249
 21
1276.893783963015
 31
0.0
  0
LINE
  5
834
  8
1
 10
-1779.4076205108249
 20
1278.393783963015
 30
0.0
 11
-1779.4076205108249
 21
1276.893783963015
 31
0.0
  0
LINE
  5
835
  8
1
 10
-1778.4076205108261
 20
1278.393783963015
 30
0.0
 11
-1778.4076205108261
 21
1276.893783963015
 31
0.0
  0
LINE
  5
836
  8
1
 10
-1782.4076205108249
 20
1278.393783963015
 30
0.0
 11
-1782.4076205108249
 21
1276.893783963015
 31
0.0
  0
LINE
  5
837
  8
1
 10
-1781.4076205108249
 20
1278.393783963015
 30
0.0
 11
-1781.4076205108249
 21
1276.893783963015
 31
0.0
  0
LINE
  5
838
  8
1
 10
-1781.4076205108249
 20
1276.893783963015
 30
0.0
 11
-1782.4076205108249
 21
1276.893783963015
 31
0.0
  0
CIRCLE
  5
83C
  8
1
 10
-1780.4076205108261
 20
1271.393783963015
 30
0.0
 40
4.5
  0
LINE
  5
850
  8
1
 10
-1754.4076205108249
 20
1160.8937839630159
 30
0.0
 11
-1753.4076205108249
 21
1160.8937839630159
 31
0.0
  0
LINE
  5
851
  8
1
 10
-1754.4076205108249
 20
1159.393783963015
 30
0.0
 11
-1754.4076205108249
 21
1160.8937839630159
 31
0.0
  0
LINE
  5
852
  8
1
 10
-1753.4076205108249
 20
1159.393783963015
 30
0.0
 11
-1753.4076205108249
 21
1160.8937839630159
 31
0.0
  0
LINE
  5
853
  8
1
 10
-1757.4076205108249
 20
1159.393783963015
 30
0.0
 11
-1757.4076205108249
 21
1160.8937839630159
 31
0.0
  0
LINE
  5
854
  8
1
 10
-1756.4076205108249
 20
1159.393783963015
 30
0.0
 11
-1756.4076205108249
 21
1160.8937839630159
 31
0.0
  0
LINE
  5
855
  8
1
 10
-1757.4076205108249
 20
1160.8937839630159
 30
0.0
 11
-1756.4076205108249
 21
1160.8937839630159
 31
0.0
  0
LINE
  5
856
  8
1
 10
-1729.4076205108249
 20
1160.8937839630159
 30
0.0
 11
-1728.4076205108261
 21
1160.8937839630159
 31
0.0
  0
LINE
  5
857
  8
1
 10
-1729.4076205108249
 20
1159.393783963015
 30
0.0
 11
-1729.4076205108249
 21
1160.8937839630159
 31
0.0
  0
LINE
  5
858
  8
1
 10
-1728.4076205108261
 20
1159.393783963015
 30
0.0
 11
-1728.4076205108261
 21
1160.8937839630159
 31
0.0
  0
LINE
  5
859
  8
1
 10
-1732.4076205108261
 20
1159.393783963015
 30
0.0
 11
-1732.4076205108261
 21
1160.8937839630159
 31
0.0
  0
LINE
  5
85A
  8
1
 10
-1731.4076205108249
 20
1159.393783963015
 30
0.0
 11
-1731.4076205108249
 21
1160.8937839630159
 31
0.0
  0
LINE
  5
85B
  8
1
 10
-1732.4076205108261
 20
1160.8937839630159
 30
0.0
 11
-1731.4076205108249
 21
1160.8937839630159
 31
0.0
  0
LINE
  5
88D
  8
1
 10
-1706.4076205108249
 20
1159.393783963015
 30
0.0
 11
-1706.4076205108249
 21
1160.8937839630159
 31
0.0
  0
LINE
  5
88E
  8
1
 10
-1707.4076205108249
 20
1160.8937839630159
 30
0.0
 11
-1706.4076205108249
 21
1160.8937839630159
 31
0.0
  0
LINE
  5
88F
  8
1
 10
-1707.4076205108249
 20
1159.393783963015
 30
0.0
 11
-1707.4076205108249
 21
1160.8937839630159
 31
0.0
  0
LINE
  5
892
  8
1
 10
-1686.317797197747
 20
1159.393783963015
 30
0.0
 11
-1686.252180797444
 21
1163.1529450187891
 31
0.0
  0
LINE
  5
893
  8
1
 10
-1687.5179799913999
 20
1159.393783963015
 30
0.0
 11
-1687.3774255733119
 21
1167.446141182327
 31
0.0
  0
LINE
  5
896
  8
1
 10
-1687.5401654458981
 20
1152.393783963015
 30
0.0
 11
-1687.5401654458981
 21
1152.0937839630151
 31
0.0
  0
ARC
  5
897
  8
1
 10
-1687.340165445898
 20
1152.0937839630151
 30
0.0
 40
0.2
 50
180.0
 51
270.0
  0
LINE
  5
899
  8
1
 10
-1704.4076205108249
 20
1160.8937839630159
 30
0.0
 11
-1703.4076205108261
 21
1160.8937839630159
 31
0.0
  0
LINE
  5
89A
  8
1
 10
-1704.4076205108249
 20
1159.393783963015
 30
0.0
 11
-1704.4076205108249
 21
1160.8937839630159
 31
0.0
  0
LINE
  5
89C
  8
1
 10
-1703.4076205108261
 20
1159.393783963015
 30
0.0
 11
-1703.4076205108261
 21
1160.8937839630159
 31
0.0
  0
CIRCLE
  5
8A0
  8
1
 10
-1718.9076205108249
 20
1191.143783963015
 30
0.0
 40
4.5
  0
CIRCLE
  5
8A1
  8
1
 10
-1718.9076205108249
 20
1191.143783963015
 30
0.0
 40
1.1999999999999991
  0
LINE
  5
8AF
  8
1
 10
-1757.4076205108249
 20
1276.893783963015
 30
0.0
 11
-1756.4076205108249
 21
1276.893783963015
 31
0.0
  0
LINE
  5
8B0
  8
1
 10
-1756.4076205108249
 20
1278.393783963015
 30
0.0
 11
-1756.4076205108249
 21
1276.893783963015
 31
0.0
  0
LINE
  5
8B1
  8
1
 10
-1757.4076205108249
 20
1278.393783963015
 30
0.0
 11
-1757.4076205108249
 21
1276.893783963015
 31
0.0
  0
LINE
  5
8B2
  8
1
 10
-1753.4076205108249
 20
1278.393783963015
 30
0.0
 11
-1753.4076205108249
 21
1276.893783963015
 31
0.0
  0
LINE
  5
8B3
  8
1
 10
-1754.4076205108249
 20
1278.393783963015
 30
0.0
 11
-1754.4076205108249
 21
1276.893783963015
 31
0.0
  0
LINE
  5
8B4
  8
1
 10
-1754.4076205108249
 20
1276.893783963015
 30
0.0
 11
-1753.4076205108249
 21
1276.893783963015
 31
0.0
  0
CIRCLE
  5
8B6
  8
1
 10
-1759.9076205108249
 20
1271.393783963015
 30
0.0
 40
1.1999999999999991
  0
CIRCLE
  5
8B9
  8
1
 10
-1759.9076205108249
 20
1271.393783963015
 30
0.0
 40
4.5
  0
LINE
  5
8BA
  8
1
 10
-1728.4076205108261
 20
1278.393783963015
 30
0.0
 11
-1728.4076205108261
 21
1276.893783963015
 31
0.0
  0
LINE
  5
8BB
  8
1
 10
-1729.4076205108249
 20
1278.393783963015
 30
0.0
 11
-1729.4076205108249
 21
1276.893783963015
 31
0.0
  0
LINE
  5
8BC
  8
1
 10
-1729.4076205108249
 20
1276.893783963015
 30
0.0
 11
-1728.4076205108261
 21
1276.893783963015
 31
0.0
  0
LINE
  5
8BD
  8
1
 10
-1732.4076205108261
 20
1276.893783963015
 30
0.0
 11
-1731.4076205108249
 21
1276.893783963015
 31
0.0
  0
LINE
  5
8BE
  8
1
 10
-1731.4076205108249
 20
1278.393783963015
 30
0.0
 11
-1731.4076205108249
 21
1276.893783963015
 31
0.0
  0
LINE
  5
8BF
  8
1
 10
-1732.4076205108261
 20
1278.393783963015
 30
0.0
 11
-1732.4076205108261
 21
1276.893783963015
 31
0.0
  0
LINE
  5
8CD
  8
1
 10
-1707.4076205108249
 20
1276.893783963015
 30
0.0
 11
-1706.4076205108249
 21
1276.893783963015
 31
0.0
  0
LINE
  5
8CE
  8
1
 10
-1706.4076205108249
 20
1278.393783963015
 30
0.0
 11
-1706.4076205108249
 21
1276.893783963015
 31
0.0
  0
LINE
  5
8CF
  8
1
 10
-1707.4076205108249
 20
1278.393783963015
 30
0.0
 11
-1707.4076205108249
 21
1276.893783963015
 31
0.0
  0
CIRCLE
  5
8D0
  8
1
 10
-1718.9076205108249
 20
1271.393783963015
 30
0.0
 40
1.1999999999999991
  0
CIRCLE
  5
8D3
  8
1
 10
-1718.9076205108249
 20
1271.393783963015
 30
0.0
 40
4.5
  0
LINE
  5
8D4
  8
1
 10
-1703.4076205108261
 20
1278.393783963015
 30
0.0
 11
-1703.4076205108261
 21
1276.893783963015
 31
0.0
  0
LINE
  5
8D5
  8
1
 10
-1704.4076205108249
 20
1278.393783963015
 30
0.0
 11
-1704.4076205108249
 21
1276.893783963015
 31
0.0
  0
LINE
  5
8D6
  8
1
 10
-1704.4076205108249
 20
1276.893783963015
 30
0.0
 11
-1703.4076205108261
 21
1276.893783963015
 31
0.0
  0
LINE
  5
8DE
  8
1
 10
-1688.4076205108261
 20
1271.393783963015
 30
0.0
 11
-1688.4076205108261
 21
1278.393783963015
 31
0.0
  0
LINE
  5
8DF
  8
1
 10
-1686.9076205108261
 20
1274.7478859292651
 30
0.0
 11
-1686.9076205108261
 21
1278.393783963015
 31
0.0
  0
LINE
  5
A0D
  8
1
 10
-1680.957620510826
 20
1151.893783963015
 30
0.0
 11
-1680.957620510826
 21
1134.643783963015
 31
0.0
  0
LINE
  5
A0E
  8
1
 10
-1682.1576205108261
 20
1151.893783963015
 30
0.0
 11
-1682.1576205108261
 21
1134.643783963015
 31
0.0
  0
LINE
  5
A0F
  8
1
 10
-1674.210729319117
 20
1099.393783963015
 30
0.0
 11
-1674.210729319117
 21
1158.079714748678
 31
0.0
  0
ARC
  5
A15
  8
1
 10
-1681.4076205108261
 20
1104.093783963016
 30
0.0
 40
2.7000000000000002
 50
180.0
 51
0.0
  0
LINE
  5
A16
  8
1
 10
-1676.2107293191159
 20
1099.393783963015
 30
0.0
 11
-1676.2107293191159
 21
1119.093783963016
 31
0.0
  0
ARC
  5
A18
  8
1
 10
-1677.2107293191159
 20
1099.393783963015
 30
0.0
 40
3.0
 50
270.0
 51
0.0
  0
ARC
  5
A19
  8
1
 10
-1677.2107293191159
 20
1099.393783963015
 30
0.0
 40
1.0
 50
270.00000000000023
 51
0.0
  0
LINE
  5
A1D
  8
1
 10
-1684.857620510825
 20
1134.143783963015
 30
0.0
 11
-1682.6576205108261
 21
1134.143783963015
 31
0.0
  0
LINE
  5
A1E
  8
1
 10
-1682.1576205108261
 20
1138.893783963015
 30
0.0
 11
-1683.6576205108261
 21
1138.893783963015
 31
0.0
  0
LINE
  5
A1F
  8
1
 10
-1683.6576205108261
 20
1134.893783963015
 30
0.0
 11
-1683.6576205108261
 21
1135.893783963015
 31
0.0
  0
LINE
  5
A20
  8
1
 10
-1682.1576205108261
 20
1137.893783963015
 30
0.0
 11
-1683.6576205108261
 21
1137.893783963015
 31
0.0
  0
LINE
  5
A21
  8
1
 10
-1682.1576205108261
 20
1135.893783963015
 30
0.0
 11
-1683.6576205108261
 21
1135.893783963015
 31
0.0
  0
LINE
  5
A22
  8
1
 10
-1682.1576205108261
 20
1134.893783963015
 30
0.0
 11
-1683.6576205108261
 21
1134.893783963015
 31
0.0
  0
LINE
  5
A23
  8
1
 10
-1683.6576205108261
 20
1137.893783963015
 30
0.0
 11
-1683.6576205108261
 21
1138.893783963015
 31
0.0
  0
LINE
  5
A24
  8
1
 10
-1682.1576205108261
 20
1141.893783963015
 30
0.0
 11
-1683.6576205108261
 21
1141.893783963015
 31
0.0
  0
LINE
  5
A25
  8
1
 10
-1682.1576205108261
 20
1142.893783963015
 30
0.0
 11
-1683.6576205108261
 21
1142.893783963015
 31
0.0
  0
LINE
  5
A26
  8
1
 10
-1683.6576205108261
 20
1141.893783963015
 30
0.0
 11
-1683.6576205108261
 21
1142.893783963015
 31
0.0
  0
LINE
  5
A29
  8
1
 10
-1676.2107293191159
 20
1125.893783963015
 30
0.0
 11
-1676.2107293191159
 21
1127.893783963015
 31
0.0
  0
LINE
  5
A2A
  8
1
 10
-1678.9107293191159
 20
1125.893783963015
 30
0.0
 11
-1678.9107293191159
 21
1127.893783963015
 31
0.0
  0
LINE
  5
A2D
  8
1
 10
-1676.2107293191159
 20
1127.8937839630159
 30
0.0
 11
-1678.9107293191159
 21
1127.893783963015
 31
0.0
  0
LINE
  5
A2E
  8
1
 10
-1676.2107293191159
 20
1125.893783963015
 30
0.0
 11
-1678.9107293191171
 21
1125.893783963015
 31
0.0
  0
ARC
  5
A2F
  8
1
 10
-1676.5107293191161
 20
1119.093783963016
 30
0.0
 40
0.3
 50
0.0
 51
90.0
  0
CIRCLE
  5
A34
  8
1
 10
-1682.9076205108261
 20
1125.893783963015
 30
0.0
 40
1.6000000000000001
  0
LINE
  5
A35
  8
1
 10
-1684.8576205108261
 20
1132.9437839630141
 30
0.0
 11
-1682.6576205108261
 21
1132.943783963015
 31
0.0
  0
ARC
  5
A36
  8
1
 10
-1681.4076205108261
 20
1113.693783963015
 30
0.0
 40
2.7000000000000002
 50
0.0
 51
180.0
  0
LINE
  5
A37
  8
1
 10
-1678.707620510826
 20
1113.693783963015
 30
0.0
 11
-1678.707620510826
 21
1104.093783963016
 31
0.0
  0
LINE
  5
A38
  8
1
 10
-1684.1076205108261
 20
1113.693783963015
 30
0.0
 11
-1684.1076205108261
 21
1104.093783963016
 31
0.0
  0
ARC
  5
A3A
  8
1
 10
-1682.6576205108261
 20
1134.643783963015
 30
0.0
 40
0.5
 50
270.00000000000432
 51
0.0
  0
ARC
  5
A3B
  8
1
 10
-1682.6576205108261
 20
1134.643783963015
 30
0.0
 40
1.7
 50
269.99999999999818
 51
0.0
  0
LINE
  5
B10
  8
1
 10
-1675.707620510826
 20
1160.393783963015
 30
0.0
 11
-1675.707620510826
 21
1277.393783963015
 31
0.0
  0
LINE
  5
B11
  8
1
 10
-1676.9076205108261
 20
1160.393783963015
 30
0.0
 11
-1676.9076205108261
 21
1277.393783963015
 31
0.0
  0
LINE
  5
B12
  8
1
 10
-1673.9076205108261
 20
1159.393783963015
 30
0.0
 11
-1673.9076205108261
 21
1278.393783963015
 31
0.0
  0
LINE
  5
B13
  8
1
 10
-1678.4076205108249
 20
1184.393783963015
 30
0.0
 11
-1678.4076205108249
 21
1183.393783963015
 31
0.0
  0
LINE
  5
B14
  8
1
 10
-1664.9076205108261
 20
1176.5162740736009
 30
0.0
 11
-1664.9076205108261
 21
1192.2712938524301
 31
0.0
  0
LINE
  5
B16
  8
1
 10
-1667.4076205108261
 20
1176.893783963015
 30
0.0
 11
-1667.4076205108261
 21
1191.893783963015
 31
0.0
  0
ARC
  5
B17
  8
1
 10
-1666.9076205108261
 20
1176.5162740736009
 30
0.0
 40
2.0
 50
271.0000000000008
 51
0.0
  0
LINE
  5
B18
  8
1
 10
-1673.9076205108261
 20
1176.893783963015
 30
0.0
 11
-1664.9076205108261
 21
1176.893783963015
 31
0.0
  0
LINE
  5
B19
  8
1
 10
-1676.9076205108249
 20
1183.393783963015
 30
0.0
 11
-1678.4076205108249
 21
1183.393783963015
 31
0.0
  0
LINE
  5
B1A
  8
1
 10
-1671.9076205108261
 20
1174.4286940928721
 30
0.0
 11
-1671.9076205108261
 21
1176.893783963015
 31
0.0
  0
LINE
  5
B1B
  8
1
 10
-1673.9076205108261
 20
1174.393783963015
 30
0.0
 11
-1666.872715697951
 21
1174.5165786832879
 31
0.0
  0
ARC
  5
B1C
  8
1
 10
-1677.9076205108261
 20
1160.393783963015
 30
0.0
 40
2.2000000000000002
 50
270.0
 51
0.0
  0
ARC
  5
B1D
  8
1
 10
-1677.9076205108261
 20
1160.393783963015
 30
0.0
 40
1.0
 50
270.0
 51
0.0
  0
CIRCLE
  5
B20
  8
1
 10
-1683.9076205108261
 20
1166.393783963015
 30
0.0
 40
1.1999999999999991
  0
LINE
  5
B21
  8
1
 10
-1681.0510491394091
 20
1169.193783963015
 30
0.0
 11
-1676.9076205108261
 21
1169.193783963015
 31
0.0
  0
LINE
  5
B22
  8
1
 10
-1684.377882487843
 20
1170.393783963015
 30
0.0
 11
-1676.9076205108261
 21
1170.393783963015
 31
0.0
  0
ARC
  5
B24
  8
1
 10
-1682.6576205108261
 20
1151.893783963015
 30
0.0
 40
0.5
 50
0.0
 51
90.0
  0
LINE
  5
B25
  8
1
 10
-1683.6576205108261
 20
1144.893783963015
 30
0.0
 11
-1683.6576205108261
 21
1145.893783963015
 31
0.0
  0
LINE
  5
B26
  8
1
 10
-1682.1576205108261
 20
1144.893783963015
 30
0.0
 11
-1683.6576205108261
 21
1144.893783963015
 31
0.0
  0
LINE
  5
B27
  8
1
 10
-1682.1576205108261
 20
1145.893783963015
 30
0.0
 11
-1683.6576205108261
 21
1145.893783963015
 31
0.0
  0
LINE
  5
B28
  8
1
 10
-1683.6576205108261
 20
1148.893783963015
 30
0.0
 11
-1683.6576205108261
 21
1149.893783963015
 31
0.0
  0
LINE
  5
B29
  8
1
 10
-1682.1576205108261
 20
1149.893783963015
 30
0.0
 11
-1683.6576205108261
 21
1149.893783963015
 31
0.0
  0
LINE
  5
B2A
  8
1
 10
-1682.1576205108261
 20
1148.893783963015
 30
0.0
 11
-1683.6576205108261
 21
1148.893783963015
 31
0.0
  0
ARC
  5
B2C
  8
1
 10
-1682.6576205108261
 20
1151.893783963015
 30
0.0
 40
1.7
 50
0.0
 51
89.999999999999915
  0
ARC
  5
B2D
  8
1
 10
-1676.9076205108261
 20
1159.393783963015
 30
0.0
 40
3.0
 50
270.0
 51
0.0
  0
ARC
  5
B2E
  8
1
 10
-1666.9076205108261
 20
1192.2712938524301
 30
0.0
 40
2.0
 50
0.0
 51
88.999999999999147
  0
LINE
  5
B2F
  8
1
 10
-1673.9076205108261
 20
1191.893783963015
 30
0.0
 11
-1664.9076205108261
 21
1191.893783963015
 31
0.0
  0
LINE
  5
B30
  8
1
 10
-1676.9076205108249
 20
1211.393783963015
 30
0.0
 11
-1678.4076205108249
 21
1211.393783963015
 31
0.0
  0
LINE
  5
B31
  8
1
 10
-1678.4076205108249
 20
1215.3937839630159
 30
0.0
 11
-1678.4076205108249
 21
1214.393783963015
 31
0.0
  0
LINE
  5
B32
  8
1
 10
-1676.9076205108249
 20
1212.393783963015
 30
0.0
 11
-1678.4076205108249
 21
1212.393783963015
 31
0.0
  0
LINE
  5
B33
  8
1
 10
-1676.9076205108249
 20
1214.393783963015
 30
0.0
 11
-1678.4076205108249
 21
1214.393783963015
 31
0.0
  0
LINE
  5
B34
  8
1
 10
-1676.9076205108249
 20
1215.3937839630159
 30
0.0
 11
-1678.4076205108249
 21
1215.3937839630159
 31
0.0
  0
LINE
  5
B35
  8
1
 10
-1678.4076205108249
 20
1212.393783963015
 30
0.0
 11
-1678.4076205108249
 21
1211.393783963015
 31
0.0
  0
LINE
  5
B36
  8
1
 10
-1676.9076205108249
 20
1197.393783963015
 30
0.0
 11
-1678.4076205108249
 21
1197.393783963015
 31
0.0
  0
LINE
  5
B37
  8
1
 10
-1678.4076205108249
 20
1201.393783963015
 30
0.0
 11
-1678.4076205108249
 21
1200.393783963015
 31
0.0
  0
LINE
  5
B38
  8
1
 10
-1676.9076205108249
 20
1198.393783963015
 30
0.0
 11
-1678.4076205108249
 21
1198.393783963015
 31
0.0
  0
LINE
  5
B39
  8
1
 10
-1676.9076205108249
 20
1200.393783963015
 30
0.0
 11
-1678.4076205108249
 21
1200.393783963015
 31
0.0
  0
LINE
  5
B3A
  8
1
 10
-1676.9076205108249
 20
1201.393783963015
 30
0.0
 11
-1678.4076205108249
 21
1201.393783963015
 31
0.0
  0
LINE
  5
B3B
  8
1
 10
-1678.4076205108249
 20
1198.393783963015
 30
0.0
 11
-1678.4076205108249
 21
1197.393783963015
 31
0.0
  0
LINE
  5
B3C
  8
1
 10
-1678.4076205108249
 20
1187.393783963015
 30
0.0
 11
-1678.4076205108249
 21
1186.393783963015
 31
0.0
  0
LINE
  5
B3D
  8
1
 10
-1676.9076205108249
 20
1184.393783963015
 30
0.0
 11
-1678.4076205108249
 21
1184.393783963015
 31
0.0
  0
LINE
  5
B3E
  8
1
 10
-1676.9076205108249
 20
1186.393783963015
 30
0.0
 11
-1678.4076205108249
 21
1186.393783963015
 31
0.0
  0
LINE
  5
B3F
  8
1
 10
-1676.9076205108249
 20
1187.393783963015
 30
0.0
 11
-1678.4076205108249
 21
1187.393783963015
 31
0.0
  0
LINE
  5
B40
  8
1
 10
-1671.9076205108261
 20
1191.893783963015
 30
0.0
 11
-1671.9076205108261
 21
1194.3588738331589
 31
0.0
  0
LINE
  5
B41
  8
1
 10
-1673.9076205108261
 20
1194.393783963015
 30
0.0
 11
-1666.872715697951
 21
1194.2709892427431
 31
0.0
  0
CIRCLE
  5
B42
  8
1
 10
-1684.4076205108249
 20
1191.143783963015
 30
0.0
 40
1.1999999999999991
  0
ARC
  5
B45
  8
1
 10
-1666.9076205108261
 20
1261.2712938524301
 30
0.0
 40
2.0
 50
0.0
 51
89.000000000001009
  0
LINE
  5
B46
  8
1
 10
-1673.9076205108261
 20
1260.893783963015
 30
0.0
 11
-1664.9076205108261
 21
1260.893783963015
 31
0.0
  0
ARC
  5
B47
  8
1
 10
-1666.9076205108261
 20
1245.5162740736009
 30
0.0
 40
2.0
 50
270.99999999999898
 51
0.0
  0
LINE
  5
B48
  8
1
 10
-1673.9076205108261
 20
1245.893783963015
 30
0.0
 11
-1664.9076205108261
 21
1245.893783963015
 31
0.0
  0
LINE
  5
B49
  8
1
 10
-1678.4076205108249
 20
1254.393783963015
 30
0.0
 11
-1678.4076205108249
 21
1253.393783963015
 31
0.0
  0
LINE
  5
B4A
  8
1
 10
-1676.9076205108249
 20
1257.393783963015
 30
0.0
 11
-1678.4076205108249
 21
1257.393783963015
 31
0.0
  0
LINE
  5
B4B
  8
1
 10
-1676.9076205108249
 20
1256.393783963015
 30
0.0
 11
-1678.4076205108249
 21
1256.393783963015
 31
0.0
  0
LINE
  5
B4C
  8
1
 10
-1676.9076205108249
 20
1254.393783963015
 30
0.0
 11
-1678.4076205108249
 21
1254.393783963015
 31
0.0
  0
LINE
  5
B4D
  8
1
 10
-1678.4076205108249
 20
1257.393783963015
 30
0.0
 11
-1678.4076205108249
 21
1256.393783963015
 31
0.0
  0
LINE
  5
B4E
  8
1
 10
-1676.9076205108249
 20
1253.393783963015
 30
0.0
 11
-1678.4076205108249
 21
1253.393783963015
 31
0.0
  0
LINE
  5
B4F
  8
1
 10
-1671.9076205108261
 20
1260.893783963015
 30
0.0
 11
-1671.9076205108261
 21
1263.3588738331589
 31
0.0
  0
LINE
  5
B50
  8
1
 10
-1673.9076205108261
 20
1263.393783963015
 30
0.0
 11
-1666.872715697951
 21
1263.2709892427431
 31
0.0
  0
LINE
  5
B55
  8
1
 10
-1676.9076205108249
 20
1239.393783963015
 30
0.0
 11
-1678.4076205108249
 21
1239.393783963015
 31
0.0
  0
LINE
  5
B56
  8
1
 10
-1678.4076205108249
 20
1243.393783963015
 30
0.0
 11
-1678.4076205108249
 21
1242.393783963015
 31
0.0
  0
LINE
  5
B57
  8
1
 10
-1676.9076205108249
 20
1240.393783963015
 30
0.0
 11
-1678.4076205108249
 21
1240.393783963015
 31
0.0
  0
LINE
  5
B58
  8
1
 10
-1676.9076205108249
 20
1242.393783963015
 30
0.0
 11
-1678.4076205108249
 21
1242.393783963015
 31
0.0
  0
LINE
  5
B59
  8
1
 10
-1676.9076205108249
 20
1243.393783963015
 30
0.0
 11
-1678.4076205108249
 21
1243.393783963015
 31
0.0
  0
LINE
  5
B5A
  8
1
 10
-1678.4076205108249
 20
1240.393783963015
 30
0.0
 11
-1678.4076205108249
 21
1239.393783963015
 31
0.0
  0
LINE
  5
B5B
  8
1
 10
-1678.4076205108249
 20
1229.393783963015
 30
0.0
 11
-1678.4076205108249
 21
1228.393783963015
 31
0.0
  0
LINE
  5
B5C
  8
1
 10
-1676.9076205108249
 20
1228.393783963015
 30
0.0
 11
-1678.4076205108249
 21
1228.393783963015
 31
0.0
  0
LINE
  5
B5D
  8
1
 10
-1676.9076205108249
 20
1229.393783963015
 30
0.0
 11
-1678.4076205108249
 21
1229.393783963015
 31
0.0
  0
LINE
  5
B5E
  8
1
 10
-1671.9076205108261
 20
1243.4286940928721
 30
0.0
 11
-1671.9076205108261
 21
1245.893783963015
 31
0.0
  0
LINE
  5
B5F
  8
1
 10
-1673.9076205108261
 20
1243.393783963015
 30
0.0
 11
-1666.872715697951
 21
1243.5165786832879
 31
0.0
  0
CIRCLE
  5
B60
  8
1
 10
-1684.4076205108249
 20
1246.6437839630159
 30
0.0
 40
1.1999999999999991
  0
LINE
  5
B62
  8
1
 10
-1667.4076205108261
 20
1245.893783963015
 30
0.0
 11
-1667.4076205108261
 21
1260.893783963015
 31
0.0
  0
LINE
  5
B63
  8
1
 10
-1676.9076205108249
 20
1225.393783963015
 30
0.0
 11
-1678.4076205108249
 21
1225.393783963015
 31
0.0
  0
LINE
  5
B64
  8
1
 10
-1676.9076205108249
 20
1226.393783963015
 30
0.0
 11
-1678.4076205108249
 21
1226.393783963015
 31
0.0
  0
LINE
  5
B65
  8
1
 10
-1678.4076205108249
 20
1226.393783963015
 30
0.0
 11
-1678.4076205108249
 21
1225.393783963015
 31
0.0
  0
LINE
  5
B66
  8
1
 10
-1664.9076205108261
 20
1245.5162740736009
 30
0.0
 11
-1664.9076205108261
 21
1261.2712938524301
 31
0.0
  0
ARC
  5
B67
  8
1
 10
-1676.9076205108261
 20
1278.393783963015
 30
0.0
 40
3.0
 50
0.0
 51
90.0
  0
ARC
  5
B68
  8
1
 10
-1677.9076205108261
 20
1277.393783963015
 30
0.0
 40
2.2000000000000002
 50
0.0
 51
90.0
  0
ARC
  5
B69
  8
1
 10
-1677.9076205108261
 20
1277.393783963015
 30
0.0
 40
1.0
 50
0.0
 51
90.0
  0
LINE
  5
B6A
  8
1
 10
-1680.553518544576
 20
1268.393783963015
 30
0.0
 11
-1676.9076205108261
 21
1268.393783963015
 31
0.0
  0
CIRCLE
  5
B6C
  8
1
 10
-1683.9076205108261
 20
1271.393783963015
 30
0.0
 40
1.1999999999999991
  0
LINE
  5
B6D
  8
1
 10
-1683.9076205108261
 20
1266.893783963015
 30
0.0
 11
-1676.9076205108261
 21
1266.893783963015
 31
0.0
  0
LINE
  5
EA2
  8
1
 10
-1878.1576205108249
 20
1403.694908929104
 30
0.0
 11
-1780.4076205108261
 21
1403.6949089291129
 31
0.0
  0
LINE
  5
EA3
  8
1
 10
-1886.9076205108249
 20
1432.1379865747051
 30
0.0
 11
-1780.4076205108261
 21
1432.1379865747051
 31
0.0
  0
LINE
  5
F2A
  8
1
 10
-1780.4076205108261
 20
1391.1379865747051
 30
0.0
 11
-1886.604511702536
 21
1391.1379865747051
 31
0.0
  0
LINE
  5
F2B
  8
1
 10
-1780.4076205108261
 20
1396.98960100627
 30
0.0
 11
-1872.6576205108261
 21
1396.989601006271
 31
0.0
  0
LINE
  5
F2C
  8
1
 10
-1872.1576205108261
 20
1394.1379865747051
 30
0.0
 11
-1780.4076205108261
 21
1394.1379865747051
 31
0.0
  0
LINE
  5
F2E
  8
1
 10
-1885.107620510825
 20
1435.1379865747051
 30
0.0
 11
-1780.4076205108261
 21
1435.1379865747051
 31
0.0
  0
LINE
  5
F36
  8
1
 10
-1886.4076205108249
 20
1353.1379865747051
 30
0.0
 11
-1780.4076205108261
 21
1353.1379865747051
 31
0.0
  0
LINE
  5
F67
  8
1
 10
-1886.4076205108249
 20
1353.1379865747051
 30
0.0
 11
-1886.9076205108249
 21
1432.1379865747051
 31
0.0
  0
LINE
  5
FA0
  8
1
 10
-1874.707620510826
 20
1345.1379865747051
 30
0.0
 11
-1860.477435453151
 21
1345.1379865747051
 31
0.0
  0
LINE
  5
FA4
  8
1
 10
-1884.1076205108261
 20
1345.1379865747051
 30
0.0
 11
-1874.707620510826
 21
1345.1379865747051
 31
0.0
  0
LINE
  5
FA7
  8
1
 10
-1874.5679799914001
 20
1353.1379865747051
 30
0.0
 11
-1874.707620510826
 21
1345.1379865747051
 31
0.0
  0
LINE
  5
FA8
  8
1
 10
-1884.247261030252
 20
1353.1379865747051
 30
0.0
 11
-1884.1076205108261
 21
1345.1379865747051
 31
0.0
  0
LINE
  5
FAB
  8
1
 10
-1860.4076205108261
 20
1353.1379865747051
 30
0.0
 11
-1860.477435453151
 21
1345.1379865747051
 31
0.0
  0
LINE
  5
FB2
  8
1
 10
-1895.9076205108249
 20
1429.6379865747051
 30
0.0
 11
-1888.9076205108261
 21
1429.6379865747051
 31
0.0
  0
LINE
  5
FB3
  8
1
 10
-1893.7548241677159
 20
1410.1379865747051
 30
0.0
 11
-1886.9076205108249
 21
1410.1379865747051
 31
0.0
  0
LINE
  5
FC3
  8
1
 10
-1895.7547480138439
 20
1412.1205335037091
 30
0.0
 11
-1895.9076205108249
 21
1429.6379865747051
 31
0.0
  0
ARC
  5
FC6
  8
1
 10
-1893.7548241677159
 20
1412.1379865747051
 30
0.0
 40
2.0
 50
180.49999999999989
 51
270.0
  0
POLYLINE
  5
FD6
  8
1
 66
     1
 10
0.0
 20
0.0
 30
0.0
  0
VERTEX
  5
1D75
  8
1
 10
-1878.1576205108249
 20
1403.694908929104
 30
0.0
 42
0.0052877851924635
  0
VERTEX
  5
1D76
  8
1
 10
-1878.8615935774919
 20
1403.6874638042179
 30
0.0
 42
0.007468947870235
  0
VERTEX
  5
1D77
  8
1
 10
-1879.3597020388429
 20
1403.6694799783561
 30
0.0
 42
0.01791436931456
  0
VERTEX
  5
1D78
  8
1
 10
-1879.840340242479
 20
1403.6276307508949
 30
0.0
 42
0.3787223311314991
  0
VERTEX
  5
1D79
  8
1
 10
-1879.8576205108261
 20
1403.6080890605811
 30
0.0
 42
0.3787223311281338
  0
SEQEND
  5
1D7A
  8
1
  0
POLYLINE
  5
FD7
  8
1
 66
     1
 10
0.0
 20
0.0
 30
0.0
  0
VERTEX
  5
1D7B
  8
1
 10
-1878.1576205108249
 20
1403.694908929104
 30
0.0
 42
0.0179528718256618
  0
VERTEX
  5
1D7C
  8
1
 10
-1878.364088206773
 20
1403.6874931627981
 30
0.0
 42
0.0250377148196745
  0
VERTEX
  5
1D7D
  8
1
 10
-1878.5111739014189
 20
1403.669478742255
 30
0.0
 42
0.0563179969730268
  0
VERTEX
  5
1D7E
  8
1
 10
-1878.6422832553651
 20
1403.631145066355
 30
0.0
 42
0.3021816287208285
  0
VERTEX
  5
1D7F
  8
1
 10
-1878.6576205108249
 20
1403.608084840271
 30
0.0
 42
0.3021816287197159
  0
SEQEND
  5
1D80
  8
1
  0
LINE
  5
FDB
  8
1
 10
-1873.8687490422869
 20
1398.068281527434
 30
0.0
 11
-1874.0502252023709
 21
1391.1379865747051
 31
0.0
  0
LINE
  5
FDC
  8
1
 10
-1878.1576205108249
 20
1398.9957948932231
 30
0.0
 11
-1877.9076205108249
 21
1398.9957948932231
 31
0.0
  0
LINE
  5
FDD
  8
1
 10
-1878.1576205108249
 20
1399.2073872700739
 30
0.0
 11
-1877.9076205108249
 21
1399.2073872700739
 31
0.0
  0
POLYLINE
  5
FDE
  8
1
 66
     1
 10
0.0
 20
0.0
 30
0.0
  0
VERTEX
  5
1D81
  8
1
 10
-1872.6576205108261
 20
1397.98191475415
 30
0.0
 42
0.2707443478876268
  0
VERTEX
  5
1D82
  8
1
 10
-1872.8602705459591
 20
1398.3287276830449
 30
0.0
 42
0.0710836476602074
  0
VERTEX
  5
1D83
  8
1
 10
-1874.1953099095961
 20
1398.848454680317
 30
0.0
 42
0.0332446860458197
  0
VERTEX
  5
1D84
  8
1
 10
-1875.745011464898
 20
1399.1030822629821
 30
0.0
 42
0.02410154025602
  0
VERTEX
  5
1D85
  8
1
 10
-1877.9076205108249
 20
1399.2073872700739
 30
0.0
 42
0.0241015402560213
  0
SEQEND
  5
1D86
  8
1
  0
POLYLINE
  5
FDF
  8
1
 66
     1
 10
0.0
 20
0.0
 30
0.0
  0
VERTEX
  5
1D87
  8
1
 10
-1873.8576205108261
 20
1397.98191475415
 30
0.0
 42
0.2625887210450227
  0
VERTEX
  5
1D88
  8
1
 10
-1874.022096265486
 20
1398.273501316293
 30
0.0
 42
0.0747215099328401
  0
VERTEX
  5
1D89
  8
1
 10
-1875.04383804702
 20
1398.6988362757991
 30
0.0
 42
0.03550843823257
  0
VERTEX
  5
1D8A
  8
1
 10
-1876.2406807279681
 20
1398.9095996978749
 30
0.0
 42
0.0258370627131203
  0
VERTEX
  5
1D8B
  8
1
 10
-1877.9076205108249
 20
1398.9957948932231
 30
0.0
 42
0.0258370627130968
  0
SEQEND
  5
1D8C
  8
1
  0
POLYLINE
  5
FE1
  8
1
 66
     1
 10
0.0
 20
0.0
 30
0.0
  0
VERTEX
  5
1D8D
  8
1
 10
-1878.1576205108249
 20
1399.2073872700739
 30
0.0
 42
-0.0179528718256618
  0
VERTEX
  5
1D8E
  8
1
 10
-1878.364088206773
 20
1399.2148030363801
 30
0.0
 42
-0.0250377148196745
  0
VERTEX
  5
1D8F
  8
1
 10
-1878.5111739014189
 20
1399.2328174569229
 30
0.0
 42
-0.0563179969730268
  0
VERTEX
  5
1D90
  8
1
 10
-1878.6422832553651
 20
1399.271151132823
 30
0.0
 42
-0.3021816287208285
  0
VERTEX
  5
1D91
  8
1
 10
-1878.6576205108249
 20
1399.294211358907
 30
0.0
 42
-0.3021816287197159
  0
SEQEND
  5
1D92
  8
1
  0
POLYLINE
  5
FE2
  8
1
 66
     1
 10
0.0
 20
0.0
 30
0.0
  0
VERTEX
  5
1D93
  8
1
 10
-1878.1576205108249
 20
1398.9957948932231
 30
0.0
 42
-0.0052877851924635
  0
VERTEX
  5
1D94
  8
1
 10
-1878.8615935774919
 20
1399.0032400181101
 30
0.0
 42
-0.007468947870235
  0
VERTEX
  5
1D95
  8
1
 10
-1879.3597020388429
 20
1399.0212238439719
 30
0.0
 42
-0.01791436931456
  0
VERTEX
  5
1D96
  8
1
 10
-1879.840340242479
 20
1399.0630730714331
 30
0.0
 42
-0.3787223311314991
  0
VERTEX
  5
1D97
  8
1
 10
-1879.8576205108261
 20
1399.082614761747
 30
0.0
 42
-0.3787223311281338
  0
SEQEND
  5
1D98
  8
1
  0
POLYLINE
  5
FE4
  8
1
 66
     1
 10
0.0
 20
0.0
 30
0.0
  0
VERTEX
  5
1D99
  8
1
 10
-1872.1576205108261
 20
1394.137986574706
 30
0.0
 42
-0.0052877851924635
  0
VERTEX
  5
1D9A
  8
1
 10
-1872.861593577491
 20
1394.1454316995921
 30
0.0
 42
-0.007468947870235
  0
VERTEX
  5
1D9B
  8
1
 10
-1873.3597020388429
 20
1394.163415525454
 30
0.0
 42
-0.01791436931456
  0
VERTEX
  5
1D9C
  8
1
 10
-1873.8403402424781
 20
1394.2052647529149
 30
0.0
 42
-0.3787223311314991
  0
VERTEX
  5
1D9D
  8
1
 10
-1873.8576205108261
 20
1394.2248064432281
 30
0.0
 42
-0.3787223311281338
  0
SEQEND
  5
1D9E
  8
1
  0
POLYLINE
  5
FE5
  8
1
 66
     1
 10
0.0
 20
0.0
 30
0.0
  0
VERTEX
  5
1D9F
  8
1
 10
-1872.1576205108261
 20
1394.137986574706
 30
0.0
 42
-0.0179528718256618
  0
VERTEX
  5
1DA0
  8
1
 10
-1872.364088206773
 20
1394.145402341012
 30
0.0
 42
-0.0250377148196745
  0
VERTEX
  5
1DA1
  8
1
 10
-1872.5111739014189
 20
1394.1634167615539
 30
0.0
 42
-0.0563179969730268
  0
VERTEX
  5
1DA2
  8
1
 10
-1872.642283255364
 20
1394.2017504374551
 30
0.0
 42
-0.3021816287208285
  0
VERTEX
  5
1DA3
  8
1
 10
-1872.6576205108261
 20
1394.2248106635391
 30
0.0
 42
-0.3021816287197159
  0
SEQEND
  5
1DA4
  8
1
  0
LINE
  5
FE6
  8
1
 10
-1872.6576205108261
 20
1397.98191475415
 30
0.0
 11
-1872.6576205108261
 21
1394.2248106635391
 31
0.0
  0
LINE
  5
FE8
  8
1
 10
-1879.8576205108261
 20
1403.6080890605811
 30
0.0
 11
-1880.18416163648
 21
1391.1379865747051
 31
0.0
  0
LINE
  5
FEA
  8
1
 10
-1878.6576205108249
 20
1403.6080890605811
 30
0.0
 11
-1878.6576205108249
 21
1399.294207787884
 31
0.0
  0
LINE
  5
FEB
  8
1
 10
-1853.3611416375859
 20
1394.137986574706
 30
0.0
 11
-1853.3651579959401
 21
1396.989601006271
 31
0.0
  0
LINE
  5
FEC
  8
1
 10
-1854.4540993840651
 20
1394.1379865747051
 30
0.0
 11
-1854.4500830257109
 21
1396.989601006271
 31
0.0
  0
LINE
  5
FED
  8
1
 10
-1856.3611416375859
 20
1394.1379865747051
 30
0.0
 11
-1856.365157995941
 21
1396.989601006271
 31
0.0
  0
LINE
  5
FEE
  8
1
 10
-1857.4540993840651
 20
1394.1379865747051
 30
0.0
 11
-1857.4500830257109
 21
1396.989601006271
 31
0.0
  0
LINE
  5
FF2
  8
1
 10
-1888.9076205108261
 20
1428.1379865747051
 30
0.0
 11
-1886.882304055129
 21
1428.1379865747051
 31
0.0
  0
LINE
  5
FF3
  8
1
 10
-1888.9076205108261
 20
1428.1379865747051
 30
0.0
 11
-1888.9076205108261
 21
1429.6379865747051
 31
0.0
  0
LINE
  5
FF4
  8
1
 10
-1885.107620510825
 20
1435.1379865747051
 30
0.0
 11
-1885.1861782755329
 21
1432.1379865747051
 31
0.0
  0
ARC
  5
1084
  8
1
 10
-1784.1576205108249
 20
1350.1379865747051
 30
0.0
 40
1.0
 50
270.0
 51
0.0
  0
LINE
  5
1085
  8
1
 10
-1783.1576205108249
 20
1350.1379865747051
 30
0.0
 11
-1783.1576205108249
 21
1350.637986574706
 31
0.0
  0
LINE
  5
1086
  8
1
 10
-1787.6576205108249
 20
1350.1379865747051
 30
0.0
 11
-1787.6576205108249
 21
1352.1379865747051
 31
0.0
  0
ARC
  5
1087
  8
1
 10
-1786.6576205108249
 20
1350.1379865747051
 30
0.0
 40
1.0
 50
180.0
 51
269.9999999999996
  0
LINE
  5
1088
  8
1
 10
-1784.1576205108249
 20
1349.1379865747051
 30
0.0
 11
-1786.6576205108249
 21
1349.1379865747051
 31
0.0
  0
LINE
  5
1089
  8
1
 10
-1785.4076205108261
 20
1352.1379865747051
 30
0.0
 11
-1788.6576205108249
 21
1352.1379865747051
 31
0.0
  0
LINE
  5
108A
  8
1
 10
-1783.6576205108249
 20
1352.1379865747051
 30
0.0
 11
-1783.6576205108249
 21
1350.637986574706
 31
0.0
  0
LINE
  5
108C
  8
1
 10
-1785.4076205108261
 20
1352.1379865747051
 30
0.0
 11
-1780.4076205108261
 21
1352.1379865747051
 31
0.0
  0
LINE
  5
108D
  8
1
 10
-1783.6576205108249
 20
1350.637986574706
 30
0.0
 11
-1780.4076205108261
 21
1350.6379865747051
 31
0.0
  0
LINE
  5
108F
  8
1
 10
-1788.6576205108249
 20
1352.1379865747051
 30
0.0
 11
-1788.6576205108249
 21
1353.1379865747051
 31
0.0
  0
LINE
  5
1095
  8
1
 10
-1785.4076205108261
 20
1353.1379865747051
 30
0.0
 11
-1785.4076205108261
 21
1352.1379865747051
 31
0.0
  0
LINE
  5
115F
  8
1
 10
-1831.3611416375859
 20
1394.137986574706
 30
0.0
 11
-1831.3651579959401
 21
1396.989601006271
 31
0.0
  0
LINE
  5
1160
  8
1
 10
-1832.4540993840651
 20
1394.1379865747051
 30
0.0
 11
-1832.4500830257109
 21
1396.989601006271
 31
0.0
  0
LINE
  5
1161
  8
1
 10
-1828.3611416375859
 20
1394.137986574706
 30
0.0
 11
-1828.3651579959401
 21
1396.989601006271
 31
0.0
  0
LINE
  5
1162
  8
1
 10
-1829.4540993840651
 20
1394.1379865747051
 30
0.0
 11
-1829.4500830257109
 21
1396.989601006271
 31
0.0
  0
LINE
  5
117A
  8
1
 10
-1803.3611416375859
 20
1394.1379865747051
 30
0.0
 11
-1803.365157995941
 21
1396.989601006271
 31
0.0
  0
LINE
  5
117B
  8
1
 10
-1804.4540993840651
 20
1394.1379865747051
 30
0.0
 11
-1804.4500830257109
 21
1396.989601006271
 31
0.0
  0
LINE
  5
117C
  8
1
 10
-1806.3611416375859
 20
1394.1379865747051
 30
0.0
 11
-1806.365157995941
 21
1396.989601006271
 31
0.0
  0
LINE
  5
117D
  8
1
 10
-1807.4540993840651
 20
1394.1379865747051
 30
0.0
 11
-1807.4500830257109
 21
1396.989601006271
 31
0.0
  0
LINE
  5
1180
  8
1
 10
-1781.3611416375859
 20
1394.1379865747051
 30
0.0
 11
-1781.3651579959401
 21
1396.989601006271
 31
0.0
  0
LINE
  5
1181
  8
1
 10
-1782.4540993840651
 20
1394.1379865747051
 30
0.0
 11
-1782.4500830257109
 21
1396.989601006271
 31
0.0
  0
LINE
  5
11DD
  8
1
 10
-1506.623302731804
 20
1260.893783963015
 30
0.0
 11
-1506.623302731804
 21
1245.893783963015
 31
0.0
  0
LINE
  5
11DE
  8
1
 10
-1516.623302731804
 20
1260.893783963015
 30
0.0
 11
-1516.623302731804
 21
1245.893783963015
 31
0.0
  0
LINE
  5
11DF
  8
1
 10
-1502.623302731804
 20
1281.393783963015
 30
0.0
 11
-1502.623302731804
 21
1156.393783963015
 31
0.0
  0
LINE
  5
11E0
  8
1
 10
-1499.623302731804
 20
1279.5937839630151
 30
0.0
 11
-1499.623302731804
 21
1209.393783963015
 31
0.0
  0
LINE
  5
11EE
  8
2
 10
-1570.623302731804
 20
1251.143783963015
 30
0.0
 11
-1570.623302731804
 21
1242.143783963015
 31
0.0
  0
LINE
  5
11F0
  8
2
 10
-1578.623302731804
 20
1277.893783963015
 30
0.0
 11
-1578.623302731804
 21
1099.590675154725
 31
0.0
  0
LINE
  5
11F1
  8
1
 10
-1581.623302731804
 20
1280.893783963015
 30
0.0
 11
-1581.623302731804
 21
1096.590675154725
 31
0.0
  0
LINE
  5
11F2
  8
2
 10
-1578.623302731804
 20
1276.393783963015
 30
0.0
 11
-1507.6233027318031
 21
1276.852333185813
 31
0.0
  0
LINE
  5
11F3
  8
2
 10
-1578.623302731804
 20
1277.893783963015
 30
0.0
 11
-1499.623302731804
 21
1278.393783963015
 31
0.0
  0
LINE
  5
11F4
  8
1
 10
-1581.623302731804
 20
1280.893783963015
 30
0.0
 11
-1502.623302731804
 21
1281.393783963015
 31
0.0
  0
LINE
  5
1238
  8
2
 10
-1570.623302731804
 20
1275.893783963015
 30
0.0
 11
-1570.623302731804
 21
1266.893783963015
 31
0.0
  0
LINE
  5
1239
  8
1
 10
-1584.123302731804
 20
1274.643783963015
 30
0.0
 11
-1584.123302731804
 21
1268.143783963015
 31
0.0
  0
LINE
  5
123A
  8
1
 10
-1582.623302731804
 20
1276.393783963015
 30
0.0
 11
-1582.623302731804
 21
1266.393783963015
 31
0.0
  0
LINE
  5
123B
  8
1
 10
-1589.623302731804
 20
1276.323969020689
 30
0.0
 11
-1589.623302731804
 21
1254.9635989053411
 31
0.0
  0
LINE
  5
123C
  8
2
 10
-1573.623302731804
 20
1273.393783963015
 30
0.0
 11
-1573.623302731804
 21
1269.393783963015
 31
0.0
  0
LINE
  5
123D
  8
2
 10
-1578.623302731804
 20
1276.033424482441
 30
0.0
 11
-1570.623302731804
 21
1275.893783963015
 31
0.0
  0
LINE
  5
123E
  8
1
 10
-1582.623302731804
 20
1274.643783963015
 30
0.0
 11
-1584.123302731804
 21
1274.643783963015
 31
0.0
  0
LINE
  5
123F
  8
2
 10
-1583.323302731804
 20
1268.893783963015
 30
0.0
 11
-1584.123302731804
 21
1268.893783963015
 31
0.0
  0
LINE
  5
1240
  8
2
 10
-1583.323302731804
 20
1273.893783963015
 30
0.0
 11
-1584.123302731804
 21
1273.893783963015
 31
0.0
  0
LINE
  5
1241
  8
2
 10
-1583.323302731804
 20
1273.893783963015
 30
0.0
 11
-1583.323302731804
 21
1268.893783963015
 31
0.0
  0
LINE
  5
1242
  8
2
 10
-1573.623302731804
 20
1273.393783963015
 30
0.0
 11
-1583.323302731804
 21
1273.393783963015
 31
0.0
  0
LINE
  5
1243
  8
2
 10
-1573.623302731804
 20
1269.393783963015
 30
0.0
 11
-1583.323302731804
 21
1269.393783963015
 31
0.0
  0
LINE
  5
1245
  8
1
 10
-1581.623302731804
 20
1276.393783963015
 30
0.0
 11
-1582.623302731804
 21
1276.393783963015
 31
0.0
  0
LINE
  5
1246
  8
1
 10
-1581.623302731804
 20
1276.393783963015
 30
0.0
 11
-1589.623302731804
 21
1276.323969020689
 31
0.0
  0
LINE
  5
1247
  8
2
 10
-1578.623302731804
 20
1251.283424482441
 30
0.0
 11
-1570.623302731804
 21
1251.143783963015
 31
0.0
  0
LINE
  5
1248
  8
1
 10
-1581.623302731804
 20
1254.893783963015
 30
0.0
 11
-1589.623302731804
 21
1254.9635989053411
 31
0.0
  0
LINE
  5
1249
  8
1
 10
-1581.623302731804
 20
1257.393783963015
 30
0.0
 11
-1589.6229981163181
 21
1257.3239716790281
 31
0.0
  0
LINE
  5
124A
  8
2
 10
-1578.623302731804
 20
1266.7541434435891
 30
0.0
 11
-1570.623302731804
 21
1266.893783963015
 31
0.0
  0
LINE
  5
124B
  8
1
 10
-1582.623302731804
 20
1268.143783963015
 30
0.0
 11
-1584.123302731804
 21
1268.143783963015
 31
0.0
  0
LINE
  5
124C
  8
1
 10
-1582.623302731804
 20
1260.393783963015
 30
0.0
 11
-1581.623302731804
 21
1260.393783963015
 31
0.0
  0
LINE
  5
124D
  8
1
 10
-1581.623302731804
 20
1266.393783963015
 30
0.0
 11
-1582.623302731804
 21
1266.393783963015
 31
0.0
  0
LINE
  5
124E
  8
1
 10
-1582.623302731804
 20
1260.393783963015
 30
0.0
 11
-1582.623302731804
 21
1257.3850570952241
 31
0.0
  0
LINE
  5
12BC
  8
1
 10
-1524.623302731804
 20
1260.8937839630159
 30
0.0
 11
-1516.623302731804
 21
1260.8937839630159
 31
0.0
  0
LINE
  5
12BE
  8
2
 10
-1517.123302731804
 20
1270.193783963015
 30
0.0
 11
-1508.4233027318039
 21
1270.193783963015
 31
0.0
  0
LINE
  5
12BF
  8
2
 10
-1517.123302731804
 20
1272.5937839630151
 30
0.0
 11
-1508.4233027318039
 21
1272.5937839630151
 31
0.0
  0
LINE
  5
12C0
  8
2
 10
-1517.6233027318051
 20
1266.893783963015
 30
0.0
 11
-1507.6233027318051
 21
1266.893783963015
 31
0.0
  0
LINE
  5
12C1
  8
1
 10
-1522.6407558028011
 20
1263.240911466034
 30
0.0
 11
-1505.123302731804
 21
1263.3937839630159
 31
0.0
  0
LINE
  5
12C2
  8
2
 10
-1520.145974071826
 20
1278.2638936380779
 30
0.0
 11
-1518.918634953226
 21
1266.893783963015
 31
0.0
  0
LINE
  5
12C4
  8
2
 10
-1517.123302731804
 20
1272.5937839630151
 30
0.0
 11
-1517.123302731804
 21
1270.193783963015
 31
0.0
  0
LINE
  5
12C5
  8
2
 10
-1518.918634953226
 20
1266.893783963015
 30
0.0
 11
-1517.6233027318051
 21
1266.893783963015
 31
0.0
  0
ARC
  5
12C6
  8
1
 10
-1522.623302731804
 20
1261.240987619906
 30
0.0
 40
2.0
 50
90.499999999999744
 51
180.0
  0
LINE
  5
12C7
  8
1
 10
-1524.623302731804
 20
1261.240987619906
 30
0.0
 11
-1524.623302731804
 21
1260.893783963015
 31
0.0
  0
LINE
  5
12C8
  8
2
 10
-1507.6233027318051
 20
1266.893783963015
 30
0.0
 11
-1507.6233027318031
 21
1278.343151051623
 31
0.0
  0
LINE
  5
12CA
  8
2
 10
-1508.4233027318039
 20
1269.893783963015
 30
0.0
 11
-1508.4233027318039
 21
1272.893783963015
 31
0.0
  0
LINE
  5
12CB
  8
2
 10
-1508.4233027318039
 20
1269.893783963015
 30
0.0
 11
-1507.623302731804
 21
1269.893783963015
 31
0.0
  0
LINE
  5
12CC
  8
2
 10
-1508.4233027318039
 20
1272.893783963015
 30
0.0
 11
-1507.623302731804
 21
1272.893783963015
 31
0.0
  0
LINE
  5
12CD
  8
1
 10
-1499.623302731804
 20
1279.5937839630151
 30
0.0
 11
-1502.623302731804
 21
1279.6723417277231
 31
0.0
  0
LINE
  5
12CF
  8
1
 10
-1506.623302731804
 20
1260.8937839630159
 30
0.0
 11
-1505.123302731804
 21
1260.8937839630159
 31
0.0
  0
LINE
  5
12D0
  8
1
 10
-1505.123302731804
 20
1263.3937839630159
 30
0.0
 11
-1505.123302731804
 21
1260.893783963015
 31
0.0
  0
LINE
  5
12F2
  8
2
 10
-1581.623302731804
 20
1168.8937839630139
 30
0.0
 11
-1518.6233027318031
 21
1168.4766855174189
 31
0.0
  0
LINE
  5
12F3
  8
2
 10
-1578.623302731804
 20
1099.590675154725
 30
0.0
 11
-1540.623302731804
 21
1099.393783963015
 31
0.0
  0
LINE
  5
12F4
  8
2
 10
-1578.623302731804
 20
1170.852333185813
 30
0.0
 11
-1507.623302731804
 21
1170.393783963015
 31
0.0
  0
LINE
  5
12F5
  8
2
 10
-1578.623302731804
 20
1119.088343590339
 30
0.0
 11
-1543.623302731804
 21
1119.393783963015
 31
0.0
  0
LINE
  5
12F6
  8
2
 10
-1581.623302731804
 20
1120.693783963015
 30
0.0
 11
-1545.6233027318051
 21
1121.0079512034829
 31
0.0
  0
LINE
  5
12F8
  8
1
 10
-1581.623302731804
 20
1096.590675154725
 30
0.0
 11
-1543.623302731804
 21
1096.393783963015
 31
0.0
  0
LINE
  5
12FA
  8
2
 10
-1570.623302731804
 20
1210.893783963015
 30
0.0
 11
-1570.623302731804
 21
1201.893783963015
 31
0.0
  0
LINE
  5
12FB
  8
1
 10
-1583.123302731804
 20
1206.393783963018
 30
0.0
 11
-1581.623302731804
 21
1207.8937839630189
 31
0.0
  0
LINE
  5
12FD
  8
2
 10
-1578.623302731804
 20
1242.0041434435891
 30
0.0
 11
-1570.623302731804
 21
1242.143783963015
 31
0.0
  0
LINE
  5
12FE
  8
1
 10
-1583.123302731804
 20
1232.893783963018
 30
0.0
 11
-1583.123302731804
 21
1231.393783963018
 31
0.0
  0
LINE
  5
12FF
  8
1
 10
-1583.834627597209
 20
1236.893783963015
 30
0.0
 11
-1584.700653000994
 21
1235.393783963015
 31
0.0
  0
LINE
  5
1300
  8
1
 10
-1584.700653000994
 20
1235.393783963015
 30
0.0
 11
-1585.200653000994
 21
1235.393783963015
 31
0.0
  0
LINE
  5
1301
  8
1
 10
-1585.200653000994
 20
1235.393783963015
 30
0.0
 11
-1589.123302731804
 21
1237.6585268410349
 31
0.0
  0
LINE
  5
1302
  8
1
 10
-1589.123302731804
 20
1239.893783963015
 30
0.0
 11
-1589.123302731804
 21
1237.6585268410349
 31
0.0
  0
LINE
  5
1305
  8
1
 10
-1581.623302731804
 20
1232.893783963018
 30
0.0
 11
-1583.123302731804
 21
1232.893783963018
 31
0.0
  0
LINE
  5
1306
  8
1
 10
-1583.123302731804
 20
1231.393783963018
 30
0.0
 11
-1581.623302731804
 21
1229.893783963018
 31
0.0
  0
LINE
  5
1308
  8
1
 10
-1581.623302731804
 20
1236.893783963015
 30
0.0
 11
-1583.834627597209
 21
1236.893783963015
 31
0.0
  0
LINE
  5
1309
  8
1
 10
-1581.623302731804
 20
1239.893783963015
 30
0.0
 11
-1589.123302731804
 21
1239.893783963015
 31
0.0
  0
LINE
  5
130B
  8
2
 10
-1578.623302731804
 20
1211.033424482441
 30
0.0
 11
-1570.623302731804
 21
1210.893783963015
 31
0.0
  0
LINE
  5
1310
  8
2
 10
-1578.623302731804
 20
1186.5041434435891
 30
0.0
 11
-1570.623302731804
 21
1186.643783963015
 31
0.0
  0
ARC
  5
1311
  8
1
 10
-1588.123302731804
 20
1189.393783963015
 30
0.0
 40
1.0
 50
180.00000000000489
 51
270.0000000000008
  0
LINE
  5
1312
  8
1
 10
-1581.623302731804
 20
1190.143783963005
 30
0.0
 11
-1587.123302731804
 21
1190.143783963005
 31
0.0
  0
LINE
  5
1313
  8
1
 10
-1581.623302731804
 20
1188.3937839630159
 30
0.0
 11
-1588.123302731804
 21
1188.393783963015
 31
0.0
  0
LINE
  5
1315
  8
2
 10
-1578.623302731804
 20
1201.7541434435891
 30
0.0
 11
-1570.623302731804
 21
1201.893783963015
 31
0.0
  0
LINE
  5
1316
  8
2
 10
-1578.623302731804
 20
1195.783424482441
 30
0.0
 11
-1570.623302731804
 21
1195.643783963015
 31
0.0
  0
LINE
  5
1317
  8
1
 10
-1583.123302731804
 20
1204.893783963018
 30
0.0
 11
-1583.123302731804
 21
1206.393783963018
 31
0.0
  0
ARC
  5
1319
  8
1
 10
-1588.1233027318051
 20
1198.893783963015
 30
0.0
 40
1.0
 50
89.999999999999986
 51
180.00000000000441
  0
LINE
  5
131A
  8
1
 10
-1581.623302731804
 20
1204.893783963018
 30
0.0
 11
-1583.123302731804
 21
1204.893783963018
 31
0.0
  0
LINE
  5
131B
  8
1
 10
-1581.623302731804
 20
1199.893783963015
 30
0.0
 11
-1588.1233027318051
 21
1199.893783963015
 31
0.0
  0
LINE
  5
131D
  8
1
 10
-1589.1233027318051
 20
1198.893783963015
 30
0.0
 11
-1589.123302731804
 21
1189.393783963015
 31
0.0
  0
LINE
  5
131E
  8
1
 10
-1587.1233027318051
 20
1199.893783963015
 30
0.0
 11
-1587.123302731804
 21
1190.143783963005
 31
0.0
  0
LINE
  5
131F
  8
2
 10
-1570.623302731804
 20
1195.643783963015
 30
0.0
 11
-1570.623302731804
 21
1186.643783963015
 31
0.0
  0
LINE
  5
1320
  8
2
 10
-1576.623302731804
 20
1129.393783963015
 30
0.0
 11
-1576.623302731804
 21
1099.5803124604249
 31
0.0
  0
LINE
  5
1321
  8
2
 10
-1579.623302731804
 20
1126.393783963015
 30
0.0
 11
-1579.623302731804
 21
1098.393783963015
 31
0.0
  0
LINE
  5
1322
  8
2
 10
-1570.623302731804
 20
1135.393783963015
 30
0.0
 11
-1570.623302731804
 21
1118.393783963015
 31
0.0
  0
LINE
  5
1325
  8
2
 10
-1578.623302731804
 20
1135.533424482441
 30
0.0
 11
-1570.623302731804
 21
1135.3937839630159
 31
0.0
  0
LINE
  5
1326
  8
2
 10
-1576.623302731804
 20
1129.393783963015
 30
0.0
 11
-1578.623302731804
 21
1129.393783963015
 31
0.0
  0
LINE
  5
1327
  8
2
 10
-1579.623302731804
 20
1126.393783963015
 30
0.0
 11
-1581.623302731804
 21
1126.393783963015
 31
0.0
  0
LINE
  5
1329
  8
2
 10
-1572.123302731804
 20
1110.893783963015
 30
0.0
 11
-1572.123302731804
 21
1101.893783963015
 31
0.0
  0
LINE
  5
132A
  8
1
 10
-1589.623302731804
 20
1118.3937839630159
 30
0.0
 11
-1589.623302731804
 21
1099.3937839630159
 31
0.0
  0
LINE
  5
132B
  8
2
 10
-1584.123302731804
 20
1109.643783963015
 30
0.0
 11
-1584.123302731804
 21
1103.143783963015
 31
0.0
  0
LINE
  5
132C
  8
2
 10
-1582.623302731804
 20
1111.393783963015
 30
0.0
 11
-1582.623302731804
 21
1101.393783963015
 31
0.0
  0
LINE
  5
132E
  8
2
 10
-1573.623302731804
 20
1108.393783963015
 30
0.0
 11
-1573.623302731804
 21
1104.393783963015
 31
0.0
  0
LINE
  5
132F
  8
2
 10
-1576.623302731804
 20
1118.2890535734459
 30
0.0
 11
-1570.623302731804
 21
1118.393783963015
 31
0.0
  0
LINE
  5
1330
  8
2
 10
-1572.123302731804
 20
1110.893783963015
 30
0.0
 11
-1576.623302731804
 21
1110.972331755193
 31
0.0
  0
LINE
  5
1331
  8
2
 10
-1583.323302731804
 20
1103.893783963015
 30
0.0
 11
-1584.123302731804
 21
1103.893783963015
 31
0.0
  0
LINE
  5
1332
  8
2
 10
-1583.323302731804
 20
1108.893783963015
 30
0.0
 11
-1584.123302731804
 21
1108.893783963015
 31
0.0
  0
LINE
  5
1333
  8
2
 10
-1582.623302731804
 20
1109.643783963015
 30
0.0
 11
-1584.123302731804
 21
1109.643783963015
 31
0.0
  0
LINE
  5
1334
  8
2
 10
-1583.323302731804
 20
1108.893783963015
 30
0.0
 11
-1583.323302731804
 21
1103.893783963015
 31
0.0
  0
LINE
  5
1337
  8
2
 10
-1589.623302731804
 20
1116.393783963015
 30
0.0
 11
-1578.623302731804
 21
1116.489779508714
 31
0.0
  0
LINE
  5
1338
  8
1
 10
-1589.623302731804
 20
1118.3937839630159
 30
0.0
 11
-1581.623302731804
 21
1118.5334244824419
 31
0.0
  0
LINE
  5
1339
  8
2
 10
-1579.623302731804
 20
1111.393783963015
 30
0.0
 11
-1582.623302731804
 21
1111.393783963015
 31
0.0
  0
LINE
  5
133A
  8
2
 10
-1573.623302731804
 20
1104.393783963015
 30
0.0
 11
-1584.123302731804
 21
1104.393783963015
 31
0.0
  0
LINE
  5
133B
  8
2
 10
-1573.623302731804
 20
1108.393783963015
 30
0.0
 11
-1584.123302731804
 21
1108.393783963015
 31
0.0
  0
LINE
  5
133D
  8
2
 10
-1572.123302731804
 20
1101.893783963015
 30
0.0
 11
-1576.623302731804
 21
1101.8152361708389
 31
0.0
  0
LINE
  5
133E
  8
2
 10
-1579.623302731804
 20
1098.393783963015
 30
0.0
 11
-1581.623302731804
 21
1098.393783963015
 31
0.0
  0
LINE
  5
133F
  8
2
 10
-1582.623302731804
 20
1103.143783963015
 30
0.0
 11
-1584.123302731804
 21
1103.143783963015
 31
0.0
  0
LINE
  5
1340
  8
1
 10
-1589.623302731804
 20
1099.3937839630159
 30
0.0
 11
-1581.623302731804
 21
1099.25414344359
 31
0.0
  0
LINE
  5
1341
  8
2
 10
-1589.623302731804
 20
1101.393783963015
 30
0.0
 11
-1578.623302731804
 21
1101.297788417317
 31
0.0
  0
LINE
  5
1342
  8
2
 10
-1579.623302731804
 20
1101.393783963015
 30
0.0
 11
-1582.623302731804
 21
1101.393783963015
 31
0.0
  0
LINE
  5
1343
  8
2
 10
-1508.4233027318039
 20
1167.893783963015
 30
0.0
 11
-1508.4233027318039
 21
1164.893783963015
 31
0.0
  0
LINE
  5
1344
  8
2
 10
-1507.623302731804
 20
1170.393783963015
 30
0.0
 11
-1507.6233027318031
 21
1159.393783963015
 31
0.0
  0
LINE
  5
1354
  8
2
 10
-1518.6233027318031
 20
1168.4766855174189
 30
0.0
 11
-1518.6233027318031
 21
1158.3109092547891
 31
0.0
  0
LINE
  5
1355
  8
1
 10
-1499.623302731804
 20
1158.193783963015
 30
0.0
 11
-1499.623302731804
 21
1209.393783963015
 31
0.0
  0
LINE
  5
137D
  8
1
 10
-1524.623302731804
 20
1245.893783963015
 30
0.0
 11
-1516.623302731804
 21
1245.893783963015
 31
0.0
  0
LINE
  5
137E
  8
1
 10
-1505.123302731804
 20
1243.393783963015
 30
0.0
 11
-1522.623302731804
 21
1243.3937839630159
 31
0.0
  0
ARC
  5
1382
  8
1
 10
-1522.623302731804
 20
1245.3937839630159
 30
0.0
 40
2.0
 50
179.99999999998261
 51
269.9999999999996
  0
LINE
  5
1383
  8
1
 10
-1524.623302731804
 20
1245.893783963015
 30
0.0
 11
-1524.623302731804
 21
1245.3937839630159
 31
0.0
  0
LINE
  5
1392
  8
1
 10
-1506.623302731804
 20
1245.893783963015
 30
0.0
 11
-1505.123302731804
 21
1245.893783963015
 31
0.0
  0
LINE
  5
1393
  8
1
 10
-1505.123302731804
 20
1245.893783963015
 30
0.0
 11
-1505.123302731804
 21
1243.393783963015
 31
0.0
  0
LINE
  5
1395
  8
1
 10
-1524.623302731804
 20
1176.893783963015
 30
0.0
 11
-1516.623302731804
 21
1176.893783963015
 31
0.0
  0
LINE
  5
1396
  8
1
 10
-1524.623302731804
 20
1191.893783963015
 30
0.0
 11
-1516.623302731804
 21
1191.893783963015
 31
0.0
  0
LINE
  5
1397
  8
2
 10
-1517.123302731804
 20
1167.5937839630151
 30
0.0
 11
-1508.4233027318039
 21
1167.5937839630151
 31
0.0
  0
LINE
  5
1399
  8
1
 10
-1522.6407558028011
 20
1174.546656459996
 30
0.0
 11
-1505.123302731804
 21
1174.393783963015
 31
0.0
  0
LINE
  5
139B
  8
1
 10
-1505.123302731804
 20
1194.393783963015
 30
0.0
 11
-1522.623302731804
 21
1194.393783963015
 31
0.0
  0
ARC
  5
139C
  8
1
 10
-1522.623302731804
 20
1192.393783963015
 30
0.0
 40
2.0
 50
90.000000000000327
 51
180.00000000001731
  0
LINE
  5
139D
  8
1
 10
-1524.623302731804
 20
1191.893783963015
 30
0.0
 11
-1524.623302731804
 21
1192.3937839630139
 31
0.0
  0
LINE
  5
139E
  8
1
 10
-1524.623302731804
 20
1176.546580306125
 30
0.0
 11
-1524.623302731804
 21
1176.893783963015
 31
0.0
  0
ARC
  5
139F
  8
1
 10
-1522.623302731804
 20
1176.546580306125
 30
0.0
 40
2.0
 50
180.0
 51
269.50000000000023
  0
LINE
  5
13A0
  8
1
 10
-1506.623302731804
 20
1176.8937839630159
 30
0.0
 11
-1506.623302731804
 21
1191.893783963015
 31
0.0
  0
LINE
  5
13A1
  8
1
 10
-1516.623302731804
 20
1176.8937839630159
 30
0.0
 11
-1516.623302731804
 21
1191.893783963015
 31
0.0
  0
LINE
  5
13A2
  8
1
 10
-1506.623302731804
 20
1191.893783963015
 30
0.0
 11
-1505.123302731804
 21
1191.893783963015
 31
0.0
  0
LINE
  5
13A4
  8
1
 10
-1505.123302731804
 20
1191.893783963015
 30
0.0
 11
-1505.123302731804
 21
1194.393783963015
 31
0.0
  0
LINE
  5
13A5
  8
2
 10
-1508.4233027318039
 20
1167.893783963015
 30
0.0
 11
-1507.623302731804
 21
1167.893783963015
 31
0.0
  0
LINE
  5
13A6
  8
1
 10
-1506.623302731804
 20
1176.893783963015
 30
0.0
 11
-1505.123302731804
 21
1176.893783963015
 31
0.0
  0
LINE
  5
13A7
  8
1
 10
-1505.123302731804
 20
1174.393783963015
 30
0.0
 11
-1505.123302731804
 21
1176.8937839630159
 31
0.0
  0
LINE
  5
13EB
  8
1
 10
-1540.623302731804
 20
1098.1937839630159
 30
0.0
 11
-1531.066380377405
 21
1152.393783963015
 31
0.0
  0
LINE
  5
13EC
  8
2
 10
-1544.4233027318039
 20
1127.893783963015
 30
0.0
 11
-1544.4233027318039
 21
1123.893783963015
 31
0.0
  0
LINE
  5
13ED
  8
2
 10
-1554.623302731804
 20
1130.393783963015
 30
0.0
 11
-1554.6233027318051
 21
1121.893783963015
 31
0.0
  0
LINE
  5
13EE
  8
1
 10
-1543.623302731804
 20
1156.090675154725
 30
0.0
 11
-1543.623302731804
 21
1096.3937839630159
 31
0.0
  0
LINE
  5
13EF
  8
2
 10
-1517.123302731804
 20
1165.193783963015
 30
0.0
 11
-1508.4233027318039
 21
1165.193783963015
 31
0.0
  0
LINE
  5
13F1
  8
2
 10
-1499.623302731804
 20
1159.393783963015
 30
0.0
 11
-1534.823934776784
 21
1159.393783963015
 31
0.0
  0
LINE
  5
13F3
  8
1
 10
-1535.124342261656
 20
1156.1347112193371
 30
0.0
 11
-1502.623302731804
 21
1156.393783963015
 31
0.0
  0
LINE
  5
13F4
  8
2
 10
-1545.623302731804
 20
1157.0855072306631
 30
0.0
 11
-1545.6233027318051
 21
1130.3937839630159
 31
0.0
  0
LINE
  5
13F5
  8
1
 10
-1534.0663803774059
 20
1153.6723417277231
 30
0.0
 11
-1534.066380377405
 21
1156.1347112193371
 31
0.0
  0
LINE
  5
13F6
  8
1
 10
-1531.066380377405
 20
1153.5937839630151
 30
0.0
 11
-1534.066380377405
 21
1153.6723417277231
 31
0.0
  0
LINE
  5
13F7
  8
1
 10
-1531.066380377405
 20
1153.5937839630151
 30
0.0
 11
-1531.066380377405
 21
1152.393783963015
 31
0.0
  0
ARC
  5
13F8
  8
2
 10
-1544.623302731804
 20
1157.0855072306631
 30
0.0
 40
1.0
 50
90.296866667324849
 51
180.0
  0
LINE
  5
13F9
  8
2
 10
-1535.771688300239
 20
1152.3116525077139
 30
0.0
 11
-1535.8895568449391
 21
1152.1937839630141
 31
0.0
  0
LINE
  5
13FA
  8
2
 10
-1535.8895568449391
 20
1152.1937839630141
 30
0.0
 11
-1537.771688300239
 21
1152.1937839630141
 31
0.0
  0
LINE
  5
13FB
  8
1
 10
-1543.623302731804
 20
1156.090675154725
 30
0.0
 11
-1535.124342261656
 21
1156.1347112193371
 31
0.0
  0
LINE
  5
13FC
  8
2
 10
-1537.771688300239
 20
1152.1937839630141
 30
0.0
 11
-1536.7935502828079
 21
1157.7410803183491
 31
0.0
  0
LINE
  5
13FD
  8
2
 10
-1544.6284840094061
 20
1158.0854938077539
 30
0.0
 11
-1518.6233027318031
 21
1158.3109092547879
 31
0.0
  0
LINE
  5
13FE
  8
1
 10
-1534.066380377405
 20
1153.6723417277231
 30
0.0
 11
-1543.623302731804
 21
1153.9225985469379
 31
0.0
  0
LINE
  5
13FF
  8
2
 10
-1531.066380377405
 20
1152.393783963015
 30
0.0
 11
-1535.771688300239
 21
1152.3116525077139
 31
0.0
  0
ARC
  5
1401
  8
2
 10
-1534.823934776784
 20
1157.393783963015
 30
0.0
 40
2.0
 50
89.999999999999986
 51
170.0000000000019
  0
LINE
  5
1402
  8
2
 10
-1553.123302731804
 20
1124.2937839630149
 30
0.0
 11
-1544.4233027318039
 21
1124.2937839630149
 31
0.0
  0
LINE
  5
1403
  8
2
 10
-1544.4233027318039
 20
1127.893783963015
 30
0.0
 11
-1543.623302731804
 21
1127.893783963015
 31
0.0
  0
LINE
  5
1404
  8
1
 10
-1552.123302731804
 20
1125.8937839630159
 30
0.0
 11
-1549.123302731804
 21
1125.8937839630159
 31
0.0
  0
LINE
  5
1405
  8
1
 10
-1552.123302731804
 20
1127.8937839630159
 30
0.0
 11
-1549.123302731804
 21
1127.8937839630159
 31
0.0
  0
LINE
  5
1406
  8
1
 10
-1548.623302731804
 20
1127.3937839630159
 30
0.0
 11
-1548.623302731804
 21
1126.3937839630159
 31
0.0
  0
LINE
  5
1407
  8
1
 10
-1552.623302731804
 20
1127.3937839630159
 30
0.0
 11
-1552.623302731804
 21
1126.3937839630159
 31
0.0
  0
ARC
  5
1408
  8
1
 10
-1549.123302731804
 20
1127.3937839630159
 30
0.0
 40
0.5
 50
0.0
 51
89.999999999997627
  0
ARC
  5
1409
  8
1
 10
-1549.123302731804
 20
1126.3937839630159
 30
0.0
 40
0.5
 50
269.9999999999992
 51
0.0
  0
ARC
  5
140A
  8
1
 10
-1552.123302731804
 20
1126.3937839630159
 30
0.0
 40
0.5
 50
180.0
 51
269.99999999999898
  0
ARC
  5
140B
  8
1
 10
-1552.123302731804
 20
1127.3937839630159
 30
0.0
 40
0.5
 50
89.999999999998124
 51
180.0
  0
LINE
  5
140C
  8
2
 10
-1554.623302731804
 20
1130.393783963015
 30
0.0
 11
-1545.6233027318051
 21
1130.3937839630159
 31
0.0
  0
LINE
  5
140D
  8
2
 10
-1553.123302731804
 20
1127.4937839630149
 30
0.0
 11
-1544.4233027318039
 21
1127.4937839630149
 31
0.0
  0
LINE
  5
140E
  8
1
 10
-1534.4959401521851
 20
1132.9437839630159
 30
0.0
 11
-1543.623302731804
 21
1132.7047755623721
 31
0.0
  0
LINE
  5
140F
  8
2
 10
-1553.123302731804
 20
1127.4937839630149
 30
0.0
 11
-1553.123302731804
 21
1124.2937839630149
 31
0.0
  0
LINE
  5
1410
  8
1
 10
-1499.623302731804
 20
1158.193783963015
 30
0.0
 11
-1502.623302731804
 21
1158.1152261983079
 31
0.0
  0
LINE
  5
1411
  8
2
 10
-1508.4233027318039
 20
1164.893783963015
 30
0.0
 11
-1507.623302731804
 21
1164.893783963015
 31
0.0
  0
LINE
  5
1412
  8
2
 10
-1545.6233027318051
 20
1121.893783963015
 30
0.0
 11
-1545.6233027318051
 21
1121.0079512034829
 31
0.0
  0
LINE
  5
1413
  8
2
 10
-1554.6233027318051
 20
1121.893783963015
 30
0.0
 11
-1545.6233027318051
 21
1121.893783963015
 31
0.0
  0
LINE
  5
1414
  8
2
 10
-1544.4233027318039
 20
1123.893783963015
 30
0.0
 11
-1543.623302731804
 21
1123.893783963015
 31
0.0
  0
LINE
  5
1415
  8
1
 10
-1540.623302731804
 20
1098.1937839630159
 30
0.0
 11
-1543.623302731804
 21
1098.1152261983079
 31
0.0
  0
LINE
  5
1416
  8
2
 10
-1540.623302731804
 20
1098.1937839630159
 30
0.0
 11
-1540.623302731804
 21
1099.393783963015
 31
0.0
  0
LINE
  5
1473
  8
1
 10
-1295.328651778477
 20
1098.893783963015
 30
0.0
 11
-1251.8286517784759
 21
1098.893783963015
 31
0.0
  0
LINE
  5
1474
  8
1
 10
-1348.8286517784759
 20
1126.893783963015
 30
0.0
 11
-1251.8286517784759
 21
1126.893783963015
 31
0.0
  0
LINE
  5
1489
  8
1
 62
     4
 10
-1295.328651778477
 20
1098.4922295588699
 30
0.0
 11
-1201.3286517784759
 21
1098.4922295588699
 31
0.0
  0
LINE
  5
148B
  8
1
 10
-1403.3286517784759
 20
1097.0906751547259
 30
0.0
 11
-1197.3286517784759
 21
1097.0906751547259
 31
0.0
  0
LINE
  5
148C
  8
1
 10
-1403.3286517784759
 20
1281.393783963015
 30
0.0
 11
-1197.328651778477
 21
1281.393783963015
 31
0.0
  0
LINE
  5
1490
  8
2
 10
-1402.8286517784759
 20
1278.893783963015
 30
0.0
 11
-1197.8286517784759
 21
1278.893783963015
 31
0.0
  0
LINE
  5
1491
  8
2
 10
-1402.8286517784759
 20
1159.893783963015
 30
0.0
 11
-1197.8286517784759
 21
1159.893783963015
 31
0.0
  0
POLYLINE
  5
16A5
  8
1
 66
     1
 10
0.0
 20
0.0
 30
0.0
 70
     1
  0
VERTEX
  5
1DA5
  8
1
 10
-1395.678651778476
 20
1169.393783963015
 30
0.0
  0
VERTEX
  5
1DA6
  8
1
 10
-1404.0286517784771
 20
1169.393783963015
 30
0.0
 42
0.4142135623730951
  0
VERTEX
  5
1DA7
  8
1
 10
-1404.5286517784771
 20
1168.8937839630159
 30
0.0
  0
VERTEX
  5
1DA8
  8
1
 10
-1404.5286517784771
 20
1121.693783963015
 30
0.0
 42
0.4142135623730951
  0
VERTEX
  5
1DA9
  8
1
 10
-1404.0286517784771
 20
1121.193783963015
 30
0.0
  0
VERTEX
  5
1DAA
  8
1
 10
-1394.478651778476
 20
1121.193783963015
 30
0.0
 42
0.4142135623730884
  0
VERTEX
  5
1DAB
  8
1
 10
-1394.178651778476
 20
1121.4937839630161
 30
0.0
  0
VERTEX
  5
1DAC
  8
1
 10
-1394.178651778476
 20
1129.7406536777819
 30
0.0
 42
0.4142135623729619
  0
VERTEX
  5
1DAD
  8
1
 10
-1397.678651778474
 20
1133.240653677783
 30
0.0
  0
VERTEX
  5
1DAE
  8
1
 10
-1398.0786517784759
 20
1133.240653677783
 30
0.0
 42
-0.4142135623729377
  0
VERTEX
  5
1DAF
  8
1
 10
-1399.981782063709
 20
1135.143783963015
 30
0.0
  0
VERTEX
  5
1DB0
  8
1
 10
-1399.981782063709
 20
1151.954235940417
 30
0.0
 42
-0.4142135623730951
  0
VERTEX
  5
1DB1
  8
1
 10
-1397.981782063709
 20
1153.954235940417
 30
0.0
  0
VERTEX
  5
1DB2
  8
1
 10
-1394.9786517784769
 20
1153.954235940417
 30
0.0
 42
0.4142135623729841
  0
VERTEX
  5
1DB3
  8
1
 10
-1394.678651778476
 20
1154.2542359404169
 30
0.0
  0
VERTEX
  5
1DB4
  8
1
 10
-1394.678651778476
 20
1168.393783963015
 30
0.0
 42
0.4142135623730951
  0
SEQEND
  5
1DB5
  8
1
  0
LINE
  5
16A7
  8
1
 10
-1406.3286517784759
 20
1100.090675154725
 30
0.0
 11
-1406.3286517784759
 21
1278.393783963015
 31
0.0
  0
ARC
  5
16AC
  8
1
 10
-1348.8286517784759
 20
1112.893783963015
 30
0.0
 40
14.0
 50
90.0
 51
270.0
  0
LINE
  5
16BA
  8
1
 62
     4
 10
-1305.3286517784759
 20
1098.4922295588699
 30
0.0
 11
-1399.3286517784759
 21
1098.4922295588699
 31
0.0
  0
ARC
  5
16CC
  8
1
 10
-1399.3286517784759
 20
1104.5937839630151
 30
0.0
 40
4.7000000000000002
 50
180.0
 51
0.0
  0
ARC
  5
16CD
  8
1
 10
-1399.3286517784759
 20
1104.5937839630151
 30
0.0
 40
2.7000000000000002
 50
180.0
 51
0.0
  0
LINE
  5
16D2
  8
1
 62
     4
 10
-1399.3286517784759
 20
1099.893783963015
 30
0.0
 11
-1399.328651778477
 21
1097.090675154725
 31
0.0
  0
ARC
  5
16D3
  8
1
 10
-1403.3286517784759
 20
1100.090675154725
 30
0.0
 40
3.0
 50
180.0
 51
270.0
  0
ARC
  5
1700
  8
1
 10
-1397.828651778477
 20
1126.393783963015
 30
0.0
 40
4.5
 50
35.795367543770773
 51
324.20463245631959
  0
LINE
  5
1701
  8
1
 10
-1404.525542970187
 20
1129.393783963015
 30
0.0
 11
-1401.1827537447259
 21
1129.393783963015
 31
0.0
  0
LINE
  5
1702
  8
1
 10
-1404.525542970187
 20
1125.393783963015
 30
0.0
 11
-1402.2161339721731
 21
1125.393783963015
 31
0.0
  0
ARC
  5
1706
  8
1
 10
-1399.3286517784759
 20
1114.1937839630159
 30
0.0
 40
4.7000000000000002
 50
0.0
 51
180.0
  0
ARC
  5
1709
  8
1
 10
-1399.3286517784759
 20
1114.1937839630159
 30
0.0
 40
2.7000000000000002
 50
0.0
 51
180.0
  0
LINE
  5
170F
  8
1
 10
-1404.0286517784771
 20
1114.1937839630159
 30
0.0
 11
-1404.0286517784771
 21
1104.5937839630151
 31
0.0
  0
LINE
  5
1710
  8
1
 10
-1394.628651778477
 20
1114.1937839630159
 30
0.0
 11
-1394.628651778477
 21
1104.5937839630151
 31
0.0
  0
LINE
  5
1711
  8
1
 10
-1402.0286517784771
 20
1114.1937839630159
 30
0.0
 11
-1402.0286517784771
 21
1104.5937839630151
 31
0.0
  0
LINE
  5
1712
  8
1
 10
-1396.628651778477
 20
1114.1937839630159
 30
0.0
 11
-1396.628651778477
 21
1104.5937839630151
 31
0.0
  0
LINE
  5
1735
  8
1
 10
-1348.8286517784759
 20
1098.893783963015
 30
0.0
 11
-1305.3286517784759
 21
1098.893783963015
 31
0.0
  0
CIRCLE
  5
175B
  8
1
 10
-1300.3286517784759
 20
1106.893783963015
 30
0.0
 40
3.2500000000001128
  0
CIRCLE
  5
175E
  8
1
 10
-1300.3286517784759
 20
1106.893783963015
 30
0.0
 40
5.0
  0
LINE
  5
176F
  8
1
 10
-1297.328651778477
 20
1102.893783963015
 30
0.0
 11
-1296.3286517784759
 21
1102.893783963015
 31
0.0
  0
ARC
  5
1770
  8
1
 10
-1296.3286517784759
 20
1101.893783963015
 30
0.0
 40
1.0
 50
0.0
 51
90.0
  0
ARC
  5
1771
  8
1
 10
-1304.3286517784759
 20
1101.893783963015
 30
0.0
 40
1.0
 50
90.0
 51
180.0
  0
LINE
  5
1772
  8
1
 10
-1304.3286517784759
 20
1102.893783963015
 30
0.0
 11
-1303.3286517784759
 21
1102.893783963015
 31
0.0
  0
LINE
  5
1773
  8
1
 10
-1295.328651778477
 20
1101.893783963015
 30
0.0
 11
-1295.328651778477
 21
1098.893783963015
 31
0.0
  0
LINE
  5
1774
  8
1
 10
-1305.3286517784759
 20
1101.893783963015
 30
0.0
 11
-1305.3286517784759
 21
1098.893783963015
 31
0.0
  0
CIRCLE
  5
1777
  8
1
 10
-1295.328651778477
 20
1115.893783963015
 30
0.0
 40
2.25
  0
CIRCLE
  5
177A
  8
1
 10
-1295.328651778477
 20
1115.893783963015
 30
0.0
 40
3.25
  0
CIRCLE
  5
177B
  8
1
 10
-1300.3286517784759
 20
1106.893783963015
 30
0.0
 40
2.5
  0
CIRCLE
  5
177D
  8
1
 10
-1300.3286517784759
 20
1106.893783963015
 30
0.0
 40
2.0
  0
CIRCLE
  5
177E
  8
1
 10
-1305.328651778477
 20
1115.893783963015
 30
0.0
 40
2.25
  0
CIRCLE
  5
177F
  8
1
 10
-1305.328651778477
 20
1115.893783963015
 30
0.0
 40
3.25
  0
LINE
  5
17BC
  8
2
 10
-1403.828651778477
 20
1160.893783963015
 30
0.0
 11
-1403.828651778477
 21
1277.8937839630159
 31
0.0
  0
ARC
  5
17BE
  8
1
 10
-1392.328651778477
 20
1198.393783963015
 30
0.0
 40
2.0
 50
0.0
 51
90.0
  0
ARC
  5
17BF
  8
1
 10
-1392.328651778477
 20
1190.8937839630159
 30
0.0
 40
2.0
 50
270.0
 51
0.0
  0
LINE
  5
17E9
  8
2
 10
-1402.328651778477
 20
1184.893783963015
 30
0.0
 11
-1402.328651778477
 21
1183.893783963015
 31
0.0
  0
LINE
  5
17EA
  8
1
 10
-1415.8286517784759
 20
1177.0162740736009
 30
0.0
 11
-1415.8286517784759
 21
1192.7712938524301
 31
0.0
  0
LINE
  5
17EB
  8
1
 10
-1413.3286517784759
 20
1177.393783963015
 30
0.0
 11
-1413.3286517784759
 21
1192.393783963015
 31
0.0
  0
LINE
  5
17F7
  8
1
 10
-1406.8286517784759
 20
1174.893783963015
 30
0.0
 11
-1413.863556591351
 21
1175.0165786832879
 31
0.0
  0
LINE
  5
17F8
  8
1
 10
-1406.8286517784759
 20
1177.393783963015
 30
0.0
 11
-1415.8286517784759
 21
1177.393783963015
 31
0.0
  0
ARC
  5
17F9
  8
1
 10
-1413.828651778477
 20
1177.0162740736009
 30
0.0
 40
2.0
 50
180.0
 51
268.99999999999909
  0
LINE
  5
17FA
  8
2
 10
-1403.828651778477
 20
1183.893783963015
 30
0.0
 11
-1402.328651778477
 21
1183.893783963015
 31
0.0
  0
LINE
  5
17FB
  8
2
 10
-1399.685223149894
 20
1169.693783963015
 30
0.0
 11
-1403.828651778477
 21
1169.693783963015
 31
0.0
  0
LINE
  5
17FC
  8
2
 10
-1394.4184750915549
 20
1159.893783963015
 30
0.0
 11
-1394.4840914918591
 21
1163.6529450187891
 31
0.0
  0
ARC
  5
17FD
  8
2
 10
-1402.8286517784759
 20
1160.893783963015
 30
0.0
 40
1.0
 50
180.0
 51
270.0
  0
CIRCLE
  5
17FF
  8
2
 10
-1396.8286517784759
 20
1166.893783963015
 30
0.0
 40
1.1999999999999991
  0
LINE
  5
1801
  8
2
 10
-1396.358389801459
 20
1170.893783963015
 30
0.0
 11
-1403.828651778477
 21
1170.893783963015
 31
0.0
  0
ARC
  5
1802
  8
2
 10
-1396.8286517784759
 20
1166.893783963015
 30
0.0
 40
4.0
 50
135.5729959991954
 51
305.88357174089037
  0
ARC
  5
1803
  8
2
 10
-1396.358389801459
 20
1167.893783963015
 30
0.0
 40
3.0
 50
0.9999999999999378
 51
90.0
  0
LINE
  5
1812
  8
1
 10
-1406.8286517784759
 20
1194.893783963015
 30
0.0
 11
-1413.863556591351
 21
1194.7709892427431
 31
0.0
  0
LINE
  5
1813
  8
1
 10
-1406.8286517784759
 20
1192.393783963015
 30
0.0
 11
-1415.8286517784759
 21
1192.393783963015
 31
0.0
  0
ARC
  5
1814
  8
1
 10
-1413.828651778477
 20
1192.7712938524301
 30
0.0
 40
2.0
 50
91.000000000000838
 51
180.0
  0
LINE
  5
1815
  8
1
 10
-1393.3286517784759
 20
1206.893783963015
 30
0.0
 11
-1403.3286517784759
 21
1206.893783963015
 31
0.0
  0
LINE
  5
1816
  8
1
 10
-1393.3286517784759
 20
1208.393783963015
 30
0.0
 11
-1393.3286517784759
 21
1205.393783963015
 31
0.0
  0
LINE
  5
1817
  8
1
 10
-1403.3286517784759
 20
1208.393783963015
 30
0.0
 11
-1403.3286517784759
 21
1205.393783963015
 31
0.0
  0
LINE
  5
1818
  8
1
 10
-1393.3286517784759
 20
1208.393783963015
 30
0.0
 11
-1403.3286517784759
 21
1208.393783963015
 31
0.0
  0
LINE
  5
1819
  8
1
 10
-1393.3286517784759
 20
1205.393783963015
 30
0.0
 11
-1403.3286517784759
 21
1205.393783963015
 31
0.0
  0
LINE
  5
181A
  8
2
 10
-1403.828651778477
 20
1211.893783963015
 30
0.0
 11
-1402.328651778477
 21
1211.893783963015
 31
0.0
  0
LINE
  5
181B
  8
2
 10
-1402.328651778477
 20
1215.893783963015
 30
0.0
 11
-1402.328651778477
 21
1214.893783963015
 31
0.0
  0
LINE
  5
181C
  8
2
 10
-1403.828651778477
 20
1212.893783963015
 30
0.0
 11
-1402.328651778477
 21
1212.893783963015
 31
0.0
  0
LINE
  5
181D
  8
2
 10
-1403.828651778477
 20
1214.893783963015
 30
0.0
 11
-1402.328651778477
 21
1214.893783963015
 31
0.0
  0
LINE
  5
181E
  8
2
 10
-1403.828651778477
 20
1215.893783963015
 30
0.0
 11
-1402.328651778477
 21
1215.893783963015
 31
0.0
  0
LINE
  5
181F
  8
2
 10
-1402.328651778477
 20
1212.893783963015
 30
0.0
 11
-1402.328651778477
 21
1211.893783963015
 31
0.0
  0
LINE
  5
1821
  8
1
 10
-1403.3286517784759
 20
1200.393783963015
 30
0.0
 11
-1403.3286517784759
 21
1188.8937839630159
 31
0.0
  0
LINE
  5
1822
  8
1
 10
-1392.328651778477
 20
1188.8937839630159
 30
0.0
 11
-1403.3286517784759
 21
1188.8937839630159
 31
0.0
  0
LINE
  5
1823
  8
1
 10
-1392.328651778477
 20
1200.393783963015
 30
0.0
 11
-1403.3286517784759
 21
1200.393783963015
 31
0.0
  0
CIRCLE
  5
1824
  8
1
 10
-1398.3286517784759
 20
1195.393783963015
 30
0.0
 40
2.25
  0
LINE
  5
182C
  8
2
 10
-1403.828651778477
 20
1197.893783963015
 30
0.0
 11
-1402.328651778477
 21
1197.893783963015
 31
0.0
  0
LINE
  5
182D
  8
2
 10
-1402.328651778477
 20
1201.893783963015
 30
0.0
 11
-1402.328651778477
 21
1200.893783963015
 31
0.0
  0
LINE
  5
182E
  8
2
 10
-1403.828651778477
 20
1198.893783963015
 30
0.0
 11
-1402.328651778477
 21
1198.893783963015
 31
0.0
  0
LINE
  5
182F
  8
2
 10
-1403.828651778477
 20
1200.893783963015
 30
0.0
 11
-1402.328651778477
 21
1200.893783963015
 31
0.0
  0
LINE
  5
1830
  8
2
 10
-1403.828651778477
 20
1201.893783963015
 30
0.0
 11
-1402.328651778477
 21
1201.893783963015
 31
0.0
  0
LINE
  5
1831
  8
2
 10
-1402.328651778477
 20
1198.893783963015
 30
0.0
 11
-1402.328651778477
 21
1197.893783963015
 31
0.0
  0
LINE
  5
1832
  8
2
 10
-1402.328651778477
 20
1187.893783963015
 30
0.0
 11
-1402.328651778477
 21
1186.893783963015
 31
0.0
  0
LINE
  5
1833
  8
2
 10
-1403.828651778477
 20
1184.893783963015
 30
0.0
 11
-1402.328651778477
 21
1184.893783963015
 31
0.0
  0
LINE
  5
1834
  8
2
 10
-1403.828651778477
 20
1186.893783963015
 30
0.0
 11
-1402.328651778477
 21
1186.893783963015
 31
0.0
  0
LINE
  5
1835
  8
2
 10
-1403.828651778477
 20
1187.893783963015
 30
0.0
 11
-1402.328651778477
 21
1187.893783963015
 31
0.0
  0
LINE
  5
1837
  8
2
 10
-1373.3286517784759
 20
1159.8937839630159
 30
0.0
 11
-1373.3286517784759
 21
1161.393783963015
 31
0.0
  0
LINE
  5
1838
  8
2
 10
-1376.3286517784759
 20
1161.393783963015
 30
0.0
 11
-1377.3286517784759
 21
1161.393783963015
 31
0.0
  0
LINE
  5
1839
  8
2
 10
-1376.3286517784759
 20
1159.8937839630159
 30
0.0
 11
-1376.3286517784759
 21
1161.393783963015
 31
0.0
  0
LINE
  5
183A
  8
2
 10
-1377.3286517784759
 20
1159.8937839630159
 30
0.0
 11
-1377.3286517784759
 21
1161.393783963015
 31
0.0
  0
LINE
  5
183B
  8
2
 10
-1374.3286517784759
 20
1159.8937839630159
 30
0.0
 11
-1374.3286517784759
 21
1161.393783963015
 31
0.0
  0
LINE
  5
183C
  8
2
 10
-1373.3286517784759
 20
1161.393783963015
 30
0.0
 11
-1374.3286517784759
 21
1161.393783963015
 31
0.0
  0
LINE
  5
183D
  8
2
 10
-1351.328651778477
 20
1161.393783963015
 30
0.0
 11
-1352.3286517784759
 21
1161.393783963015
 31
0.0
  0
LINE
  5
183E
  8
2
 10
-1351.328651778477
 20
1159.8937839630159
 30
0.0
 11
-1351.328651778477
 21
1161.393783963015
 31
0.0
  0
LINE
  5
183F
  8
2
 10
-1352.3286517784759
 20
1159.8937839630159
 30
0.0
 11
-1352.3286517784759
 21
1161.393783963015
 31
0.0
  0
LINE
  5
1840
  8
1
 10
-1390.328651778477
 20
1198.393783963015
 30
0.0
 11
-1390.328651778477
 21
1190.8937839630159
 31
0.0
  0
ARC
  5
1853
  8
2
 10
-1396.8286517784759
 20
1271.893783963015
 30
0.0
 40
4.5
 50
231.78307670383731
 51
38.216923296159628
  0
LINE
  5
1855
  8
1
 10
-1401.8286517784759
 20
1257.893783963015
 30
0.0
 11
-1383.328651778477
 21
1257.893783963015
 31
0.0
  0
LINE
  5
1856
  8
1
 10
-1401.828651778477
 20
1255.393783963015
 30
0.0
 11
-1383.328651778477
 21
1255.393783963015
 31
0.0
  0
LINE
  5
1874
  8
1
 10
-1406.8286517784759
 20
1263.893783963015
 30
0.0
 11
-1413.863556591351
 21
1263.7709892427431
 31
0.0
  0
LINE
  5
1875
  8
1
 10
-1406.8286517784759
 20
1243.893783963015
 30
0.0
 11
-1413.863556591351
 21
1244.0165786832879
 31
0.0
  0
LINE
  5
1876
  8
1
 10
-1406.8286517784759
 20
1246.393783963015
 30
0.0
 11
-1415.8286517784759
 21
1246.393783963015
 31
0.0
  0
LINE
  5
1877
  8
1
 10
-1406.8286517784759
 20
1261.393783963015
 30
0.0
 11
-1415.8286517784759
 21
1261.393783963015
 31
0.0
  0
ARC
  5
1878
  8
1
 10
-1413.828651778477
 20
1261.7712938524301
 30
0.0
 40
2.0
 50
90.999999999999005
 51
180.0
  0
ARC
  5
1879
  8
1
 10
-1413.828651778477
 20
1246.0162740736009
 30
0.0
 40
2.0
 50
180.0
 51
269.00000000000091
  0
LINE
  5
187A
  8
1
 10
-1415.8286517784759
 20
1246.0162740736009
 30
0.0
 11
-1415.8286517784759
 21
1261.7712938524301
 31
0.0
  0
LINE
  5
187B
  8
1
 10
-1413.3286517784759
 20
1246.393783963015
 30
0.0
 11
-1413.3286517784759
 21
1261.393783963015
 31
0.0
  0
LINE
  5
187C
  8
2
 10
-1402.328651778477
 20
1254.893783963015
 30
0.0
 11
-1402.328651778477
 21
1253.893783963015
 31
0.0
  0
LINE
  5
187D
  8
2
 10
-1403.828651778477
 20
1257.893783963015
 30
0.0
 11
-1402.328651778477
 21
1257.893783963015
 31
0.0
  0
LINE
  5
187E
  8
2
 10
-1403.828651778477
 20
1256.893783963015
 30
0.0
 11
-1402.328651778477
 21
1256.893783963015
 31
0.0
  0
LINE
  5
187F
  8
2
 10
-1403.828651778477
 20
1254.893783963015
 30
0.0
 11
-1402.328651778477
 21
1254.893783963015
 31
0.0
  0
LINE
  5
1880
  8
2
 10
-1402.328651778477
 20
1257.893783963015
 30
0.0
 11
-1402.328651778477
 21
1256.893783963015
 31
0.0
  0
LINE
  5
1881
  8
2
 10
-1403.828651778477
 20
1253.893783963015
 30
0.0
 11
-1402.328651778477
 21
1253.893783963015
 31
0.0
  0
LINE
  5
1882
  8
1
 10
-1391.828651778477
 20
1260.8937839630159
 30
0.0
 11
-1391.8286517784759
 21
1257.893783963015
 31
0.0
  0
LINE
  5
1883
  8
1
 10
-1394.328651778477
 20
1260.8937839630159
 30
0.0
 11
-1394.3286517784759
 21
1257.893783963015
 31
0.0
  0
LINE
  5
1884
  8
1
 10
-1391.828651778477
 20
1260.8937839630159
 30
0.0
 11
-1394.328651778477
 21
1260.8937839630159
 31
0.0
  0
LINE
  5
1885
  8
1
 10
-1401.8286517784759
 20
1260.8937839630159
 30
0.0
 11
-1399.3286517784759
 21
1260.8937839630159
 31
0.0
  0
LINE
  5
1886
  8
1
 10
-1399.3286517784759
 20
1260.8937839630159
 30
0.0
 11
-1399.328651778477
 21
1257.893783963015
 31
0.0
  0
LINE
  5
1887
  8
1
 10
-1401.8286517784759
 20
1260.8937839630159
 30
0.0
 11
-1401.8286517784759
 21
1257.893783963015
 31
0.0
  0
LINE
  5
1888
  8
1
 10
-1401.8286517784759
 20
1257.893783963015
 30
0.0
 11
-1401.828651778477
 21
1255.393783963015
 31
0.0
  0
LINE
  5
1889
  8
1
 10
-1403.3286517784759
 20
1230.893783963015
 30
0.0
 11
-1393.3286517784759
 21
1230.893783963015
 31
0.0
  0
LINE
  5
188A
  8
1
 10
-1403.3286517784759
 20
1229.393783963015
 30
0.0
 11
-1393.3286517784759
 21
1229.393783963015
 31
0.0
  0
LINE
  5
188B
  8
1
 10
-1403.3286517784759
 20
1232.393783963015
 30
0.0
 11
-1393.3286517784759
 21
1232.393783963015
 31
0.0
  0
LINE
  5
188C
  8
1
 10
-1403.3286517784759
 20
1240.393783963015
 30
0.0
 11
-1403.3286517784759
 21
1235.893783963015
 31
0.0
  0
LINE
  5
188D
  8
1
 10
-1393.3286517784759
 20
1240.393783963015
 30
0.0
 11
-1393.3286517784759
 21
1235.893783963015
 31
0.0
  0
LINE
  5
188E
  8
1
 10
-1403.328651778477
 20
1240.393783963015
 30
0.0
 11
-1393.3286517784759
 21
1240.393783963015
 31
0.0
  0
LINE
  5
188F
  8
1
 10
-1403.3286517784759
 20
1238.1585268410361
 30
0.0
 11
-1393.3286517784759
 21
1238.1585268410361
 31
0.0
  0
LINE
  5
1890
  8
1
 10
-1403.3286517784759
 20
1235.893783963015
 30
0.0
 11
-1393.3286517784759
 21
1235.893783963015
 31
0.0
  0
LINE
  5
1891
  8
2
 10
-1403.828651778477
 20
1239.893783963015
 30
0.0
 11
-1402.328651778477
 21
1239.893783963015
 31
0.0
  0
LINE
  5
1892
  8
2
 10
-1402.328651778477
 20
1243.893783963015
 30
0.0
 11
-1402.328651778477
 21
1242.893783963015
 31
0.0
  0
LINE
  5
1893
  8
2
 10
-1403.828651778477
 20
1240.893783963015
 30
0.0
 11
-1402.328651778477
 21
1240.893783963015
 31
0.0
  0
LINE
  5
1894
  8
2
 10
-1403.828651778477
 20
1242.893783963015
 30
0.0
 11
-1402.328651778477
 21
1242.893783963015
 31
0.0
  0
LINE
  5
1895
  8
2
 10
-1403.828651778477
 20
1243.893783963015
 30
0.0
 11
-1402.328651778477
 21
1243.893783963015
 31
0.0
  0
LINE
  5
1896
  8
2
 10
-1402.328651778477
 20
1240.893783963015
 30
0.0
 11
-1402.328651778477
 21
1239.893783963015
 31
0.0
  0
LINE
  5
1897
  8
2
 10
-1402.328651778477
 20
1229.893783963015
 30
0.0
 11
-1402.328651778477
 21
1228.893783963015
 31
0.0
  0
LINE
  5
1898
  8
2
 10
-1403.828651778477
 20
1228.893783963015
 30
0.0
 11
-1402.328651778477
 21
1228.893783963015
 31
0.0
  0
LINE
  5
1899
  8
2
 10
-1403.828651778477
 20
1229.893783963015
 30
0.0
 11
-1402.328651778477
 21
1229.893783963015
 31
0.0
  0
LINE
  5
189D
  8
2
 10
-1403.828651778477
 20
1225.893783963015
 30
0.0
 11
-1402.328651778477
 21
1225.893783963015
 31
0.0
  0
LINE
  5
189E
  8
2
 10
-1403.828651778477
 20
1226.893783963015
 30
0.0
 11
-1402.328651778477
 21
1226.893783963015
 31
0.0
  0
LINE
  5
189F
  8
2
 10
-1402.328651778477
 20
1226.893783963015
 30
0.0
 11
-1402.328651778477
 21
1225.893783963015
 31
0.0
  0
ARC
  5
18A0
  8
1
 10
-1403.0286517784771
 20
1278.0937839630151
 30
0.0
 40
1.5
 50
90.0
 51
180.0
  0
LINE
  5
18A1
  8
1
 10
-1394.7931178725439
 20
1276.460686821385
 30
0.0
 11
-1394.7931178725439
 21
1279.5937839630151
 31
0.0
  0
LINE
  5
18A2
  8
1
 10
-1403.0286517784771
 20
1279.5937839630151
 30
0.0
 11
-1394.7931178725439
 21
1279.5937839630151
 31
0.0
  0
ARC
  5
18A3
  8
1
 10
-1403.3286517784759
 20
1278.393783963015
 30
0.0
 40
3.0
 50
90.0
 51
180.0
  0
ARC
  5
18A4
  8
2
 10
-1402.8286517784759
 20
1277.8937839630159
 30
0.0
 40
1.0
 50
90.0
 51
180.0
  0
LINE
  5
18A7
  8
2
 10
-1399.612533959888
 20
1268.3582500570831
 30
0.0
 11
-1403.828651778477
 21
1268.3582500570831
 31
0.0
  0
LINE
  5
18A8
  8
1
 10
-1401.3955546368461
 20
1269.8582500570831
 30
0.0
 11
-1404.5286517784771
 21
1269.8582500570831
 31
0.0
  0
CIRCLE
  5
18A9
  8
1
 10
-1396.8286517784759
 20
1271.893783963015
 30
0.0
 40
3.2500000000001128
  0
CIRCLE
  5
18AA
  8
1
 10
-1396.8286517784759
 20
1271.893783963015
 30
0.0
 40
2.5
  0
CIRCLE
  5
18AB
  8
1
 10
-1396.8286517784759
 20
1271.893783963015
 30
0.0
 40
2.0
  0
LINE
  5
18AC
  8
2
 10
-1393.2931178725439
 20
1274.6776661444269
 30
0.0
 11
-1393.2931178725439
 21
1278.8937839630159
 31
0.0
  0
LINE
  5
18AD
  8
1
 10
-1404.5286517784771
 20
1269.8582500570831
 30
0.0
 11
-1404.5286517784771
 21
1278.0937839630151
 31
0.0
  0
CIRCLE
  5
18AE
  8
1
 10
-1396.8286517784759
 20
1271.893783963015
 30
0.0
 40
5.0
  0
LINE
  5
18B0
  8
1
 10
-1382.8286517784759
 20
1276.893783963015
 30
0.0
 11
-1382.8286517784759
 21
1258.393783963015
 31
0.0
  0
LINE
  5
18B1
  8
1
 10
-1380.3286517784759
 20
1276.893783963015
 30
0.0
 11
-1380.3286517784759
 21
1258.393783963015
 31
0.0
  0
ARC
  5
18CB
  8
1
 10
-1383.328651778477
 20
1258.393783963015
 30
0.0
 40
0.5
 50
270.0
 51
0.0
  0
ARC
  5
18CC
  8
1
 10
-1383.328651778477
 20
1258.393783963015
 30
0.0
 40
3.0
 50
270.0
 51
0.0
  0
LINE
  5
18CD
  8
2
 10
-1373.3286517784759
 20
1278.893783963015
 30
0.0
 11
-1373.3286517784759
 21
1277.393783963015
 31
0.0
  0
LINE
  5
18CE
  8
2
 10
-1374.3286517784759
 20
1278.893783963015
 30
0.0
 11
-1374.3286517784759
 21
1277.393783963015
 31
0.0
  0
LINE
  5
18CF
  8
2
 10
-1377.3286517784759
 20
1278.893783963015
 30
0.0
 11
-1377.3286517784759
 21
1277.393783963015
 31
0.0
  0
LINE
  5
18D0
  8
2
 10
-1376.3286517784759
 20
1278.893783963015
 30
0.0
 11
-1376.3286517784759
 21
1277.393783963015
 31
0.0
  0
LINE
  5
18D1
  8
2
 10
-1376.3286517784759
 20
1277.393783963015
 30
0.0
 11
-1377.3286517784759
 21
1277.393783963015
 31
0.0
  0
LINE
  5
18D2
  8
1
 10
-1385.8286517784759
 20
1276.893783963015
 30
0.0
 11
-1382.8286517784759
 21
1276.893783963015
 31
0.0
  0
LINE
  5
18D3
  8
1
 10
-1382.8286517784759
 20
1276.893783963015
 30
0.0
 11
-1380.3286517784759
 21
1276.893783963015
 31
0.0
  0
LINE
  5
18D4
  8
1
 10
-1385.8286517784759
 20
1266.893783963015
 30
0.0
 11
-1382.8286517784759
 21
1266.893783963015
 31
0.0
  0
LINE
  5
18D5
  8
1
 10
-1385.8286517784759
 20
1269.393783963015
 30
0.0
 11
-1382.8286517784759
 21
1269.393783963015
 31
0.0
  0
LINE
  5
18D6
  8
1
 10
-1385.8286517784759
 20
1266.893783963015
 30
0.0
 11
-1385.8286517784759
 21
1269.393783963015
 31
0.0
  0
LINE
  5
18D7
  8
1
 10
-1385.8286517784759
 20
1274.393783963015
 30
0.0
 11
-1382.8286517784759
 21
1274.393783963015
 31
0.0
  0
LINE
  5
18D8
  8
1
 10
-1385.8286517784759
 20
1276.893783963015
 30
0.0
 11
-1385.8286517784759
 21
1274.393783963015
 31
0.0
  0
LINE
  5
18D9
  8
2
 10
-1373.3286517784759
 20
1277.393783963015
 30
0.0
 11
-1374.3286517784759
 21
1277.393783963015
 31
0.0
  0
LINE
  5
18DA
  8
2
 10
-1352.3286517784759
 20
1278.893783963015
 30
0.0
 11
-1352.3286517784759
 21
1277.393783963015
 31
0.0
  0
LINE
  5
18DB
  8
2
 10
-1351.328651778477
 20
1278.893783963015
 30
0.0
 11
-1351.328651778477
 21
1277.393783963015
 31
0.0
  0
LINE
  5
18DC
  8
2
 10
-1351.328651778477
 20
1277.393783963015
 30
0.0
 11
-1352.3286517784759
 21
1277.393783963015
 31
0.0
  0
LINE
  5
18E1
  8
2
 10
-1348.3286517784759
 20
1159.8937839630159
 30
0.0
 11
-1348.3286517784759
 21
1161.393783963015
 31
0.0
  0
LINE
  5
18E2
  8
2
 10
-1349.3286517784759
 20
1159.8937839630159
 30
0.0
 11
-1349.3286517784759
 21
1161.393783963015
 31
0.0
  0
LINE
  5
18E3
  8
2
 10
-1348.3286517784759
 20
1161.393783963015
 30
0.0
 11
-1349.3286517784759
 21
1161.393783963015
 31
0.0
  0
LINE
  5
18E6
  8
2
 10
-1323.3286517784759
 20
1159.8937839630159
 30
0.0
 11
-1323.3286517784759
 21
1161.393783963015
 31
0.0
  0
LINE
  5
18E7
  8
2
 10
-1326.3286517784759
 20
1161.393783963015
 30
0.0
 11
-1327.328651778477
 21
1161.393783963015
 31
0.0
  0
LINE
  5
18E8
  8
2
 10
-1326.3286517784759
 20
1159.8937839630159
 30
0.0
 11
-1326.3286517784759
 21
1161.393783963015
 31
0.0
  0
LINE
  5
18E9
  8
2
 10
-1327.328651778477
 20
1159.8937839630159
 30
0.0
 11
-1327.328651778477
 21
1161.393783963015
 31
0.0
  0
LINE
  5
18EA
  8
2
 10
-1324.3286517784759
 20
1159.8937839630159
 30
0.0
 11
-1324.3286517784759
 21
1161.393783963015
 31
0.0
  0
LINE
  5
18EB
  8
2
 10
-1323.3286517784759
 20
1161.393783963015
 30
0.0
 11
-1324.3286517784759
 21
1161.393783963015
 31
0.0
  0
CIRCLE
  5
18EC
  8
1
 10
-1300.3286517784759
 20
1189.393783963015
 30
0.0
 40
6.0
  0
LINE
  5
18EE
  8
2
 10
-1298.3286517784759
 20
1161.393783963015
 30
0.0
 11
-1299.3286517784759
 21
1161.393783963015
 31
0.0
  0
LINE
  5
18EF
  8
2
 10
-1299.3286517784759
 20
1159.8937839630159
 30
0.0
 11
-1299.3286517784759
 21
1161.393783963015
 31
0.0
  0
LINE
  5
18F0
  8
2
 10
-1298.3286517784759
 20
1159.8937839630159
 30
0.0
 11
-1298.3286517784759
 21
1161.393783963015
 31
0.0
  0
LINE
  5
18F1
  8
2
 10
-1302.3286517784759
 20
1159.8937839630159
 30
0.0
 11
-1302.3286517784759
 21
1161.393783963015
 31
0.0
  0
LINE
  5
18F2
  8
2
 10
-1301.328651778477
 20
1159.8937839630159
 30
0.0
 11
-1301.328651778477
 21
1161.393783963015
 31
0.0
  0
LINE
  5
18F3
  8
2
 10
-1301.328651778477
 20
1161.393783963015
 30
0.0
 11
-1302.3286517784759
 21
1161.393783963015
 31
0.0
  0
LINE
  5
18F5
  8
2
 10
-1273.3286517784759
 20
1159.8937839630159
 30
0.0
 11
-1273.3286517784759
 21
1161.393783963015
 31
0.0
  0
LINE
  5
18F6
  8
2
 10
-1277.3286517784759
 20
1161.393783963015
 30
0.0
 11
-1276.3286517784759
 21
1161.393783963015
 31
0.0
  0
LINE
  5
18F7
  8
2
 10
-1276.3286517784759
 20
1159.8937839630159
 30
0.0
 11
-1276.3286517784759
 21
1161.393783963015
 31
0.0
  0
LINE
  5
18F8
  8
2
 10
-1277.3286517784759
 20
1159.8937839630159
 30
0.0
 11
-1277.3286517784759
 21
1161.393783963015
 31
0.0
  0
LINE
  5
18F9
  8
2
 10
-1274.3286517784759
 20
1159.8937839630159
 30
0.0
 11
-1274.3286517784759
 21
1161.393783963015
 31
0.0
  0
LINE
  5
18FA
  8
2
 10
-1274.3286517784759
 20
1161.393783963015
 30
0.0
 11
-1273.3286517784759
 21
1161.393783963015
 31
0.0
  0
CIRCLE
  5
1936
  8
1
 10
-1300.3286517784759
 20
1247.193783963015
 30
0.0
 40
10.5
  0
LINE
  5
1947
  8
2
 10
-1348.3286517784759
 20
1277.393783963015
 30
0.0
 11
-1349.3286517784759
 21
1277.393783963015
 31
0.0
  0
LINE
  5
1948
  8
2
 10
-1349.3286517784759
 20
1278.893783963015
 30
0.0
 11
-1349.3286517784759
 21
1277.393783963015
 31
0.0
  0
LINE
  5
1949
  8
2
 10
-1348.3286517784759
 20
1278.893783963015
 30
0.0
 11
-1348.3286517784759
 21
1277.393783963015
 31
0.0
  0
LINE
  5
194A
  8
2
 10
-1323.3286517784759
 20
1278.893783963015
 30
0.0
 11
-1323.3286517784759
 21
1277.393783963015
 31
0.0
  0
LINE
  5
194B
  8
2
 10
-1324.3286517784759
 20
1278.893783963015
 30
0.0
 11
-1324.3286517784759
 21
1277.393783963015
 31
0.0
  0
LINE
  5
194C
  8
2
 10
-1327.328651778477
 20
1278.893783963015
 30
0.0
 11
-1327.328651778477
 21
1277.393783963015
 31
0.0
  0
LINE
  5
194D
  8
2
 10
-1326.3286517784759
 20
1278.893783963015
 30
0.0
 11
-1326.3286517784759
 21
1277.393783963015
 31
0.0
  0
LINE
  5
194E
  8
2
 10
-1326.3286517784759
 20
1277.393783963015
 30
0.0
 11
-1327.328651778477
 21
1277.393783963015
 31
0.0
  0
LINE
  5
194F
  8
2
 10
-1323.3286517784759
 20
1277.393783963015
 30
0.0
 11
-1324.3286517784759
 21
1277.393783963015
 31
0.0
  0
CIRCLE
  5
1955
  8
1
 10
-1295.328651778477
 20
1262.893783963015
 30
0.0
 40
3.25
  0
CIRCLE
  5
1957
  8
1
 10
-1295.328651778477
 20
1262.893783963015
 30
0.0
 40
2.25
  0
CIRCLE
  5
1958
  8
1
 10
-1305.328651778477
 20
1262.893783963015
 30
0.0
 40
3.25
  0
CIRCLE
  5
1959
  8
1
 10
-1305.328651778477
 20
1262.893783963015
 30
0.0
 40
2.25
  0
LINE
  5
1966
  8
1
 10
-1304.098267143471
 20
1237.393783963015
 30
0.0
 11
-1296.5590364134821
 21
1237.393783963015
 31
0.0
  0
ARC
  5
1967
  8
1
 10
-1300.3286517784759
 20
1244.193783963015
 30
0.0
 40
5.0
 50
119.9999999999998
 51
60.000000000000099
  0
LINE
  5
1968
  8
1
 10
-1302.8286517784759
 20
1251.193783963015
 30
0.0
 11
-1302.8286517784759
 21
1248.523910981937
 31
0.0
  0
LINE
  5
1969
  8
1
 10
-1297.8286517784759
 20
1251.193783963015
 30
0.0
 11
-1297.8286517784759
 21
1248.523910981937
 31
0.0
  0
ARC
  5
196C
  8
1
 10
-1300.3286517784759
 20
1251.193783963015
 30
0.0
 40
2.5
 50
0.0
 51
180.0
  0
LINE
  5
1978
  8
2
 10
-1301.328651778477
 20
1277.393783963015
 30
0.0
 11
-1302.3286517784759
 21
1277.393783963015
 31
0.0
  0
LINE
  5
1979
  8
2
 10
-1301.328651778477
 20
1278.893783963015
 30
0.0
 11
-1301.328651778477
 21
1277.393783963015
 31
0.0
  0
LINE
  5
197A
  8
2
 10
-1302.3286517784759
 20
1278.893783963015
 30
0.0
 11
-1302.3286517784759
 21
1277.393783963015
 31
0.0
  0
LINE
  5
197B
  8
2
 10
-1298.3286517784759
 20
1278.893783963015
 30
0.0
 11
-1298.3286517784759
 21
1277.393783963015
 31
0.0
  0
LINE
  5
197C
  8
2
 10
-1299.3286517784759
 20
1278.893783963015
 30
0.0
 11
-1299.3286517784759
 21
1277.393783963015
 31
0.0
  0
LINE
  5
197D
  8
2
 10
-1298.3286517784759
 20
1277.393783963015
 30
0.0
 11
-1299.3286517784759
 21
1277.393783963015
 31
0.0
  0
CIRCLE
  5
197F
  8
1
 10
-1300.3286517784759
 20
1271.893783963015
 30
0.0
 40
3.2500000000001128
  0
CIRCLE
  5
1980
  8
1
 10
-1300.3286517784759
 20
1271.893783963015
 30
0.0
 40
2.5
  0
CIRCLE
  5
1981
  8
1
 10
-1300.3286517784759
 20
1271.893783963015
 30
0.0
 40
2.0
  0
CIRCLE
  5
1982
  8
1
 10
-1300.3286517784759
 20
1271.893783963015
 30
0.0
 40
5.0
  0
LINE
  5
1984
  8
2
 10
-1273.3286517784759
 20
1278.893783963015
 30
0.0
 11
-1273.3286517784759
 21
1277.393783963015
 31
0.0
  0
LINE
  5
1985
  8
2
 10
-1274.3286517784759
 20
1278.893783963015
 30
0.0
 11
-1274.3286517784759
 21
1277.393783963015
 31
0.0
  0
LINE
  5
1986
  8
2
 10
-1277.3286517784759
 20
1278.893783963015
 30
0.0
 11
-1277.3286517784759
 21
1277.393783963015
 31
0.0
  0
LINE
  5
1987
  8
2
 10
-1276.3286517784759
 20
1278.893783963015
 30
0.0
 11
-1276.3286517784759
 21
1277.393783963015
 31
0.0
  0
LINE
  5
1988
  8
2
 10
-1277.3286517784759
 20
1277.393783963015
 30
0.0
 11
-1276.3286517784759
 21
1277.393783963015
 31
0.0
  0
LINE
  5
1989
  8
2
 10
-1274.3286517784759
 20
1277.393783963015
 30
0.0
 11
-1273.3286517784759
 21
1277.393783963015
 31
0.0
  0
POLYLINE
  5
1991
  8
1
 66
     1
 10
0.0
 20
0.0
 30
0.0
 70
     1
  0
VERTEX
  5
1DB6
  8
1
 10
-1204.9786517784769
 20
1169.393783963015
 30
0.0
  0
VERTEX
  5
1DB7
  8
1
 10
-1196.6286517784761
 20
1169.393783963015
 30
0.0
 42
-0.4142135623730951
  0
VERTEX
  5
1DB8
  8
1
 10
-1196.1286517784761
 20
1168.8937839630159
 30
0.0
  0
VERTEX
  5
1DB9
  8
1
 10
-1196.1286517784761
 20
1121.693783963015
 30
0.0
 42
-0.4142135623730951
  0
VERTEX
  5
1DBA
  8
1
 10
-1196.6286517784761
 20
1121.193783963015
 30
0.0
  0
VERTEX
  5
1DBB
  8
1
 10
-1206.1786517784769
 20
1121.193783963015
 30
0.0
 42
-0.4142135623730884
  0
VERTEX
  5
1DBC
  8
1
 10
-1206.4786517784769
 20
1121.4937839630161
 30
0.0
  0
VERTEX
  5
1DBD
  8
1
 10
-1206.4786517784769
 20
1129.7406536777819
 30
0.0
 42
-0.4142135623729619
  0
VERTEX
  5
1DBE
  8
1
 10
-1202.978651778478
 20
1133.240653677783
 30
0.0
  0
VERTEX
  5
1DBF
  8
1
 10
-1202.5786517784759
 20
1133.240653677783
 30
0.0
 42
0.4142135623729377
  0
VERTEX
  5
1DC0
  8
1
 10
-1200.6755214932441
 20
1135.143783963015
 30
0.0
  0
VERTEX
  5
1DC1
  8
1
 10
-1200.6755214932441
 20
1151.954235940417
 30
0.0
 42
0.4142135623730951
  0
VERTEX
  5
1DC2
  8
1
 10
-1202.6755214932441
 20
1153.954235940417
 30
0.0
  0
VERTEX
  5
1DC3
  8
1
 10
-1205.678651778476
 20
1153.954235940417
 30
0.0
 42
-0.4142135623729841
  0
VERTEX
  5
1DC4
  8
1
 10
-1205.978651778476
 20
1154.2542359404169
 30
0.0
  0
VERTEX
  5
1DC5
  8
1
 10
-1205.978651778476
 20
1168.393783963015
 30
0.0
 42
-0.4142135623730951
  0
SEQEND
  5
1DC6
  8
1
  0
LINE
  5
1993
  8
1
 10
-1194.3286517784759
 20
1100.090675154725
 30
0.0
 11
-1194.328651778477
 21
1278.393783963015
 31
0.0
  0
ARC
  5
19C1
  8
1
 10
-1251.8286517784759
 20
1112.893783963015
 30
0.0
 40
14.0
 50
270.0
 51
90.0
  0
ARC
  5
19CC
  8
1
 10
-1201.3286517784759
 20
1104.5937839630151
 30
0.0
 40
2.7000000000000002
 50
180.0
 51
0.0
  0
ARC
  5
19CD
  8
1
 10
-1201.3286517784759
 20
1104.5937839630151
 30
0.0
 40
4.7000000000000002
 50
180.0
 51
0.0
  0
LINE
  5
19D6
  8
1
 62
     4
 10
-1201.3286517784759
 20
1099.893783963015
 30
0.0
 11
-1201.328651778477
 21
1097.090675154725
 31
0.0
  0
ARC
  5
19D8
  8
1
 10
-1197.3286517784759
 20
1100.090675154725
 30
0.0
 40
3.0
 50
270.0
 51
0.0000000000000636
  0
ARC
  5
19DB
  8
1
 10
-1202.8286517784759
 20
1126.393783963015
 30
0.0
 40
4.5
 50
215.7953675436803
 51
144.20463245622921
  0
ARC
  5
19DD
  8
1
 10
-1201.3286517784759
 20
1114.1937839630159
 30
0.0
 40
4.7000000000000002
 50
0.0
 51
180.0
  0
LINE
  5
19E4
  8
1
 10
-1206.0286517784759
 20
1114.1937839630159
 30
0.0
 11
-1206.0286517784759
 21
1104.5937839630151
 31
0.0
  0
LINE
  5
19F9
  8
1
 10
-1196.1317605867659
 20
1125.393783963015
 30
0.0
 11
-1198.44116958478
 21
1125.393783963015
 31
0.0
  0
LINE
  5
19FD
  8
1
 10
-1196.1317605867659
 20
1129.393783963015
 30
0.0
 11
-1199.474549812227
 21
1129.393783963015
 31
0.0
  0
ARC
  5
1A01
  8
1
 10
-1201.3286517784759
 20
1114.1937839630159
 30
0.0
 40
2.7000000000000002
 50
0.0
 51
180.0
  0
LINE
  5
1A02
  8
1
 10
-1196.6286517784761
 20
1114.1937839630159
 30
0.0
 11
-1196.6286517784761
 21
1104.5937839630151
 31
0.0
  0
LINE
  5
1A03
  8
1
 10
-1198.6286517784761
 20
1114.1937839630159
 30
0.0
 11
-1198.6286517784761
 21
1104.5937839630151
 31
0.0
  0
LINE
  5
1A05
  8
1
 10
-1204.0286517784759
 20
1114.1937839630159
 30
0.0
 11
-1204.0286517784759
 21
1104.5937839630151
 31
0.0
  0
ARC
  5
1A08
  8
1
 10
-1186.8286517784759
 20
1261.7712938524301
 30
0.0
 40
2.0
 50
0.0
 51
89.000000000001009
  0
ARC
  5
1A09
  8
1
 10
-1186.8286517784759
 20
1246.0162740736009
 30
0.0
 40
2.0
 50
270.99999999999898
 51
0.0
  0
ARC
  5
1A0A
  8
1
 10
-1186.8286517784759
 20
1192.7712938524301
 30
0.0
 40
2.0
 50
0.0
 51
88.999999999999147
  0
ARC
  5
1A0B
  8
1
 10
-1186.8286517784759
 20
1177.0162740736009
 30
0.0
 40
2.0
 50
271.0000000000008
 51
0.0
  0
LINE
  5
1A0E
  8
2
 10
-1196.8286517784759
 20
1160.893783963015
 30
0.0
 11
-1196.8286517784759
 21
1277.8937839630159
 31
0.0
  0
LINE
  5
1A1F
  8
2
 10
-1252.3286517784759
 20
1161.393783963015
 30
0.0
 11
-1251.3286517784759
 21
1161.393783963015
 31
0.0
  0
LINE
  5
1A20
  8
2
 10
-1251.3286517784759
 20
1159.8937839630159
 30
0.0
 11
-1251.3286517784759
 21
1161.393783963015
 31
0.0
  0
LINE
  5
1A21
  8
2
 10
-1252.3286517784759
 20
1159.8937839630159
 30
0.0
 11
-1252.3286517784759
 21
1161.393783963015
 31
0.0
  0
LINE
  5
1A22
  8
2
 10
-1248.3286517784759
 20
1159.8937839630159
 30
0.0
 11
-1248.3286517784759
 21
1161.393783963015
 31
0.0
  0
LINE
  5
1A23
  8
2
 10
-1249.3286517784759
 20
1159.8937839630159
 30
0.0
 11
-1249.3286517784759
 21
1161.393783963015
 31
0.0
  0
LINE
  5
1A24
  8
2
 10
-1249.3286517784759
 20
1161.393783963015
 30
0.0
 11
-1248.3286517784759
 21
1161.393783963015
 31
0.0
  0
LINE
  5
1A25
  8
2
 10
-1227.3286517784759
 20
1161.393783963015
 30
0.0
 11
-1226.328651778477
 21
1161.393783963015
 31
0.0
  0
LINE
  5
1A26
  8
2
 10
-1226.328651778477
 20
1159.8937839630159
 30
0.0
 11
-1226.328651778477
 21
1161.393783963015
 31
0.0
  0
LINE
  5
1A27
  8
2
 10
-1227.3286517784759
 20
1159.8937839630159
 30
0.0
 11
-1227.3286517784759
 21
1161.393783963015
 31
0.0
  0
LINE
  5
1A2E
  8
2
 10
-1198.3286517784759
 20
1184.893783963015
 30
0.0
 11
-1198.3286517784759
 21
1183.893783963015
 31
0.0
  0
LINE
  5
1A30
  8
1
 10
-1184.8286517784759
 20
1177.0162740736009
 30
0.0
 11
-1184.8286517784759
 21
1192.7712938524301
 31
0.0
  0
LINE
  5
1A31
  8
1
 10
-1187.3286517784759
 20
1177.393783963015
 30
0.0
 11
-1187.3286517784759
 21
1192.393783963015
 31
0.0
  0
ARC
  5
1A32
  8
2
 10
-1203.828651778477
 20
1166.893783963015
 30
0.0
 40
4.0
 50
234.11642825910371
 51
44.427004000804601
  0
ARC
  5
1A34
  8
2
 10
-1204.298913755493
 20
1167.893783963015
 30
0.0
 40
3.0
 50
90.0
 51
179.0
  0
LINE
  5
1A36
  8
2
 10
-1206.2388284653989
 20
1159.893783963015
 30
0.0
 11
-1206.173212065094
 21
1163.6529450187891
 31
0.0
  0
LINE
  5
1A39
  8
2
 10
-1223.3286517784759
 20
1159.8937839630159
 30
0.0
 11
-1223.3286517784759
 21
1161.393783963015
 31
0.0
  0
LINE
  5
1A3B
  8
2
 10
-1224.3286517784759
 20
1159.8937839630159
 30
0.0
 11
-1224.3286517784759
 21
1161.393783963015
 31
0.0
  0
LINE
  5
1A3C
  8
2
 10
-1224.3286517784759
 20
1161.393783963015
 30
0.0
 11
-1223.3286517784759
 21
1161.393783963015
 31
0.0
  0
LINE
  5
1A3E
  8
2
 10
-1196.8286517784759
 20
1183.893783963015
 30
0.0
 11
-1198.3286517784759
 21
1183.893783963015
 31
0.0
  0
LINE
  5
1A3F
  8
2
 10
-1204.298913755493
 20
1170.893783963015
 30
0.0
 11
-1196.8286517784759
 21
1170.893783963015
 31
0.0
  0
LINE
  5
1A40
  8
2
 10
-1200.9720804070589
 20
1169.693783963015
 30
0.0
 11
-1196.8286517784759
 21
1169.693783963015
 31
0.0
  0
ARC
  5
1A41
  8
2
 10
-1197.8286517784759
 20
1160.893783963015
 30
0.0
 40
1.0
 50
270.0
 51
0.0
  0
CIRCLE
  5
1A43
  8
2
 10
-1203.828651778477
 20
1166.893783963015
 30
0.0
 40
1.1999999999999991
  0
LINE
  5
1A45
  8
1
 10
-1193.8286517784759
 20
1174.893783963015
 30
0.0
 11
-1186.7937469656019
 21
1175.0165786832879
 31
0.0
  0
LINE
  5
1A46
  8
1
 10
-1193.8286517784759
 20
1177.393783963015
 30
0.0
 11
-1184.8286517784759
 21
1177.393783963015
 31
0.0
  0
LINE
  5
1A50
  8
1
 10
-1207.3286517784759
 20
1206.893783963015
 30
0.0
 11
-1197.3286517784759
 21
1206.893783963015
 31
0.0
  0
LINE
  5
1A51
  8
1
 10
-1207.3286517784759
 20
1208.393783963015
 30
0.0
 11
-1197.3286517784759
 21
1208.393783963015
 31
0.0
  0
LINE
  5
1A52
  8
1
 10
-1207.3286517784759
 20
1205.393783963015
 30
0.0
 11
-1197.3286517784759
 21
1205.393783963015
 31
0.0
  0
LINE
  5
1A55
  8
1
 10
-1208.328651778477
 20
1200.393783963015
 30
0.0
 11
-1197.3286517784759
 21
1200.393783963015
 31
0.0
  0
LINE
  5
1A56
  8
1
 10
-1208.328651778477
 20
1188.8937839630159
 30
0.0
 11
-1197.328651778477
 21
1188.8937839630159
 31
0.0
  0
LINE
  5
1A57
  8
1
 10
-1207.3286517784759
 20
1208.393783963015
 30
0.0
 11
-1207.3286517784759
 21
1205.393783963015
 31
0.0
  0
ARC
  5
1A59
  8
1
 10
-1208.328651778477
 20
1190.8937839630159
 30
0.0
 40
2.0
 50
180.0
 51
270.0
  0
ARC
  5
1A5A
  8
1
 10
-1208.328651778477
 20
1198.393783963015
 30
0.0
 40
2.0
 50
90.0
 51
180.0
  0
LINE
  5
1A5B
  8
1
 10
-1210.328651778477
 20
1198.393783963015
 30
0.0
 11
-1210.328651778477
 21
1190.8937839630159
 31
0.0
  0
LINE
  5
1A5C
  8
1
 10
-1197.3286517784759
 20
1208.393783963015
 30
0.0
 11
-1197.3286517784759
 21
1205.393783963015
 31
0.0
  0
LINE
  5
1A5D
  8
2
 10
-1198.3286517784759
 20
1212.893783963015
 30
0.0
 11
-1198.3286517784759
 21
1211.893783963015
 31
0.0
  0
LINE
  5
1A5E
  8
2
 10
-1196.8286517784759
 20
1215.893783963015
 30
0.0
 11
-1198.3286517784759
 21
1215.893783963015
 31
0.0
  0
LINE
  5
1A5F
  8
2
 10
-1196.8286517784759
 20
1214.893783963015
 30
0.0
 11
-1198.3286517784759
 21
1214.893783963015
 31
0.0
  0
LINE
  5
1A60
  8
2
 10
-1196.8286517784759
 20
1212.893783963015
 30
0.0
 11
-1198.3286517784759
 21
1212.893783963015
 31
0.0
  0
LINE
  5
1A61
  8
2
 10
-1198.3286517784759
 20
1215.893783963015
 30
0.0
 11
-1198.3286517784759
 21
1214.893783963015
 31
0.0
  0
LINE
  5
1A62
  8
2
 10
-1196.8286517784759
 20
1211.893783963015
 30
0.0
 11
-1198.3286517784759
 21
1211.893783963015
 31
0.0
  0
LINE
  5
1A64
  8
1
 10
-1197.328651778477
 20
1188.8937839630159
 30
0.0
 11
-1197.3286517784759
 21
1200.393783963015
 31
0.0
  0
CIRCLE
  5
1A69
  8
1
 10
-1202.328651778477
 20
1195.393783963015
 30
0.0
 40
2.25
  0
LINE
  5
1A6A
  8
2
 10
-1196.8286517784759
 20
1187.893783963015
 30
0.0
 11
-1198.3286517784759
 21
1187.893783963015
 31
0.0
  0
LINE
  5
1A6B
  8
2
 10
-1196.8286517784759
 20
1186.893783963015
 30
0.0
 11
-1198.3286517784759
 21
1186.893783963015
 31
0.0
  0
LINE
  5
1A6C
  8
2
 10
-1196.8286517784759
 20
1184.893783963015
 30
0.0
 11
-1198.3286517784759
 21
1184.893783963015
 31
0.0
  0
LINE
  5
1A6D
  8
2
 10
-1198.3286517784759
 20
1187.893783963015
 30
0.0
 11
-1198.3286517784759
 21
1186.893783963015
 31
0.0
  0
LINE
  5
1A6E
  8
2
 10
-1198.3286517784759
 20
1198.893783963015
 30
0.0
 11
-1198.3286517784759
 21
1197.893783963015
 31
0.0
  0
LINE
  5
1A6F
  8
2
 10
-1196.8286517784759
 20
1201.893783963015
 30
0.0
 11
-1198.3286517784759
 21
1201.893783963015
 31
0.0
  0
LINE
  5
1A70
  8
2
 10
-1196.8286517784759
 20
1200.893783963015
 30
0.0
 11
-1198.3286517784759
 21
1200.893783963015
 31
0.0
  0
LINE
  5
1A71
  8
2
 10
-1196.8286517784759
 20
1198.893783963015
 30
0.0
 11
-1198.3286517784759
 21
1198.893783963015
 31
0.0
  0
LINE
  5
1A72
  8
2
 10
-1198.3286517784759
 20
1201.893783963015
 30
0.0
 11
-1198.3286517784759
 21
1200.893783963015
 31
0.0
  0
LINE
  5
1A73
  8
2
 10
-1196.8286517784759
 20
1197.893783963015
 30
0.0
 11
-1198.3286517784759
 21
1197.893783963015
 31
0.0
  0
LINE
  5
1A74
  8
1
 10
-1193.8286517784759
 20
1194.893783963015
 30
0.0
 11
-1186.7937469656019
 21
1194.7709892427431
 31
0.0
  0
LINE
  5
1A75
  8
1
 10
-1193.8286517784759
 20
1192.393783963015
 30
0.0
 11
-1184.8286517784759
 21
1192.393783963015
 31
0.0
  0
LINE
  5
1A84
  8
2
 10
-1249.3286517784759
 20
1277.393783963015
 30
0.0
 11
-1248.3286517784759
 21
1277.393783963015
 31
0.0
  0
LINE
  5
1A85
  8
2
 10
-1249.3286517784759
 20
1278.893783963015
 30
0.0
 11
-1249.3286517784759
 21
1277.393783963015
 31
0.0
  0
LINE
  5
1A86
  8
2
 10
-1248.3286517784759
 20
1278.893783963015
 30
0.0
 11
-1248.3286517784759
 21
1277.393783963015
 31
0.0
  0
LINE
  5
1A87
  8
2
 10
-1252.3286517784759
 20
1278.893783963015
 30
0.0
 11
-1252.3286517784759
 21
1277.393783963015
 31
0.0
  0
LINE
  5
1A88
  8
2
 10
-1251.3286517784759
 20
1278.893783963015
 30
0.0
 11
-1251.3286517784759
 21
1277.393783963015
 31
0.0
  0
LINE
  5
1A89
  8
2
 10
-1252.3286517784759
 20
1277.393783963015
 30
0.0
 11
-1251.3286517784759
 21
1277.393783963015
 31
0.0
  0
LINE
  5
1A8A
  8
2
 10
-1227.3286517784759
 20
1278.893783963015
 30
0.0
 11
-1227.3286517784759
 21
1277.393783963015
 31
0.0
  0
LINE
  5
1A8B
  8
2
 10
-1226.328651778477
 20
1278.893783963015
 30
0.0
 11
-1226.328651778477
 21
1277.393783963015
 31
0.0
  0
LINE
  5
1A8C
  8
2
 10
-1227.3286517784759
 20
1277.393783963015
 30
0.0
 11
-1226.328651778477
 21
1277.393783963015
 31
0.0
  0
LINE
  5
1A91
  8
1
 10
-1220.3286517784759
 20
1276.893783963015
 30
0.0
 11
-1220.3286517784759
 21
1258.393783963015
 31
0.0
  0
LINE
  5
1A92
  8
1
 10
-1217.8286517784759
 20
1276.893783963015
 30
0.0
 11
-1217.8286517784759
 21
1258.393783963015
 31
0.0
  0
LINE
  5
1A93
  8
1
 10
-1197.328651778477
 20
1230.893783963015
 30
0.0
 11
-1207.328651778477
 21
1230.893783963015
 31
0.0
  0
LINE
  5
1A94
  8
1
 10
-1197.328651778477
 20
1229.393783963015
 30
0.0
 11
-1207.328651778477
 21
1229.393783963015
 31
0.0
  0
LINE
  5
1A95
  8
1
 10
-1197.328651778477
 20
1232.393783963015
 30
0.0
 11
-1207.328651778477
 21
1232.393783963015
 31
0.0
  0
LINE
  5
1A96
  8
1
 10
-1197.3286517784759
 20
1238.1585268410361
 30
0.0
 11
-1207.328651778477
 21
1238.1585268410361
 31
0.0
  0
LINE
  5
1A97
  8
1
 10
-1197.328651778477
 20
1235.893783963015
 30
0.0
 11
-1207.328651778477
 21
1235.893783963015
 31
0.0
  0
LINE
  5
1A98
  8
1
 10
-1197.328651778477
 20
1240.393783963015
 30
0.0
 11
-1207.328651778477
 21
1240.393783963015
 31
0.0
  0
LINE
  5
1A9C
  8
1
 10
-1198.8286517784759
 20
1255.393783963015
 30
0.0
 11
-1217.3286517784759
 21
1255.393783963015
 31
0.0
  0
LINE
  5
1A9D
  8
1
 10
-1198.8286517784759
 20
1257.893783963015
 30
0.0
 11
-1217.3286517784759
 21
1257.893783963015
 31
0.0
  0
LINE
  5
1A9E
  8
1
 10
-1206.3286517784759
 20
1260.8937839630159
 30
0.0
 11
-1206.328651778477
 21
1257.893783963015
 31
0.0
  0
LINE
  5
1A9F
  8
1
 10
-1207.328651778477
 20
1232.393783963015
 30
0.0
 11
-1207.328651778477
 21
1229.393783963015
 31
0.0
  0
LINE
  5
1AA0
  8
1
 10
-1207.328651778477
 20
1240.393783963015
 30
0.0
 11
-1207.328651778477
 21
1235.893783963015
 31
0.0
  0
LINE
  5
1AA1
  8
1
 10
-1208.8286517784759
 20
1260.8937839630159
 30
0.0
 11
-1208.8286517784759
 21
1257.893783963015
 31
0.0
  0
ARC
  5
1AA2
  8
1
 10
-1217.3286517784759
 20
1258.393783963015
 30
0.0
 40
3.0
 50
180.0
 51
270.0
  0
ARC
  5
1AA3
  8
1
 10
-1217.3286517784759
 20
1258.393783963015
 30
0.0
 40
0.5
 50
180.0
 51
270.0
  0
LINE
  5
1AA4
  8
1
 10
-1208.8286517784759
 20
1260.8937839630159
 30
0.0
 11
-1206.3286517784759
 21
1260.8937839630159
 31
0.0
  0
LINE
  5
1AA5
  8
2
 10
-1196.8286517784759
 20
1253.893783963015
 30
0.0
 11
-1198.3286517784759
 21
1253.893783963015
 31
0.0
  0
LINE
  5
1AA6
  8
2
 10
-1198.3286517784759
 20
1257.893783963015
 30
0.0
 11
-1198.3286517784759
 21
1256.893783963015
 31
0.0
  0
LINE
  5
1AA7
  8
2
 10
-1196.8286517784759
 20
1254.893783963015
 30
0.0
 11
-1198.3286517784759
 21
1254.893783963015
 31
0.0
  0
LINE
  5
1AA8
  8
2
 10
-1196.8286517784759
 20
1256.893783963015
 30
0.0
 11
-1198.3286517784759
 21
1256.893783963015
 31
0.0
  0
LINE
  5
1AA9
  8
2
 10
-1196.8286517784759
 20
1257.893783963015
 30
0.0
 11
-1198.3286517784759
 21
1257.893783963015
 31
0.0
  0
LINE
  5
1AAA
  8
2
 10
-1198.3286517784759
 20
1254.893783963015
 30
0.0
 11
-1198.3286517784759
 21
1253.893783963015
 31
0.0
  0
LINE
  5
1AAB
  8
1
 10
-1198.828651778477
 20
1260.8937839630159
 30
0.0
 11
-1198.8286517784759
 21
1257.893783963015
 31
0.0
  0
LINE
  5
1AAC
  8
1
 10
-1201.328651778477
 20
1260.8937839630159
 30
0.0
 11
-1201.3286517784759
 21
1257.893783963015
 31
0.0
  0
LINE
  5
1AAD
  8
1
 10
-1198.828651778477
 20
1260.8937839630159
 30
0.0
 11
-1201.328651778477
 21
1260.8937839630159
 31
0.0
  0
LINE
  5
1AAE
  8
1
 10
-1198.8286517784759
 20
1257.893783963015
 30
0.0
 11
-1198.8286517784759
 21
1255.393783963015
 31
0.0
  0
LINE
  5
1AAF
  8
1
 10
-1193.8286517784759
 20
1263.893783963015
 30
0.0
 11
-1186.7937469656019
 21
1263.7709892427431
 31
0.0
  0
LINE
  5
1AB0
  8
1
 10
-1193.8286517784759
 20
1261.393783963015
 30
0.0
 11
-1184.8286517784759
 21
1261.393783963015
 31
0.0
  0
LINE
  5
1AB1
  8
1
 10
-1197.328651778477
 20
1232.393783963015
 30
0.0
 11
-1197.328651778477
 21
1229.393783963015
 31
0.0
  0
LINE
  5
1AB2
  8
1
 10
-1197.328651778477
 20
1240.393783963015
 30
0.0
 11
-1197.328651778477
 21
1235.893783963015
 31
0.0
  0
LINE
  5
1AB3
  8
2
 10
-1196.8286517784759
 20
1229.893783963015
 30
0.0
 11
-1198.3286517784759
 21
1229.893783963015
 31
0.0
  0
LINE
  5
1AB4
  8
2
 10
-1196.8286517784759
 20
1228.893783963015
 30
0.0
 11
-1198.3286517784759
 21
1228.893783963015
 31
0.0
  0
LINE
  5
1AB5
  8
2
 10
-1198.3286517784759
 20
1229.893783963015
 30
0.0
 11
-1198.3286517784759
 21
1228.893783963015
 31
0.0
  0
LINE
  5
1AB6
  8
2
 10
-1198.3286517784759
 20
1240.893783963015
 30
0.0
 11
-1198.3286517784759
 21
1239.893783963015
 31
0.0
  0
LINE
  5
1AB7
  8
2
 10
-1196.8286517784759
 20
1243.893783963015
 30
0.0
 11
-1198.3286517784759
 21
1243.893783963015
 31
0.0
  0
LINE
  5
1AB8
  8
2
 10
-1196.8286517784759
 20
1242.893783963015
 30
0.0
 11
-1198.3286517784759
 21
1242.893783963015
 31
0.0
  0
LINE
  5
1AB9
  8
2
 10
-1196.8286517784759
 20
1240.893783963015
 30
0.0
 11
-1198.3286517784759
 21
1240.893783963015
 31
0.0
  0
LINE
  5
1ABA
  8
2
 10
-1198.3286517784759
 20
1243.893783963015
 30
0.0
 11
-1198.3286517784759
 21
1242.893783963015
 31
0.0
  0
LINE
  5
1ABB
  8
2
 10
-1196.8286517784759
 20
1239.893783963015
 30
0.0
 11
-1198.3286517784759
 21
1239.893783963015
 31
0.0
  0
LINE
  5
1ABC
  8
1
 10
-1193.8286517784759
 20
1243.893783963015
 30
0.0
 11
-1186.7937469656019
 21
1244.0165786832879
 31
0.0
  0
LINE
  5
1ABD
  8
1
 10
-1193.8286517784759
 20
1246.393783963015
 30
0.0
 11
-1184.8286517784759
 21
1246.393783963015
 31
0.0
  0
LINE
  5
1ABF
  8
1
 10
-1184.8286517784759
 20
1246.0162740736009
 30
0.0
 11
-1184.8286517784759
 21
1261.7712938524301
 31
0.0
  0
LINE
  5
1AC0
  8
1
 10
-1187.3286517784759
 20
1246.393783963015
 30
0.0
 11
-1187.3286517784759
 21
1261.393783963015
 31
0.0
  0
LINE
  5
1AC1
  8
2
 10
-1198.3286517784759
 20
1226.893783963015
 30
0.0
 11
-1198.3286517784759
 21
1225.893783963015
 31
0.0
  0
LINE
  5
1AC2
  8
2
 10
-1196.8286517784759
 20
1226.893783963015
 30
0.0
 11
-1198.3286517784759
 21
1226.893783963015
 31
0.0
  0
LINE
  5
1AC3
  8
2
 10
-1196.8286517784759
 20
1225.893783963015
 30
0.0
 11
-1198.3286517784759
 21
1225.893783963015
 31
0.0
  0
LINE
  5
1AC4
  8
1
 10
-1197.6286517784761
 20
1279.5937839630151
 30
0.0
 11
-1205.864185684409
 21
1279.5937839630151
 31
0.0
  0
CIRCLE
  5
1AC5
  8
1
 10
-1203.828651778477
 20
1271.893783963015
 30
0.0
 40
2.0
  0
CIRCLE
  5
1AC6
  8
1
 10
-1203.828651778477
 20
1271.893783963015
 30
0.0
 40
2.5
  0
CIRCLE
  5
1AC7
  8
1
 10
-1203.828651778477
 20
1271.893783963015
 30
0.0
 40
3.2500000000001128
  0
ARC
  5
1AC9
  8
2
 10
-1203.828651778477
 20
1271.893783963015
 30
0.0
 40
4.5
 50
141.78307670384029
 51
308.21692329616252
  0
CIRCLE
  5
1ACA
  8
1
 10
-1203.828651778477
 20
1271.893783963015
 30
0.0
 40
5.0
  0
LINE
  5
1ACB
  8
1
 10
-1205.864185684409
 20
1276.460686821385
 30
0.0
 11
-1205.864185684409
 21
1279.5937839630151
 31
0.0
  0
LINE
  5
1ACC
  8
2
 10
-1223.3286517784759
 20
1278.893783963015
 30
0.0
 11
-1223.3286517784759
 21
1277.393783963015
 31
0.0
  0
LINE
  5
1ACD
  8
1
 10
-1217.8286517784759
 20
1276.893783963015
 30
0.0
 11
-1220.3286517784759
 21
1276.893783963015
 31
0.0
  0
LINE
  5
1ACE
  8
1
 10
-1214.8286517784759
 20
1276.893783963015
 30
0.0
 11
-1217.8286517784759
 21
1276.893783963015
 31
0.0
  0
LINE
  5
1ACF
  8
2
 10
-1224.3286517784759
 20
1278.893783963015
 30
0.0
 11
-1224.3286517784759
 21
1277.393783963015
 31
0.0
  0
LINE
  5
1AD0
  8
2
 10
-1224.3286517784759
 20
1277.393783963015
 30
0.0
 11
-1223.3286517784759
 21
1277.393783963015
 31
0.0
  0
LINE
  5
1AD1
  8
1
 10
-1214.8286517784759
 20
1266.893783963015
 30
0.0
 11
-1214.8286517784759
 21
1269.393783963015
 31
0.0
  0
LINE
  5
1AD2
  8
1
 10
-1214.8286517784759
 20
1269.393783963015
 30
0.0
 11
-1217.8286517784759
 21
1269.393783963015
 31
0.0
  0
LINE
  5
1AD3
  8
1
 10
-1214.8286517784759
 20
1266.893783963015
 30
0.0
 11
-1217.8286517784759
 21
1266.893783963015
 31
0.0
  0
LINE
  5
1AD4
  8
1
 10
-1214.8286517784759
 20
1274.393783963015
 30
0.0
 11
-1217.8286517784759
 21
1274.393783963015
 31
0.0
  0
LINE
  5
1AD5
  8
1
 10
-1214.8286517784759
 20
1276.893783963015
 30
0.0
 11
-1214.8286517784759
 21
1274.393783963015
 31
0.0
  0
LINE
  5
1AD6
  8
2
 10
-1207.364185684409
 20
1274.6776661444269
 30
0.0
 11
-1207.364185684409
 21
1278.8937839630159
 31
0.0
  0
ARC
  5
1AD7
  8
1
 10
-1197.6286517784761
 20
1278.0937839630151
 30
0.0
 40
1.5
 50
0.0
 51
90.0
  0
ARC
  5
1AD8
  8
1
 10
-1197.328651778477
 20
1278.393783963015
 30
0.0
 40
3.0
 50
0.0
 51
90.0
  0
ARC
  5
1AD9
  8
2
 10
-1197.8286517784759
 20
1277.8937839630159
 30
0.0
 40
1.0
 50
0.0
 51
90.0
  0
LINE
  5
1ADC
  8
1
 10
-1199.2617489201079
 20
1269.8582500570831
 30
0.0
 11
-1196.128651778477
 21
1269.8582500570831
 31
0.0
  0
LINE
  5
1ADD
  8
2
 10
-1201.0447695970649
 20
1268.3582500570831
 30
0.0
 11
-1196.8286517784759
 21
1268.3582500570831
 31
0.0
  0
LINE
  5
1ADE
  8
1
 10
-1196.128651778477
 20
1269.8582500570831
 30
0.0
 11
-1196.1286517784761
 21
1278.0937839630151
 31
0.0
  0
LINE
  5
1AFC
  8
2
  6
CONTINUOUS
 10
-1393.35884671599
 20
1167.946141182327
 30
0.0
 11
-1393.35884671599
 21
1159.893783963015
 31
0.0
  0
LINE
  5
1AFD
  8
2
 10
-1207.3640732412659
 20
1159.893783963015
 30
0.0
 11
-1207.2984568409629
 21
1167.946141182327
 31
0.0
  0
LINE
  5
1AFE
  8
2
 10
-1517.123302731804
 20
1167.5937839630151
 30
0.0
 11
-1517.123302731804
 21
1165.193783963015
 31
0.0
  0
LINE
  5
1B01
  8
1
 10
-1673.9076205108261
 20
1432.1379865747051
 30
0.0
 11
-1780.4076205108261
 21
1432.1379865747051
 31
0.0
  0
LINE
  5
1B02
  8
1
 10
-1682.6576205108261
 20
1403.694908929104
 30
0.0
 11
-1780.4076205108261
 21
1403.6949089291129
 31
0.0
  0
LINE
  5
1B03
  8
1
 10
-1780.4076205108261
 20
1396.98960100627
 30
0.0
 11
-1688.1576205108261
 21
1396.989601006271
 31
0.0
  0
LINE
  5
1B04
  8
1
 10
-1688.6576205108261
 20
1394.1379865747051
 30
0.0
 11
-1780.4076205108261
 21
1394.1379865747051
 31
0.0
  0
LINE
  5
1B05
  8
1
 10
-1780.4076205108261
 20
1391.1379865747051
 30
0.0
 11
-1674.2107293191159
 21
1391.1379865747051
 31
0.0
  0
LINE
  5
1B06
  8
1
 10
-1674.4076205108261
 20
1353.1379865747051
 30
0.0
 11
-1780.4076205108261
 21
1353.1379865747051
 31
0.0
  0
LINE
  5
1B07
  8
1
 10
-1675.707620510826
 20
1435.1379865747051
 30
0.0
 11
-1780.4076205108261
 21
1435.1379865747051
 31
0.0
  0
LINE
  5
1B08
  8
1
 10
-1674.4076205108261
 20
1353.1379865747051
 30
0.0
 11
-1673.9076205108261
 21
1432.1379865747051
 31
0.0
  0
LINE
  5
1B09
  8
1
 10
-1686.1076205108261
 20
1345.1379865747051
 30
0.0
 11
-1700.3378055685009
 21
1345.1379865747051
 31
0.0
  0
LINE
  5
1B0A
  8
1
 10
-1676.5679799914001
 20
1353.1379865747051
 30
0.0
 11
-1676.707620510826
 21
1345.1379865747051
 31
0.0
  0
LINE
  5
1B0B
  8
1
 10
-1686.247261030252
 20
1353.1379865747051
 30
0.0
 11
-1686.1076205108261
 21
1345.1379865747051
 31
0.0
  0
LINE
  5
1B0C
  8
1
 10
-1676.707620510826
 20
1345.1379865747051
 30
0.0
 11
-1686.1076205108261
 21
1345.1379865747051
 31
0.0
  0
LINE
  5
1B0D
  8
1
 10
-1700.4076205108261
 20
1353.1379865747051
 30
0.0
 11
-1700.3378055685009
 21
1345.1379865747051
 31
0.0
  0
LINE
  5
1B0E
  8
1
 10
-1680.957620510826
 20
1403.6080890605811
 30
0.0
 11
-1680.6310793851719
 21
1391.1379865747051
 31
0.0
  0
LINE
  5
1B0F
  8
1
 10
-1686.9464919793641
 20
1398.068281527434
 30
0.0
 11
-1686.765015819281
 21
1391.1379865747051
 31
0.0
  0
LINE
  5
1B10
  8
1
 10
-1667.060416853936
 20
1410.1379865747051
 30
0.0
 11
-1673.9076205108261
 21
1410.1379865747051
 31
0.0
  0
LINE
  5
1B11
  8
1
 10
-1664.907620510827
 20
1429.6379865747051
 30
0.0
 11
-1671.9076205108261
 21
1429.6379865747051
 31
0.0
  0
ARC
  5
1B12
  8
1
 10
-1667.060416853936
 20
1412.1379865747051
 30
0.0
 40
2.0
 50
270.0
 51
359.5
  0
LINE
  5
1B13
  8
1
 10
-1665.060493007808
 20
1412.1205335037091
 30
0.0
 11
-1664.907620510827
 21
1429.6379865747051
 31
0.0
  0
LINE
  5
1B14
  8
1
 10
-1671.9076205108261
 20
1428.1379865747051
 30
0.0
 11
-1671.9076205108261
 21
1429.6379865747051
 31
0.0
  0
LINE
  5
1B15
  8
1
 10
-1671.9076205108261
 20
1428.1379865747051
 30
0.0
 11
-1673.932936966522
 21
1428.1379865747051
 31
0.0
  0
LINE
  5
1B16
  8
1
 10
-1682.1576205108261
 20
1403.6080890605811
 30
0.0
 11
-1682.1576205108261
 21
1399.294207787884
 31
0.0
  0
LINE
  5
1B17
  8
1
 10
-1688.1576205108261
 20
1397.98191475415
 30
0.0
 11
-1688.1576205108261
 21
1394.2248106635391
 31
0.0
  0
POLYLINE
  5
1B18
  8
1
 66
     1
 10
0.0
 20
0.0
 30
0.0
  0
VERTEX
  5
1DC7
  8
1
 10
-1688.6576205108261
 20
1394.137986574706
 30
0.0
 42
0.0179528718256618
  0
VERTEX
  5
1DC8
  8
1
 10
-1688.451152814878
 20
1394.145402341012
 30
0.0
 42
0.0250377148196745
  0
VERTEX
  5
1DC9
  8
1
 10
-1688.304067120233
 20
1394.1634167615539
 30
0.0
 42
0.0563179969730268
  0
VERTEX
  5
1DCA
  8
1
 10
-1688.172957766287
 20
1394.2017504374551
 30
0.0
 42
0.3021816287208285
  0
VERTEX
  5
1DCB
  8
1
 10
-1688.1576205108261
 20
1394.2248106635391
 30
0.0
 42
0.3021816287197159
  0
SEQEND
  5
1DCC
  8
1
  0
POLYLINE
  5
1B19
  8
1
 66
     1
 10
0.0
 20
0.0
 30
0.0
  0
VERTEX
  5
1DCD
  8
1
 10
-1688.6576205108261
 20
1394.137986574706
 30
0.0
 42
0.0052877851924635
  0
VERTEX
  5
1DCE
  8
1
 10
-1687.95364744416
 20
1394.1454316995921
 30
0.0
 42
0.007468947870235
  0
VERTEX
  5
1DCF
  8
1
 10
-1687.455538982809
 20
1394.163415525454
 30
0.0
 42
0.01791436931456
  0
VERTEX
  5
1DD0
  8
1
 10
-1686.974900779174
 20
1394.2052647529149
 30
0.0
 42
0.3787223311314991
  0
VERTEX
  5
1DD1
  8
1
 10
-1686.957620510826
 20
1394.2248064432281
 30
0.0
 42
0.3787223311281338
  0
SEQEND
  5
1DD2
  8
1
  0
POLYLINE
  5
1B1A
  8
1
 66
     1
 10
0.0
 20
0.0
 30
0.0
  0
VERTEX
  5
1DD3
  8
1
 10
-1682.6576205108261
 20
1398.9957948932231
 30
0.0
 42
0.0052877851924635
  0
VERTEX
  5
1DD4
  8
1
 10
-1681.95364744416
 20
1399.0032400181101
 30
0.0
 42
0.007468947870235
  0
VERTEX
  5
1DD5
  8
1
 10
-1681.455538982809
 20
1399.0212238439719
 30
0.0
 42
0.01791436931456
  0
VERTEX
  5
1DD6
  8
1
 10
-1680.9749007791729
 20
1399.0630730714331
 30
0.0
 42
0.3787223311314991
  0
VERTEX
  5
1DD7
  8
1
 10
-1680.957620510826
 20
1399.082614761747
 30
0.0
 42
0.3787223311281338
  0
SEQEND
  5
1DD8
  8
1
  0
POLYLINE
  5
1B1B
  8
1
 66
     1
 10
0.0
 20
0.0
 30
0.0
  0
VERTEX
  5
1DD9
  8
1
 10
-1682.6576205108261
 20
1399.2073872700739
 30
0.0
 42
0.0179528718256618
  0
VERTEX
  5
1DDA
  8
1
 10
-1682.451152814878
 20
1399.2148030363801
 30
0.0
 42
0.0250377148196745
  0
VERTEX
  5
1DDB
  8
1
 10
-1682.304067120233
 20
1399.2328174569229
 30
0.0
 42
0.0563179969730268
  0
VERTEX
  5
1DDC
  8
1
 10
-1682.1729577662879
 20
1399.271151132823
 30
0.0
 42
0.3021816287208285
  0
VERTEX
  5
1DDD
  8
1
 10
-1682.1576205108261
 20
1399.294211358907
 30
0.0
 42
0.3021816287197159
  0
SEQEND
  5
1DDE
  8
1
  0
POLYLINE
  5
1B1C
  8
1
 66
     1
 10
0.0
 20
0.0
 30
0.0
  0
VERTEX
  5
1DDF
  8
1
 10
-1686.957620510826
 20
1397.98191475415
 30
0.0
 42
-0.2625887210450227
  0
VERTEX
  5
1DE0
  8
1
 10
-1686.7931447561659
 20
1398.273501316293
 30
0.0
 42
-0.0747215099328401
  0
VERTEX
  5
1DE1
  8
1
 10
-1685.7714029746321
 20
1398.6988362757991
 30
0.0
 42
-0.03550843823257
  0
VERTEX
  5
1DE2
  8
1
 10
-1684.574560293684
 20
1398.9095996978749
 30
0.0
 42
-0.0258370627131203
  0
VERTEX
  5
1DE3
  8
1
 10
-1682.9076205108261
 20
1398.9957948932231
 30
0.0
 42
-0.0258370627130968
  0
SEQEND
  5
1DE4
  8
1
  0
POLYLINE
  5
1B1D
  8
1
 66
     1
 10
0.0
 20
0.0
 30
0.0
  0
VERTEX
  5
1DE5
  8
1
 10
-1688.1576205108261
 20
1397.98191475415
 30
0.0
 42
-0.2707443478876268
  0
VERTEX
  5
1DE6
  8
1
 10
-1687.954970475693
 20
1398.3287276830449
 30
0.0
 42
-0.0710836476602074
  0
VERTEX
  5
1DE7
  8
1
 10
-1686.6199311120561
 20
1398.848454680317
 30
0.0
 42
-0.0332446860458197
  0
VERTEX
  5
1DE8
  8
1
 10
-1685.0702295567539
 20
1399.1030822629821
 30
0.0
 42
-0.02410154025602
  0
VERTEX
  5
1DE9
  8
1
 10
-1682.9076205108261
 20
1399.2073872700739
 30
0.0
 42
-0.0241015402560213
  0
SEQEND
  5
1DEA
  8
1
  0
LINE
  5
1B1E
  8
1
 10
-1682.6576205108261
 20
1399.2073872700739
 30
0.0
 11
-1682.9076205108261
 21
1399.2073872700739
 31
0.0
  0
LINE
  5
1B1F
  8
1
 10
-1682.6576205108261
 20
1398.9957948932231
 30
0.0
 11
-1682.9076205108261
 21
1398.9957948932231
 31
0.0
  0
POLYLINE
  5
1B20
  8
1
 66
     1
 10
0.0
 20
0.0
 30
0.0
  0
VERTEX
  5
1DEB
  8
1
 10
-1682.6576205108261
 20
1403.694908929104
 30
0.0
 42
-0.0179528718256618
  0
VERTEX
  5
1DEC
  8
1
 10
-1682.451152814878
 20
1403.6874931627981
 30
0.0
 42
-0.0250377148196745
  0
VERTEX
  5
1DED
  8
1
 10
-1682.304067120233
 20
1403.669478742255
 30
0.0
 42
-0.0563179969730268
  0
VERTEX
  5
1DEE
  8
1
 10
-1682.1729577662879
 20
1403.631145066355
 30
0.0
 42
-0.3021816287208285
  0
VERTEX
  5
1DEF
  8
1
 10
-1682.1576205108261
 20
1403.608084840271
 30
0.0
 42
-0.3021816287197159
  0
SEQEND
  5
1DF0
  8
1
  0
POLYLINE
  5
1B21
  8
1
 66
     1
 10
0.0
 20
0.0
 30
0.0
  0
VERTEX
  5
1DF1
  8
1
 10
-1682.6576205108261
 20
1403.694908929104
 30
0.0
 42
-0.0052877851924635
  0
VERTEX
  5
1DF2
  8
1
 10
-1681.95364744416
 20
1403.6874638042179
 30
0.0
 42
-0.007468947870235
  0
VERTEX
  5
1DF3
  8
1
 10
-1681.455538982809
 20
1403.6694799783561
 30
0.0
 42
-0.01791436931456
  0
VERTEX
  5
1DF4
  8
1
 10
-1680.9749007791729
 20
1403.6276307508949
 30
0.0
 42
-0.3787223311314991
  0
VERTEX
  5
1DF5
  8
1
 10
-1680.957620510826
 20
1403.6080890605811
 30
0.0
 42
-0.3787223311281338
  0
SEQEND
  5
1DF6
  8
1
  0
LINE
  5
1B22
  8
1
 10
-1728.361141637587
 20
1394.1379865747051
 30
0.0
 11
-1728.365157995941
 21
1396.989601006271
 31
0.0
  0
LINE
  5
1B23
  8
1
 10
-1703.361141637587
 20
1394.1379865747051
 30
0.0
 11
-1703.365157995941
 21
1396.989601006271
 31
0.0
  0
LINE
  5
1B24
  8
1
 10
-1704.454099384066
 20
1394.1379865747051
 30
0.0
 11
-1704.4500830257109
 21
1396.989601006271
 31
0.0
  0
LINE
  5
1B25
  8
1
 10
-1706.361141637587
 20
1394.1379865747051
 30
0.0
 11
-1706.365157995941
 21
1396.989601006271
 31
0.0
  0
LINE
  5
1B26
  8
1
 10
-1707.454099384066
 20
1394.137986574706
 30
0.0
 11
-1707.450083025712
 21
1396.989601006271
 31
0.0
  0
LINE
  5
1B27
  8
1
 10
-1753.3611416375859
 20
1394.1379865747051
 30
0.0
 11
-1753.365157995941
 21
1396.989601006271
 31
0.0
  0
LINE
  5
1B28
  8
1
 10
-1754.454099384066
 20
1394.1379865747051
 30
0.0
 11
-1754.4500830257109
 21
1396.989601006271
 31
0.0
  0
LINE
  5
1B29
  8
1
 10
-1756.361141637587
 20
1394.1379865747051
 30
0.0
 11
-1756.365157995941
 21
1396.989601006271
 31
0.0
  0
LINE
  5
1B2A
  8
1
 10
-1757.454099384066
 20
1394.1379865747051
 30
0.0
 11
-1757.4500830257109
 21
1396.989601006271
 31
0.0
  0
LINE
  5
1B2B
  8
1
 10
-1731.361141637587
 20
1394.1379865747051
 30
0.0
 11
-1731.365157995941
 21
1396.989601006271
 31
0.0
  0
LINE
  5
1B2C
  8
1
 10
-1732.454099384066
 20
1394.137986574706
 30
0.0
 11
-1732.4500830257109
 21
1396.989601006271
 31
0.0
  0
LINE
  5
1B2D
  8
1
 10
-1729.4540993840651
 20
1394.137986574706
 30
0.0
 11
-1729.4500830257109
 21
1396.989601006271
 31
0.0
  0
LINE
  5
1B2E
  8
1
 10
-1675.707620510826
 20
1435.1379865747051
 30
0.0
 11
-1675.629062746119
 21
1432.1379865747051
 31
0.0
  0
LINE
  5
1B2F
  8
1
 10
-1777.1576205108261
 20
1350.637986574706
 30
0.0
 11
-1780.4076205108261
 21
1350.6379865747051
 31
0.0
  0
LINE
  5
1B30
  8
1
 10
-1775.407620510827
 20
1352.1379865747051
 30
0.0
 11
-1780.4076205108261
 21
1352.1379865747051
 31
0.0
  0
LINE
  5
1B31
  8
1
 10
-1775.407620510827
 20
1353.1379865747051
 30
0.0
 11
-1775.407620510827
 21
1352.1379865747051
 31
0.0
  0
LINE
  5
1B32
  8
1
 10
-1772.1576205108261
 20
1352.1379865747051
 30
0.0
 11
-1772.1576205108261
 21
1353.1379865747051
 31
0.0
  0
LINE
  5
1B33
  8
1
 10
-1777.1576205108261
 20
1352.1379865747051
 30
0.0
 11
-1777.1576205108261
 21
1350.637986574706
 31
0.0
  0
LINE
  5
1B34
  8
1
 10
-1775.407620510827
 20
1352.1379865747051
 30
0.0
 11
-1772.1576205108261
 21
1352.1379865747051
 31
0.0
  0
LINE
  5
1B35
  8
1
 10
-1776.6576205108261
 20
1349.1379865747051
 30
0.0
 11
-1774.1576205108261
 21
1349.1379865747051
 31
0.0
  0
ARC
  5
1B36
  8
1
 10
-1774.1576205108261
 20
1350.1379865747051
 30
0.0
 40
1.0
 50
270.00000000000028
 51
0.000000000000007
  0
LINE
  5
1B37
  8
1
 10
-1773.157620510827
 20
1350.1379865747051
 30
0.0
 11
-1773.157620510827
 21
1352.1379865747051
 31
0.0
  0
LINE
  5
1B38
  8
1
 10
-1777.6576205108261
 20
1350.1379865747051
 30
0.0
 11
-1777.6576205108261
 21
1350.637986574706
 31
0.0
  0
ARC
  5
1B39
  8
1
 10
-1776.6576205108261
 20
1350.1379865747051
 30
0.0
 40
1.0
 50
180.0
 51
270.0
  0
LINE
  5
1B3A
  8
1
 10
-1778.361141637587
 20
1394.1379865747051
 30
0.0
 11
-1778.365157995941
 21
1396.989601006271
 31
0.0
  0
LINE
  5
1B3B
  8
1
 10
-1779.4540993840651
 20
1394.1379865747051
 30
0.0
 11
-1779.4500830257109
 21
1396.989601006271
 31
0.0
  0
LINE
  5
1B3C
  8
1
 10
-1979.1919382898479
 20
1280.893783963015
 30
0.0
 11
-1979.1919382898479
 21
1096.590675154725
 31
0.0
  0
LINE
  5
1B3D
  8
1
 10
-2061.1919382898482
 20
1279.5937839630151
 30
0.0
 11
-2061.1919382898482
 21
1209.393783963015
 31
0.0
  0
LINE
  5
1B3E
  8
1
 10
-2058.1919382898482
 20
1281.393783963015
 30
0.0
 11
-2058.1919382898482
 21
1156.393783963015
 31
0.0
  0
LINE
  5
1B3F
  8
1
 10
-1979.1919382898479
 20
1096.590675154725
 30
0.0
 11
-2017.1919382898491
 21
1096.393783963015
 31
0.0
  0
LINE
  5
1B40
  8
1
 10
-1971.1919382898479
 20
1118.3937839630159
 30
0.0
 11
-1971.1919382898479
 21
1099.3937839630159
 31
0.0
  0
LINE
  5
1B41
  8
1
 10
-1971.1919382898479
 20
1099.3937839630159
 30
0.0
 11
-1979.1919382898479
 21
1099.25414344359
 31
0.0
  0
LINE
  5
1B42
  8
1
 10
-1971.1919382898479
 20
1118.3937839630159
 30
0.0
 11
-1979.1919382898479
 21
1118.5334244824419
 31
0.0
  0
LINE
  5
1B43
  8
1
 10
-1977.6919382898479
 20
1206.393783963018
 30
0.0
 11
-1979.1919382898491
 21
1207.8937839630189
 31
0.0
  0
ARC
  5
1B44
  8
1
 10
-1972.6919382898491
 20
1189.393783963015
 30
0.0
 40
1.0
 50
269.99999999999909
 51
359.99999999999488
  0
LINE
  5
1B45
  8
1
 10
-1979.1919382898491
 20
1190.143783963005
 30
0.0
 11
-1973.6919382898491
 21
1190.143783963005
 31
0.0
  0
LINE
  5
1B46
  8
1
 10
-1979.1919382898491
 20
1188.3937839630159
 30
0.0
 11
-1972.6919382898491
 21
1188.393783963015
 31
0.0
  0
LINE
  5
1B47
  8
1
 10
-1977.6919382898479
 20
1204.893783963018
 30
0.0
 11
-1977.6919382898479
 21
1206.393783963018
 31
0.0
  0
ARC
  5
1B48
  8
1
 10
-1972.6919382898479
 20
1198.893783963015
 30
0.0
 40
1.0
 50
359.99999999999551
 51
90.000000000000028
  0
LINE
  5
1B49
  8
1
 10
-1979.1919382898491
 20
1204.893783963018
 30
0.0
 11
-1977.6919382898479
 21
1204.893783963018
 31
0.0
  0
LINE
  5
1B4A
  8
1
 10
-1979.1919382898479
 20
1199.893783963015
 30
0.0
 11
-1972.6919382898479
 21
1199.893783963015
 31
0.0
  0
LINE
  5
1B4B
  8
1
 10
-1971.6919382898479
 20
1198.893783963015
 30
0.0
 11
-1971.6919382898491
 21
1189.393783963015
 31
0.0
  0
LINE
  5
1B4C
  8
1
 10
-1973.6919382898479
 20
1199.893783963015
 30
0.0
 11
-1973.6919382898491
 21
1190.143783963005
 31
0.0
  0
LINE
  5
1B4D
  8
1
 10
-2020.1919382898479
 20
1098.1937839630159
 30
0.0
 11
-2029.7488606442471
 21
1152.393783963015
 31
0.0
  0
LINE
  5
1B4E
  8
1
 10
-2017.1919382898491
 20
1156.090675154725
 30
0.0
 11
-2017.1919382898491
 21
1096.3937839630159
 31
0.0
  0
LINE
  5
1B4F
  8
1
 10
-2020.1919382898479
 20
1098.1937839630159
 30
0.0
 11
-2017.1919382898491
 21
1098.1152261983079
 31
0.0
  0
LINE
  5
1B50
  8
1
 10
-2026.319300869468
 20
1132.9437839630159
 30
0.0
 11
-2017.1919382898491
 21
1132.7047755623721
 31
0.0
  0
LINE
  5
1B51
  8
1
 10
-2008.6919382898491
 20
1125.8937839630159
 30
0.0
 11
-2011.6919382898479
 21
1125.8937839630159
 31
0.0
  0
LINE
  5
1B52
  8
1
 10
-2008.6919382898491
 20
1127.8937839630159
 30
0.0
 11
-2011.6919382898479
 21
1127.8937839630159
 31
0.0
  0
LINE
  5
1B53
  8
1
 10
-2012.1919382898479
 20
1127.3937839630159
 30
0.0
 11
-2012.1919382898479
 21
1126.3937839630159
 31
0.0
  0
LINE
  5
1B54
  8
1
 10
-2008.1919382898479
 20
1127.3937839630159
 30
0.0
 11
-2008.1919382898479
 21
1126.3937839630159
 31
0.0
  0
ARC
  5
1B55
  8
1
 10
-2011.6919382898479
 20
1127.3937839630159
 30
0.0
 40
0.5
 50
90.000000000002359
 51
180.0
  0
ARC
  5
1B56
  8
1
 10
-2011.6919382898479
 20
1126.3937839630159
 30
0.0
 40
0.5
 50
180.0
 51
270.0000000000008
  0
ARC
  5
1B57
  8
1
 10
-2008.6919382898491
 20
1126.3937839630159
 30
0.0
 40
0.5
 50
270.00000000000091
 51
0.000000000000007
  0
ARC
  5
1B58
  8
1
 10
-2008.6919382898491
 20
1127.3937839630159
 30
0.0
 40
0.5
 50
0.000000000000007
 51
90.000000000001876
  0
LINE
  5
1B59
  8
1
 10
-2055.6919382898482
 20
1194.393783963015
 30
0.0
 11
-2038.1919382898479
 21
1194.393783963015
 31
0.0
  0
LINE
  5
1B5A
  8
1
 10
-2038.1744852188519
 20
1174.546656459996
 30
0.0
 11
-2055.6919382898482
 21
1174.393783963015
 31
0.0
  0
LINE
  5
1B5B
  8
1
 10
-2025.6908987599959
 20
1156.1347112193371
 30
0.0
 11
-2058.1919382898482
 21
1156.393783963015
 31
0.0
  0
LINE
  5
1B5C
  8
1
 10
-2044.1919382898491
 20
1176.8937839630159
 30
0.0
 11
-2044.1919382898491
 21
1191.893783963015
 31
0.0
  0
LINE
  5
1B5D
  8
1
 10
-2017.1919382898491
 20
1156.090675154725
 30
0.0
 11
-2025.6908987599959
 21
1156.1347112193371
 31
0.0
  0
LINE
  5
1B5E
  8
1
 10
-2026.7488606442471
 20
1153.6723417277231
 30
0.0
 11
-2017.1919382898491
 21
1153.9225985469379
 31
0.0
  0
LINE
  5
1B5F
  8
1
 10
-2036.1919382898491
 20
1176.893783963015
 30
0.0
 11
-2044.1919382898491
 21
1176.893783963015
 31
0.0
  0
LINE
  5
1B60
  8
1
 10
-2036.1919382898491
 20
1176.546580306125
 30
0.0
 11
-2036.1919382898491
 21
1176.893783963015
 31
0.0
  0
ARC
  5
1B61
  8
1
 10
-2038.1919382898491
 20
1176.546580306125
 30
0.0
 40
2.0
 50
270.49999999999972
 51
0.000000000000007
  0
LINE
  5
1B62
  8
1
 10
-2026.7488606442471
 20
1153.6723417277231
 30
0.0
 11
-2026.7488606442471
 21
1156.1347112193371
 31
0.0
  0
LINE
  5
1B63
  8
1
 10
-2029.7488606442471
 20
1153.5937839630151
 30
0.0
 11
-2026.7488606442471
 21
1153.6723417277231
 31
0.0
  0
LINE
  5
1B64
  8
1
 10
-2029.7488606442471
 20
1153.5937839630151
 30
0.0
 11
-2029.7488606442471
 21
1152.393783963015
 31
0.0
  0
LINE
  5
1B65
  8
1
 10
-2036.1919382898491
 20
1191.893783963015
 30
0.0
 11
-2044.1919382898491
 21
1191.893783963015
 31
0.0
  0
ARC
  5
1B66
  8
1
 10
-2038.1919382898479
 20
1192.393783963015
 30
0.0
 40
2.0
 50
359.99999999998261
 51
89.999999999999673
  0
LINE
  5
1B67
  8
1
 10
-2036.1919382898491
 20
1191.893783963015
 30
0.0
 11
-2036.1919382898491
 21
1192.3937839630139
 31
0.0
  0
LINE
  5
1B68
  8
1
 10
-2061.1919382898482
 20
1158.193783963015
 30
0.0
 11
-2061.1919382898482
 21
1209.393783963015
 31
0.0
  0
LINE
  5
1B69
  8
1
 10
-2054.1919382898482
 20
1176.8937839630159
 30
0.0
 11
-2054.1919382898482
 21
1191.893783963015
 31
0.0
  0
LINE
  5
1B6A
  8
1
 10
-2061.1919382898482
 20
1158.193783963015
 30
0.0
 11
-2058.1919382898482
 21
1158.1152261983079
 31
0.0
  0
LINE
  5
1B6B
  8
1
 10
-2054.1919382898482
 20
1176.893783963015
 30
0.0
 11
-2055.6919382898482
 21
1176.893783963015
 31
0.0
  0
LINE
  5
1B6C
  8
1
 10
-2055.6919382898482
 20
1174.393783963015
 30
0.0
 11
-2055.6919382898482
 21
1176.8937839630159
 31
0.0
  0
LINE
  5
1B6D
  8
1
 10
-2054.1919382898482
 20
1191.893783963015
 30
0.0
 11
-2055.6919382898482
 21
1191.893783963015
 31
0.0
  0
LINE
  5
1B6E
  8
1
 10
-2055.6919382898482
 20
1191.893783963015
 30
0.0
 11
-2055.6919382898482
 21
1194.393783963015
 31
0.0
  0
LINE
  5
1B6F
  8
1
 10
-1979.1919382898479
 20
1280.893783963015
 30
0.0
 11
-2058.1919382898482
 21
1281.393783963015
 31
0.0
  0
LINE
  5
1B70
  8
1
 10
-1977.6919382898479
 20
1232.893783963018
 30
0.0
 11
-1977.6919382898479
 21
1231.393783963018
 31
0.0
  0
LINE
  5
1B71
  8
1
 10
-1976.9806134244441
 20
1236.893783963015
 30
0.0
 11
-1976.1145880206591
 21
1235.393783963015
 31
0.0
  0
LINE
  5
1B72
  8
1
 10
-1976.1145880206591
 20
1235.393783963015
 30
0.0
 11
-1975.6145880206591
 21
1235.393783963015
 31
0.0
  0
LINE
  5
1B73
  8
1
 10
-1979.1919382898491
 20
1232.893783963018
 30
0.0
 11
-1977.6919382898479
 21
1232.893783963018
 31
0.0
  0
LINE
  5
1B74
  8
1
 10
-1977.6919382898479
 20
1231.393783963018
 30
0.0
 11
-1979.1919382898491
 21
1229.893783963018
 31
0.0
  0
LINE
  5
1B75
  8
1
 10
-1979.1919382898491
 20
1236.893783963015
 30
0.0
 11
-1976.9806134244441
 21
1236.893783963015
 31
0.0
  0
LINE
  5
1B76
  8
1
 10
-1971.6919382898491
 20
1239.893783963015
 30
0.0
 11
-1971.6919382898491
 21
1237.6585268410349
 31
0.0
  0
LINE
  5
1B77
  8
1
 10
-1979.1919382898491
 20
1239.893783963015
 30
0.0
 11
-1971.6919382898491
 21
1239.893783963015
 31
0.0
  0
LINE
  5
1B78
  8
1
 10
-1975.6145880206591
 20
1235.393783963015
 30
0.0
 11
-1971.6919382898491
 21
1237.6585268410349
 31
0.0
  0
LINE
  5
1B79
  8
1
 10
-1979.1919382898479
 20
1254.893783963015
 30
0.0
 11
-1971.1919382898479
 21
1254.9635989053411
 31
0.0
  0
LINE
  5
1B7A
  8
1
 10
-1979.1919382898479
 20
1257.393783963015
 30
0.0
 11
-1971.192242905335
 21
1257.3239716790281
 31
0.0
  0
LINE
  5
1B7B
  8
1
 10
-1978.1919382898491
 20
1260.393783963015
 30
0.0
 11
-1979.1919382898479
 21
1260.393783963015
 31
0.0
  0
LINE
  5
1B7C
  8
1
 10
-1979.1919382898479
 20
1266.393783963015
 30
0.0
 11
-1978.1919382898491
 21
1266.393783963015
 31
0.0
  0
LINE
  5
1B7D
  8
1
 10
-1978.1919382898491
 20
1260.393783963015
 30
0.0
 11
-1978.1919382898491
 21
1257.3850570952241
 31
0.0
  0
LINE
  5
1B7E
  8
1
 10
-1976.6919382898491
 20
1274.643783963015
 30
0.0
 11
-1976.6919382898491
 21
1268.143783963015
 31
0.0
  0
LINE
  5
1B7F
  8
1
 10
-1978.1919382898491
 20
1274.643783963015
 30
0.0
 11
-1976.6919382898491
 21
1274.643783963015
 31
0.0
  0
LINE
  5
1B80
  8
1
 10
-1979.1919382898479
 20
1276.393783963015
 30
0.0
 11
-1978.1919382898491
 21
1276.393783963015
 31
0.0
  0
LINE
  5
1B81
  8
1
 10
-1979.1919382898479
 20
1276.393783963015
 30
0.0
 11
-1971.1919382898479
 21
1276.323969020689
 31
0.0
  0
LINE
  5
1B82
  8
1
 10
-1978.1919382898491
 20
1268.143783963015
 30
0.0
 11
-1976.6919382898491
 21
1268.143783963015
 31
0.0
  0
LINE
  5
1B83
  8
1
 10
-1978.1919382898491
 20
1276.393783963015
 30
0.0
 11
-1978.1919382898491
 21
1266.393783963015
 31
0.0
  0
LINE
  5
1B84
  8
1
 10
-1971.1919382898479
 20
1276.323969020689
 30
0.0
 11
-1971.1919382898479
 21
1254.9635989053411
 31
0.0
  0
LINE
  5
1B85
  8
1
 10
-2038.1744852188519
 20
1263.240911466034
 30
0.0
 11
-2055.6919382898482
 21
1263.3937839630159
 31
0.0
  0
LINE
  5
1B86
  8
1
 10
-2055.6919382898482
 20
1243.393783963015
 30
0.0
 11
-2038.1919382898479
 21
1243.3937839630159
 31
0.0
  0
LINE
  5
1B87
  8
1
 10
-2044.1919382898491
 20
1260.893783963015
 30
0.0
 11
-2044.1919382898491
 21
1245.893783963015
 31
0.0
  0
LINE
  5
1B88
  8
1
 10
-2036.1919382898491
 20
1245.893783963015
 30
0.0
 11
-2044.1919382898491
 21
1245.893783963015
 31
0.0
  0
ARC
  5
1B89
  8
1
 10
-2038.1919382898479
 20
1245.3937839630159
 30
0.0
 40
2.0
 50
270.00000000000028
 51
0.000000000017411
  0
LINE
  5
1B8A
  8
1
 10
-2036.1919382898491
 20
1245.893783963015
 30
0.0
 11
-2036.1919382898491
 21
1245.3937839630159
 31
0.0
  0
LINE
  5
1B8B
  8
1
 10
-2036.1919382898491
 20
1260.8937839630159
 30
0.0
 11
-2044.1919382898491
 21
1260.8937839630159
 31
0.0
  0
ARC
  5
1B8C
  8
1
 10
-2038.1919382898491
 20
1261.240987619906
 30
0.0
 40
2.0
 50
0.000000000000007
 51
89.500000000000256
  0
LINE
  5
1B8D
  8
1
 10
-2036.1919382898491
 20
1261.240987619906
 30
0.0
 11
-2036.1919382898491
 21
1260.893783963015
 31
0.0
  0
LINE
  5
1B8E
  8
1
 10
-2054.1919382898482
 20
1260.893783963015
 30
0.0
 11
-2054.1919382898482
 21
1245.893783963015
 31
0.0
  0
LINE
  5
1B8F
  8
1
 10
-2054.1919382898482
 20
1245.893783963015
 30
0.0
 11
-2055.6919382898482
 21
1245.893783963015
 31
0.0
  0
LINE
  5
1B90
  8
1
 10
-2055.6919382898482
 20
1245.893783963015
 30
0.0
 11
-2055.6919382898482
 21
1243.393783963015
 31
0.0
  0
LINE
  5
1B91
  8
1
 10
-2061.1919382898482
 20
1279.5937839630151
 30
0.0
 11
-2058.1919382898482
 21
1279.6723417277231
 31
0.0
  0
LINE
  5
1B92
  8
1
 10
-2054.1919382898482
 20
1260.8937839630159
 30
0.0
 11
-2055.6919382898482
 21
1260.8937839630159
 31
0.0
  0
LINE
  5
1B93
  8
1
 10
-2055.6919382898482
 20
1263.3937839630159
 30
0.0
 11
-2055.6919382898482
 21
1260.893783963015
 31
0.0
  0
LINE
  5
1B94
  8
1
 10
-1885.107620510825
 20
922.13192037322904
 30
0.0
 11
-1780.4076205108261
 21
922.13192037322904
 31
0.0
  0
LINE
  5
1B95
  8
1
 10
-1886.4076205108249
 20
1004.131920373229
 30
0.0
 11
-1780.4076205108261
 21
1004.131920373229
 31
0.0
  0
LINE
  5
1B9A
  8
1
 10
-1886.9076205108249
 20
925.13192037322915
 30
0.0
 11
-1780.4076205108261
 21
925.13192037322915
 31
0.0
  0
LINE
  5
1B9B
  8
1
 10
-1886.4076205108249
 20
1004.131920373229
 30
0.0
 11
-1886.9076205108249
 21
925.13192037322915
 31
0.0
  0
LINE
  5
1B9C
  8
1
 10
-1874.707620510826
 20
1012.131920373229
 30
0.0
 11
-1860.477435453151
 21
1012.131920373229
 31
0.0
  0
LINE
  5
1B9D
  8
1
 10
-1884.1076205108261
 20
1012.131920373229
 30
0.0
 11
-1874.707620510826
 21
1012.131920373229
 31
0.0
  0
LINE
  5
1B9E
  8
1
 10
-1874.5679799914001
 20
1004.131920373229
 30
0.0
 11
-1874.707620510826
 21
1012.131920373229
 31
0.0
  0
LINE
  5
1B9F
  8
1
 10
-1884.247261030252
 20
1004.131920373229
 30
0.0
 11
-1884.1076205108261
 21
1012.131920373229
 31
0.0
  0
LINE
  5
1BA0
  8
1
 10
-1860.4076205108261
 20
1004.131920373229
 30
0.0
 11
-1860.477435453151
 21
1012.131920373229
 31
0.0
  0
LINE
  5
1BAF
  8
1
 10
-1895.9076205108249
 20
927.63192037322915
 30
0.0
 11
-1888.9076205108261
 21
927.63192037322915
 31
0.0
  0
LINE
  5
1BB0
  8
1
 10
-1893.7548241677159
 20
947.13192037322904
 30
0.0
 11
-1886.9076205108249
 21
947.13192037322904
 31
0.0
  0
LINE
  5
1BB1
  8
1
 10
-1895.7547480138439
 20
945.14937344422594
 30
0.0
 11
-1895.9076205108249
 21
927.63192037322915
 31
0.0
  0
ARC
  5
1BB2
  8
1
 10
-1893.7548241677159
 20
945.13192037322915
 30
0.0
 40
2.0
 50
90.000000000000028
 51
179.5
  0
LINE
  5
1BB3
  8
1
 10
-1885.107620510825
 20
922.13192037322904
 30
0.0
 11
-1885.1861782755329
 21
925.13192037322915
 31
0.0
  0
LINE
  5
1BB4
  8
1
 10
-1888.9076205108261
 20
929.13192037322915
 30
0.0
 11
-1886.882304055129
 21
929.13192037322915
 31
0.0
  0
LINE
  5
1BB5
  8
1
 10
-1888.9076205108261
 20
929.13192037322915
 30
0.0
 11
-1888.9076205108261
 21
927.63192037322915
 31
0.0
  0
LINE
  5
1BC2
  8
1
 10
-1674.4076205108261
 20
1004.131920373229
 30
0.0
 11
-1673.9076205108261
 21
925.13192037322915
 31
0.0
  0
LINE
  5
1BC3
  8
1
 10
-1674.4076205108261
 20
1004.131920373229
 30
0.0
 11
-1780.4076205108261
 21
1004.131920373229
 31
0.0
  0
LINE
  5
1BC4
  8
1
 10
-1676.707620510826
 20
1012.131920373229
 30
0.0
 11
-1686.1076205108261
 21
1012.131920373229
 31
0.0
  0
ARC
  5
1BC6
  8
1
 10
-1774.1576205108261
 20
1007.131920373229
 30
0.0
 40
1.0
 50
0.0
 51
89.999999999999659
  0
ARC
  5
1BC7
  8
1
 10
-1784.1576205108249
 20
1007.131920373229
 30
0.0
 40
1.0
 50
0.0
 51
90.000000000000028
  0
LINE
  5
1BC8
  8
1
 10
-1783.1576205108249
 20
1007.131920373229
 30
0.0
 11
-1783.1576205108249
 21
1006.631920373229
 31
0.0
  0
LINE
  5
1BC9
  8
1
 10
-1787.6576205108249
 20
1007.131920373229
 30
0.0
 11
-1787.6576205108249
 21
1005.131920373229
 31
0.0
  0
ARC
  5
1BCA
  8
1
 10
-1786.6576205108249
 20
1007.131920373229
 30
0.0
 40
1.0
 50
90.000000000000355
 51
180.0
  0
LINE
  5
1BCB
  8
1
 10
-1784.1576205108249
 20
1008.131920373229
 30
0.0
 11
-1786.6576205108249
 21
1008.131920373229
 31
0.0
  0
LINE
  5
1BCC
  8
1
 10
-1772.157620510827
 20
1005.131920373229
 30
0.0
 11
-1788.6576205108249
 21
1005.131920373229
 31
0.0
  0
LINE
  5
1BCE
  8
1
 10
-1788.6576205108249
 20
1005.131920373229
 30
0.0
 11
-1788.6576205108249
 21
1004.131920373229
 31
0.0
  0
LINE
  5
1BD1
  8
1
 10
-1783.1576205108249
 20
1006.631920373229
 30
0.0
 11
-1777.6576205108261
 21
1006.631920373229
 31
0.0
  0
LINE
  5
1BD6
  8
1
 10
-1776.6576205108261
 20
1008.131920373229
 30
0.0
 11
-1774.1576205108261
 21
1008.131920373229
 31
0.0
  0
LINE
  5
1BD7
  8
1
 10
-1777.6576205108261
 20
1007.131920373229
 30
0.0
 11
-1777.6576205108261
 21
1006.631920373229
 31
0.0
  0
ARC
  5
1BD8
  8
1
 10
-1776.6576205108261
 20
1007.131920373229
 30
0.0
 40
1.0
 50
90.000000000000028
 51
180.0
  0
LINE
  5
1BD9
  8
1
 10
-1772.1576205108261
 20
1005.131920373229
 30
0.0
 11
-1772.1576205108261
 21
1004.131920373229
 31
0.0
  0
LINE
  5
1BDA
  8
1
 10
-1773.157620510827
 20
1007.131920373229
 30
0.0
 11
-1773.157620510827
 21
1005.131920373229
 31
0.0
  0
LINE
  5
1BDB
  8
1
 10
-1686.1076205108261
 20
1012.131920373229
 30
0.0
 11
-1700.3378055685009
 21
1012.131920373229
 31
0.0
  0
LINE
  5
1BDC
  8
1
 10
-1686.247261030252
 20
1004.131920373229
 30
0.0
 11
-1686.1076205108261
 21
1012.131920373229
 31
0.0
  0
LINE
  5
1BDD
  8
1
 10
-1700.4076205108261
 20
1004.131920373229
 30
0.0
 11
-1700.3378055685009
 21
1012.131920373229
 31
0.0
  0
LINE
  5
1BDE
  8
1
 10
-1676.5679799914001
 20
1004.131920373229
 30
0.0
 11
-1676.707620510826
 21
1012.131920373229
 31
0.0
  0
LINE
  5
1BDF
  8
1
 10
-1673.9076205108261
 20
925.13192037322915
 30
0.0
 11
-1780.4076205108261
 21
925.13192037322915
 31
0.0
  0
LINE
  5
1BE0
  8
1
 10
-1675.707620510826
 20
922.13192037322904
 30
0.0
 11
-1780.4076205108261
 21
922.13192037322904
 31
0.0
  0
LINE
  5
1C03
  8
1
 10
-1675.707620510826
 20
922.13192037322904
 30
0.0
 11
-1675.629062746119
 21
925.13192037322915
 31
0.0
  0
LINE
  5
1C04
  8
1
 10
-1667.060416853936
 20
947.13192037322904
 30
0.0
 11
-1673.9076205108261
 21
947.13192037322904
 31
0.0
  0
LINE
  5
1C05
  8
1
 10
-1664.907620510827
 20
927.63192037322915
 30
0.0
 11
-1671.9076205108261
 21
927.63192037322915
 31
0.0
  0
ARC
  5
1C06
  8
1
 10
-1667.060416853936
 20
945.13192037322915
 30
0.0
 40
2.0
 50
0.499999999999932
 51
90.000000000000028
  0
LINE
  5
1C07
  8
1
 10
-1665.060493007808
 20
945.14937344422594
 30
0.0
 11
-1664.907620510827
 21
927.63192037322915
 31
0.0
  0
LINE
  5
1C08
  8
1
 10
-1671.9076205108261
 20
929.13192037322915
 30
0.0
 11
-1671.9076205108261
 21
927.63192037322915
 31
0.0
  0
LINE
  5
1C09
  8
1
 10
-1671.9076205108261
 20
929.13192037322915
 30
0.0
 11
-1673.932936966522
 21
929.13192037322915
 31
0.0
  0
TEXT
  5
1CC4
  8
2
 62
     7
 10
-1597.0326492004799
 20
1344.362434008729
 30
0.0
 40
10.0
  1
FIBOX CARDMASTER 21/18 -3 BASE
  7
SIMP
  0
ENDSEC
  0
EOF
