  0
SECTION
  2
HEADER
  9
$ACADVER
  1
AC1015
  9
$ACADMAINTVER
 70
     6
  9
$DWGCODEPAGE
  3
ANSI_1252
  9
$INSBASE
 10
0.0
 20
0.0
 30
0.0
  9
$EXTMIN
 10
0.0
 20
0.0
 30
0.0
  9
$EXTMAX
 10
420.0
 20
297.0
 30
0.0
  9
$LIMMIN
 10
0.0
 20
0.0
  9
$LIMMAX
 10
420.0
 20
297.0
  9
$ORTHOMODE
 70
     0
  9
$REGENMODE
 70
     1
  9
$FILLMODE
 70
     1
  9
$QTEXTMODE
 70
     0
  9
$MIRRTEXT
 70
     1
  9
$LTSCALE
 40
1.0
  9
$ATTMODE
 70
     1
  9
$TEXTSIZE
 40
3.5
  9
$TRACEWID
 40
1.0
  9
$TEXTSTYLE
  7
Standard
  9
$CLAYER
  8
0
  9
$CELTYPE
  6
ByLayer
  9
$CECOLOR
 62
   256
  9
$CELTSCALE
 40
1.0
  9
$DISPSILH
 70
     0
  9
$DIMSCALE
 40
1.0
  9
$DIMASZ
 40
6.0
  9
$DIMEXO
 40
1.0
  9
$DIMDLI
 40
3.75
  9
$DIMRND
 40
0.0
  9
$DIMDLE
 40
0.0
  9
$DIMEXE
 40
1.0
  9
$DIMTP
 40
0.0
  9
$DIMTM
 40
0.0
  9
$DIMTXT
 40
3.5
  9
$DIMCEN
 40
2.5
  9
$DIMTSZ
 40
0.0
  9
$DIMTOL
 70
     0
  9
$DIMLIM
 70
     0
  9
$DIMTIH
 70
     1
  9
$DIMTOH
 70
     1
  9
$DIMSE1
 70
     0
  9
$DIMSE2
 70
     0
  9
$DIMTAD
 70
     1
  9
$DIMZIN
 70
     0
  9
$DIMBLK
  1

  9
$DIMASO
 70
     1
  9
$DIMSHO
 70
     1
  9
$DIMPOST
  1

  9
$DIMAPOST
  1

  9
$DIMALT
 70
     0
  9
$DIMALTD
 70
     3
  9
$DIMALTF
 40
0.0393700787
  9
$DIMLFAC
 40
1.0
  9
$DIMTOFL
 70
     1
  9
$DIMTVP
 40
0.0
  9
$DIMTIX
 70
     0
  9
$DIMSOXD
 70
     0
  9
$DIMSAH
 70
     0
  9
$DIMBLK1
  1

  9
$DIMBLK2
  1

  9
$DIMSTYLE
  2
ISO-25
  9
$DIMCLRD
 70
     0
  9
$DIMCLRE
 70
     0
  9
$DIMCLRT
 70
     0
  9
$DIMTFAC
 40
1.0
  9
$DIMGAP
 40
1.524
  9
$DIMJUST
 70
     0
  9
$DIMSD1
 70
     0
  9
$DIMSD2
 70
     0
  9
$DIMTOLJ
 70
     0
  9
$DIMTZIN
 70
     0
  9
$DIMALTZ
 70
     0
  9
$DIMALTTZ
 70
     0
  9
$DIMUPT
 70
     0
  9
$DIMDEC
 70
     2
  9
$DIMTDEC
 70
     2
  9
$DIMALTU
 70
     2
  9
$DIMALTTD
 70
     3
  9
$DIMTXSTY
  7
Standard
  9
$DIMAUNIT
 70
     0
  9
$DIMADEC
 70
     2
  9
$DIMALTRND
 40
0.0
  9
$DIMAZIN
 70
     0
  9
$DIMDSEP
 70
    44
  9
$DIMATFIT
 70
     3
  9
$DIMFRAC
 70
     0
  9
$DIMLDRBLK
  1

  9
$DIMLUNIT
 70
     2
  9
$DIMLWD
 70
    -2
  9
$DIMLWE
 70
    -2
  9
$DIMTMOVE
 70
     0
  9
$LUNITS
 70
     2
  9
$LUPREC
 70
     2
  9
$SKETCHINC
 40
1.0
  9
$FILLETRAD
 40
10.0
  9
$AUNITS
 70
     0
  9
$AUPREC
 70
     2
  9
$MENU
  1
.
  9
$ELEVATION
 40
0.0
  9
$PELEVATION
 40
0.0
  9
$THICKNESS
 40
0.0
  9
$LIMCHECK
 70
     0
  9
$CHAMFERA
 40
0.0
  9
$CHAMFERB
 40
0.0
  9
$CHAMFERC
 40
0.0
  9
$CHAMFERD
 40
0.0
  9
$SKPOLY
 70
     0
  9
$TDCREATE
 40
2457234.469363727
  9
$TDUCREATE
 40
2457234.344363727
  9
$TDUPDATE
 40
2457234.469364109
  9
$TDUUPDATE
 40
2457234.344364109
  9
$TDINDWG
 40
0.0000000116
  9
$TDUSRTIMER
 40
0.0000000116
  9
$USRTIMER
 70
     1
  9
$ANGBASE
 50
0.0
  9
$ANGDIR
 70
     0
  9
$PDMODE
 70
     0
  9
$PDSIZE
 40
-1.0
  9
$PLINEWID
 40
0.0
  9
$SPLFRAME
 70
     0
  9
$SPLINETYPE
 70
     6
  9
$SPLINESEGS
 70
     8
  9
$HANDSEED
  5
228
  9
$SURFTAB1
 70
     6
  9
$SURFTAB2
 70
     6
  9
$SURFTYPE
 70
     6
  9
$SURFU
 70
     6
  9
$SURFV
 70
     6
  9
$UCSBASE
  2

  9
$UCSNAME
  2

  9
$UCSORG
 10
0.0
 20
0.0
 30
0.0
  9
$UCSXDIR
 10
1.0
 20
0.0
 30
0.0
  9
$UCSYDIR
 10
0.0
 20
1.0
 30
0.0
  9
$UCSORTHOREF
  2

  9
$UCSORTHOVIEW
 70
     0
  9
$UCSORGTOP
 10
0.0
 20
0.0
 30
0.0
  9
$UCSORGBOTTOM
 10
0.0
 20
0.0
 30
0.0
  9
$UCSORGLEFT
 10
0.0
 20
0.0
 30
0.0
  9
$UCSORGRIGHT
 10
0.0
 20
0.0
 30
0.0
  9
$UCSORGFRONT
 10
0.0
 20
0.0
 30
0.0
  9
$UCSORGBACK
 10
0.0
 20
0.0
 30
0.0
  9
$PUCSBASE
  2

  9
$PUCSNAME
  2

  9
$PUCSORG
 10
0.0
 20
0.0
 30
0.0
  9
$PUCSXDIR
 10
1.0
 20
0.0
 30
0.0
  9
$PUCSYDIR
 10
0.0
 20
1.0
 30
0.0
  9
$PUCSORTHOREF
  2

  9
$PUCSORTHOVIEW
 70
     0
  9
$PUCSORGTOP
 10
0.0
 20
0.0
 30
0.0
  9
$PUCSORGBOTTOM
 10
0.0
 20
0.0
 30
0.0
  9
$PUCSORGLEFT
 10
0.0
 20
0.0
 30
0.0
  9
$PUCSORGRIGHT
 10
0.0
 20
0.0
 30
0.0
  9
$PUCSORGFRONT
 10
0.0
 20
0.0
 30
0.0
  9
$PUCSORGBACK
 10
0.0
 20
0.0
 30
0.0
  9
$USERI1
 70
     0
  9
$USERI2
 70
     0
  9
$USERI3
 70
     0
  9
$USERI4
 70
     0
  9
$USERI5
 70
     0
  9
$USERR1
 40
0.0
  9
$USERR2
 40
0.0
  9
$USERR3
 40
0.0
  9
$USERR4
 40
0.0
  9
$USERR5
 40
0.0
  9
$WORLDVIEW
 70
     1
  9
$SHADEDGE
 70
     3
  9
$SHADEDIF
 70
    70
  9
$TILEMODE
 70
     1
  9
$MAXACTVP
 70
    64
  9
$PINSBASE
 10
0.0
 20
0.0
 30
0.0
  9
$PLIMCHECK
 70
     0
  9
$PEXTMIN
 10
1.0000000000E+20
 20
1.0000000000E+20
 30
1.0000000000E+20
  9
$PEXTMAX
 10
-1.0000000000E+20
 20
-1.0000000000E+20
 30
-1.0000000000E+20
  9
$PLIMMIN
 10
0.0
 20
0.0
  9
$PLIMMAX
 10
420.0
 20
297.0
  9
$UNITMODE
 70
     0
  9
$VISRETAIN
 70
     1
  9
$PLINEGEN
 70
     0
  9
$PSLTSCALE
 70
     1
  9
$TREEDEPTH
 70
  3020
  9
$CMLSTYLE
  2
Standard
  9
$CMLJUST
 70
     0
  9
$CMLSCALE
 40
20.0
  9
$PROXYGRAPHICS
 70
     1
  9
$MEASUREMENT
 70
     1
  9
$CELWEIGHT
370
    -1
  9
$ENDCAPS
280
     0
  9
$JOINSTYLE
280
     0
  9
$LWDISPLAY
290
     1
  9
$INSUNITS
 70
     4
  9
$HYPERLINKBASE
  1

  9
$STYLESHEET
  1

  9
$XEDIT
290
     1
  9
$CEPSNTYPE
380
     0
  9
$PSTYLEMODE
290
     1
  9
$FINGERPRINTGUID
  2
{CDD86075-5D17-47FA-92EF-6DA3AF24D66D}
  9
$VERSIONGUID
  2
{FAEB1C32-E019-11D5-929B-00C0DF256EC4}
  9
$EXTNAMES
290
     1
  9
$PSVPSCALE
 40
0.0
  9
$OLESTARTUP
290
     0
  0
ENDSEC
  0
SECTION
  2
CLASSES
  0
CLASS
  1
ACDBDICTIONARYWDFLT
  2
AcDbDictionaryWithDefault
  3
ObjectDBX Classes
 90
        0
280
     0
281
     0
  0
CLASS
  1
VISUALSTYLE
  2
AcDbVisualStyle
  3
ObjectDBX Classes
 90
     4095
280
     0
281
     0
  0
CLASS
  1
MATERIAL
  2
AcDbMaterial
  3
ObjectDBX Classes
 90
     1153
280
     0
281
     0
  0
CLASS
  1
SCALE
  2
AcDbScale
  3
ObjectDBX Classes
 90
     1153
280
     0
281
     0
  0
CLASS
  1
SUN
  2
AcDbSun
  3
SCENEOE
 90
     1153
280
     0
281
     0
  0
CLASS
  1
ACDBPLACEHOLDER
  2
AcDbPlaceHolder
  3
ObjectDBX Classes
 90
        0
280
     0
281
     0
  0
CLASS
  1
LAYOUT
  2
AcDbLayout
  3
ObjectDBX Classes
 90
        0
280
     0
281
     0
  0
ENDSEC
  0
SECTION
  2
TABLES
  0
TABLE
  2
VPORT
  5
8
330
0
100
AcDbSymbolTable
 70
     1
  0
VPORT
  5
29
330
8
100
AcDbSymbolTableRecord
100
AcDbViewportTableRecord
  2
*Active
 70
     0
 10
0.0
 20
0.0
 11
1.0
 21
1.0
 12
210.0
 22
148.5
 13
0.0
 23
0.0
 14
10.0
 24
10.0
 15
10.0
 25
10.0
 16
0.0
 26
0.0
 36
1.0
 17
0.0
 27
0.0
 37
0.0
 40
297.0
 41
1.4141414141
 42
50.0
 43
0.0
 44
0.0
 50
0.0
 51
0.0
 71
     0
 72
  2000
 73
     1
 74
     3
 75
     0
 76
     0
 77
     0
 78
     0
281
     0
 65
     1
110
0.0
120
0.0
130
0.0
111
1.0
121
0.0
131
0.0
112
0.0
122
1.0
132
0.0
 79
     0
146
0.0
  0
ENDTAB
  0
TABLE
  2
LTYPE
  5
5
330
0
100
AcDbSymbolTable
 70
     6
  0
LTYPE
  5
14
330
5
100
AcDbSymbolTableRecord
100
AcDbLinetypeTableRecord
  2
ByBlock
 70
     0
  3

 72
    65
 73
     0
 40
0.0
  0
LTYPE
  5
15
330
5
100
AcDbSymbolTableRecord
100
AcDbLinetypeTableRecord
  2
ByLayer
 70
     0
  3

 72
    65
 73
     0
 40
0.0
  0
LTYPE
  5
16
330
5
100
AcDbSymbolTableRecord
100
AcDbLinetypeTableRecord
  2
Continuous
 70
     0
  3
Solid line
 72
    65
 73
     0
 40
0.0
  0
LTYPE
  5
6A
330
5
100
AcDbSymbolTableRecord
100
AcDbLinetypeTableRecord
  2
HIDDEN
 70
     0
  3
Hidden __ __ __ __ __ __ __ __ __ __ __ __ __ __
 72
    65
 73
     2
 40
1.905
 49
1.27
 74
     0
 49
-0.635
 74
     0
  0
LTYPE
  5
6B
330
5
100
AcDbSymbolTableRecord
100
AcDbLinetypeTableRecord
  2
PHANTOM
 70
     0
  3
Phantom ______  __  __  ______  __  __  ______
 72
    65
 73
     6
 40
12.7
 49
6.35
 74
     0
 49
-1.27
 74
     0
 49
1.27
 74
     0
 49
-1.27
 74
     0
 49
1.27
 74
     0
 49
-1.27
 74
     0
  0
LTYPE
  5
6C
330
5
100
AcDbSymbolTableRecord
100
AcDbLinetypeTableRecord
  2
CENTER
 70
     0
  3
Center ____ _ ____ _ ____ _ ____ _ ____ _ ____
 72
    65
 73
     4
 40
10.16
 49
6.35
 74
     0
 49
-1.27
 74
     0
 49
1.27
 74
     0
 49
-1.27
 74
     0
  0
LTYPE
  5
6D
330
5
100
AcDbSymbolTableRecord
100
AcDbLinetypeTableRecord
  2
CENTERX2
 70
     0
  3
Center (2x) ________  __  ________  __  _____
 72
    65
 73
     4
 40
20.32
 49
12.7
 74
     0
 49
-2.54
 74
     0
 49
2.54
 74
     0
 49
-2.54
 74
     0
  0
LTYPE
  5
6E
330
5
100
AcDbSymbolTableRecord
100
AcDbLinetypeTableRecord
  2
DOT2
 70
     0
  3
Dot (.5x) ........................................
 72
    65
 73
     2
 40
0.635
 49
0.0
 74
     0
 49
-0.635
 74
     0
  0
ENDTAB
  0
TABLE
  2
LAYER
  5
2
330
0
100
AcDbSymbolTable
 70
     1
  0
LAYER
  5
10
330
2
100
AcDbSymbolTableRecord
100
AcDbLayerTableRecord
  2
0
 70
     0
 62
     7
  6
Continuous
370
    -3
390
F
  0
ENDTAB
  0
TABLE
  2
STYLE
  5
3
330
0
100
AcDbSymbolTable
 70
     1
  0
STYLE
  5
11
330
3
100
AcDbSymbolTableRecord
100
AcDbTextStyleTableRecord
  2
Standard
 70
     0
 40
0.0
 41
1.0
 50
0.0
 71
     0
 42
3.5
  3
txt
  4

  0
ENDTAB
  0
TABLE
  2
VIEW
  5
6
330
0
100
AcDbSymbolTable
 70
     0
  0
ENDTAB
  0
TABLE
  2
UCS
  5
7
330
0
100
AcDbSymbolTable
 70
     0
  0
ENDTAB
  0
TABLE
  2
APPID
  5
9
330
0
100
AcDbSymbolTable
 70
     1
  0
APPID
  5
12
330
9
100
AcDbSymbolTableRecord
100
AcDbRegAppTableRecord
  2
ACAD
 70
     0
  0
ENDTAB
  0
TABLE
  2
DIMSTYLE
  5
A
330
0
100
AcDbSymbolTable
 70
     1
100
AcDbDimStyleTable
  0
DIMSTYLE
105
27
330
A
100
AcDbSymbolTableRecord
100
AcDbDimStyleTableRecord
  2
ISO-25
 70
     0
 41
2.5
 42
0.625
 43
3.75
 44
1.25
 73
     0
 74
     0
 77
     1
 78
     8
140
2.5
141
2.5
143
0.0393700787
147
0.625
171
     3
172
     1
178
     0
271
     2
272
     2
274
     3
278
    44
283
     0
284
     8
340
11
  0
ENDTAB
  0
TABLE
  2
BLOCK_RECORD
  5
1
330
0
100
AcDbSymbolTable
 70
     1
  0
BLOCK_RECORD
  5
1F
330
1
100
AcDbSymbolTableRecord
100
AcDbBlockTableRecord
  2
*Model_Space
340
22
  0
BLOCK_RECORD
  5
1B
330
1
100
AcDbSymbolTableRecord
100
AcDbBlockTableRecord
  2
*Paper_Space
340
1E
  0
BLOCK_RECORD
  5
23
330
1
100
AcDbSymbolTableRecord
100
AcDbBlockTableRecord
  2
*Paper_Space0
340
26
  0
ENDTAB
  0
ENDSEC
  0
SECTION
  2
BLOCKS
  0
BLOCK
  5
20
330
1F
100
AcDbEntity
  8
0
100
AcDbBlockBegin
  2
*Model_Space
 70
     0
 10
0.0
 20
0.0
 30
0.0
  3
*Model_Space
  1
*Model_Space
  0
ENDBLK
  5
21
330
1F
100
AcDbEntity
  8
0
100
AcDbBlockEnd
  0
BLOCK
  5
1C
330
1B
100
AcDbEntity
 67
     1
  8
0
100
AcDbBlockBegin
  2
*Paper_Space
 70
     0
 10
0.0
 20
0.0
 30
0.0
  3
*Paper_Space
  1
*Paper_Space
  0
ENDBLK
  5
1D
330
1B
100
AcDbEntity
 67
     1
  8
0
100
AcDbBlockEnd
  0
BLOCK
  5
24
330
23
100
AcDbEntity
  8
0
100
AcDbBlockBegin
  2
*Paper_Space0
 70
     0
 10
0.0
 20
0.0
 30
0.0
  3
*Paper_Space0
  1
*Paper_Space0
  0
ENDBLK
  5
25
330
23
100
AcDbEntity
  8
0
100
AcDbBlockEnd
  0
ENDSEC
  0
SECTION
  2
ENTITIES
  0
LINE
  5
6F
330
1F
100
AcDbEntity
  8
0
  6
Continuous
 62
     7
370
    15
100
AcDbLine
 10
191.6264580566
 20
126.3057676682
 30
0.0
 11
191.6264580566
 21
127.3286571506
 31
0.0
  0
SPLINE
  5
70
330
1F
100
AcDbEntity
  8
0
  6
Continuous
 62
     7
370
    15
100
AcDbSpline
210
0.0
220
0.0
230
1.0
 70
     8
 71
     3
 72
     8
 73
     4
 74
     0
 42
0.000000001
 43
0.00000001
 40
0.0
 40
0.0
 40
0.0
 40
0.0
 40
1.0
 40
1.0
 40
1.0
 40
1.0
 10
191.4169706840391
 20
127.8163413377846
 30
0.0
 10
191.4867209487792
 20
127.2969401135158
 30
0.0
 10
191.5565746189847
 20
126.7982754902249
 30
0.0
 10
191.6264580565926
 20
126.3057676682024
 30
0.0
  0
LINE
  5
71
330
1F
100
AcDbEntity
  8
0
  6
Continuous
 62
     7
370
    15
100
AcDbLine
 10
191.416970684
 20
129.3704038812
 30
0.0
 11
191.416970684
 21
127.8163413378
 31
0.0
  0
SPLINE
  5
72
330
1F
100
AcDbEntity
  8
0
  6
Continuous
 62
     7
370
    15
100
AcDbSpline
210
0.0
220
0.0
230
1.0
 70
     8
 71
     3
 72
     8
 73
     4
 74
     0
 42
0.000000001
 43
0.00000001
 40
0.0
 40
0.0
 40
0.0
 40
0.0
 40
1.0
 40
1.0
 40
1.0
 40
1.0
 10
191.4169706840391
 20
129.3704038812392
 30
0.0
 10
191.5208166127424
 20
129.183368673337
 30
0.0
 10
191.6246938110888
 20
129.0230569451058
 30
0.0
 10
191.7285831507124
 20
128.8755003685371
 30
0.0
  0
LINE
  5
73
330
1F
100
AcDbEntity
  8
0
  6
Continuous
 62
     7
370
    15
100
AcDbLine
 10
191.7285831507
 20
127.4447609114
 30
0.0
 11
191.7285831507
 21
128.8755003685
 31
0.0
  0
SPLINE
  5
74
330
1F
100
AcDbEntity
  8
0
  6
Continuous
 62
     7
370
    15
100
AcDbSpline
210
0.0
220
0.0
230
1.0
 70
     8
 71
     3
 72
     8
 73
     4
 74
     0
 42
0.000000001
 43
0.00000001
 40
0.0000002001582193
 40
0.0000002001582193
 40
0.0000002001582193
 40
0.0000002001582193
 40
0.0039032642901708
 40
0.0039032642901708
 40
0.0039032642901708
 40
0.0039032642901708
 10
191.7285831507124
 20
127.4447609114351
 30
0.0
 10
191.6945416376391
 20
127.4058229491343
 30
0.0
 10
191.6604999329995
 20
127.3671287607222
 30
0.0
 10
191.6264580565926
 20
127.3286571506103
 30
0.0
  0
SPLINE
  5
75
330
1F
100
AcDbEntity
  8
0
  6
Continuous
 62
     7
370
    15
100
AcDbSpline
210
0.0
220
0.0
230
1.0
 70
     8
 71
     3
 72
     8
 73
     4
 74
     0
 42
0.000000001
 43
0.00000001
 40
0.0
 40
0.0
 40
0.0
 40
0.0
 40
1.0
 40
1.0
 40
1.0
 40
1.0
 10
190.7208599072978
 20
130.0665146579804
 30
0.0
 10
190.5338246993956
 20
130.1703605866837
 30
0.0
 10
190.3735129711644
 20
130.2742377850301
 30
0.0
 10
190.2259563945958
 20
130.3781271246537
 30
0.0
  0
LINE
  5
76
330
1F
100
AcDbEntity
  8
0
  6
Continuous
 62
     7
370
    15
100
AcDbLine
 10
190.7208599073
 20
130.066514658
 30
0.0
 11
189.1667973638
 21
130.066514658
 31
0.0
  0
SPLINE
  5
77
330
1F
100
AcDbEntity
  8
0
  6
Continuous
 62
     7
370
    15
100
AcDbSpline
210
0.0
220
0.0
230
1.0
 70
     8
 71
     3
 72
     8
 73
     4
 74
     0
 42
0.000000001
 43
0.00000001
 40
0.0
 40
0.0
 40
0.0
 40
0.0
 40
1.0
 40
1.0
 40
1.0
 40
1.0
 10
189.1667973638433
 20
130.0665146579804
 30
0.0
 10
188.6473961395745
 20
130.1362649227205
 30
0.0
 10
188.1487315162836
 20
130.206118592926
 30
0.0
 10
187.6562236942611
 20
130.2760020305339
 30
0.0
  0
LINE
  5
78
330
1F
100
AcDbEntity
  8
0
  6
Continuous
 62
     7
370
    15
100
AcDbLine
 10
187.6562236943
 20
130.2760020305
 30
0.0
 11
188.6791131767
 21
130.2760020305
 31
0.0
  0
SPLINE
  5
79
330
1F
100
AcDbEntity
  8
0
  6
Continuous
 62
     7
370
    15
100
AcDbSpline
210
0.0
220
0.0
230
1.0
 70
     8
 71
     3
 72
     8
 73
     4
 74
     0
 42
0.000000001
 43
0.00000001
 40
0.0000002001582193
 40
0.0000002001582193
 40
0.0000002001582193
 40
0.0000002001582193
 40
0.0039032642901708
 40
0.0039032642901708
 40
0.0039032642901708
 40
0.0039032642901708
 10
188.7952169374938
 20
130.3781271246537
 30
0.0
 10
188.7562789751929
 20
130.3440856115804
 30
0.0
 10
188.7175847867809
 20
130.3100439069408
 30
0.0
 10
188.679113176669
 20
130.2760020305339
 30
0.0
  0
LINE
  5
7A
330
1F
100
AcDbEntity
  8
0
  6
Continuous
 62
     7
370
    15
100
AcDbLine
 10
188.7952169375
 20
130.3781271247
 30
0.0
 11
190.2259563946
 21
130.3781271247
 31
0.0
  0
LINE
  5
7B
330
1F
100
AcDbEntity
  8
0
  6
Continuous
 62
     7
370
    15
100
AcDbLine
 10
197.4777176738
 20
130.2760020305
 30
0.0
 11
196.4548281914
 21
130.2760020305
 31
0.0
  0
SPLINE
  5
7C
330
1F
100
AcDbEntity
  8
0
  6
Continuous
 62
     7
370
    15
100
AcDbSpline
210
0.0
220
0.0
230
1.0
 70
     8
 71
     3
 72
     8
 73
     4
 74
     0
 42
0.000000001
 43
0.00000001
 40
0.0
 40
0.0
 40
0.0
 40
0.0
 40
1.0
 40
1.0
 40
1.0
 40
1.0
 10
195.9671440042349
 20
130.0665146579804
 30
0.0
 10
196.4865452285036
 20
130.1362649227205
 30
0.0
 10
196.9852098517945
 20
130.206118592926
 30
0.0
 10
197.4777176738171
 20
130.2760020305339
 30
0.0
  0
LINE
  5
7D
330
1F
100
AcDbEntity
  8
0
  6
Continuous
 62
     7
370
    15
100
AcDbLine
 10
194.4130814608
 20
130.066514658
 30
0.0
 11
195.9671440042
 21
130.066514658
 31
0.0
  0
SPLINE
  5
7E
330
1F
100
AcDbEntity
  8
0
  6
Continuous
 62
     7
370
    15
100
AcDbSpline
210
0.0
220
0.0
230
1.0
 70
     8
 71
     3
 72
     8
 73
     4
 74
     0
 42
0.000000001
 43
0.00000001
 40
0.0
 40
0.0
 40
0.0
 40
0.0
 40
1.0
 40
1.0
 40
1.0
 40
1.0
 10
194.4130814607803
 20
130.0665146579804
 30
0.0
 10
194.6001166686825
 20
130.1703605866837
 30
0.0
 10
194.7604283969137
 20
130.2742377850301
 30
0.0
 10
194.9079849734823
 20
130.3781271246537
 30
0.0
  0
LINE
  5
7F
330
1F
100
AcDbEntity
  8
0
  6
Continuous
 62
     7
370
    15
100
AcDbLine
 10
196.3387244306
 20
130.3781271247
 30
0.0
 11
194.9079849735
 21
130.3781271247
 31
0.0
  0
SPLINE
  5
80
330
1F
100
AcDbEntity
  8
0
  6
Continuous
 62
     7
370
    15
100
AcDbSpline
210
0.0
220
0.0
230
1.0
 70
     8
 71
     3
 72
     8
 73
     4
 74
     0
 42
0.000000001
 43
0.00000001
 40
0.0000002001582193
 40
0.0000002001582193
 40
0.0000002001582193
 40
0.0000002001582193
 40
0.0039032642901708
 40
0.0039032642901708
 40
0.0039032642901708
 40
0.0039032642901708
 10
196.3387244305843
 20
130.3781271246537
 30
0.0
 10
196.3776623928852
 20
130.3440856115804
 30
0.0
 10
196.4163565812972
 20
130.3100439069408
 30
0.0
 10
196.4548281914091
 20
130.2760020305339
 30
0.0
  0
SPLINE
  5
81
330
1F
100
AcDbEntity
  8
0
  6
Continuous
 62
     7
370
    15
100
AcDbSpline
210
0.0
220
0.0
230
1.0
 70
     8
 71
     3
 72
     8
 73
     4
 74
     0
 42
0.000000001
 43
0.00000001
 40
0.0
 40
0.0
 40
0.0
 40
0.0
 40
1.0
 40
1.0
 40
1.0
 40
1.0
 10
193.7169706840391
 20
129.3704038812392
 30
0.0
 10
193.6131247553358
 20
129.183368673337
 30
0.0
 10
193.5092475569894
 20
129.0230569451058
 30
0.0
 10
193.4053582173658
 20
128.8755003685371
 30
0.0
  0
LINE
  5
82
330
1F
100
AcDbEntity
  8
0
  6
Continuous
 62
     7
370
    15
100
AcDbLine
 10
193.716970684
 20
129.3704038812
 30
0.0
 11
193.716970684
 21
127.8163413378
 31
0.0
  0
SPLINE
  5
83
330
1F
100
AcDbEntity
  8
0
  6
Continuous
 62
     7
370
    15
100
AcDbSpline
210
0.0
220
0.0
230
1.0
 70
     8
 71
     3
 72
     8
 73
     4
 74
     0
 42
0.000000001
 43
0.00000001
 40
0.0
 40
0.0
 40
0.0
 40
0.0
 40
1.0
 40
1.0
 40
1.0
 40
1.0
 10
193.7169706840391
 20
127.8163413377846
 30
0.0
 10
193.647220419299
 20
127.2969401135159
 30
0.0
 10
193.5773667490935
 20
126.7982754902249
 30
0.0
 10
193.5074833114856
 20
126.3057676682024
 30
0.0
  0
LINE
  5
84
330
1F
100
AcDbEntity
  8
0
  6
Continuous
 62
     7
370
    15
100
AcDbLine
 10
193.5074833115
 20
126.3057676682
 30
0.0
 11
193.5074833115
 21
127.3286571506
 31
0.0
  0
SPLINE
  5
85
330
1F
100
AcDbEntity
  8
0
  6
Continuous
 62
     7
370
    15
100
AcDbSpline
210
0.0
220
0.0
230
1.0
 70
     8
 71
     3
 72
     8
 73
     4
 74
     0
 42
0.000000001
 43
0.00000001
 40
0.0000002001582193
 40
0.0000002001582193
 40
0.0000002001582193
 40
0.0000002001582193
 40
0.0039032642901708
 40
0.0039032642901708
 40
0.0039032642901708
 40
0.0039032642901708
 10
193.4053582173658
 20
127.4447609114352
 30
0.0
 10
193.4393997304391
 20
127.4058229491343
 30
0.0
 10
193.4734414350787
 20
127.3671287607222
 30
0.0
 10
193.5074833114856
 20
127.3286571506104
 30
0.0
  0
LINE
  5
86
330
1F
100
AcDbEntity
  8
0
  6
Continuous
 62
     7
370
    15
100
AcDbLine
 10
193.4053582174
 20
127.4447609114
 30
0.0
 11
193.4053582174
 21
128.8755003685
 31
0.0
  0
SPLINE
  5
87
330
1F
100
AcDbEntity
  8
0
  6
Continuous
 62
     7
370
    15
100
AcDbSpline
210
0.0
220
0.0
230
1.0
 70
     8
 71
     3
 72
     8
 73
     4
 74
     0
 42
0.000000001
 43
0.00000001
 40
0.0
 40
0.0
 40
0.0
 40
0.0
 40
1.0
 40
1.0
 40
1.0
 40
1.0
 10
194.4130814607803
 20
132.3665146579804
 30
0.0
 10
194.6001166686825
 20
132.2626687292772
 30
0.0
 10
194.7604283969137
 20
132.1587915309307
 30
0.0
 10
194.9079849734823
 20
132.0549021913071
 30
0.0
  0
LINE
  5
88
330
1F
100
AcDbEntity
  8
0
  6
Continuous
 62
     7
370
    15
100
AcDbLine
 10
194.4130814608
 20
132.366514658
 30
0.0
 11
195.9671440042
 21
132.366514658
 31
0.0
  0
SPLINE
  5
89
330
1F
100
AcDbEntity
  8
0
  6
Continuous
 62
     7
370
    15
100
AcDbSpline
210
0.0
220
0.0
230
1.0
 70
     8
 71
     3
 72
     8
 73
     4
 74
     0
 42
0.000000001
 43
0.00000001
 40
0.0
 40
0.0
 40
0.0
 40
0.0
 40
1.0
 40
1.0
 40
1.0
 40
1.0
 10
195.9671440042349
 20
132.3665146579804
 30
0.0
 10
196.4865452285036
 20
132.2967643932403
 30
0.0
 10
196.9852098517945
 20
132.2269107230348
 30
0.0
 10
197.4777176738171
 20
132.1570272854269
 30
0.0
  0
LINE
  5
8A
330
1F
100
AcDbEntity
  8
0
  6
Continuous
 62
     7
370
    15
100
AcDbLine
 10
197.4777176738
 20
132.1570272854
 30
0.0
 11
196.4548281914
 21
132.1570272854
 31
0.0
  0
SPLINE
  5
8B
330
1F
100
AcDbEntity
  8
0
  6
Continuous
 62
     7
370
    15
100
AcDbSpline
210
0.0
220
0.0
230
1.0
 70
     8
 71
     3
 72
     8
 73
     4
 74
     0
 42
0.000000001
 43
0.00000001
 40
0.0000002001582193
 40
0.0000002001582193
 40
0.0000002001582193
 40
0.0000002001582193
 40
0.0039032642901708
 40
0.0039032642901708
 40
0.0039032642901708
 40
0.0039032642901708
 10
196.3387244305843
 20
132.0549021913071
 30
0.0
 10
196.3776623928852
 20
132.0889437043804
 30
0.0
 10
196.4163565812972
 20
132.12298540902
 30
0.0
 10
196.4548281914091
 20
132.1570272854269
 30
0.0
  0
LINE
  5
8C
330
1F
100
AcDbEntity
  8
0
  6
Continuous
 62
     7
370
    15
100
AcDbLine
 10
196.3387244306
 20
132.0549021913
 30
0.0
 11
194.9079849735
 21
132.0549021913
 31
0.0
  0
LINE
  5
8D
330
1F
100
AcDbEntity
  8
0
  6
Continuous
 62
     7
370
    15
100
AcDbLine
 10
193.5074833115
 20
136.1272616478
 30
0.0
 11
193.5074833115
 21
135.1043721654
 31
0.0
  0
SPLINE
  5
8E
330
1F
100
AcDbEntity
  8
0
  6
Continuous
 62
     7
370
    15
100
AcDbSpline
210
0.0
220
0.0
230
1.0
 70
     8
 71
     3
 72
     8
 73
     4
 74
     0
 42
0.000000001
 43
0.00000001
 40
0.0
 40
0.0
 40
0.0
 40
0.0
 40
1.0
 40
1.0
 40
1.0
 40
1.0
 10
193.716970684039
 20
134.6166879781762
 30
0.0
 10
193.6472204192989
 20
135.1360892024449
 30
0.0
 10
193.5773667490934
 20
135.6347538257359
 30
0.0
 10
193.5074833114855
 20
136.1272616477584
 30
0.0
  0
LINE
  5
8F
330
1F
100
AcDbEntity
  8
0
  6
Continuous
 62
     7
370
    15
100
AcDbLine
 10
193.716970684
 20
133.0626254347
 30
0.0
 11
193.716970684
 21
134.6166879782
 31
0.0
  0
SPLINE
  5
90
330
1F
100
AcDbEntity
  8
0
  6
Continuous
 62
     7
370
    15
100
AcDbSpline
210
0.0
220
0.0
230
1.0
 70
     8
 71
     3
 72
     8
 73
     4
 74
     0
 42
0.000000001
 43
0.00000001
 40
0.0
 40
0.0
 40
0.0
 40
0.0
 40
1.0
 40
1.0
 40
1.0
 40
1.0
 10
193.716970684039
 20
133.0626254347216
 30
0.0
 10
193.6131247553358
 20
133.2496606426238
 30
0.0
 10
193.5092475569894
 20
133.409972370855
 30
0.0
 10
193.4053582173657
 20
133.5575289474237
 30
0.0
  0
LINE
  5
91
330
1F
100
AcDbEntity
  8
0
  6
Continuous
 62
     7
370
    15
100
AcDbLine
 10
193.4053582174
 20
134.9882684045
 30
0.0
 11
193.4053582174
 21
133.5575289474
 31
0.0
  0
SPLINE
  5
92
330
1F
100
AcDbEntity
  8
0
  6
Continuous
 62
     7
370
    15
100
AcDbSpline
210
0.0
220
0.0
230
1.0
 70
     8
 71
     3
 72
     8
 73
     4
 74
     0
 42
0.000000001
 43
0.00000001
 40
0.0000002001582193
 40
0.0000002001582193
 40
0.0000002001582193
 40
0.0000002001582193
 40
0.0039032642901708
 40
0.0039032642901708
 40
0.0039032642901708
 40
0.0039032642901708
 10
193.4053582173657
 20
134.9882684045256
 30
0.0
 10
193.439399730439
 20
135.0272063668265
 30
0.0
 10
193.4734414350786
 20
135.0659005552386
 30
0.0
 10
193.5074833114855
 20
135.1043721653504
 30
0.0
  0
ARC
  5
93
330
1F
100
AcDbEntity
  8
0
  6
Continuous
 62
     7
370
    15
100
AcDbCircle
 10
192.566970684
 20
131.216514658
 30
0.0
 40
3.589384154332263
100
AcDbArc
 50
288.6864650646
 51
341.3135349354
  0
ARC
  5
94
330
1F
100
AcDbEntity
  8
0
  6
Continuous
 62
     7
370
    15
100
AcDbCircle
 10
192.566970684
 20
131.216514658
 30
0.0
 40
2.175000000000016
100
AcDbArc
 50
301.9200663311
 51
328.0799336689
  0
ARC
  5
95
330
1F
100
AcDbEntity
  8
0
  6
Continuous
 62
     7
370
    15
100
AcDbCircle
 10
192.566970684
 20
131.216514658
 30
0.0
 40
3.589384154332245
100
AcDbArc
 50
18.6864650646
 51
71.3135349354
  0
ARC
  5
96
330
1F
100
AcDbEntity
  8
0
  6
Continuous
 62
     7
370
    15
100
AcDbCircle
 10
192.566970684
 20
131.216514658
 30
0.0
 40
2.174999999999986
100
AcDbArc
 50
31.9200663311
 51
58.0799336689
  0
ARC
  5
97
330
1F
100
AcDbEntity
  8
0
  6
Continuous
 62
     7
370
    15
100
AcDbCircle
 10
192.566970684
 20
131.216514658
 30
0.0
 40
5.000000000000002
100
AcDbArc
 50
100.8420704217
 51
169.1579295784
  0
SPLINE
  5
98
330
1F
100
AcDbEntity
  8
0
  6
Continuous
 62
     7
370
    15
100
AcDbSpline
210
0.0
220
0.0
230
1.0
 70
     8
 71
     3
 72
     8
 73
     4
 74
     0
 42
0.000000001
 43
0.00000001
 40
0.0
 40
0.0
 40
0.0
 40
0.0
 40
1.0
 40
1.0
 40
1.0
 40
1.0
 10
191.416970684039
 20
134.6166879781762
 30
0.0
 10
191.4867209487792
 20
135.1360892024449
 30
0.0
 10
191.5565746189846
 20
135.6347538257359
 30
0.0
 10
191.6264580565925
 20
136.1272616477584
 30
0.0
  0
ARC
  5
99
330
1F
100
AcDbEntity
  8
0
  6
Continuous
 62
     7
370
    15
100
AcDbCircle
 10
192.566970684
 20
131.216514658
 30
0.0
 40
3.589384154332236
100
AcDbArc
 50
108.6864650646
 51
161.3135349354
  0
SPLINE
  5
9A
330
1F
100
AcDbEntity
  8
0
  6
Continuous
 62
     7
370
    15
100
AcDbSpline
210
0.0
220
0.0
230
1.0
 70
     8
 71
     3
 72
     8
 73
     4
 74
     0
 42
0.000000001
 43
0.00000001
 40
0.0
 40
0.0
 40
0.0
 40
0.0
 40
1.0
 40
1.0
 40
1.0
 40
1.0
 10
189.1667973638433
 20
132.3665146579804
 30
0.0
 10
188.6473961395745
 20
132.2967643932403
 30
0.0
 10
188.1487315162836
 20
132.2269107230348
 30
0.0
 10
187.6562236942611
 20
132.1570272854269
 30
0.0
  0
LINE
  5
9B
330
1F
100
AcDbEntity
  8
0
  6
Continuous
 62
     7
370
    15
100
AcDbLine
 10
191.416970684
 20
133.0626254347
 30
0.0
 11
191.416970684
 21
134.6166879782
 31
0.0
  0
ARC
  5
9C
330
1F
100
AcDbEntity
  8
0
  6
Continuous
 62
     7
370
    15
100
AcDbCircle
 10
192.566970684
 20
131.216514658
 30
0.0
 40
2.17500000000001
100
AcDbArc
 50
121.9200663311
 51
148.0799336689
  0
LINE
  5
9D
330
1F
100
AcDbEntity
  8
0
  6
Continuous
 62
     7
370
    15
100
AcDbLine
 10
190.7208599073
 20
132.366514658
 30
0.0
 11
189.1667973638
 21
132.366514658
 31
0.0
  0
SPLINE
  5
9E
330
1F
100
AcDbEntity
  8
0
  6
Continuous
 62
     7
370
    15
100
AcDbSpline
210
0.0
220
0.0
230
1.0
 70
     8
 71
     3
 72
     8
 73
     4
 74
     0
 42
0.000000001
 43
0.00000001
 40
0.0
 40
0.0
 40
0.0
 40
0.0
 40
1.0
 40
1.0
 40
1.0
 40
1.0
 10
191.416970684039
 20
133.0626254347216
 30
0.0
 10
191.5208166127423
 20
133.2496606426238
 30
0.0
 10
191.6246938110887
 20
133.409972370855
 30
0.0
 10
191.7285831507124
 20
133.5575289474237
 30
0.0
  0
LINE
  5
9F
330
1F
100
AcDbEntity
  8
0
  6
Continuous
 62
     7
370
    15
100
AcDbLine
 10
191.6264580566
 20
136.1272616478
 30
0.0
 11
191.6264580566
 21
135.1043721654
 31
0.0
  0
SPLINE
  5
A0
330
1F
100
AcDbEntity
  8
0
  6
Continuous
 62
     7
370
    15
100
AcDbSpline
210
0.0
220
0.0
230
1.0
 70
     8
 71
     3
 72
     8
 73
     4
 74
     0
 42
0.000000001
 43
0.00000001
 40
0.0000002001582193
 40
0.0000002001582193
 40
0.0000002001582193
 40
0.0000002001582193
 40
0.0039032642901708
 40
0.0039032642901708
 40
0.0039032642901708
 40
0.0039032642901708
 10
191.7285831507124
 20
134.9882684045256
 30
0.0
 10
191.694541637639
 20
135.0272063668265
 30
0.0
 10
191.6604999329995
 20
135.0659005552386
 30
0.0
 10
191.6264580565925
 20
135.1043721653504
 30
0.0
  0
LINE
  5
A1
330
1F
100
AcDbEntity
  8
0
  6
Continuous
 62
     7
370
    15
100
AcDbLine
 10
191.7285831507
 20
134.9882684045
 30
0.0
 11
191.7285831507
 21
133.5575289474
 31
0.0
  0
LINE
  5
A2
330
1F
100
AcDbEntity
  8
0
  6
Continuous
 62
     7
370
    15
100
AcDbLine
 10
187.6562236943
 20
132.1570272854
 30
0.0
 11
188.6791131767
 21
132.1570272854
 31
0.0
  0
SPLINE
  5
A3
330
1F
100
AcDbEntity
  8
0
  6
Continuous
 62
     7
370
    15
100
AcDbSpline
210
0.0
220
0.0
230
1.0
 70
     8
 71
     3
 72
     8
 73
     4
 74
     0
 42
0.000000001
 43
0.00000001
 40
0.0
 40
0.0
 40
0.0
 40
0.0
 40
1.0
 40
1.0
 40
1.0
 40
1.0
 10
190.7208599072978
 20
132.3665146579804
 30
0.0
 10
190.5338246993956
 20
132.2626687292772
 30
0.0
 10
190.3735129711644
 20
132.1587915309307
 30
0.0
 10
190.2259563945958
 20
132.0549021913071
 30
0.0
  0
LINE
  5
A4
330
1F
100
AcDbEntity
  8
0
  6
Continuous
 62
     7
370
    15
100
AcDbLine
 10
188.7952169375
 20
132.0549021913
 30
0.0
 11
190.2259563946
 21
132.0549021913
 31
0.0
  0
SPLINE
  5
A5
330
1F
100
AcDbEntity
  8
0
  6
Continuous
 62
     7
370
    15
100
AcDbSpline
210
0.0
220
0.0
230
1.0
 70
     8
 71
     3
 72
     8
 73
     4
 74
     0
 42
0.000000001
 43
0.00000001
 40
0.0000002001582193
 40
0.0000002001582193
 40
0.0000002001582193
 40
0.0000002001582193
 40
0.0039032642901708
 40
0.0039032642901708
 40
0.0039032642901708
 40
0.0039032642901708
 10
188.7952169374938
 20
132.0549021913071
 30
0.0
 10
188.7562789751929
 20
132.0889437043804
 30
0.0
 10
188.7175847867809
 20
132.12298540902
 30
0.0
 10
188.679113176669
 20
132.1570272854269
 30
0.0
  0
ARC
  5
A6
330
1F
100
AcDbEntity
  8
0
  6
Continuous
 62
     7
370
    15
100
AcDbCircle
 10
192.566970684
 20
131.216514658
 30
0.0
 40
5.000000000000002
100
AcDbArc
 50
10.8420704216
 51
79.1579295784
  0
ARC
  5
A7
330
1F
100
AcDbEntity
  8
0
  6
Continuous
 62
     7
370
    15
100
AcDbCircle
 10
192.566970684
 20
131.216514658
 30
0.0
 40
5.000000000000016
100
AcDbArc
 50
190.8420704217
 51
259.1579295784
  0
ARC
  5
A8
330
1F
100
AcDbEntity
  8
0
  6
Continuous
 62
     7
370
    15
100
AcDbCircle
 10
192.566970684
 20
131.216514658
 30
0.0
 40
3.589384154332259
100
AcDbArc
 50
198.6864650646
 51
251.3135349354
  0
ARC
  5
A9
330
1F
100
AcDbEntity
  8
0
  6
Continuous
 62
     7
370
    15
100
AcDbCircle
 10
192.566970684
 20
131.216514658
 30
0.0
 40
2.17500000000004
100
AcDbArc
 50
211.9200663311
 51
238.0799336689
  0
ARC
  5
AA
330
1F
100
AcDbEntity
  8
0
  6
Continuous
 62
     7
370
    15
100
AcDbCircle
 10
192.566970684
 20
131.216514658
 30
0.0
 40
5.000000000000027
100
AcDbArc
 50
280.8420704217
 51
349.1579295784
  0
LINE
  5
AB
330
1F
100
AcDbEntity
  8
0
  6
Continuous
 62
     7
370
    15
100
AcDbLine
 10
210.066970684
 20
121.7162100483
 30
0.0
 11
210.9397239304
 21
120.8434568019
 31
0.0
  0
LINE
  5
AC
330
1F
100
AcDbEntity
  8
0
  6
Continuous
 62
     7
370
    15
100
AcDbLine
 10
210.066970684
 20
121.7162100483
 30
0.0
 11
210.066970684
 21
148.2338173949
 31
0.0
  0
ELLIPSE
  5
AD
330
1F
100
AcDbEntity
  8
0
  6
Continuous
 62
     7
370
    15
100
AcDbEllipse
 10
210.0495156191
 20
148.2338173949
 30
0.0
 11
0.0
 21
1.0
 31
0.0
210
0.0
220
0.0
230
1.0
 40
0.0174550649
 41
4.712388980384661
 42
6.265732014660236
  0
LINE
  5
AE
330
1F
100
AcDbEntity
  8
0
  6
Continuous
 62
     7
370
    15
100
AcDbLine
 10
209.8924200348
 20
149.3910653073
 30
0.0
 11
210.049820252
 21
149.23366509
 31
0.0
  0
LINE
  5
AF
330
1F
100
AcDbEntity
  8
0
  6
Continuous
 62
     7
370
    15
100
AcDbLine
 10
209.8924200348
 20
149.3910653073
 30
0.0
 11
209.8924200348
 21
152.6924368651
 31
0.0
  0
LINE
  5
B0
330
1F
100
AcDbEntity
  8
0
  6
Continuous
 62
     7
370
    15
100
AcDbLine
 10
209.8924200348
 20
152.6924368652
 30
0.0
 11
210.066970684
 21
153.216514658
 31
0.0
  0
LINE
  5
B1
330
1F
100
AcDbEntity
  8
0
  6
Continuous
 62
     7
370
    15
100
AcDbLine
 10
210.066970684
 20
153.216514658
 30
0.0
 11
210.3995304452
 21
154.2150052756
 31
0.0
  0
ELLIPSE
  5
B2
330
1F
100
AcDbEntity
  8
0
  6
Continuous
 62
     7
370
    15
100
AcDbEllipse
 10
210.3986169177
 20
155.2136348104
 30
0.0
 11
0.0
 21
1.0
 31
0.0
210
0.0
220
0.0
230
1.0
 40
0.0174550649
 41
3.193952531151171
 42
4.71238898038469
  0
LINE
  5
B3
330
1F
100
AcDbEntity
  8
0
  6
Continuous
 62
     7
370
    15
100
AcDbLine
 10
210.4160719826
 20
170.0618077554
 30
0.0
 11
210.4160719826
 21
155.2136348104
 31
0.0
  0
LINE
  5
B4
330
1F
100
AcDbEntity
  8
0
  6
Continuous
 62
     7
370
    15
100
AcDbLine
 10
210.4512557602
 20
193.1011043438
 30
0.0
 11
210.4160719826
 21
170.0618077554
 31
0.0
  0
LINE
  5
B5
330
1F
100
AcDbEntity
  8
0
  6
Continuous
 62
     7
370
    15
100
AcDbLine
 10
210.9397239304
 20
193.5895725141
 30
0.0
 11
210.4512557602
 21
193.1011043438
 31
0.0
  0
LINE
  5
B6
330
1F
100
AcDbEntity
  8
0
  6
Continuous
 62
     7
370
    15
100
AcDbLine
 10
210.9397239304
 20
120.8434568019
 30
0.0
 11
210.9397239304
 21
193.5895725141
 31
0.0
  0
LINE
  5
B7
330
1F
100
AcDbEntity
  8
0
  6
Continuous
 62
     7
370
    15
100
AcDbLine
 10
175.066970684
 20
153.216514658
 30
0.0
 11
210.066970684
 21
153.216514658
 31
0.0
  0
LINE
  5
B8
330
1F
100
AcDbEntity
  8
0
  6
Continuous
 62
     7
370
    15
100
AcDbLine
 10
209.8924200348
 20
152.6924368651
 30
0.0
 11
175.2415213333
 21
152.6924368651
 31
0.0
  0
LINE
  5
B9
330
1F
100
AcDbEntity
  8
0
  6
Continuous
 62
     7
370
    15
100
AcDbLine
 10
175.2415213333
 20
152.6924368651
 30
0.0
 11
175.066970684
 21
153.216514658
 31
0.0
  0
LINE
  5
BA
330
1F
100
AcDbEntity
  8
0
  6
Continuous
 62
     7
370
    15
100
AcDbLine
 10
174.6826856079
 20
193.1011043438
 30
0.0
 11
174.1942174376
 21
193.5895725141
 31
0.0
  0
LINE
  5
BB
330
1F
100
AcDbEntity
  8
0
  6
Continuous
 62
     7
370
    15
100
AcDbLine
 10
174.7178693855
 20
170.0618077554
 30
0.0
 11
174.6826856079
 21
193.1011043438
 31
0.0
  0
LINE
  5
BC
330
1F
100
AcDbEntity
  8
0
  6
Continuous
 62
     7
370
    15
100
AcDbLine
 10
174.7178693855
 20
155.2136348104
 30
0.0
 11
174.7178693855
 21
170.0618077554
 31
0.0
  0
ELLIPSE
  5
BD
330
1F
100
AcDbEntity
  8
0
  6
Continuous
 62
     7
370
    15
100
AcDbEllipse
 10
174.7353244504
 20
155.2136348104
 30
0.0
 11
0.0
 21
1.0
 31
0.0
210
0.0
220
0.0
230
1.0
 40
0.0174550649
 41
1.570796326794897
 42
3.089232776029212
  0
LINE
  5
BE
330
1F
100
AcDbEntity
  8
0
  6
Continuous
 62
     7
370
    15
100
AcDbLine
 10
174.7344109229
 20
154.2150052756
 30
0.0
 11
175.066970684
 21
153.216514658
 31
0.0
  0
LINE
  5
BF
330
1F
100
AcDbEntity
  8
0
  6
Continuous
 62
     7
370
    15
100
AcDbLine
 10
175.2415213333
 20
152.6924368651
 30
0.0
 11
175.2415213333
 21
149.3910653073
 31
0.0
  0
LINE
  5
C0
330
1F
100
AcDbEntity
  8
0
  6
Continuous
 62
     7
370
    15
100
AcDbLine
 10
175.2415213333
 20
149.3910653073
 30
0.0
 11
175.0841211161
 21
149.23366509
 31
0.0
  0
ELLIPSE
  5
C1
330
1F
100
AcDbEntity
  8
0
  6
Continuous
 62
     7
370
    15
100
AcDbEllipse
 10
175.084425749
 20
148.2338173949
 30
0.0
 11
0.0
 21
1.0
 31
0.0
210
0.0
220
0.0
230
1.0
 40
0.0174550649
 41
0.0174532925217816
 42
1.570796326794925
  0
LINE
  5
C2
330
1F
100
AcDbEntity
  8
0
  6
Continuous
 62
     7
370
    15
100
AcDbLine
 10
175.066970684
 20
148.2338173949
 30
0.0
 11
175.066970684
 21
121.7162100483
 31
0.0
  0
LINE
  5
C3
330
1F
100
AcDbEntity
  8
0
  6
Continuous
 62
     7
370
    15
100
AcDbLine
 10
174.1942174376
 20
120.8434568019
 30
0.0
 11
175.066970684
 21
121.7162100483
 31
0.0
  0
LINE
  5
C4
330
1F
100
AcDbEntity
  8
0
  6
Continuous
 62
     7
370
    15
100
AcDbLine
 10
174.1942174376
 20
193.5895725141
 30
0.0
 11
174.1942174376
 21
120.8434568019
 31
0.0
  0
LINE
  5
C5
330
1F
100
AcDbEntity
  8
0
  6
Continuous
 62
     7
370
    15
100
AcDbLine
 10
175.2415213333
 20
149.3910653073
 30
0.0
 11
209.8924200348
 21
149.3910653073
 31
0.0
  0
LINE
  5
C6
330
1F
100
AcDbEntity
  8
0
  6
Continuous
 62
     7
370
    15
100
AcDbLine
 10
175.0841211161
 20
149.23366509
 30
0.0
 11
210.049820252
 21
149.23366509
 31
0.0
  0
LINE
  5
C7
330
1F
100
AcDbEntity
  8
0
  6
Continuous
 62
     7
370
    15
100
AcDbLine
 10
210.066970684
 20
148.2338173949
 30
0.0
 11
175.066970684
 21
148.2338173949
 31
0.0
  0
LINE
  5
C8
330
1F
100
AcDbEntity
  8
0
  6
Continuous
 62
     7
370
    15
100
AcDbLine
 10
210.3995304452
 20
154.2150052756
 30
0.0
 11
174.7344109229
 21
154.2150052756
 31
0.0
  0
ELLIPSE
  5
C9
330
1F
100
AcDbEntity
  8
0
  6
Continuous
 62
     7
370
    15
100
AcDbEllipse
 10
208.066666028
 20
121.7168193141
 30
0.0
 11
-1.414644378339176
 21
1.414644378339162
 31
0.0
210
0.0
220
0.0
230
1.0
 40
0.9996954599
 41
2.356346783439911
 42
3.926838523739671
  0
LINE
  5
CA
330
1F
100
AcDbEntity
  8
0
  6
Continuous
 62
     7
370
    15
100
AcDbLine
 10
177.0666660744
 20
119.716514658
 30
0.0
 11
208.0672752937
 21
119.716514658
 31
0.0
  0
ELLIPSE
  5
CB
330
1F
100
AcDbEntity
  8
0
  6
Continuous
 62
     7
370
    15
100
AcDbEllipse
 10
177.0672753401
 20
121.7168193141
 30
0.0
 11
1.414644378339176
 21
1.414644378339162
 31
0.0
210
0.0
220
0.0
230
1.0
 40
0.9996954599
 41
2.356346783439921
 42
3.926838523739696
  0
LINE
  5
CC
330
1F
100
AcDbEntity
  8
0
  6
Continuous
 62
     7
370
    15
100
AcDbLine
 10
191.7626490576
 20
136.7495652526
 30
0.0
 11
191.7626490576
 21
134.9956794734
 31
0.0
  0
ARC
  5
CD
330
1F
100
AcDbEntity
  8
0
  6
Continuous
 62
     7
370
    15
100
AcDbCircle
 10
192.566970684
 20
131.216514658
 30
0.0
 40
5.591205787751109
100
AcDbArc
 50
98.2709671231
 51
171.7290328769
  0
LINE
  5
CE
330
1F
100
AcDbEntity
  8
0
  6
Continuous
 62
     7
370
    15
100
AcDbLine
 10
188.7878058686
 20
132.0208362844
 30
0.0
 11
187.0339200895
 21
132.0208362844
 31
0.0
  0
LINE
  5
CF
330
1F
100
AcDbEntity
  8
0
  6
Continuous
 62
     7
370
    15
100
AcDbLine
 10
187.0339200895
 20
130.4121930316
 30
0.0
 11
188.7878058686
 21
130.4121930316
 31
0.0
  0
ARC
  5
D0
330
1F
100
AcDbEntity
  8
0
  6
Continuous
 62
     7
370
    15
100
AcDbCircle
 10
192.566970684
 20
131.216514658
 30
0.0
 40
5.591205787751133
100
AcDbArc
 50
188.2709671231
 51
261.7290328769
  0
LINE
  5
D1
330
1F
100
AcDbEntity
  8
0
  6
Continuous
 62
     7
370
    15
100
AcDbLine
 10
191.7626490576
 20
127.4373498426
 30
0.0
 11
191.7626490576
 21
125.6834640634
 31
0.0
  0
LINE
  5
D2
330
1F
100
AcDbEntity
  8
0
  6
Continuous
 62
     7
370
    15
100
AcDbLine
 10
193.3712923105
 20
125.6834640634
 30
0.0
 11
193.3712923105
 21
127.4373498426
 31
0.0
  0
ARC
  5
D3
330
1F
100
AcDbEntity
  8
0
  6
Continuous
 62
     7
370
    15
100
AcDbCircle
 10
192.566970684
 20
131.216514658
 30
0.0
 40
5.591205787751118
100
AcDbArc
 50
278.2709671231
 51
351.7290328769
  0
LINE
  5
D4
330
1F
100
AcDbEntity
  8
0
  6
Continuous
 62
     7
370
    15
100
AcDbLine
 10
196.3461354994
 20
130.4121930316
 30
0.0
 11
198.1000212786
 21
130.4121930316
 31
0.0
  0
LINE
  5
D5
330
1F
100
AcDbEntity
  8
0
  6
Continuous
 62
     7
370
    15
100
AcDbLine
 10
198.1000212786
 20
132.0208362844
 30
0.0
 11
196.3461354994
 21
132.0208362844
 31
0.0
  0
ARC
  5
D6
330
1F
100
AcDbEntity
  8
0
  6
Continuous
 62
     7
370
    15
100
AcDbCircle
 10
192.566970684
 20
131.216514658
 30
0.0
 40
5.59120578775109
100
AcDbArc
 50
8.2709671231
 51
81.7290328769
  0
LINE
  5
D7
330
1F
100
AcDbEntity
  8
0
  6
Continuous
 62
     7
370
    15
100
AcDbLine
 10
193.3712923105
 20
134.9956794734
 30
0.0
 11
193.3712923105
 21
136.7495652526
 31
0.0
  0
ARC
  5
D8
330
1F
100
AcDbEntity
  8
0
  6
Continuous
 62
     7
370
    15
100
AcDbCircle
 10
192.566970684
 20
131.216514658
 30
0.0
 40
3.863808998982174
100
AcDbArc
 50
167.46800714
 51
167.9849825073
  0
ARC
  5
D9
330
1F
100
AcDbEntity
  8
0
  6
Continuous
 62
     7
370
    15
100
AcDbCircle
 10
192.566970684
 20
131.216514658
 30
0.0
 40
3.863808998982159
100
AcDbArc
 50
102.0150174927
 51
102.53199286
  0
ARC
  5
DA
330
1F
100
AcDbEntity
  8
0
  6
Continuous
 62
     7
370
    15
100
AcDbCircle
 10
192.566970684
 20
131.216514658
 30
0.0
 40
3.863808998982163
100
AcDbArc
 50
12.0150174927
 51
12.53199286
  0
ARC
  5
DB
330
1F
100
AcDbEntity
  8
0
  6
Continuous
 62
     7
370
    15
100
AcDbCircle
 10
192.566970684
 20
131.216514658
 30
0.0
 40
3.863808998982147
100
AcDbArc
 50
77.46800714
 51
77.9849825073
  0
ARC
  5
DC
330
1F
100
AcDbEntity
  8
0
  6
Continuous
 62
     7
370
    15
100
AcDbCircle
 10
192.566970684
 20
131.216514658
 30
0.0
 40
3.863808998982189
100
AcDbArc
 50
282.0150174927
 51
282.53199286
  0
ARC
  5
DD
330
1F
100
AcDbEntity
  8
0
  6
Continuous
 62
     7
370
    15
100
AcDbCircle
 10
192.566970684
 20
131.216514658
 30
0.0
 40
3.863808998982169
100
AcDbArc
 50
347.46800714
 51
347.9849825073
  0
ARC
  5
DE
330
1F
100
AcDbEntity
  8
0
  6
Continuous
 62
     7
370
    15
100
AcDbCircle
 10
192.566970684
 20
131.216514658
 30
0.0
 40
3.863808998982187
100
AcDbArc
 50
192.0150174927
 51
192.53199286
  0
ARC
  5
DF
330
1F
100
AcDbEntity
  8
0
  6
Continuous
 62
     7
370
    15
100
AcDbCircle
 10
192.566970684
 20
131.216514658
 30
0.0
 40
3.863808998982204
100
AcDbArc
 50
257.46800714
 51
257.9849825073
  0
ARC
  5
E0
330
1F
100
AcDbEntity
  8
0
  6
Continuous
 62
     7
370
    15
100
AcDbCircle
 10
192.566970684
 20
131.216514658
 30
0.0
 40
2.486612466673339
100
AcDbArc
 50
160.2960287424
 51
199.7039712576
  0
ARC
  5
E1
330
1F
100
AcDbEntity
  8
0
  6
Continuous
 62
     7
370
    15
100
AcDbCircle
 10
192.566970684
 20
131.216514658
 30
0.0
 40
2.486612466673312
100
AcDbArc
 50
70.2960287424
 51
109.7039712576
  0
ARC
  5
E2
330
1F
100
AcDbEntity
  8
0
  6
Continuous
 62
     7
370
    15
100
AcDbCircle
 10
192.566970684
 20
131.216514658
 30
0.0
 40
2.486612466673339
100
AcDbArc
 50
340.2960287424
 51
19.7039712576
  0
ARC
  5
E3
330
1F
100
AcDbEntity
  8
0
  6
Continuous
 62
     7
370
    15
100
AcDbCircle
 10
192.566970684
 20
131.216514658
 30
0.0
 40
2.486612466673356
100
AcDbArc
 50
250.2960287424
 51
289.7039712576
  0
LINE
  5
E4
330
1F
100
AcDbEntity
  8
0
  6
Continuous
 62
     7
370
    15
100
AcDbLine
 10
177.0666660744
 20
119.716514658
 30
0.0
 11
176.1939128279
 21
118.8437614116
 31
0.0
  0
LINE
  5
E5
330
1F
100
AcDbEntity
  8
0
  6
Continuous
 62
     7
370
    15
100
AcDbLine
 10
208.9400285401
 20
118.8437614116
 30
0.0
 11
208.0672752937
 21
119.716514658
 31
0.0
  0
LINE
  5
E6
330
1F
100
AcDbEntity
  8
0
  6
Continuous
 62
     7
370
    15
100
AcDbLine
 10
176.1939128279
 20
118.8437614116
 30
0.0
 11
208.9400285401
 21
118.8437614116
 31
0.0
  0
ELLIPSE
  5
E7
330
1F
100
AcDbEntity
  8
0
  6
Continuous
 62
     7
370
    15
100
AcDbEllipse
 10
208.9394192744
 20
120.8440660677
 30
0.0
 11
-1.414644378339204
 21
1.414644378339176
 31
0.0
210
0.0
220
0.0
230
1.0
 40
0.9996954599
 41
2.356346783439894
 42
3.926838523739679
  0
ELLIPSE
  5
E8
330
1F
100
AcDbEntity
  8
0
  6
Continuous
 62
     7
370
    15
100
AcDbEllipse
 10
176.1945220937
 20
120.8440660677
 30
0.0
 11
1.414644378339176
 21
1.414644378339176
 31
0.0
210
0.0
220
0.0
230
1.0
 40
0.9996954599
 41
2.356346783439919
 42
3.926838523739674
  0
LINE
  5
E9
330
1F
100
AcDbEntity
  8
0
  6
Continuous
 62
     7
370
    15
100
AcDbLine
 10
174.7178693855
 20
155.2136348104
 30
0.0
 11
210.4160719826
 21
155.2136348104
 31
0.0
  0
LINE
  5
EA
330
1F
100
AcDbEntity
  8
0
  6
Continuous
 62
     7
370
    15
100
AcDbLine
 10
203.266970684
 20
181.216514658
 30
0.0
 11
203.266970684
 21
170.216514658
 31
0.0
  0
ARC
  5
EB
330
1F
100
AcDbEntity
  8
0
  6
Continuous
 62
     7
370
    15
100
AcDbCircle
 10
192.566970684
 20
181.216514658
 30
0.0
 40
10.70000000000002
100
AcDbArc
 50
0.0
 51
180.0
  0
LINE
  5
EC
330
1F
100
AcDbEntity
  8
0
  6
Continuous
 62
     7
370
    15
100
AcDbLine
 10
181.866970684
 20
170.216514658
 30
0.0
 11
181.866970684
 21
181.216514658
 31
0.0
  0
LINE
  5
ED
330
1F
100
AcDbEntity
  8
0
  6
Continuous
 62
     7
370
    15
100
AcDbLine
 10
181.8680891643
 20
170.0618077554
 30
0.0
 11
174.7178693855
 21
170.0618077554
 31
0.0
  0
ELLIPSE
  5
EE
330
1F
100
AcDbEntity
  8
0
  6
Continuous
 62
     7
370
    15
100
AcDbEllipse
 10
176.6829911958
 20
193.1004941462
 30
0.0
 11
-0.85060284923523
 21
1.814769158795031
 31
0.0
210
0.0
220
0.0
230
1.0
 40
0.9976165555
 41
5.84579677947867
 42
7.416288519778394
  0
LINE
  5
EF
330
1F
100
AcDbEntity
  8
0
  6
Continuous
 62
     7
370
    15
100
AcDbLine
 10
176.6793225522
 20
195.1038581802
 30
0.0
 11
208.4546188159
 21
195.1038581802
 31
0.0
  0
ELLIPSE
  5
F0
330
1F
100
AcDbEntity
  8
0
  6
Continuous
 62
     7
370
    15
100
AcDbEllipse
 10
208.4509501722
 20
193.1004941462
 30
0.0
 11
0.8506028492352014
 21
1.81476915879503
 31
0.0
210
0.0
220
0.0
230
1.0
 40
0.9976165555
 41
5.150082094580785
 42
6.720573834880496
  0
LINE
  5
F1
330
1F
100
AcDbEntity
  8
0
  6
Continuous
 62
     7
370
    15
100
AcDbLine
 10
210.4160719826
 20
170.0618077554
 30
0.0
 11
203.2658522038
 21
170.0618077554
 31
0.0
  0
ARC
  5
F2
330
1F
100
AcDbEntity
  8
0
  6
Continuous
 62
     7
370
    15
100
AcDbCircle
 10
192.566970684
 20
170.216514658
 30
0.0
 40
10.70000000000002
100
AcDbArc
 50
180.0
 51
180.8284449949
  0
ARC
  5
F3
330
1F
100
AcDbEntity
  8
0
  6
Continuous
 62
     7
370
    15
100
AcDbCircle
 10
192.566970684
 20
170.216514658
 30
0.0
 40
10.69999999999999
100
AcDbArc
 50
359.1715550051
 51
0.0
  0
ARC
  5
F4
330
1F
100
AcDbEntity
  8
0
  6
Continuous
 62
     7
370
    15
100
AcDbCircle
 10
192.566970684
 20
170.216514658
 30
0.0
 40
10.70000000000002
100
AcDbArc
 50
180.8284449949
 51
359.1715550051
  0
LINE
  5
F5
330
1F
100
AcDbEntity
  8
0
  6
Continuous
 62
     7
370
    15
100
AcDbLine
 10
176.1939128279
 20
195.5892679044
 30
0.0
 11
176.6793225522
 21
195.1038581802
 31
0.0
  0
ELLIPSE
  5
F6
330
1F
100
AcDbEntity
  8
0
  6
Continuous
 62
     7
370
    15
100
AcDbEllipse
 10
176.1945220937
 20
193.5889632483
 30
0.0
 11
1.414644378339176
 21
-1.414644378339176
 31
0.0
210
0.0
220
0.0
230
1.0
 40
0.9996954599
 41
2.356346783439909
 42
3.926838523739677
  0
LINE
  5
F7
330
1F
100
AcDbEntity
  8
0
  6
Continuous
 62
     7
370
    15
100
AcDbLine
 10
208.4546188159
 20
195.1038581802
 30
0.0
 11
208.9400285401
 21
195.5892679044
 31
0.0
  0
ELLIPSE
  5
F8
330
1F
100
AcDbEntity
  8
0
  6
Continuous
 62
     7
370
    15
100
AcDbEllipse
 10
208.9394192744
 20
193.5889632483
 30
0.0
 11
-1.414644378339176
 21
-1.414644378339176
 31
0.0
210
0.0
220
0.0
230
1.0
 40
0.9996954599
 41
2.356346783439929
 42
3.926838523739672
  0
LINE
  5
F9
330
1F
100
AcDbEntity
  8
0
  6
Continuous
 62
     7
370
    15
100
AcDbLine
 10
208.9400285401
 20
195.5892679044
 30
0.0
 11
176.1939128279
 21
195.5892679044
 31
0.0
  0
LINE
  5
FA
330
1F
100
AcDbEntity
  8
0
  6
Continuous
 62
     7
370
    15
100
AcDbLine
 10
196.7576746056
 20
181.216514658
 30
0.0
 11
196.7576746056
 21
176.5455577663
 31
0.0
  0
LINE
  5
FB
330
1F
100
AcDbEntity
  8
0
  6
Continuous
 62
     7
370
    15
100
AcDbLine
 10
196.7576746056
 20
181.216514658
 30
0.0
 11
197.281393037
 21
181.216514658
 31
0.0
  0
LINE
  5
FC
330
1F
100
AcDbEntity
  8
0
  6
Continuous
 62
     7
370
    15
100
AcDbLine
 10
197.281393037
 20
181.216514658
 30
0.0
 11
197.281393037
 21
176.8209125866
 31
0.0
  0
SPLINE
  5
FD
330
1F
100
AcDbEntity
  8
0
  6
Continuous
 62
     7
370
    15
100
AcDbSpline
210
0.0
220
0.0
230
1.0
 70
     8
 71
     3
 72
     8
 73
     4
 74
     0
 42
0.000000001
 43
0.00000001
 40
0.0
 40
0.0
 40
0.0
 40
0.0
 40
1.0
 40
1.0
 40
1.0
 40
1.0
 10
196.7576746055797
 20
176.5455577662612
 30
0.0
 10
196.9322466951753
 20
176.6393389420994
 30
0.0
 10
197.1068195486045
 20
176.7310406759932
 30
0.0
 10
197.2813930369634
 20
176.820912586625
 30
0.0
  0
SPLINE
  5
FE
330
1F
100
AcDbEntity
  8
0
  6
Continuous
 62
     7
370
    15
100
AcDbSpline
210
0.0
220
0.0
230
1.0
 70
     8
 71
     3
 72
     8
 73
     4
 74
     0
 42
0.000000001
 43
0.00000001
 40
0.0
 40
0.0
 40
0.0
 40
0.0
 40
1.0
 40
1.0
 40
1.0
 40
1.0
 10
188.3762667624984
 20
176.5455577662612
 30
0.0
 10
188.2016946729028
 20
176.6393389420994
 30
0.0
 10
188.0271218194736
 20
176.7310406759932
 30
0.0
 10
187.8525483311147
 20
176.820912586625
 30
0.0
  0
LINE
  5
FF
330
1F
100
AcDbEntity
  8
0
  6
Continuous
 62
     7
370
    15
100
AcDbLine
 10
187.8525483311
 20
176.8209125866
 30
0.0
 11
187.8525483311
 21
181.216514658
 31
0.0
  0
LINE
  5
100
330
1F
100
AcDbEntity
  8
0
  6
Continuous
 62
     7
370
    15
100
AcDbLine
 10
188.3762667625
 20
181.216514658
 30
0.0
 11
187.8525483311
 21
181.216514658
 31
0.0
  0
LINE
  5
101
330
1F
100
AcDbEntity
  8
0
  6
Continuous
 62
     7
370
    15
100
AcDbLine
 10
188.3762667625
 20
176.5455577663
 30
0.0
 11
188.3762667625
 21
181.216514658
 31
0.0
  0
ARC
  5
102
330
1F
100
AcDbEntity
  8
0
  6
Continuous
 62
     7
370
    15
100
AcDbCircle
 10
192.566970684
 20
170.216514658
 30
0.0
 40
8.114422352924374
100
AcDbArc
 50
125.5204132938
 51
54.4795867062
  0
ARC
  5
103
330
1F
100
AcDbEntity
  8
0
  6
Continuous
 62
     7
370
    15
100
AcDbCircle
 10
192.566970684
 20
181.216514658
 30
0.0
 40
4.71442235292443
100
AcDbArc
 50
0.0
 51
180.0
  0
ARC
  5
104
330
1F
100
AcDbEntity
  8
0
  6
Continuous
 62
     7
370
    15
100
AcDbCircle
 10
192.566970684
 20
170.216514658
 30
0.0
 40
7.590703921540662
100
AcDbArc
 50
123.5100813978
 51
56.4899186022
  0
ARC
  5
105
330
1F
100
AcDbEntity
  8
0
  6
Continuous
 62
     7
370
    15
100
AcDbCircle
 10
192.566970684
 20
181.216514658
 30
0.0
 40
4.190703921540688
100
AcDbArc
 50
0.0
 51
180.0
  0
LINE
  5
106
330
1F
100
AcDbEntity
  8
0
  6
Continuous
 62
     7
370
    15
100
AcDbLine
 10
139.5766449511
 20
118.8437614116
 30
0.0
 11
89.5766449511
 21
119.716514658
 31
0.0
  0
LINE
  5
107
330
1F
100
AcDbEntity
  8
0
  6
Continuous
 62
     7
370
    15
100
AcDbLine
 10
89.5766449511
 20
119.716514658
 30
0.0
 11
89.5766449511
 21
121.7162100483
 31
0.0
  0
LINE
  5
108
330
1F
100
AcDbEntity
  8
0
  6
Continuous
 62
     7
370
    15
100
AcDbLine
 10
89.5766449511
 20
121.7162100483
 30
0.0
 11
139.5766449511
 21
120.8434568019
 31
0.0
  0
LINE
  5
109
330
1F
100
AcDbEntity
  8
0
  6
Continuous
 62
     7
370
    15
100
AcDbLine
 10
139.5766449511
 20
120.8434568019
 30
0.0
 11
139.5766449511
 21
118.8437614116
 31
0.0
  0
LINE
  5
10A
330
1F
100
AcDbEntity
  8
0
  6
Continuous
 62
     7
370
    15
100
AcDbLine
 10
89.5766449511
 20
121.7162100483
 30
0.0
 11
89.5766449511
 21
148.2338173949
 31
0.0
  0
ARC
  5
10B
330
1F
100
AcDbEntity
  8
0
  6
Continuous
 62
     7
370
    15
100
AcDbCircle
 10
88.5766449511
 20
148.2338173949
 30
0.0
 40
0.9999999999999858
100
AcDbArc
 50
360.0
 51
89.0
  0
LINE
  5
10C
330
1F
100
AcDbEntity
  8
0
  6
Continuous
 62
     7
370
    15
100
AcDbLine
 10
79.5766449511
 20
149.3910653073
 30
0.0
 11
88.5940973576
 21
149.23366509
 31
0.0
  0
LINE
  5
10D
330
1F
100
AcDbEntity
  8
0
  6
Continuous
 62
     7
370
    15
100
AcDbLine
 10
79.5766449511
 20
149.3910653073
 30
0.0
 11
79.5766449511
 21
152.6924368651
 31
0.0
  0
LINE
  5
10E
330
1F
100
AcDbEntity
  8
0
  6
Continuous
 62
     7
370
    15
100
AcDbLine
 10
79.5766449511
 20
152.6924368652
 30
0.0
 11
89.5766449511
 21
153.216514658
 31
0.0
  0
LINE
  5
10F
330
1F
100
AcDbEntity
  8
0
  6
Continuous
 62
     7
370
    15
100
AcDbLine
 10
89.5766449511
 20
153.216514658
 30
0.0
 11
108.6289809074
 21
154.2150052756
 31
0.0
  0
ARC
  5
110
330
1F
100
AcDbEntity
  8
0
  6
Continuous
 62
     7
370
    15
100
AcDbCircle
 10
108.5766449511
 20
155.2136348104
 30
0.0
 40
1.0
100
AcDbArc
 50
273.0
 51
0.0
  0
LINE
  5
111
330
1F
100
AcDbEntity
  8
0
  6
Continuous
 62
     7
370
    15
100
AcDbLine
 10
109.5766449511
 20
170.0618077554
 30
0.0
 11
109.5766449511
 21
155.2136348104
 31
0.0
  0
LINE
  5
112
330
1F
100
AcDbEntity
  8
0
  6
Continuous
 62
     7
370
    15
100
AcDbLine
 10
111.5923222182
 20
193.1011043438
 30
0.0
 11
109.5766449511
 21
170.0618077554
 31
0.0
  0
LINE
  5
113
330
1F
100
AcDbEntity
  8
0
  6
Continuous
 62
     7
370
    15
100
AcDbLine
 10
139.5766449511
 20
193.5895725141
 30
0.0
 11
111.5923222182
 21
193.1011043438
 31
0.0
  0
LINE
  5
114
330
1F
100
AcDbEntity
  8
0
  6
Continuous
 62
     7
370
    15
100
AcDbLine
 10
139.5766449511
 20
120.8434568019
 30
0.0
 11
139.5766449511
 21
193.5895725141
 31
0.0
  0
LINE
  5
115
330
1F
100
AcDbEntity
  8
0
  6
Continuous
 62
     7
370
    15
100
AcDbLine
 10
111.5923222182
 20
193.1011043438
 30
0.0
 11
111.7675404747
 21
195.1038581802
 31
0.0
  0
LINE
  5
116
330
1F
100
AcDbEntity
  8
0
  6
Continuous
 62
     7
370
    15
100
AcDbLine
 10
111.7675404747
 20
195.1038581802
 30
0.0
 11
139.5766449511
 21
195.5892679044
 31
0.0
  0
LINE
  5
117
330
1F
100
AcDbEntity
  8
0
  6
Continuous
 62
     7
370
    15
100
AcDbLine
 10
139.5766449511
 20
195.5892679044
 30
0.0
 11
139.5766449511
 21
193.5895725141
 31
0.0
  0
SPLINE
  5
118
330
1F
100
AcDbEntity
  8
0
  6
Continuous
 62
     7
370
    15
100
AcDbSpline
210
0.0
220
0.0
230
1.0
 70
     8
 71
     3
 72
     8
 73
     4
 74
     0
 42
0.000000001
 43
0.00000001
 40
0.0
 40
0.0
 40
0.0
 40
0.0
 40
1.0
 40
1.0
 40
1.0
 40
1.0
 10
77.67664495114013
 20
127.8163413377846
 30
0.0
 10
80.34030009712457
 20
127.2969401135159
 30
0.0
 10
83.00790413851367
 20
126.7982754902249
 30
0.0
 10
85.67664495114013
 20
126.3057676682024
 30
0.0
  0
LINE
  5
119
330
1F
100
AcDbEntity
  8
0
  6
Continuous
 62
     7
370
    15
100
AcDbLine
 10
77.6766449511
 20
127.8163413378
 30
0.0
 11
77.6766449511
 21
130.066514658
 31
0.0
  0
LINE
  5
11A
330
1F
100
AcDbEntity
  8
0
  6
Continuous
 62
     7
370
    15
100
AcDbLine
 10
85.6766449511
 20
126.3057676682
 30
0.0
 11
85.6766449511
 21
130.2760020305
 31
0.0
  0
SPLINE
  5
11B
330
1F
100
AcDbEntity
  8
0
  6
Continuous
 62
     7
370
    15
100
AcDbSpline
210
0.0
220
0.0
230
1.0
 70
    24
 71
     3
 72
     8
 73
     4
 74
     0
 42
0.000000001
 43
0.00000001
 40
0.0
 40
0.0
 40
0.0
 40
0.0
 40
1.0
 40
1.0
 40
1.0
 40
1.0
 10
77.67664495114013
 20
130.0665146579804
 30
0.0
 10
80.34030009712457
 20
130.1362649227205
 30
0.0
 10
83.00790413851367
 20
130.206118592926
 30
0.0
 10
85.67664495114013
 20
130.2760020305339
 30
0.0
  0
LINE
  5
11C
330
1F
100
AcDbEntity
  8
0
  6
Continuous
 62
     7
370
    15
100
AcDbLine
 10
85.6766449511
 20
132.1570272854
 30
0.0
 11
85.6766449511
 21
136.1272616478
 31
0.0
  0
LINE
  5
11D
330
1F
100
AcDbEntity
  8
0
  6
Continuous
 62
     7
370
    15
100
AcDbLine
 10
77.6766449511
 20
132.366514658
 30
0.0
 11
77.6766449511
 21
134.6166879782
 31
0.0
  0
SPLINE
  5
11E
330
1F
100
AcDbEntity
  8
0
  6
Continuous
 62
     7
370
    15
100
AcDbSpline
210
0.0
220
0.0
230
1.0
 70
     8
 71
     3
 72
     8
 73
     4
 74
     0
 42
0.000000001
 43
0.00000001
 40
0.0
 40
0.0
 40
0.0
 40
0.0
 40
1.0
 40
1.0
 40
1.0
 40
1.0
 10
77.67664495114013
 20
134.6166879781762
 30
0.0
 10
80.34030009712455
 20
135.1360892024449
 30
0.0
 10
83.00790413851365
 20
135.6347538257359
 30
0.0
 10
85.67664495114013
 20
136.1272616477584
 30
0.0
  0
SPLINE
  5
11F
330
1F
100
AcDbEntity
  8
0
  6
Continuous
 62
     7
370
    15
100
AcDbSpline
210
0.0
220
0.0
230
1.0
 70
    24
 71
     3
 72
     8
 73
     4
 74
     0
 42
0.000000001
 43
0.00000001
 40
0.0
 40
0.0
 40
0.0
 40
0.0
 40
1.0
 40
1.0
 40
1.0
 40
1.0
 10
77.67664495114013
 20
132.3665146579804
 30
0.0
 10
80.34030009712457
 20
132.2967643932403
 30
0.0
 10
83.00790413851367
 20
132.2269107230348
 30
0.0
 10
85.67664495114013
 20
132.1570272854269
 30
0.0
  0
SPLINE
  5
120
330
1F
100
AcDbEntity
  8
0
  6
Continuous
 62
     7
370
    15
100
AcDbSpline
210
0.0
220
0.0
230
1.0
 70
     8
 71
     3
 72
     8
 73
     4
 74
     0
 42
0.000000001
 43
0.00000001
 40
0.0000002001582193
 40
0.0000002001582193
 40
0.0000002001582193
 40
0.0000002001582193
 40
0.0039032642901708
 40
0.0039032642901708
 40
0.0039032642901708
 40
0.0039032642901708
 10
89.57664495114014
 20
127.4447609114352
 30
0.0
 10
88.27665201473016
 20
127.4058229491343
 30
0.0
 10
86.97665176270013
 20
127.3671287607222
 30
0.0
 10
85.67664495114013
 20
127.3286571506104
 30
0.0
  0
SPLINE
  5
121
330
1F
100
AcDbEntity
  8
0
  6
Continuous
 62
     7
370
    15
100
AcDbSpline
210
0.0
220
0.0
230
1.0
 70
    24
 71
     3
 72
     8
 73
     4
 74
     0
 42
0.000000001
 43
0.00000001
 40
0.0000002001582193
 40
0.0000002001582193
 40
0.0000002001582193
 40
0.0000002001582193
 40
0.0039032642901708
 40
0.0039032642901708
 40
0.0039032642901708
 40
0.0039032642901708
 10
89.57664495114012
 20
130.3781271246537
 30
0.0
 10
88.27665201473016
 20
130.3440856115804
 30
0.0
 10
86.97665176270013
 20
130.3100439069408
 30
0.0
 10
85.67664495114013
 20
130.2760020305339
 30
0.0
  0
SPLINE
  5
122
330
1F
100
AcDbEntity
  8
0
  6
Continuous
 62
     7
370
    15
100
AcDbSpline
210
0.0
220
0.0
230
1.0
 70
     8
 71
     3
 72
     8
 73
     4
 74
     0
 42
0.000000001
 43
0.00000001
 40
0.0000002001582193
 40
0.0000002001582193
 40
0.0000002001582193
 40
0.0000002001582193
 40
0.0039032642901708
 40
0.0039032642901708
 40
0.0039032642901708
 40
0.0039032642901708
 10
89.57664495114012
 20
134.9882684045256
 30
0.0
 10
88.27665201473016
 20
135.0272063668265
 30
0.0
 10
86.97665176270013
 20
135.0659005552386
 30
0.0
 10
85.67664495114013
 20
135.1043721653504
 30
0.0
  0
SPLINE
  5
123
330
1F
100
AcDbEntity
  8
0
  6
Continuous
 62
     7
370
    15
100
AcDbSpline
210
0.0
220
0.0
230
1.0
 70
    24
 71
     3
 72
     8
 73
     4
 74
     0
 42
0.000000001
 43
0.00000001
 40
0.0000002001582193
 40
0.0000002001582193
 40
0.0000002001582193
 40
0.0000002001582193
 40
0.0039032642901708
 40
0.0039032642901708
 40
0.0039032642901708
 40
0.0039032642901708
 10
89.57664495114012
 20
132.0549021913071
 30
0.0
 10
88.27665201473016
 20
132.0889437043804
 30
0.0
 10
86.97665176270013
 20
132.12298540902
 30
0.0
 10
85.67664495114013
 20
132.1570272854269
 30
0.0
  0
LINE
  5
124
330
1F
100
AcDbEntity
  8
0
  6
Continuous
 62
     7
370
    15
100
AcDbLine
 10
177.0666660744
 20
268.7588925081
 30
0.0
 11
176.1939128279
 21
218.7588925081
 31
0.0
  0
LINE
  5
125
330
1F
100
AcDbEntity
  8
0
  6
Continuous
 62
     7
370
    15
100
AcDbLine
 10
177.0666660744
 20
268.7588925081
 30
0.0
 11
208.0672752937
 21
268.7588925081
 31
0.0
  0
LINE
  5
126
330
1F
100
AcDbEntity
  8
0
  6
Continuous
 62
     7
370
    15
100
AcDbLine
 10
208.9400285401
 20
218.7588925081
 30
0.0
 11
208.0672752937
 21
268.7588925081
 31
0.0
  0
LINE
  5
127
330
1F
100
AcDbEntity
  8
0
  6
Continuous
 62
     7
370
    15
100
AcDbLine
 10
176.1939128279
 20
218.7588925081
 30
0.0
 11
208.9400285401
 21
218.7588925081
 31
0.0
  0
LINE
  5
128
330
1F
100
AcDbEntity
  8
0
  6
Continuous
 62
     7
370
    15
100
AcDbLine
 10
208.0672752937
 20
268.7588925081
 30
0.0
 11
210.066970684
 21
268.7588925081
 31
0.0
  0
LINE
  5
129
330
1F
100
AcDbEntity
  8
0
  6
Continuous
 62
     7
370
    15
100
AcDbLine
 10
210.066970684
 20
268.7588925081
 30
0.0
 11
210.9397239304
 21
218.7588925081
 31
0.0
  0
LINE
  5
12A
330
1F
100
AcDbEntity
  8
0
  6
Continuous
 62
     7
370
    15
100
AcDbLine
 10
210.9397239304
 20
218.7588925081
 30
0.0
 11
208.9400285401
 21
218.7588925081
 31
0.0
  0
LINE
  5
12B
330
1F
100
AcDbEntity
  8
0
  6
Continuous
 62
     7
370
    15
100
AcDbLine
 10
174.1942174376
 20
218.7588925081
 30
0.0
 11
175.066970684
 21
268.7588925081
 31
0.0
  0
LINE
  5
12C
330
1F
100
AcDbEntity
  8
0
  6
Continuous
 62
     7
370
    15
100
AcDbLine
 10
175.066970684
 20
268.7588925081
 30
0.0
 11
177.0666660744
 21
268.7588925081
 31
0.0
  0
LINE
  5
12D
330
1F
100
AcDbEntity
  8
0
  6
Continuous
 62
     7
370
    15
100
AcDbLine
 10
176.1939128279
 20
218.7588925081
 30
0.0
 11
174.1942174376
 21
218.7588925081
 31
0.0
  0
SPLINE
  5
12E
330
1F
100
AcDbEntity
  8
0
  6
Continuous
 62
     7
370
    15
100
AcDbSpline
210
0.0
220
0.0
230
1.0
 70
     8
 71
     3
 72
     8
 73
     4
 74
     0
 42
0.000000001
 43
0.00000001
 40
0.0
 40
0.0
 40
0.0
 40
0.0
 40
1.0
 40
1.0
 40
1.0
 40
1.0
 10
189.1667973638433
 20
280.6588925081435
 30
0.0
 10
188.6473961395745
 20
277.9952373621591
 30
0.0
 10
188.1487315162836
 20
275.32763332077
 30
0.0
 10
187.6562236942611
 20
272.6588925081435
 30
0.0
  0
LINE
  5
12F
330
1F
100
AcDbEntity
  8
0
  6
Continuous
 62
     7
370
    15
100
AcDbLine
 10
189.1667973638
 20
280.6588925081
 30
0.0
 11
191.416970684
 21
280.6588925081
 31
0.0
  0
LINE
  5
130
330
1F
100
AcDbEntity
  8
0
  6
Continuous
 62
     7
370
    15
100
AcDbLine
 10
187.6562236943
 20
272.6588925081
 30
0.0
 11
191.6264580566
 21
272.6588925081
 31
0.0
  0
SPLINE
  5
131
330
1F
100
AcDbEntity
  8
0
  6
Continuous
 62
     7
370
    15
100
AcDbSpline
210
0.0
220
0.0
230
1.0
 70
    24
 71
     3
 72
     8
 73
     4
 74
     0
 42
0.000000001
 43
0.00000001
 40
0.0
 40
0.0
 40
0.0
 40
0.0
 40
1.0
 40
1.0
 40
1.0
 40
1.0
 10
191.4169706840391
 20
280.6588925081435
 30
0.0
 10
191.4867209487792
 20
277.9952373621591
 30
0.0
 10
191.5565746189847
 20
275.32763332077
 30
0.0
 10
191.6264580565926
 20
272.6588925081435
 30
0.0
  0
SPLINE
  5
132
330
1F
100
AcDbEntity
  8
0
  6
Continuous
 62
     7
370
    15
100
AcDbSpline
210
0.0
220
0.0
230
1.0
 70
     8
 71
     3
 72
     8
 73
     4
 74
     0
 42
0.000000001
 43
0.00000001
 40
0.0
 40
0.0
 40
0.0
 40
0.0
 40
1.0
 40
1.0
 40
1.0
 40
1.0
 10
195.9671440042349
 20
280.6588925081435
 30
0.0
 10
196.4865452285036
 20
277.9952373621591
 30
0.0
 10
196.9852098517945
 20
275.32763332077
 30
0.0
 10
197.4777176738171
 20
272.6588925081435
 30
0.0
  0
LINE
  5
133
330
1F
100
AcDbEntity
  8
0
  6
Continuous
 62
     7
370
    15
100
AcDbLine
 10
193.716970684
 20
280.6588925081
 30
0.0
 11
195.9671440042
 21
280.6588925081
 31
0.0
  0
LINE
  5
134
330
1F
100
AcDbEntity
  8
0
  6
Continuous
 62
     7
370
    15
100
AcDbLine
 10
193.5074833115
 20
272.6588925081
 30
0.0
 11
197.4777176738
 21
272.6588925081
 31
0.0
  0
SPLINE
  5
135
330
1F
100
AcDbEntity
  8
0
  6
Continuous
 62
     7
370
    15
100
AcDbSpline
210
0.0
220
0.0
230
1.0
 70
    24
 71
     3
 72
     8
 73
     4
 74
     0
 42
0.000000001
 43
0.00000001
 40
0.0
 40
0.0
 40
0.0
 40
0.0
 40
1.0
 40
1.0
 40
1.0
 40
1.0
 10
193.7169706840391
 20
280.6588925081435
 30
0.0
 10
193.647220419299
 20
277.9952373621591
 30
0.0
 10
193.5773667490935
 20
275.32763332077
 30
0.0
 10
193.5074833114856
 20
272.6588925081435
 30
0.0
  0
SPLINE
  5
136
330
1F
100
AcDbEntity
  8
0
  6
Continuous
 62
     7
370
    15
100
AcDbSpline
210
0.0
220
0.0
230
1.0
 70
     8
 71
     3
 72
     8
 73
     4
 74
     0
 42
0.000000001
 43
0.00000001
 40
0.0000002001582193
 40
0.0000002001582193
 40
0.0000002001582193
 40
0.0000002001582193
 40
0.0039032642901708
 40
0.0039032642901708
 40
0.0039032642901708
 40
0.0039032642901708
 10
188.7952169374938
 20
268.7588925081435
 30
0.0
 10
188.7562789751929
 20
270.0588854445535
 30
0.0
 10
188.7175847867809
 20
271.3588856965835
 30
0.0
 10
188.679113176669
 20
272.6588925081435
 30
0.0
  0
SPLINE
  5
137
330
1F
100
AcDbEntity
  8
0
  6
Continuous
 62
     7
370
    15
100
AcDbSpline
210
0.0
220
0.0
230
1.0
 70
    24
 71
     3
 72
     8
 73
     4
 74
     0
 42
0.000000001
 43
0.00000001
 40
0.0000002001582193
 40
0.0000002001582193
 40
0.0000002001582193
 40
0.0000002001582193
 40
0.0039032642901708
 40
0.0039032642901708
 40
0.0039032642901708
 40
0.0039032642901708
 10
191.7285831507124
 20
268.7588925081435
 30
0.0
 10
191.6945416376391
 20
270.0588854445535
 30
0.0
 10
191.6604999329995
 20
271.3588856965835
 30
0.0
 10
191.6264580565926
 20
272.6588925081435
 30
0.0
  0
SPLINE
  5
138
330
1F
100
AcDbEntity
  8
0
  6
Continuous
 62
     7
370
    15
100
AcDbSpline
210
0.0
220
0.0
230
1.0
 70
     8
 71
     3
 72
     8
 73
     4
 74
     0
 42
0.000000001
 43
0.00000001
 40
0.0000002001582193
 40
0.0000002001582193
 40
0.0000002001582193
 40
0.0000002001582193
 40
0.0039032642901708
 40
0.0039032642901708
 40
0.0039032642901708
 40
0.0039032642901708
 10
196.3387244305843
 20
268.7588925081435
 30
0.0
 10
196.3776623928852
 20
270.0588854445535
 30
0.0
 10
196.4163565812972
 20
271.3588856965835
 30
0.0
 10
196.4548281914091
 20
272.6588925081435
 30
0.0
  0
SPLINE
  5
139
330
1F
100
AcDbEntity
  8
0
  6
Continuous
 62
     7
370
    15
100
AcDbSpline
210
0.0
220
0.0
230
1.0
 70
    24
 71
     3
 72
     8
 73
     4
 74
     0
 42
0.000000001
 43
0.00000001
 40
0.0000002001582193
 40
0.0000002001582193
 40
0.0000002001582193
 40
0.0000002001582193
 40
0.0039032642901708
 40
0.0039032642901708
 40
0.0039032642901708
 40
0.0039032642901708
 10
193.4053582173658
 20
268.7588925081435
 30
0.0
 10
193.4393997304391
 20
270.0588854445535
 30
0.0
 10
193.4734414350787
 20
271.3588856965835
 30
0.0
 10
193.5074833114856
 20
272.6588925081435
 30
0.0
  0
LINE
  5
13A
330
1F
100
AcDbEntity
  8
0
  6
Continuous
 62
     7
370
    15
100
AcDbLine
 10
210.049820252
 20
269.7414401017
 30
0.0
 11
210.066970684
 21
268.7588925081
 31
0.0
  0
LINE
  5
13B
330
1F
100
AcDbEntity
  8
0
  6
Continuous
 62
     7
370
    15
100
AcDbLine
 10
175.066970684
 20
268.7588925081
 30
0.0
 11
175.0841211161
 21
269.7414401017
 31
0.0
  0
LINE
  5
13C
330
1F
100
AcDbEntity
  8
0
  6
Continuous
 62
     7
370
    15
100
AcDbLine
 10
175.2415213333
 20
278.7588925081
 30
0.0
 11
188.8058464005
 21
278.7588925081
 31
0.0
  0
LINE
  5
13D
330
1F
100
AcDbEntity
  8
0
  6
Continuous
 62
     7
370
    15
100
AcDbLine
 10
191.466723935
 20
278.7588925081
 30
0.0
 11
193.6672174331
 21
278.7588925081
 31
0.0
  0
LINE
  5
13E
330
1F
100
AcDbEntity
  8
0
  6
Continuous
 62
     7
370
    15
100
AcDbLine
 10
196.3280949675
 20
278.7588925081
 30
0.0
 11
209.8924200348
 21
278.7588925081
 31
0.0
  0
LINE
  5
13F
330
1F
100
AcDbEntity
  8
0
  6
Continuous
 62
     7
370
    15
100
AcDbLine
 10
209.8924200348
 20
278.7588925081
 30
0.0
 11
210.049820252
 21
269.7414401017
 31
0.0
  0
LINE
  5
140
330
1F
100
AcDbEntity
  8
0
  6
Continuous
 62
     7
370
    15
100
AcDbLine
 10
175.2415213333
 20
278.7588925081
 30
0.0
 11
175.0841211161
 21
269.7414401017
 31
0.0
  0
LINE
  5
141
330
1F
100
AcDbEntity
  8
0
  6
Continuous
 62
     8
370
    15
100
AcDbLine
 10
175.0841211161
 20
269.7414401017
 30
0.0
 11
188.765966304
 21
269.7414401017
 31
0.0
  0
LINE
  5
142
330
1F
100
AcDbEntity
  8
0
  6
Continuous
 62
     8
370
    15
100
AcDbLine
 10
191.7028542365
 20
269.7414401017
 30
0.0
 11
193.4310871316
 21
269.7414401017
 31
0.0
  0
LINE
  5
143
330
1F
100
AcDbEntity
  8
0
  6
Continuous
 62
     8
370
    15
100
AcDbLine
 10
196.3679750641
 20
269.7414401017
 30
0.0
 11
210.049820252
 21
269.7414401017
 31
0.0
  0
LINE
  5
144
330
1F
100
AcDbEntity
  8
0
  6
Continuous
 62
     7
370
    15
100
AcDbLine
 10
208.4546188159
 20
61.2865307028
 30
0.0
 11
208.9400285401
 21
89.0956351792
 31
0.0
  0
LINE
  5
145
330
1F
100
AcDbEntity
  8
0
  6
Continuous
 62
     7
370
    15
100
AcDbLine
 10
176.6793225522
 20
61.2865307028
 30
0.0
 11
208.4546188159
 21
61.2865307028
 31
0.0
  0
LINE
  5
146
330
1F
100
AcDbEntity
  8
0
  6
Continuous
 62
     7
370
    15
100
AcDbLine
 10
176.1939128279
 20
89.0956351792
 30
0.0
 11
176.6793225522
 21
61.2865307028
 31
0.0
  0
LINE
  5
147
330
1F
100
AcDbEntity
  8
0
  6
Continuous
 62
     7
370
    15
100
AcDbLine
 10
208.9400285401
 20
89.0956351792
 30
0.0
 11
176.1939128279
 21
89.0956351792
 31
0.0
  0
ELLIPSE
  5
148
330
1F
100
AcDbEntity
  8
0
  6
Continuous
 62
     7
370
    15
100
AcDbEllipse
 10
176.6829911958
 20
61.1112590609
 30
0.0
 11
2.000307927320819
 21
-0.0003239422207386156
 31
0.0
210
0.0
220
0.0
230
1.0
 40
0.0876221806
 41
1.572644557356746
 42
3.143136297656656
  0
LINE
  5
149
330
1F
100
AcDbEntity
  8
0
  6
Continuous
 62
     7
370
    15
100
AcDbLine
 10
174.6826856079
 20
61.1113124462
 30
0.0
 11
174.1942174376
 21
89.0956351792
 31
0.0
  0
LINE
  5
14A
330
1F
100
AcDbEntity
  8
0
  6
Continuous
 62
     7
370
    15
100
AcDbLine
 10
174.1942174376
 20
89.0956351792
 30
0.0
 11
176.1939128279
 21
89.0956351792
 31
0.0
  0
LINE
  5
14B
330
1F
100
AcDbEntity
  8
0
  6
Continuous
 62
     7
370
    15
100
AcDbLine
 10
210.9397239304
 20
89.0956351792
 30
0.0
 11
210.4512557602
 21
61.1113124462
 31
0.0
  0
ELLIPSE
  5
14C
330
1F
100
AcDbEntity
  8
0
  6
Continuous
 62
     7
370
    15
100
AcDbEllipse
 10
208.4509501722
 20
61.1112590609
 30
0.0
 11
2.000307927320791
 21
0.0003239422207315101
 31
0.0
210
0.0
220
0.0
230
1.0
 40
0.0876221806
 41
6.281641663113084
 42
7.852133403412633
  0
LINE
  5
14D
330
1F
100
AcDbEntity
  8
0
  6
Continuous
 62
     7
370
    15
100
AcDbLine
 10
208.9400285401
 20
89.0956351792
 30
0.0
 11
210.9397239304
 21
89.0956351792
 31
0.0
  0
ELLIPSE
  5
14E
330
1F
100
AcDbEntity
  8
0
  6
Continuous
 62
     7
370
    15
100
AcDbEllipse
 10
192.566970684
 20
59.1091702793
 30
0.0
 11
10.69999999999999
 21
0.0
 31
0.0
210
0.0
220
0.0
230
1.0
 40
0.0874886635
 41
6.268726214347287
 42
6.283185307179586
  0
LINE
  5
14F
330
1F
100
AcDbEntity
  8
0
  6
Continuous
 62
     7
370
    15
100
AcDbLine
 10
203.266970684
 20
60.0715455781
 30
0.0
 11
203.266970684
 21
59.1091702793
 31
0.0
  0
ELLIPSE
  5
150
330
1F
100
AcDbEntity
  8
0
  6
Continuous
 62
     7
370
    15
100
AcDbEllipse
 10
192.566970684
 20
60.0715455781
 30
0.0
 11
10.69999999999999
 21
0.0
 31
0.0
210
0.0
220
0.0
230
1.0
 40
0.0874886635
 41
0.0
 42
3.141592653589792
  0
LINE
  5
151
330
1F
100
AcDbEntity
  8
0
  6
Continuous
 62
     7
370
    15
100
AcDbLine
 10
181.866970684
 20
59.1091702793
 30
0.0
 11
181.866970684
 21
60.0715455781
 31
0.0
  0
ELLIPSE
  5
152
330
1F
100
AcDbEntity
  8
0
  6
Continuous
 62
     7
370
    15
100
AcDbEllipse
 10
192.566970684
 20
59.1091702793
 30
0.0
 11
10.69999999999999
 21
0.0
 31
0.0
210
0.0
220
0.0
230
1.0
 40
0.0874886635
 41
3.141592653589792
 42
3.156051746422418
  0
LINE
  5
153
330
1F
100
AcDbEntity
  8
0
  6
Continuous
 62
     7
370
    15
100
AcDbLine
 10
181.8680891643
 20
59.0956351792
 30
0.0
 11
174.7178693855
 21
59.0956351792
 31
0.0
  0
LINE
  5
154
330
1F
100
AcDbEntity
  8
0
  6
Continuous
 62
     7
370
    15
100
AcDbLine
 10
174.7178693855
 20
59.0956351792
 30
0.0
 11
174.6826856079
 21
61.1113124462
 31
0.0
  0
LINE
  5
155
330
1F
100
AcDbEntity
  8
0
  6
Continuous
 62
     7
370
    15
100
AcDbLine
 10
210.4512557602
 20
61.1113124462
 30
0.0
 11
210.4160719826
 21
59.0956351792
 31
0.0
  0
LINE
  5
156
330
1F
100
AcDbEntity
  8
0
  6
Continuous
 62
     7
370
    15
100
AcDbLine
 10
210.4160719826
 20
59.0956351792
 30
0.0
 11
203.2658522038
 21
59.0956351792
 31
0.0
  0
LINE
  5
157
330
1F
100
AcDbEntity
  8
0
  6
Continuous
 62
     7
370
    15
100
AcDbLine
 10
181.8680891643
 20
59.0956351792
 30
0.0
 11
203.2658522038
 21
59.0956351792
 31
0.0
  0
LINE
  5
158
330
1F
100
AcDbEntity
  8
0
  6
Continuous
 62
     7
370
    15
100
AcDbLine
 10
210.3995304452
 20
58.1479711354
 30
0.0
 11
174.7344109229
 21
58.1479711354
 31
0.0
  0
LINE
  5
159
330
1F
100
AcDbEntity
  8
0
  6
Continuous
 62
     7
370
    15
100
AcDbLine
 10
174.7344109229
 20
58.1479711354
 30
0.0
 11
174.7178693855
 21
59.0956351792
 31
0.0
  0
LINE
  5
15A
330
1F
100
AcDbEntity
  8
0
  6
Continuous
 62
     7
370
    15
100
AcDbLine
 10
210.4160719826
 20
59.0956351792
 30
0.0
 11
210.3995304452
 21
58.1479711354
 31
0.0
  0
LINE
  5
15B
330
1F
100
AcDbEntity
  8
0
  6
Continuous
 62
     7
370
    15
100
AcDbLine
 10
175.066970684
 20
39.0956351792
 30
0.0
 11
210.066970684
 21
39.0956351792
 31
0.0
  0
LINE
  5
15C
330
1F
100
AcDbEntity
  8
0
  6
Continuous
 62
     7
370
    15
100
AcDbLine
 10
174.7344109229
 20
58.1479711354
 30
0.0
 11
175.066970684
 21
39.0956351792
 31
0.0
  0
LINE
  5
15D
330
1F
100
AcDbEntity
  8
0
  6
Continuous
 62
     7
370
    15
100
AcDbLine
 10
210.066970684
 20
39.0956351792
 30
0.0
 11
210.3995304452
 21
58.1479711354
 31
0.0
  0
LINE
  5
15E
330
1F
100
AcDbEntity
  8
0
  6
Continuous
 62
     7
370
    15
100
AcDbLine
 10
209.8924200348
 20
29.0956351792
 30
0.0
 11
175.2415213333
 21
29.0956351792
 31
0.0
  0
LINE
  5
15F
330
1F
100
AcDbEntity
  8
0
  6
Continuous
 62
     7
370
    15
100
AcDbLine
 10
175.2415213333
 20
29.0956351792
 30
0.0
 11
175.066970684
 21
39.0956351792
 31
0.0
  0
LINE
  5
160
330
1F
100
AcDbEntity
  8
0
  6
Continuous
 62
     7
370
    15
100
AcDbLine
 10
209.8924200348
 20
29.0956351792
 30
0.0
 11
210.066970684
 21
39.0956351792
 31
0.0
  0
LINE
  5
161
330
1F
100
AcDbEntity
  8
0
  6
Continuous
 62
     7
370
    15
100
AcDbLine
 10
195.9671440042
 20
27.1956351792
 30
0.0
 11
196.3280949675
 21
29.0956351792
 31
0.0
  0
LINE
  5
162
330
1F
100
AcDbEntity
  8
0
  6
Continuous
 62
     7
370
    15
100
AcDbLine
 10
195.9671440042
 20
27.1956351792
 30
0.0
 11
193.716970684
 21
27.1956351792
 31
0.0
  0
LINE
  5
163
330
1F
100
AcDbEntity
  8
0
  6
Continuous
 62
     7
370
    15
100
AcDbLine
 10
193.716970684
 20
27.1956351792
 30
0.0
 11
193.6672174331
 21
29.0956351792
 31
0.0
  0
LINE
  5
164
330
1F
100
AcDbEntity
  8
0
  6
Continuous
 62
     7
370
    15
100
AcDbLine
 10
191.416970684
 20
27.1956351792
 30
0.0
 11
189.1667973638
 21
27.1956351792
 31
0.0
  0
LINE
  5
165
330
1F
100
AcDbEntity
  8
0
  6
Continuous
 62
     7
370
    15
100
AcDbLine
 10
189.1667973638
 20
27.1956351792
 30
0.0
 11
188.8058464005
 21
29.0956351792
 31
0.0
  0
LINE
  5
166
330
1F
100
AcDbEntity
  8
0
  6
Continuous
 62
     7
370
    15
100
AcDbLine
 10
191.416970684
 20
27.1956351792
 30
0.0
 11
191.466723935
 21
29.0956351792
 31
0.0
  0
LINE
  5
167
330
1F
100
AcDbEntity
  8
0
  6
Continuous
 62
     7
370
    15
100
AcDbLine
 10
267.9498927655
 20
193.1011043438
 30
0.0
 11
239.9655700326
 21
193.5895725141
 31
0.0
  0
LINE
  5
168
330
1F
100
AcDbEntity
  8
0
  6
Continuous
 62
     7
370
    15
100
AcDbLine
 10
269.9655700326
 20
170.0618077554
 30
0.0
 11
267.9498927655
 21
193.1011043438
 31
0.0
  0
LINE
  5
169
330
1F
100
AcDbEntity
  8
0
  6
Continuous
 62
     7
370
    15
100
AcDbLine
 10
269.9655700326
 20
155.2136348104
 30
0.0
 11
269.9655700326
 21
170.0618077554
 31
0.0
  0
ARC
  5
16A
330
1F
100
AcDbEntity
  8
0
  6
Continuous
 62
     7
370
    15
100
AcDbCircle
 10
270.9655700326
 20
155.2136348104
 30
0.0
 40
1.0
100
AcDbArc
 50
180.0
 51
267.0
  0
LINE
  5
16B
330
1F
100
AcDbEntity
  8
0
  6
Continuous
 62
     7
370
    15
100
AcDbLine
 10
270.9132340763
 20
154.2150052756
 30
0.0
 11
289.9655700326
 21
153.216514658
 31
0.0
  0
LINE
  5
16C
330
1F
100
AcDbEntity
  8
0
  6
Continuous
 62
     7
370
    15
100
AcDbLine
 10
299.9655700326
 20
152.6924368651
 30
0.0
 11
289.9655700326
 21
153.216514658
 31
0.0
  0
LINE
  5
16D
330
1F
100
AcDbEntity
  8
0
  6
Continuous
 62
     7
370
    15
100
AcDbLine
 10
299.9655700326
 20
152.6924368651
 30
0.0
 11
299.9655700326
 21
149.3910653073
 31
0.0
  0
LINE
  5
16E
330
1F
100
AcDbEntity
  8
0
  6
Continuous
 62
     7
370
    15
100
AcDbLine
 10
299.9655700326
 20
149.3910653073
 30
0.0
 11
290.9481176261
 21
149.23366509
 31
0.0
  0
ARC
  5
16F
330
1F
100
AcDbEntity
  8
0
  6
Continuous
 62
     7
370
    15
100
AcDbCircle
 10
290.9655700326
 20
148.2338173949
 30
0.0
 40
1.0
100
AcDbArc
 50
91.0
 51
180.0
  0
LINE
  5
170
330
1F
100
AcDbEntity
  8
0
  6
Continuous
 62
     7
370
    15
100
AcDbLine
 10
289.9655700326
 20
148.2338173949
 30
0.0
 11
289.9655700326
 21
121.7162100483
 31
0.0
  0
LINE
  5
171
330
1F
100
AcDbEntity
  8
0
  6
Continuous
 62
     7
370
    15
100
AcDbLine
 10
239.9655700326
 20
120.8434568019
 30
0.0
 11
289.9655700326
 21
121.7162100483
 31
0.0
  0
LINE
  5
172
330
1F
100
AcDbEntity
  8
0
  6
Continuous
 62
     7
370
    15
100
AcDbLine
 10
239.9655700326
 20
193.5895725141
 30
0.0
 11
239.9655700326
 21
120.8434568019
 31
0.0
  0
LINE
  5
173
330
1F
100
AcDbEntity
  8
0
  6
Continuous
 62
     7
370
    15
100
AcDbLine
 10
239.9655700326
 20
195.5892679044
 30
0.0
 11
267.774674509
 21
195.1038581802
 31
0.0
  0
LINE
  5
174
330
1F
100
AcDbEntity
  8
0
  6
Continuous
 62
     7
370
    15
100
AcDbLine
 10
267.774674509
 20
195.1038581802
 30
0.0
 11
267.9498927655
 21
193.1011043438
 31
0.0
  0
LINE
  5
175
330
1F
100
AcDbEntity
  8
0
  6
Continuous
 62
     7
370
    15
100
AcDbLine
 10
239.9655700326
 20
193.5895725141
 30
0.0
 11
239.9655700326
 21
195.5892679044
 31
0.0
  0
LINE
  5
176
330
1F
100
AcDbEntity
  8
0
  6
Continuous
 62
     7
370
    15
100
AcDbLine
 10
289.9655700326
 20
121.7162100483
 30
0.0
 11
289.9655700326
 21
119.716514658
 31
0.0
  0
LINE
  5
177
330
1F
100
AcDbEntity
  8
0
  6
Continuous
 62
     7
370
    15
100
AcDbLine
 10
289.9655700326
 20
119.716514658
 30
0.0
 11
239.9655700326
 21
118.8437614116
 31
0.0
  0
LINE
  5
178
330
1F
100
AcDbEntity
  8
0
  6
Continuous
 62
     7
370
    15
100
AcDbLine
 10
239.9655700326
 20
118.8437614116
 30
0.0
 11
239.9655700326
 21
120.8434568019
 31
0.0
  0
SPLINE
  5
179
330
1F
100
AcDbEntity
  8
0
  6
Continuous
 62
     7
370
    15
100
AcDbSpline
210
0.0
220
0.0
230
1.0
 70
     8
 71
     3
 72
     8
 73
     4
 74
     0
 42
0.000000001
 43
0.00000001
 40
0.0
 40
0.0
 40
0.0
 40
0.0
 40
1.0
 40
1.0
 40
1.0
 40
1.0
 10
301.8655700325738
 20
127.8163413377846
 30
0.0
 10
299.2019148865893
 20
127.2969401135158
 30
0.0
 10
296.5343108452002
 20
126.7982754902249
 30
0.0
 10
293.8655700325737
 20
126.3057676682024
 30
0.0
  0
LINE
  5
17A
330
1F
100
AcDbEntity
  8
0
  6
Continuous
 62
     7
370
    15
100
AcDbLine
 10
293.8655700326
 20
130.2760020305
 30
0.0
 11
293.8655700326
 21
126.3057676682
 31
0.0
  0
LINE
  5
17B
330
1F
100
AcDbEntity
  8
0
  6
Continuous
 62
     7
370
    15
100
AcDbLine
 10
301.8655700326
 20
130.066514658
 30
0.0
 11
301.8655700326
 21
127.8163413378
 31
0.0
  0
SPLINE
  5
17C
330
1F
100
AcDbEntity
  8
0
  6
Continuous
 62
     7
370
    15
100
AcDbSpline
210
0.0
220
0.0
230
1.0
 70
    24
 71
     3
 72
     8
 73
     4
 74
     0
 42
0.000000001
 43
0.00000001
 40
0.0
 40
0.0
 40
0.0
 40
0.0
 40
1.0
 40
1.0
 40
1.0
 40
1.0
 10
301.8655700325738
 20
130.0665146579804
 30
0.0
 10
299.2019148865893
 20
130.1362649227205
 30
0.0
 10
296.5343108452002
 20
130.206118592926
 30
0.0
 10
293.8655700325737
 20
130.2760020305339
 30
0.0
  0
SPLINE
  5
17D
330
1F
100
AcDbEntity
  8
0
  6
Continuous
 62
     7
370
    15
100
AcDbSpline
210
0.0
220
0.0
230
1.0
 70
     8
 71
     3
 72
     8
 73
     4
 74
     0
 42
0.000000001
 43
0.00000001
 40
0.0
 40
0.0
 40
0.0
 40
0.0
 40
1.0
 40
1.0
 40
1.0
 40
1.0
 10
301.8655700325738
 20
134.6166879781762
 30
0.0
 10
299.2019148865893
 20
135.1360892024449
 30
0.0
 10
296.5343108452002
 20
135.6347538257359
 30
0.0
 10
293.8655700325737
 20
136.1272616477584
 30
0.0
  0
LINE
  5
17E
330
1F
100
AcDbEntity
  8
0
  6
Continuous
 62
     7
370
    15
100
AcDbLine
 10
301.8655700326
 20
134.6166879782
 30
0.0
 11
301.8655700326
 21
132.366514658
 31
0.0
  0
LINE
  5
17F
330
1F
100
AcDbEntity
  8
0
  6
Continuous
 62
     7
370
    15
100
AcDbLine
 10
293.8655700326
 20
136.1272616478
 30
0.0
 11
293.8655700326
 21
132.1570272854
 31
0.0
  0
SPLINE
  5
180
330
1F
100
AcDbEntity
  8
0
  6
Continuous
 62
     7
370
    15
100
AcDbSpline
210
0.0
220
0.0
230
1.0
 70
    24
 71
     3
 72
     8
 73
     4
 74
     0
 42
0.000000001
 43
0.00000001
 40
0.0
 40
0.0
 40
0.0
 40
0.0
 40
1.0
 40
1.0
 40
1.0
 40
1.0
 10
301.8655700325738
 20
132.3665146579804
 30
0.0
 10
299.2019148865893
 20
132.2967643932403
 30
0.0
 10
296.5343108452002
 20
132.2269107230348
 30
0.0
 10
293.8655700325737
 20
132.1570272854269
 30
0.0
  0
SPLINE
  5
181
330
1F
100
AcDbEntity
  8
0
  6
Continuous
 62
     7
370
    15
100
AcDbSpline
210
0.0
220
0.0
230
1.0
 70
     8
 71
     3
 72
     8
 73
     4
 74
     0
 42
0.000000001
 43
0.00000001
 40
0.0000002001582193
 40
0.0000002001582193
 40
0.0000002001582193
 40
0.0000002001582193
 40
0.0039032642901708
 40
0.0039032642901708
 40
0.0039032642901708
 40
0.0039032642901708
 10
289.9655700325737
 20
127.4447609114351
 30
0.0
 10
291.2655629689837
 20
127.4058229491343
 30
0.0
 10
292.5655632210137
 20
127.3671287607222
 30
0.0
 10
293.8655700325737
 20
127.3286571506103
 30
0.0
  0
SPLINE
  5
182
330
1F
100
AcDbEntity
  8
0
  6
Continuous
 62
     7
370
    15
100
AcDbSpline
210
0.0
220
0.0
230
1.0
 70
    24
 71
     3
 72
     8
 73
     4
 74
     0
 42
0.000000001
 43
0.00000001
 40
0.0000002001582193
 40
0.0000002001582193
 40
0.0000002001582193
 40
0.0000002001582193
 40
0.0039032642901708
 40
0.0039032642901708
 40
0.0039032642901708
 40
0.0039032642901708
 10
289.9655700325737
 20
130.3781271246537
 30
0.0
 10
291.2655629689837
 20
130.3440856115804
 30
0.0
 10
292.5655632210137
 20
130.3100439069408
 30
0.0
 10
293.8655700325737
 20
130.2760020305339
 30
0.0
  0
SPLINE
  5
183
330
1F
100
AcDbEntity
  8
0
  6
Continuous
 62
     7
370
    15
100
AcDbSpline
210
0.0
220
0.0
230
1.0
 70
     8
 71
     3
 72
     8
 73
     4
 74
     0
 42
0.000000001
 43
0.00000001
 40
0.0000002001582193
 40
0.0000002001582193
 40
0.0000002001582193
 40
0.0000002001582193
 40
0.0039032642901708
 40
0.0039032642901708
 40
0.0039032642901708
 40
0.0039032642901708
 10
289.9655700325737
 20
134.9882684045256
 30
0.0
 10
291.2655629689837
 20
135.0272063668265
 30
0.0
 10
292.5655632210137
 20
135.0659005552386
 30
0.0
 10
293.8655700325737
 20
135.1043721653504
 30
0.0
  0
SPLINE
  5
184
330
1F
100
AcDbEntity
  8
0
  6
Continuous
 62
     7
370
    15
100
AcDbSpline
210
0.0
220
0.0
230
1.0
 70
    24
 71
     3
 72
     8
 73
     4
 74
     0
 42
0.000000001
 43
0.00000001
 40
0.0000002001582193
 40
0.0000002001582193
 40
0.0000002001582193
 40
0.0000002001582193
 40
0.0039032642901708
 40
0.0039032642901708
 40
0.0039032642901708
 40
0.0039032642901708
 10
289.9655700325737
 20
132.0549021913071
 30
0.0
 10
291.2655629689837
 20
132.0889437043804
 30
0.0
 10
292.5655632210137
 20
132.12298540902
 30
0.0
 10
293.8655700325737
 20
132.1570272854269
 30
0.0
  0
ARC
  5
185
330
1F
100
AcDbEntity
  8
0
  6
Continuous
 62
     7
370
    15
100
AcDbCircle
 10
342.885732899
 20
170.216514658
 30
0.0
 40
10.09156090276785
100
AcDbArc
 50
184.262124767
 51
355.737875233
  0
LINE
  5
186
330
1F
100
AcDbEntity
  8
0
  6
Continuous
 62
     7
370
    15
100
AcDbLine
 10
327.0133604727
 20
169.466514658
 30
0.0
 11
332.8220804083
 21
169.466514658
 31
0.0
  0
LINE
  5
187
330
1F
100
AcDbEntity
  8
0
  6
Continuous
 62
     7
370
    15
100
AcDbLine
 10
327.0133604727
 20
121.3441422317
 30
0.0
 11
327.0133604727
 21
169.466514658
 31
0.0
  0
LINE
  5
188
330
1F
100
AcDbEntity
  8
0
  6
Continuous
 62
     7
370
    15
100
AcDbLine
 10
358.7581053253
 20
121.3441422317
 30
0.0
 11
327.0133604727
 21
121.3441422317
 31
0.0
  0
LINE
  5
189
330
1F
100
AcDbEntity
  8
0
  6
Continuous
 62
     7
370
    15
100
AcDbLine
 10
358.7581053253
 20
169.466514658
 30
0.0
 11
358.7581053253
 21
121.3441422317
 31
0.0
  0
LINE
  5
18A
330
1F
100
AcDbEntity
  8
0
  6
Continuous
 62
     7
370
    15
100
AcDbLine
 10
358.7581053253
 20
169.466514658
 30
0.0
 11
352.9493853898
 21
169.466514658
 31
0.0
  0
LINE
  5
18B
330
1F
100
AcDbEntity
  8
0
  6
Continuous
 62
     7
370
    15
100
AcDbLine
 10
327.0133604727
 20
170.966514658
 30
0.0
 11
327.0133604727
 21
180.466514658
 31
0.0
  0
LINE
  5
18C
330
1F
100
AcDbEntity
  8
0
  6
Continuous
 62
     7
370
    15
100
AcDbLine
 10
332.8220804083
 20
170.966514658
 30
0.0
 11
327.0133604727
 21
170.966514658
 31
0.0
  0
ARC
  5
18D
330
1F
100
AcDbEntity
  8
0
  6
Continuous
 62
     7
370
    15
100
AcDbCircle
 10
342.885732899
 20
170.216514658
 30
0.0
 40
10.09156090276785
100
AcDbArc
 50
131.5355656636
 51
175.737875233
  0
LINE
  5
18E
330
1F
100
AcDbEntity
  8
0
  6
Continuous
 62
     7
370
    15
100
AcDbLine
 10
336.1941719963
 20
180.466514658
 30
0.0
 11
336.1941719963
 21
177.7704946777
 31
0.0
  0
LINE
  5
18F
330
1F
100
AcDbEntity
  8
0
  6
Continuous
 62
     7
370
    15
100
AcDbLine
 10
336.1941719963
 20
180.466514658
 30
0.0
 11
327.0133604727
 21
180.466514658
 31
0.0
  0
LINE
  5
190
330
1F
100
AcDbEntity
  8
0
  6
Continuous
 62
     7
370
    15
100
AcDbLine
 10
326.5126750429
 20
195.5892679044
 30
0.0
 11
359.2587907551
 21
195.5892679044
 31
0.0
  0
ELLIPSE
  5
191
330
1F
100
AcDbEntity
  8
0
  6
Continuous
 62
     7
370
    15
100
AcDbEllipse
 10
359.2581814893
 20
193.5889632483
 30
0.0
 11
-1.414644378339119
 21
-1.414644378339176
 31
0.0
210
0.0
220
0.0
230
1.0
 40
0.9996954599
 41
2.356346783439918
 42
3.926838523739641
  0
LINE
  5
192
330
1F
100
AcDbEntity
  8
0
  6
Continuous
 62
     7
370
    15
100
AcDbLine
 10
361.2584861454
 20
193.5895725141
 30
0.0
 11
361.2584861454
 21
120.8434568019
 31
0.0
  0
ELLIPSE
  5
193
330
1F
100
AcDbEntity
  8
0
  6
Continuous
 62
     7
370
    15
100
AcDbEllipse
 10
359.2581814893
 20
120.8440660677
 30
0.0
 11
-1.414644378339176
 21
1.414644378339176
 31
0.0
210
0.0
220
0.0
230
1.0
 40
0.9996954599
 41
2.356346783439926
 42
3.926838523739681
  0
LINE
  5
194
330
1F
100
AcDbEntity
  8
0
  6
Continuous
 62
     7
370
    15
100
AcDbLine
 10
359.2587907551
 20
118.8437614116
 30
0.0
 11
326.5126750429
 21
118.8437614116
 31
0.0
  0
ELLIPSE
  5
195
330
1F
100
AcDbEntity
  8
0
  6
Continuous
 62
     7
370
    15
100
AcDbEllipse
 10
326.5132843087
 20
120.8440660677
 30
0.0
 11
1.414644378339176
 21
1.414644378339176
 31
0.0
210
0.0
220
0.0
230
1.0
 40
0.9996954599
 41
2.356346783439911
 42
3.926838523739681
  0
LINE
  5
196
330
1F
100
AcDbEntity
  8
0
  6
Continuous
 62
     7
370
    15
100
AcDbLine
 10
324.5129796526
 20
120.8434568019
 30
0.0
 11
324.5129796526
 21
193.5895725141
 31
0.0
  0
LINE
  5
197
330
1F
100
AcDbEntity
  8
0
  6
Continuous
 62
     7
370
    15
100
AcDbLine
 10
342.135732899
 20
193.0888870843
 30
0.0
 11
342.135732899
 21
187.8659121732
 31
0.0
  0
LINE
  5
198
330
1F
100
AcDbEntity
  8
0
  6
Continuous
 62
     7
370
    15
100
AcDbLine
 10
327.0133604727
 20
193.0888870843
 30
0.0
 11
342.135732899
 21
193.0888870843
 31
0.0
  0
LINE
  5
199
330
1F
100
AcDbEntity
  8
0
  6
Continuous
 62
     7
370
    15
100
AcDbLine
 10
327.0133604727
 20
181.966514658
 30
0.0
 11
327.0133604727
 21
193.0888870843
 31
0.0
  0
LINE
  5
19A
330
1F
100
AcDbEntity
  8
0
  6
Continuous
 62
     7
370
    15
100
AcDbLine
 10
336.2363353838
 20
181.966514658
 30
0.0
 11
327.0133604727
 21
181.966514658
 31
0.0
  0
ARC
  5
19B
330
1F
100
AcDbEntity
  8
0
  6
Continuous
 62
     7
370
    15
100
AcDbCircle
 10
342.885732899
 20
181.216514658
 30
0.0
 40
6.691560902767813
100
AcDbArc
 50
96.4353172953
 51
173.5646827047
  0
ARC
  5
19C
330
1F
100
AcDbEntity
  8
0
  6
Continuous
 62
     7
370
    15
100
AcDbCircle
 10
342.885732899
 20
170.216514658
 30
0.0
 40
7.590703921540662
100
AcDbArc
 50
123.5100813978
 51
56.4899186022
  0
LINE
  5
19D
330
1F
100
AcDbEntity
  8
0
  6
Continuous
 62
     7
370
    15
100
AcDbLine
 10
347.0764368206
 20
176.5455577663
 30
0.0
 11
347.0764368206
 21
181.216514658
 31
0.0
  0
ARC
  5
19E
330
1F
100
AcDbEntity
  8
0
  6
Continuous
 62
     7
370
    15
100
AcDbCircle
 10
342.885732899
 20
181.216514658
 30
0.0
 40
4.19070392154066
100
AcDbArc
 50
0.0
 51
180.0
  0
LINE
  5
19F
330
1F
100
AcDbEntity
  8
0
  6
Continuous
 62
     7
370
    15
100
AcDbLine
 10
338.6950289775
 20
181.216514658
 30
0.0
 11
338.6950289775
 21
176.5455577663
 31
0.0
  0
LINE
  5
1A0
330
1F
100
AcDbEntity
  8
0
  6
Continuous
 62
     7
370
    15
100
AcDbLine
 10
343.635732899
 20
193.0888870843
 30
0.0
 11
358.7581053253
 21
193.0888870843
 31
0.0
  0
LINE
  5
1A1
330
1F
100
AcDbEntity
  8
0
  6
Continuous
 62
     7
370
    15
100
AcDbLine
 10
343.635732899
 20
193.0888870843
 30
0.0
 11
343.635732899
 21
187.8659121732
 31
0.0
  0
ARC
  5
1A2
330
1F
100
AcDbEntity
  8
0
  6
Continuous
 62
     7
370
    15
100
AcDbCircle
 10
342.885732899
 20
181.216514658
 30
0.0
 40
6.691560902767842
100
AcDbArc
 50
6.4353172953
 51
83.5646827047
  0
LINE
  5
1A3
330
1F
100
AcDbEntity
  8
0
  6
Continuous
 62
     7
370
    15
100
AcDbLine
 10
349.5351304142
 20
181.966514658
 30
0.0
 11
358.7581053253
 21
181.966514658
 31
0.0
  0
LINE
  5
1A4
330
1F
100
AcDbEntity
  8
0
  6
Continuous
 62
     7
370
    15
100
AcDbLine
 10
358.7581053253
 20
193.0888870843
 30
0.0
 11
358.7581053253
 21
181.966514658
 31
0.0
  0
LINE
  5
1A5
330
1F
100
AcDbEntity
  8
0
  6
Continuous
 62
     7
370
    15
100
AcDbLine
 10
349.5772938018
 20
177.7704946777
 30
0.0
 11
349.5772938018
 21
180.466514658
 31
0.0
  0
ARC
  5
1A6
330
1F
100
AcDbEntity
  8
0
  6
Continuous
 62
     7
370
    15
100
AcDbCircle
 10
342.885732899
 20
170.216514658
 30
0.0
 40
10.09156090276782
100
AcDbArc
 50
4.262124767
 51
48.4644343364
  0
LINE
  5
1A7
330
1F
100
AcDbEntity
  8
0
  6
Continuous
 62
     7
370
    15
100
AcDbLine
 10
352.9493853898
 20
170.966514658
 30
0.0
 11
358.7581053253
 21
170.966514658
 31
0.0
  0
LINE
  5
1A8
330
1F
100
AcDbEntity
  8
0
  6
Continuous
 62
     7
370
    15
100
AcDbLine
 10
358.7581053253
 20
180.466514658
 30
0.0
 11
358.7581053253
 21
170.966514658
 31
0.0
  0
LINE
  5
1A9
330
1F
100
AcDbEntity
  8
0
  6
Continuous
 62
     7
370
    15
100
AcDbLine
 10
349.5772938018
 20
180.466514658
 30
0.0
 11
358.7581053253
 21
180.466514658
 31
0.0
  0
ELLIPSE
  5
1AA
330
1F
100
AcDbEntity
  8
0
  6
Continuous
 62
     7
370
    15
100
AcDbEllipse
 10
326.5132843087
 20
193.5889632483
 30
0.0
 11
1.414644378339176
 21
-1.414644378339176
 31
0.0
210
0.0
220
0.0
230
1.0
 40
0.9996954599
 41
2.356346783439929
 42
3.926838523739672
  0
LINE
  5
1AB
330
1F
100
AcDbEntity
  8
0
  6
Continuous
 62
     7
370
    15
100
AcDbLine
 10
342.135732899
 20
192.783423448
 30
0.0
 11
336.5259670981
 21
192.783423448
 31
0.0
  0
LINE
  5
1AC
330
1F
100
AcDbEntity
  8
0
  6
Continuous
 62
     7
370
    15
100
AcDbLine
 10
336.2482512523
 20
192.6263278637
 30
0.0
 11
327.4759196933
 21
192.6263278637
 31
0.0
  0
LINE
  5
1AD
330
1F
100
AcDbEntity
  8
0
  6
Continuous
 62
     7
370
    15
100
AcDbLine
 10
327.0133604727
 20
193.0888870843
 30
0.0
 11
327.4759196933
 21
192.6263278637
 31
0.0
  0
LINE
  5
1AE
330
1F
100
AcDbEntity
  8
0
  6
Continuous
 62
     7
370
    15
100
AcDbLine
 10
327.4759196933
 20
180.466514658
 30
0.0
 11
327.4759196933
 21
170.966514658
 31
0.0
  0
LINE
  5
1AF
330
1F
100
AcDbEntity
  8
0
  6
Continuous
 62
     7
370
    15
100
AcDbLine
 10
358.7581053253
 20
121.3441422317
 30
0.0
 11
357.9464448062
 21
122.1558027508
 31
0.0
  0
LINE
  5
1B0
330
1F
100
AcDbEntity
  8
0
  6
Continuous
 62
     7
370
    15
100
AcDbLine
 10
327.0133604727
 20
121.3441422317
 30
0.0
 11
327.8250209919
 21
122.1558027508
 31
0.0
  0
LINE
  5
1B1
330
1F
100
AcDbEntity
  8
0
  6
Continuous
 62
     7
370
    15
100
AcDbLine
 10
357.9464448062
 20
122.1558027508
 30
0.0
 11
327.8250209919
 21
122.1558027508
 31
0.0
  0
LINE
  5
1B2
330
1F
100
AcDbEntity
  8
0
  6
Continuous
 62
     7
370
    15
100
AcDbLine
 10
327.4759196933
 20
192.6263278637
 30
0.0
 11
327.4759196933
 21
181.966514658
 31
0.0
  0
LINE
  5
1B3
330
1F
100
AcDbEntity
  8
0
  6
Continuous
 62
     7
370
    15
100
AcDbLine
 10
327.8250209919
 20
122.1558027508
 30
0.0
 11
327.8250209919
 21
150.716514658
 31
0.0
  0
LINE
  5
1B4
330
1F
100
AcDbEntity
  8
0
  6
Continuous
 62
     7
370
    15
100
AcDbLine
 10
327.4759196933
 20
169.466514658
 30
0.0
 11
327.4759196933
 21
150.716514658
 31
0.0
  0
ARC
  5
1B5
330
1F
100
AcDbEntity
  8
0
  6
Continuous
 62
     7
370
    15
100
AcDbCircle
 10
342.885732899
 20
170.216514658
 30
0.0
 40
10.54981453022861
100
AcDbArc
 50
184.0766701152
 51
355.9233298848
  0
ARC
  5
1B6
330
1F
100
AcDbEntity
  8
0
  6
Continuous
 62
     7
370
    15
100
AcDbCircle
 10
342.885732899
 20
170.216514658
 30
0.0
 40
10.5498145302286
100
AcDbArc
 50
132.665689052
 51
175.9233298848
  0
SPLINE
  5
1B7
330
1F
100
AcDbEntity
  8
0
  6
Continuous
 62
     7
370
    15
100
AcDbSpline
210
0.0
220
0.0
230
1.0
 70
     8
 71
     3
 72
     8
 73
     4
 74
     0
 42
0.000000001
 43
0.00000001
 40
0.0
 40
0.0
 40
0.0
 40
0.0
 40
0.0175071818120461
 40
0.0175071818120461
 40
0.0175071818120461
 40
0.0175071818120461
 10
336.1941719962553
 20
177.770494677733
 30
0.0
 10
336.0414210670345
 20
177.8392469325699
 30
0.0
 10
335.8886698469389
 20
177.9070615108386
 30
0.0
 10
335.7359183687945
 20
177.9740103109315
 30
0.0
  0
LINE
  5
1B8
330
1F
100
AcDbEntity
  8
0
  6
Continuous
 62
     7
370
    15
100
AcDbLine
 10
335.7359183688
 20
180.466514658
 30
0.0
 11
335.7359183688
 21
177.9740103109
 31
0.0
  0
ARC
  5
1B9
330
1F
100
AcDbEntity
  8
0
  6
Continuous
 62
     7
370
    15
100
AcDbCircle
 10
342.885732899
 20
181.216514658
 30
0.0
 40
7.149814530228617
100
AcDbArc
 50
96.0212799086
 51
173.9787200914
  0
LINE
  5
1BA
330
1F
100
AcDbEntity
  8
0
  6
Continuous
 62
     7
370
    15
100
AcDbLine
 10
358.7581053253
 20
193.0888870843
 30
0.0
 11
358.2955461047
 21
192.6263278637
 31
0.0
  0
LINE
  5
1BB
330
1F
100
AcDbEntity
  8
0
  6
Continuous
 62
     7
370
    15
100
AcDbLine
 10
358.2955461047
 20
192.6263278637
 30
0.0
 11
349.5232145458
 21
192.6263278637
 31
0.0
  0
LINE
  5
1BC
330
1F
100
AcDbEntity
  8
0
  6
Continuous
 62
     7
370
    15
100
AcDbLine
 10
349.2454986999
 20
192.783423448
 30
0.0
 11
343.635732899
 21
192.783423448
 31
0.0
  0
ARC
  5
1BD
330
1F
100
AcDbEntity
  8
0
  6
Continuous
 62
     7
370
    15
100
AcDbCircle
 10
342.885732899
 20
181.216514658
 30
0.0
 40
7.149814530228617
100
AcDbArc
 50
6.0212799086
 51
83.9787200914
  0
SPLINE
  5
1BE
330
1F
100
AcDbEntity
  8
0
  6
Continuous
 62
     7
370
    15
100
AcDbSpline
210
0.0
220
0.0
230
1.0
 70
     8
 71
     3
 72
     8
 73
     4
 74
     0
 42
0.000000001
 43
0.00000001
 40
0.0
 40
0.0
 40
0.0
 40
0.0
 40
0.0175071818120461
 40
0.0175071818120461
 40
0.0175071818120461
 40
0.0175071818120461
 10
349.5772938017909
 20
177.770494677733
 30
0.0
 10
349.7300447310117
 20
177.8392469325698
 30
0.0
 10
349.8827959511073
 20
177.9070615108386
 30
0.0
 10
350.0355474292517
 20
177.9740103109315
 30
0.0
  0
ARC
  5
1BF
330
1F
100
AcDbEntity
  8
0
  6
Continuous
 62
     7
370
    15
100
AcDbCircle
 10
342.885732899
 20
170.216514658
 30
0.0
 40
10.54981453022861
100
AcDbArc
 50
4.0766701152
 51
47.334310948
  0
LINE
  5
1C0
330
1F
100
AcDbEntity
  8
0
  6
Continuous
 62
     7
370
    15
100
AcDbLine
 10
350.0355474293
 20
177.9740103109
 30
0.0
 11
350.0355474293
 21
180.466514658
 31
0.0
  0
LINE
  5
1C1
330
1F
100
AcDbEntity
  8
0
  6
Continuous
 62
     7
370
    15
100
AcDbLine
 10
357.9464448062
 20
150.716514658
 30
0.0
 11
357.9464448062
 21
122.1558027508
 31
0.0
  0
LINE
  5
1C2
330
1F
100
AcDbEntity
  8
0
  6
Continuous
 62
     7
370
    15
100
AcDbLine
 10
358.2955461047
 20
150.716514658
 30
0.0
 11
358.2955461047
 21
169.466514658
 31
0.0
  0
LINE
  5
1C3
330
1F
100
AcDbEntity
  8
0
  6
Continuous
 62
     7
370
    15
100
AcDbLine
 10
358.2955461047
 20
170.966514658
 30
0.0
 11
358.2955461047
 21
180.466514658
 31
0.0
  0
LINE
  5
1C4
330
1F
100
AcDbEntity
  8
0
  6
Continuous
 62
     7
370
    15
100
AcDbLine
 10
358.2955461047
 20
181.966514658
 30
0.0
 11
358.2955461047
 21
192.6263278637
 31
0.0
  0
LINE
  5
1C5
330
1F
100
AcDbEntity
  8
0
  6
Continuous
 62
     7
370
    15
100
AcDbLine
 10
329.685732899
 20
170.966514658
 30
0.0
 11
329.685732899
 21
180.466514658
 31
0.0
  0
ARC
  5
1C6
330
1F
100
AcDbEntity
  8
0
  6
Continuous
 62
     7
370
    15
100
AcDbCircle
 10
342.885732899
 20
181.216514658
 30
0.0
 40
13.20000000000003
100
AcDbArc
 50
118.8030577162
 51
176.742803839
  0
ARC
  5
1C7
330
1F
100
AcDbEntity
  8
0
  6
Continuous
 62
     7
370
    15
100
AcDbCircle
 10
342.885732899
 20
170.216514658
 30
0.0
 40
13.20000000000003
100
AcDbArc
 50
183.257196161
 51
356.742803839
  0
ARC
  5
1C8
330
1F
100
AcDbEntity
  8
0
  6
Continuous
 62
     7
370
    15
100
AcDbCircle
 10
342.885732899
 20
181.216514658
 30
0.0
 40
13.20000000000001
100
AcDbArc
 50
3.257196161
 51
61.1969422838
  0
LINE
  5
1C9
330
1F
100
AcDbEntity
  8
0
  6
Continuous
 62
     7
370
    15
100
AcDbLine
 10
356.085732899
 20
180.466514658
 30
0.0
 11
356.085732899
 21
170.966514658
 31
0.0
  0
LINE
  5
1CA
330
1F
100
AcDbEntity
  8
0
  6
Continuous
 62
     7
370
    15
100
AcDbLine
 10
358.2955461047
 20
150.716514658
 30
0.0
 11
327.4759196933
 21
150.716514658
 31
0.0
  0
ARC
  5
1CB
330
1F
100
AcDbEntity
  8
0
  6
Continuous
 62
     7
370
    15
100
AcDbCircle
 10
342.885732899
 20
131.216514658
 30
0.0
 40
5.897416110091863
100
AcDbArc
 50
186.6417313213
 51
263.3582686787
  0
LINE
  5
1CC
330
1F
100
AcDbEntity
  8
0
  6
Continuous
 62
     7
370
    15
100
AcDbLine
 10
342.2036339658
 20
125.358677359
 30
0.0
 11
342.2036339658
 21
127.5376277164
 31
0.0
  0
ARC
  5
1CD
330
1F
100
AcDbEntity
  8
0
  6
Continuous
 62
     7
370
    15
100
AcDbCircle
 10
342.885732899
 20
131.216514658
 30
0.0
 40
3.741586305761075
100
AcDbArc
 50
190.5038777468
 51
259.4961222532
  0
LINE
  5
1CE
330
1F
100
AcDbEntity
  8
0
  6
Continuous
 62
     7
370
    15
100
AcDbLine
 10
339.2068459575
 20
130.5344157248
 30
0.0
 11
337.0278956001
 21
130.5344157248
 31
0.0
  0
ARC
  5
1CF
330
1F
100
AcDbEntity
  8
0
  6
Continuous
 62
     7
370
    15
100
AcDbCircle
 10
342.885732899
 20
131.216514658
 30
0.0
 40
3.741586305761036
100
AcDbArc
 50
100.5038777468
 51
169.4961222532
  0
LINE
  5
1D0
330
1F
100
AcDbEntity
  8
0
  6
Continuous
 62
     7
370
    15
100
AcDbLine
 10
342.2036339658
 20
134.8954015995
 30
0.0
 11
342.2036339658
 21
137.0743519569
 31
0.0
  0
ARC
  5
1D1
330
1F
100
AcDbEntity
  8
0
  6
Continuous
 62
     7
370
    15
100
AcDbCircle
 10
342.885732899
 20
131.216514658
 30
0.0
 40
5.89741611009186
100
AcDbArc
 50
96.6417313213
 51
173.3582686787
  0
LINE
  5
1D2
330
1F
100
AcDbEntity
  8
0
  6
Continuous
 62
     7
370
    15
100
AcDbLine
 10
337.0278956001
 20
131.8986135912
 30
0.0
 11
339.2068459575
 21
131.8986135912
 31
0.0
  0
ARC
  5
1D3
330
1F
100
AcDbEntity
  8
0
  6
Continuous
 62
     7
370
    15
100
AcDbCircle
 10
342.885732899
 20
131.216514658
 30
0.0
 40
5.897416110091863
100
AcDbArc
 50
276.6417313213
 51
353.3582686787
  0
LINE
  5
1D4
330
1F
100
AcDbEntity
  8
0
  6
Continuous
 62
     7
370
    15
100
AcDbLine
 10
348.743570198
 20
130.5344157248
 30
0.0
 11
346.5646198406
 21
130.5344157248
 31
0.0
  0
ARC
  5
1D5
330
1F
100
AcDbEntity
  8
0
  6
Continuous
 62
     7
370
    15
100
AcDbCircle
 10
342.885732899
 20
131.216514658
 30
0.0
 40
3.741586305761082
100
AcDbArc
 50
280.5038777468
 51
349.4961222532
  0
LINE
  5
1D6
330
1F
100
AcDbEntity
  8
0
  6
Continuous
 62
     7
370
    15
100
AcDbLine
 10
343.5678318322
 20
127.5376277164
 30
0.0
 11
343.5678318322
 21
125.358677359
 31
0.0
  0
CIRCLE
  5
1D7
330
1F
100
AcDbEntity
  8
0
  6
Continuous
 62
     7
370
    15
100
AcDbCircle
 10
342.885732899
 20
131.216514658
 30
0.0
 40
2.57826319216548
  0
ARC
  5
1D8
330
1F
100
AcDbEntity
  8
0
  6
Continuous
 62
     7
370
    15
100
AcDbCircle
 10
342.885732899
 20
131.216514658
 30
0.0
 40
3.741586305761036
100
AcDbArc
 50
10.5038777468
 51
79.4961222532
  0
LINE
  5
1D9
330
1F
100
AcDbEntity
  8
0
  6
Continuous
 62
     7
370
    15
100
AcDbLine
 10
346.5646198406
 20
131.8986135912
 30
0.0
 11
348.743570198
 21
131.8986135912
 31
0.0
  0
ARC
  5
1DA
330
1F
100
AcDbEntity
  8
0
  6
Continuous
 62
     7
370
    15
100
AcDbCircle
 10
342.885732899
 20
131.216514658
 30
0.0
 40
5.89741611009186
100
AcDbArc
 50
6.6417313213
 51
83.3582686787
  0
LINE
  5
1DB
330
1F
100
AcDbEntity
  8
0
  6
Continuous
 62
     7
370
    15
100
AcDbLine
 10
343.5678318322
 20
137.0743519569
 30
0.0
 11
343.5678318322
 21
134.8954015995
 31
0.0
  0
LINE
  5
1DC
330
1F
100
AcDbEntity
  8
0
  6
Continuous
 62
     7
370
    15
100
AcDbLine
 10
337.3526823044
 20
132.0208362844
 30
0.0
 11
339.1065680836
 21
132.0208362844
 31
0.0
  0
SPLINE
  5
1DD
330
1F
100
AcDbEntity
  8
0
  6
Continuous
 62
     7
370
    15
100
AcDbSpline
210
0.0
220
0.0
230
1.0
 70
     8
 71
     3
 72
     8
 73
     4
 74
     0
 42
0.000000001
 43
0.00000001
 40
0.002602703078391
 40
0.002602703078391
 40
0.002602703078391
 40
0.002602703078391
 40
0.0061062717716763
 40
0.0061062717716763
 40
0.0061062717716763
 40
0.0061062717716763
 10
339.2068459574638
 20
131.898613591188
 30
0.0
 10
339.17296482356
 20
131.9393540309759
 30
0.0
 10
339.1395509287918
 20
131.9800949468078
 30
0.0
 10
339.106568083634
 20
132.0208362844091
 30
0.0
  0
SPLINE
  5
1DE
330
1F
100
AcDbEntity
  8
0
  6
Continuous
 62
     7
370
    15
100
AcDbSpline
210
0.0
220
0.0
230
1.0
 70
     8
 71
     3
 72
     8
 73
     4
 74
     0
 42
0.000000001
 43
0.00000001
 40
0.0
 40
0.0
 40
0.0
 40
0.0
 40
0.0035171614677273
 40
0.0035171614677273
 40
0.0035171614677273
 40
0.0035171614677273
 10
337.0278956000801
 20
131.898613591188
 30
0.0
 10
337.1354057070602
 20
131.9393569147129
 30
0.0
 10
337.2436239393188
 20
131.980097972955
 30
0.0
 10
337.3526823044378
 20
132.0208362844091
 30
0.0
  0
SPLINE
  5
1DF
330
1F
100
AcDbEntity
  8
0
  6
Continuous
 62
     7
370
    15
100
AcDbSpline
210
0.0
220
0.0
230
1.0
 70
     8
 71
     3
 72
     8
 73
     4
 74
     0
 42
0.000000001
 43
0.00000001
 40
0.0
 40
0.0
 40
0.0
 40
0.0
 40
1.0
 40
1.0
 40
1.0
 40
1.0
 10
342.2036339658154
 20
137.0743519569234
 30
0.0
 10
342.1628905912474
 20
136.9668417152551
 30
0.0
 10
342.1221495484469
 20
136.8586235223777
 30
0.0
 10
342.0814112725943
 20
136.7495652525656
 30
0.0
  0
ARC
  5
1E0
330
1F
100
AcDbEntity
  8
0
  6
Continuous
 62
     7
370
    15
100
AcDbCircle
 10
342.885732899
 20
131.216514658
 30
0.0
 40
5.591205787751094
100
AcDbArc
 50
98.2709671231
 51
171.7290328769
  0
LINE
  5
1E1
330
1F
100
AcDbEntity
  8
0
  6
Continuous
 62
     7
370
    15
100
AcDbLine
 10
339.1065680836
 20
130.4121930316
 30
0.0
 11
337.3526823044
 21
130.4121930316
 31
0.0
  0
SPLINE
  5
1E2
330
1F
100
AcDbEntity
  8
0
  6
Continuous
 62
     7
370
    15
100
AcDbSpline
210
0.0
220
0.0
230
1.0
 70
     8
 71
     3
 72
     8
 73
     4
 74
     0
 42
0.000000001
 43
0.00000001
 40
0.0
 40
0.0
 40
0.0
 40
0.0
 40
1.0
 40
1.0
 40
1.0
 40
1.0
 10
337.0278956000801
 20
130.5344157247728
 30
0.0
 10
337.1354058417484
 20
130.4936723502048
 30
0.0
 10
337.2436240346258
 20
130.4529313074043
 30
0.0
 10
337.3526823044378
 20
130.4121930315517
 30
0.0
  0
SPLINE
  5
1E3
330
1F
100
AcDbEntity
  8
0
  6
Continuous
 62
     7
370
    15
100
AcDbSpline
210
0.0
220
0.0
230
1.0
 70
     8
 71
     3
 72
     8
 73
     4
 74
     0
 42
0.000000001
 43
0.00000001
 40
0.002602703078391
 40
0.002602703078391
 40
0.002602703078391
 40
0.002602703078391
 40
0.0061062717716763
 40
0.0061062717716763
 40
0.0061062717716763
 40
0.0061062717716763
 10
339.2068459574638
 20
130.5344157247728
 30
0.0
 10
339.17296482356
 20
130.4936752849848
 30
0.0
 10
339.1395509287918
 20
130.452934369153
 30
0.0
 10
339.106568083634
 20
130.4121930315517
 30
0.0
  0
ARC
  5
1E4
330
1F
100
AcDbEntity
  8
0
  6
Continuous
 62
     7
370
    15
100
AcDbCircle
 10
342.885732899
 20
131.216514658
 30
0.0
 40
5.591205787751122
100
AcDbArc
 50
188.2709671231
 51
261.7290328769
  0
SPLINE
  5
1E5
330
1F
100
AcDbEntity
  8
0
  6
Continuous
 62
     7
370
    15
100
AcDbSpline
210
0.0
220
0.0
230
1.0
 70
     8
 71
     3
 72
     8
 73
     4
 74
     0
 42
0.000000001
 43
0.00000001
 40
0.0
 40
0.0
 40
0.0
 40
0.0
 40
1.0
 40
1.0
 40
1.0
 40
1.0
 10
342.2036339658155
 20
125.3586773590374
 30
0.0
 10
342.1628906471271
 20
125.4661874532552
 30
0.0
 10
342.1221495696363
 20
125.5744057368583
 30
0.0
 10
342.0814112725943
 20
125.6834640633951
 30
0.0
  0
SPLINE
  5
1E6
330
1F
100
AcDbEntity
  8
0
  6
Continuous
 62
     7
370
    15
100
AcDbSpline
210
0.0
220
0.0
230
1.0
 70
     8
 71
     3
 72
     8
 73
     4
 74
     0
 42
0.000000001
 43
0.00000001
 40
0.002602703078391
 40
0.002602703078391
 40
0.002602703078391
 40
0.002602703078391
 40
0.0061062717716763
 40
0.0061062717716763
 40
0.0061062717716763
 40
0.0061062717716763
 10
342.2036339658155
 20
127.5376277164211
 30
0.0
 10
342.1628935260275
 20
127.5037465825173
 30
0.0
 10
342.1221526101956
 20
127.4703326877491
 30
0.0
 10
342.0814112725943
 20
127.4373498425913
 30
0.0
  0
ARC
  5
1E7
330
1F
100
AcDbEntity
  8
0
  6
Continuous
 62
     7
370
    15
100
AcDbCircle
 10
342.885732899
 20
131.216514658
 30
0.0
 40
3.863808998982194
100
AcDbArc
 50
257.46800714
 51
257.9849825073
  0
SPLINE
  5
1E8
330
1F
100
AcDbEntity
  8
0
  6
Continuous
 62
     7
370
    15
100
AcDbSpline
210
0.0
220
0.0
230
1.0
 70
     8
 71
     3
 72
     8
 73
     4
 74
     0
 42
0.000000001
 43
0.00000001
 40
0.0000002001582193
 40
0.0000002001582193
 40
0.0000002001582193
 40
0.0000002001582193
 40
0.0039032642901708
 40
0.0039032642901708
 40
0.0039032642901708
 40
0.0039032642901708
 10
342.0473453656963
 20
127.4447609114352
 30
0.0
 10
342.013303852623
 20
127.4058229491343
 30
0.0
 10
341.9792621479835
 20
127.3671287607222
 30
0.0
 10
341.9452202715765
 20
127.3286571506104
 30
0.0
  0
ARC
  5
1E9
330
1F
100
AcDbEntity
  8
0
  6
Continuous
 62
     7
370
    15
100
AcDbCircle
 10
342.885732899
 20
131.216514658
 30
0.0
 40
3.999999999999999
100
AcDbArc
 50
193.5991773
 51
256.4008227
  0
SPLINE
  5
1EA
330
1F
100
AcDbEntity
  8
0
  6
Continuous
 62
     7
370
    15
100
AcDbSpline
210
0.0
220
0.0
230
1.0
 70
     8
 71
     3
 72
     8
 73
     4
 74
     0
 42
0.000000001
 43
0.00000001
 40
0.0000002001582193
 40
0.0000002001582193
 40
0.0000002001582193
 40
0.0000002001582193
 40
0.0039032642901708
 40
0.0039032642901708
 40
0.0039032642901708
 40
0.0039032642901708
 10
339.1139791524778
 20
130.3781271246537
 30
0.0
 10
339.075041190177
 20
130.3440856115804
 30
0.0
 10
339.0363470017649
 20
130.3100439069408
 30
0.0
 10
338.9978753916531
 20
130.2760020305339
 30
0.0
  0
ARC
  5
1EB
330
1F
100
AcDbEntity
  8
0
  6
Continuous
 62
     7
370
    15
100
AcDbCircle
 10
342.885732899
 20
131.216514658
 30
0.0
 40
3.863808998982197
100
AcDbArc
 50
192.0150174927
 51
192.53199286
  0
ARC
  5
1EC
330
1F
100
AcDbEntity
  8
0
  6
Continuous
 62
     7
370
    15
100
AcDbCircle
 10
342.885732899
 20
131.216514658
 30
0.0
 40
3.86380899898219
100
AcDbArc
 50
167.46800714
 51
167.9849825073
  0
SPLINE
  5
1ED
330
1F
100
AcDbEntity
  8
0
  6
Continuous
 62
     7
370
    15
100
AcDbSpline
210
0.0
220
0.0
230
1.0
 70
     8
 71
     3
 72
     8
 73
     4
 74
     0
 42
0.000000001
 43
0.00000001
 40
0.0000002001582193
 40
0.0000002001582193
 40
0.0000002001582193
 40
0.0000002001582193
 40
0.0039032642901708
 40
0.0039032642901708
 40
0.0039032642901708
 40
0.0039032642901708
 10
339.1139791524778
 20
132.0549021913071
 30
0.0
 10
339.0750411901769
 20
132.0889437043804
 30
0.0
 10
339.0363470017649
 20
132.12298540902
 30
0.0
 10
338.9978753916531
 20
132.1570272854269
 30
0.0
  0
ARC
  5
1EE
330
1F
100
AcDbEntity
  8
0
  6
Continuous
 62
     7
370
    15
100
AcDbCircle
 10
342.885732899
 20
131.216514658
 30
0.0
 40
3.999999999999972
100
AcDbArc
 50
103.5991773
 51
166.4008227
  0
SPLINE
  5
1EF
330
1F
100
AcDbEntity
  8
0
  6
Continuous
 62
     7
370
    15
100
AcDbSpline
210
0.0
220
0.0
230
1.0
 70
     8
 71
     3
 72
     8
 73
     4
 74
     0
 42
0.000000001
 43
0.00000001
 40
0.0000002001582193
 40
0.0000002001582193
 40
0.0000002001582193
 40
0.0000002001582193
 40
0.0039032642901708
 40
0.0039032642901708
 40
0.0039032642901708
 40
0.0039032642901708
 10
342.0473453656964
 20
134.9882684045256
 30
0.0
 10
342.0133038526231
 20
135.0272063668265
 30
0.0
 10
341.9792621479835
 20
135.0659005552386
 30
0.0
 10
341.9452202715766
 20
135.1043721653504
 30
0.0
  0
ARC
  5
1F0
330
1F
100
AcDbEntity
  8
0
  6
Continuous
 62
     7
370
    15
100
AcDbCircle
 10
342.885732899
 20
131.216514658
 30
0.0
 40
3.863808998982153
100
AcDbArc
 50
102.0150174927
 51
102.53199286
  0
SPLINE
  5
1F1
330
1F
100
AcDbEntity
  8
0
  6
Continuous
 62
     7
370
    15
100
AcDbSpline
210
0.0
220
0.0
230
1.0
 70
     8
 71
     3
 72
     8
 73
     4
 74
     0
 42
0.000000001
 43
0.00000001
 40
0.002602703078391
 40
0.002602703078391
 40
0.002602703078391
 40
0.002602703078391
 40
0.0061062717716763
 40
0.0061062717716763
 40
0.0061062717716763
 40
0.0061062717716763
 10
342.2036339658155
 20
134.8954015995397
 30
0.0
 10
342.1628935260275
 20
134.9292827334434
 30
0.0
 10
342.1221526101957
 20
134.9626966282116
 30
0.0
 10
342.0814112725944
 20
134.9956794733694
 30
0.0
  0
ARC
  5
1F2
330
1F
100
AcDbEntity
  8
0
  6
Continuous
 62
     7
370
    15
100
AcDbCircle
 10
342.885732899
 20
131.216514658
 30
0.0
 40
2.17500000000001
100
AcDbArc
 50
301.9200663311
 51
328.0799336689
  0
SPLINE
  5
1F3
330
1F
100
AcDbEntity
  8
0
  6
Continuous
 62
     7
370
    15
100
AcDbSpline
210
0.0
220
0.0
230
1.0
 70
     8
 71
     3
 72
     8
 73
     4
 74
     0
 42
0.000000001
 43
0.00000001
 40
0.0
 40
0.0
 40
0.0
 40
0.0
 40
1.0
 40
1.0
 40
1.0
 40
1.0
 10
344.7318436757643
 20
130.0665146579804
 30
0.0
 10
344.9188788836665
 20
130.1703605866837
 30
0.0
 10
345.0791906118977
 20
130.2742377850301
 30
0.0
 10
345.2267471884663
 20
130.3781271246537
 30
0.0
  0
ARC
  5
1F4
330
1F
100
AcDbEntity
  8
0
  6
Continuous
 62
     7
370
    15
100
AcDbCircle
 10
342.885732899
 20
131.216514658
 30
0.0
 40
2.486612466673312
100
AcDbArc
 50
340.2960287424
 51
19.7039712576
  0
SPLINE
  5
1F5
330
1F
100
AcDbEntity
  8
0
  6
Continuous
 62
     7
370
    15
100
AcDbSpline
210
0.0
220
0.0
230
1.0
 70
     8
 71
     3
 72
     8
 73
     4
 74
     0
 42
0.000000001
 43
0.00000001
 40
0.0
 40
0.0
 40
0.0
 40
0.0
 40
1.0
 40
1.0
 40
1.0
 40
1.0
 10
344.7318436757643
 20
132.3665146579804
 30
0.0
 10
344.9188788836665
 20
132.2626687292772
 30
0.0
 10
345.0791906118977
 20
132.1587915309307
 30
0.0
 10
345.2267471884663
 20
132.0549021913071
 30
0.0
  0
ARC
  5
1F6
330
1F
100
AcDbEntity
  8
0
  6
Continuous
 62
     7
370
    15
100
AcDbCircle
 10
342.885732899
 20
131.216514658
 30
0.0
 40
2.174999999999962
100
AcDbArc
 50
31.9200663311
 51
58.0799336689
  0
SPLINE
  5
1F7
330
1F
100
AcDbEntity
  8
0
  6
Continuous
 62
     7
370
    15
100
AcDbSpline
210
0.0
220
0.0
230
1.0
 70
     8
 71
     3
 72
     8
 73
     4
 74
     0
 42
0.000000001
 43
0.00000001
 40
0.0
 40
0.0
 40
0.0
 40
0.0
 40
1.0
 40
1.0
 40
1.0
 40
1.0
 10
344.0357328990231
 20
133.0626254347216
 30
0.0
 10
343.9318869703199
 20
133.2496606426238
 30
0.0
 10
343.8280097719734
 20
133.409972370855
 30
0.0
 10
343.7241204323498
 20
133.5575289474237
 30
0.0
  0
ARC
  5
1F8
330
1F
100
AcDbEntity
  8
0
  6
Continuous
 62
     7
370
    15
100
AcDbCircle
 10
342.885732899
 20
131.216514658
 30
0.0
 40
2.486612466673303
100
AcDbArc
 50
70.2960287424
 51
109.7039712576
  0
SPLINE
  5
1F9
330
1F
100
AcDbEntity
  8
0
  6
Continuous
 62
     7
370
    15
100
AcDbSpline
210
0.0
220
0.0
230
1.0
 70
     8
 71
     3
 72
     8
 73
     4
 74
     0
 42
0.000000001
 43
0.00000001
 40
0.0
 40
0.0
 40
0.0
 40
0.0
 40
1.0
 40
1.0
 40
1.0
 40
1.0
 10
341.7357328990231
 20
133.0626254347216
 30
0.0
 10
341.8395788277264
 20
133.2496606426238
 30
0.0
 10
341.9434560260728
 20
133.409972370855
 30
0.0
 10
342.0473453656964
 20
133.5575289474237
 30
0.0
  0
ARC
  5
1FA
330
1F
100
AcDbEntity
  8
0
  6
Continuous
 62
     7
370
    15
100
AcDbCircle
 10
342.885732899
 20
131.216514658
 30
0.0
 40
2.174999999999962
100
AcDbArc
 50
121.9200663311
 51
148.0799336689
  0
SPLINE
  5
1FB
330
1F
100
AcDbEntity
  8
0
  6
Continuous
 62
     7
370
    15
100
AcDbSpline
210
0.0
220
0.0
230
1.0
 70
     8
 71
     3
 72
     8
 73
     4
 74
     0
 42
0.000000001
 43
0.00000001
 40
0.0
 40
0.0
 40
0.0
 40
0.0
 40
1.0
 40
1.0
 40
1.0
 40
1.0
 10
341.0396221222819
 20
132.3665146579804
 30
0.0
 10
340.8525869143796
 20
132.2626687292772
 30
0.0
 10
340.6922751861485
 20
132.1587915309307
 30
0.0
 10
340.5447186095798
 20
132.0549021913071
 30
0.0
  0
ARC
  5
1FC
330
1F
100
AcDbEntity
  8
0
  6
Continuous
 62
     7
370
    15
100
AcDbCircle
 10
342.885732899
 20
131.216514658
 30
0.0
 40
2.486612466673366
100
AcDbArc
 50
160.2960287424
 51
199.7039712576
  0
SPLINE
  5
1FD
330
1F
100
AcDbEntity
  8
0
  6
Continuous
 62
     7
370
    15
100
AcDbSpline
210
0.0
220
0.0
230
1.0
 70
     8
 71
     3
 72
     8
 73
     4
 74
     0
 42
0.000000001
 43
0.00000001
 40
0.0
 40
0.0
 40
0.0
 40
0.0
 40
1.0
 40
1.0
 40
1.0
 40
1.0
 10
341.0396221222819
 20
130.0665146579804
 30
0.0
 10
340.8525869143796
 20
130.1703605866837
 30
0.0
 10
340.6922751861485
 20
130.2742377850301
 30
0.0
 10
340.5447186095798
 20
130.3781271246537
 30
0.0
  0
ARC
  5
1FE
330
1F
100
AcDbEntity
  8
0
  6
Continuous
 62
     7
370
    15
100
AcDbCircle
 10
342.885732899
 20
131.216514658
 30
0.0
 40
2.175000000000016
100
AcDbArc
 50
211.9200663311
 51
238.0799336689
  0
SPLINE
  5
1FF
330
1F
100
AcDbEntity
  8
0
  6
Continuous
 62
     7
370
    15
100
AcDbSpline
210
0.0
220
0.0
230
1.0
 70
     8
 71
     3
 72
     8
 73
     4
 74
     0
 42
0.000000001
 43
0.00000001
 40
0.0
 40
0.0
 40
0.0
 40
0.0
 40
1.0
 40
1.0
 40
1.0
 40
1.0
 10
341.735732899023
 20
129.3704038812392
 30
0.0
 10
341.8395788277263
 20
129.183368673337
 30
0.0
 10
341.9434560260727
 20
129.0230569451058
 30
0.0
 10
342.0473453656963
 20
128.8755003685371
 30
0.0
  0
ARC
  5
200
330
1F
100
AcDbEntity
  8
0
  6
Continuous
 62
     7
370
    15
100
AcDbCircle
 10
342.885732899
 20
131.216514658
 30
0.0
 40
2.486612466673349
100
AcDbArc
 50
250.2960287424
 51
289.7039712576
  0
SPLINE
  5
201
330
1F
100
AcDbEntity
  8
0
  6
Continuous
 62
     7
370
    15
100
AcDbSpline
210
0.0
220
0.0
230
1.0
 70
     8
 71
     3
 72
     8
 73
     4
 74
     0
 42
0.000000001
 43
0.00000001
 40
0.0
 40
0.0
 40
0.0
 40
0.0
 40
1.0
 40
1.0
 40
1.0
 40
1.0
 10
344.0357328990231
 20
129.3704038812392
 30
0.0
 10
343.9318869703198
 20
129.183368673337
 30
0.0
 10
343.8280097719734
 20
129.0230569451058
 30
0.0
 10
343.7241204323497
 20
128.8755003685371
 30
0.0
  0
LINE
  5
202
330
1F
100
AcDbEntity
  8
0
  6
Continuous
 62
     7
370
    15
100
AcDbLine
 10
342.0814112726
 20
125.6834640634
 30
0.0
 11
342.0814112726
 21
127.4373498426
 31
0.0
  0
LINE
  5
203
330
1F
100
AcDbEntity
  8
0
  6
Continuous
 62
     7
370
    15
100
AcDbLine
 10
342.0814112726
 20
134.9956794734
 30
0.0
 11
342.0814112726
 21
136.7495652526
 31
0.0
  0
SPLINE
  5
204
330
1F
100
AcDbEntity
  8
0
  6
Continuous
 62
     7
370
    15
100
AcDbSpline
210
0.0
220
0.0
230
1.0
 70
     8
 71
     3
 72
     8
 73
     4
 74
     0
 42
0.000000001
 43
0.00000001
 40
0.0000002001582193
 40
0.0000002001582193
 40
0.0000002001582193
 40
0.0000002001582193
 40
0.0039032642901708
 40
0.0039032642901708
 40
0.0039032642901708
 40
0.0039032642901708
 10
343.7241204323498
 20
134.9882684045256
 30
0.0
 10
343.7581619454231
 20
135.0272063668265
 30
0.0
 10
343.7922036500627
 20
135.0659005552386
 30
0.0
 10
343.8262455264696
 20
135.1043721653504
 30
0.0
  0
ARC
  5
205
330
1F
100
AcDbEntity
  8
0
  6
Continuous
 62
     7
370
    15
100
AcDbCircle
 10
342.885732899
 20
131.216514658
 30
0.0
 40
3.999999999999985
100
AcDbArc
 50
13.5991773
 51
76.4008227
  0
SPLINE
  5
206
330
1F
100
AcDbEntity
  8
0
  6
Continuous
 62
     7
370
    15
100
AcDbSpline
210
0.0
220
0.0
230
1.0
 70
     8
 71
     3
 72
     8
 73
     4
 74
     0
 42
0.000000001
 43
0.00000001
 40
0.0000002001582193
 40
0.0000002001582193
 40
0.0000002001582193
 40
0.0000002001582193
 40
0.0039032642901708
 40
0.0039032642901708
 40
0.0039032642901708
 40
0.0039032642901708
 10
346.6574866455683
 20
132.0549021913071
 30
0.0
 10
346.6964246078692
 20
132.0889437043804
 30
0.0
 10
346.7351187962813
 20
132.12298540902
 30
0.0
 10
346.7735904063931
 20
132.1570272854269
 30
0.0
  0
ARC
  5
207
330
1F
100
AcDbEntity
  8
0
  6
Continuous
 62
     7
370
    15
100
AcDbCircle
 10
342.885732899
 20
131.216514658
 30
0.0
 40
3.86380899898219
100
AcDbArc
 50
12.0150174927
 51
12.53199286
  0
SPLINE
  5
208
330
1F
100
AcDbEntity
  8
0
  6
Continuous
 62
     7
370
    15
100
AcDbSpline
210
0.0
220
0.0
230
1.0
 70
     8
 71
     3
 72
     8
 73
     4
 74
     0
 42
0.000000001
 43
0.00000001
 40
0.002602703078391
 40
0.002602703078391
 40
0.002602703078391
 40
0.002602703078391
 40
0.0061062717716763
 40
0.0061062717716763
 40
0.0061062717716763
 40
0.0061062717716763
 10
346.5646198405824
 20
131.898613591188
 30
0.0
 10
346.5985009744861
 20
131.9393540309759
 30
0.0
 10
346.6319148692543
 20
131.9800949468078
 30
0.0
 10
346.6648977144122
 20
132.0208362844091
 30
0.0
  0
SPLINE
  5
209
330
1F
100
AcDbEntity
  8
0
  6
Continuous
 62
     7
370
    15
100
AcDbSpline
210
0.0
220
0.0
230
1.0
 70
     8
 71
     3
 72
     8
 73
     4
 74
     0
 42
0.000000001
 43
0.00000001
 40
0.002602703078391
 40
0.002602703078391
 40
0.002602703078391
 40
0.002602703078391
 40
0.0061062717716763
 40
0.0061062717716763
 40
0.0061062717716763
 40
0.0061062717716763
 10
343.5678318322306
 20
134.8954015995397
 30
0.0
 10
343.6085722720187
 20
134.9292827334434
 30
0.0
 10
343.6493131878505
 20
134.9626966282116
 30
0.0
 10
343.6900545254518
 20
134.9956794733694
 30
0.0
  0
ARC
  5
20A
330
1F
100
AcDbEntity
  8
0
  6
Continuous
 62
     7
370
    15
100
AcDbCircle
 10
342.885732899
 20
131.216514658
 30
0.0
 40
3.863808998982153
100
AcDbArc
 50
77.46800714
 51
77.9849825073
  0
SPLINE
  5
20B
330
1F
100
AcDbEntity
  8
0
  6
Continuous
 62
     7
370
    15
100
AcDbSpline
210
0.0
220
0.0
230
1.0
 70
     8
 71
     3
 72
     8
 73
     4
 74
     0
 42
0.000000001
 43
0.00000001
 40
0.0
 40
0.0
 40
0.0
 40
0.0
 40
1.0
 40
1.0
 40
1.0
 40
1.0
 10
348.7435701979661
 20
131.898613591188
 30
0.0
 10
348.6360599562977
 20
131.939356965756
 30
0.0
 10
348.5278417634204
 20
131.9800980085564
 30
0.0
 10
348.4187834936084
 20
132.0208362844091
 30
0.0
  0
ARC
  5
20C
330
1F
100
AcDbEntity
  8
0
  6
Continuous
 62
     7
370
    15
100
AcDbCircle
 10
342.885732899
 20
131.216514658
 30
0.0
 40
5.591205787751109
100
AcDbArc
 50
8.2709671231
 51
81.7290328769
  0
SPLINE
  5
20D
330
1F
100
AcDbEntity
  8
0
  6
Continuous
 62
     7
370
    15
100
AcDbSpline
210
0.0
220
0.0
230
1.0
 70
     8
 71
     3
 72
     8
 73
     4
 74
     0
 42
0.000000001
 43
0.00000001
 40
0.0
 40
0.0
 40
0.0
 40
0.0
 40
0.0035171614677273
 40
0.0035171614677273
 40
0.0035171614677273
 40
0.0035171614677273
 10
343.5678318322305
 20
137.0743519569234
 30
0.0
 10
343.6085751557555
 20
136.9668418499433
 30
0.0
 10
343.6493162139976
 20
136.8586236176847
 30
0.0
 10
343.6900545254517
 20
136.7495652525657
 30
0.0
  0
LINE
  5
20E
330
1F
100
AcDbEntity
  8
0
  6
Continuous
 62
     7
370
    15
100
AcDbLine
 10
343.6900545255
 20
136.7495652526
 30
0.0
 11
343.6900545255
 21
134.9956794734
 31
0.0
  0
SPLINE
  5
20F
330
1F
100
AcDbEntity
  8
0
  6
Continuous
 62
     7
370
    15
100
AcDbSpline
210
0.0
220
0.0
230
1.0
 70
     8
 71
     3
 72
     8
 73
     4
 74
     0
 42
0.000000001
 43
0.00000001
 40
0.0
 40
0.0
 40
0.0
 40
0.0
 40
0.0035171614677273
 40
0.0035171614677273
 40
0.0035171614677273
 40
0.0035171614677273
 10
343.5678318322306
 20
125.3586773590374
 30
0.0
 10
343.6085751557555
 20
125.4661874660175
 30
0.0
 10
343.6493162139976
 20
125.5744056982761
 30
0.0
 10
343.6900545254517
 20
125.6834640633951
 30
0.0
  0
SPLINE
  5
210
330
1F
100
AcDbEntity
  8
0
  6
Continuous
 62
     7
370
    15
100
AcDbSpline
210
0.0
220
0.0
230
1.0
 70
     8
 71
     3
 72
     8
 73
     4
 74
     0
 42
0.000000001
 43
0.00000001
 40
0.002602703078391
 40
0.002602703078391
 40
0.002602703078391
 40
0.002602703078391
 40
0.0061062717716763
 40
0.0061062717716763
 40
0.0061062717716763
 40
0.0061062717716763
 10
343.5678318322306
 20
127.537627716421
 30
0.0
 10
343.6085722720186
 20
127.5037465825173
 30
0.0
 10
343.6493131878505
 20
127.4703326877491
 30
0.0
 10
343.6900545254517
 20
127.4373498425913
 30
0.0
  0
LINE
  5
211
330
1F
100
AcDbEntity
  8
0
  6
Continuous
 62
     7
370
    15
100
AcDbLine
 10
343.6900545255
 20
127.4373498426
 30
0.0
 11
343.6900545255
 21
125.6834640634
 31
0.0
  0
SPLINE
  5
212
330
1F
100
AcDbEntity
  8
0
  6
Continuous
 62
     7
370
    15
100
AcDbSpline
210
0.0
220
0.0
230
1.0
 70
     8
 71
     3
 72
     8
 73
     4
 74
     0
 42
0.000000001
 43
0.00000001
 40
0.002602703078391
 40
0.002602703078391
 40
0.002602703078391
 40
0.002602703078391
 40
0.0061062717716763
 40
0.0061062717716763
 40
0.0061062717716763
 40
0.0061062717716763
 10
346.5646198405824
 20
130.5344157247728
 30
0.0
 10
346.5985009744861
 20
130.4936752849848
 30
0.0
 10
346.6319148692543
 20
130.452934369153
 30
0.0
 10
346.6648977144122
 20
130.4121930315517
 30
0.0
  0
ARC
  5
213
330
1F
100
AcDbEntity
  8
0
  6
Continuous
 62
     7
370
    15
100
AcDbCircle
 10
342.885732899
 20
131.216514658
 30
0.0
 40
3.863808998982197
100
AcDbArc
 50
347.46800714
 51
347.9849825073
  0
SPLINE
  5
214
330
1F
100
AcDbEntity
  8
0
  6
Continuous
 62
     7
370
    15
100
AcDbSpline
210
0.0
220
0.0
230
1.0
 70
     8
 71
     3
 72
     8
 73
     4
 74
     0
 42
0.000000001
 43
0.00000001
 40
0.0000002001582193
 40
0.0000002001582193
 40
0.0000002001582193
 40
0.0000002001582193
 40
0.0039032642901708
 40
0.0039032642901708
 40
0.0039032642901708
 40
0.0039032642901708
 10
346.6574866455683
 20
130.3781271246537
 30
0.0
 10
346.6964246078692
 20
130.3440856115804
 30
0.0
 10
346.7351187962813
 20
130.3100439069408
 30
0.0
 10
346.7735904063931
 20
130.2760020305339
 30
0.0
  0
ARC
  5
215
330
1F
100
AcDbEntity
  8
0
  6
Continuous
 62
     7
370
    15
100
AcDbCircle
 10
342.885732899
 20
131.216514658
 30
0.0
 40
4.000000000000013
100
AcDbArc
 50
283.5991773
 51
346.4008227
  0
SPLINE
  5
216
330
1F
100
AcDbEntity
  8
0
  6
Continuous
 62
     7
370
    15
100
AcDbSpline
210
0.0
220
0.0
230
1.0
 70
     8
 71
     3
 72
     8
 73
     4
 74
     0
 42
0.000000001
 43
0.00000001
 40
0.0000002001582193
 40
0.0000002001582193
 40
0.0000002001582193
 40
0.0000002001582193
 40
0.0039032642901708
 40
0.0039032642901708
 40
0.0039032642901708
 40
0.0039032642901708
 10
343.7241204323497
 20
127.4447609114351
 30
0.0
 10
343.758161945423
 20
127.4058229491343
 30
0.0
 10
343.7922036500626
 20
127.3671287607222
 30
0.0
 10
343.8262455264696
 20
127.3286571506103
 30
0.0
  0
ARC
  5
217
330
1F
100
AcDbEntity
  8
0
  6
Continuous
 62
     7
370
    15
100
AcDbCircle
 10
342.885732899
 20
131.216514658
 30
0.0
 40
3.863808998982198
100
AcDbArc
 50
282.0150174927
 51
282.53199286
  0
SPLINE
  5
218
330
1F
100
AcDbEntity
  8
0
  6
Continuous
 62
     7
370
    15
100
AcDbSpline
210
0.0
220
0.0
230
1.0
 70
     8
 71
     3
 72
     8
 73
     4
 74
     0
 42
0.000000001
 43
0.00000001
 40
0.0
 40
0.0
 40
0.0
 40
0.0
 40
1.0
 40
1.0
 40
1.0
 40
1.0
 10
348.4187834936084
 20
130.4121930315517
 30
0.0
 10
348.5278419675104
 20
130.4529313836413
 30
0.0
 10
348.6360601463587
 20
130.4936724222326
 30
0.0
 10
348.7435701979661
 20
130.5344157247728
 30
0.0
  0
ARC
  5
219
330
1F
100
AcDbEntity
  8
0
  6
Continuous
 62
     7
370
    15
100
AcDbCircle
 10
342.885732899
 20
131.216514658
 30
0.0
 40
5.591205787751133
100
AcDbArc
 50
278.2709671231
 51
351.7290328769
  0
LINE
  5
21A
330
1F
100
AcDbEntity
  8
0
  6
Continuous
 62
     7
370
    15
100
AcDbLine
 10
346.6648977144
 20
132.0208362844
 30
0.0
 11
348.4187834936
 21
132.0208362844
 31
0.0
  0
LINE
  5
21B
330
1F
100
AcDbEntity
  8
0
  6
Continuous
 62
     7
370
    15
100
AcDbLine
 10
348.4187834936
 20
130.4121930316
 30
0.0
 11
346.6648977144
 21
130.4121930316
 31
0.0
  0
ARC
  5
21C
330
1F
100
AcDbEntity
  8
0
  6
Continuous
 62
     7
370
    15
100
AcDbCircle
 10
342.885732899
 20
131.216514658
 30
0.0
 40
5.000000000000041
100
AcDbArc
 50
190.8420704217
 51
259.1579295784
  0
LINE
  5
21D
330
1F
100
AcDbEntity
  8
0
  6
Continuous
 62
     7
370
    15
100
AcDbLine
 10
341.9452202716
 20
126.3057676682
 30
0.0
 11
341.9452202716
 21
127.3286571506
 31
0.0
  0
LINE
  5
21E
330
1F
100
AcDbEntity
  8
0
  6
Continuous
 62
     7
370
    15
100
AcDbLine
 10
337.9749859092
 20
130.2760020305
 30
0.0
 11
338.9978753917
 21
130.2760020305
 31
0.0
  0
ARC
  5
21F
330
1F
100
AcDbEntity
  8
0
  6
Continuous
 62
     7
370
    15
100
AcDbCircle
 10
342.885732899
 20
131.216514658
 30
0.0
 40
5.00000000000003
100
AcDbArc
 50
100.8420704216
 51
169.1579295784
  0
LINE
  5
220
330
1F
100
AcDbEntity
  8
0
  6
Continuous
 62
     7
370
    15
100
AcDbLine
 10
341.9452202716
 20
136.1272616478
 30
0.0
 11
341.9452202716
 21
135.1043721654
 31
0.0
  0
LINE
  5
221
330
1F
100
AcDbEntity
  8
0
  6
Continuous
 62
     7
370
    15
100
AcDbLine
 10
337.9749859092
 20
132.1570272854
 30
0.0
 11
338.9978753917
 21
132.1570272854
 31
0.0
  0
ARC
  5
222
330
1F
100
AcDbEntity
  8
0
  6
Continuous
 62
     7
370
    15
100
AcDbCircle
 10
342.885732899
 20
131.216514658
 30
0.0
 40
5.000000000000005
100
AcDbArc
 50
280.8420704216
 51
349.1579295784
  0
LINE
  5
223
330
1F
100
AcDbEntity
  8
0
  6
Continuous
 62
     7
370
    15
100
AcDbLine
 10
347.7964798888
 20
130.2760020305
 30
0.0
 11
346.7735904064
 21
130.2760020305
 31
0.0
  0
LINE
  5
224
330
1F
100
AcDbEntity
  8
0
  6
Continuous
 62
     7
370
    15
100
AcDbLine
 10
343.8262455265
 20
126.3057676682
 30
0.0
 11
343.8262455265
 21
127.3286571506
 31
0.0
  0
ARC
  5
225
330
1F
100
AcDbEntity
  8
0
  6
Continuous
 62
     7
370
    15
100
AcDbCircle
 10
342.885732899
 20
131.216514658
 30
0.0
 40
4.999999999999985
100
AcDbArc
 50
10.8420704216
 51
79.1579295783
  0
LINE
  5
226
330
1F
100
AcDbEntity
  8
0
  6
Continuous
 62
     7
370
    15
100
AcDbLine
 10
347.7964798888
 20
132.1570272854
 30
0.0
 11
346.7735904064
 21
132.1570272854
 31
0.0
  0
LINE
  5
227
330
1F
100
AcDbEntity
  8
0
  6
Continuous
 62
     7
370
    15
100
AcDbLine
 10
343.8262455265
 20
136.1272616478
 30
0.0
 11
343.8262455265
 21
135.1043721654
 31
0.0
  0
ENDSEC
  0
SECTION
  2
OBJECTS
  0
DICTIONARY
  5
C
330
0
100
AcDbDictionary
281
     1
  3
ACAD_GROUP
350
D
  3
ACAD_LAYOUT
350
1A
  3
ACAD_MLINESTYLE
350
17
  3
ACAD_PLOTSETTINGS
350
19
  3
ACAD_PLOTSTYLENAME
350
E
  3
ACAD_SCALELIST
350
47
  0
DICTIONARY
  5
D
102
{ACAD_REACTORS
330
C
102
}
330
C
100
AcDbDictionary
281
     1
  0
DICTIONARY
  5
1A
102
{ACAD_REACTORS
330
C
102
}
330
C
100
AcDbDictionary
281
     1
  3
Layout1
350
1E
  3
Layout2
350
26
  3
Model
350
22
  0
DICTIONARY
  5
17
102
{ACAD_REACTORS
330
C
102
}
330
C
100
AcDbDictionary
281
     1
  3
Standard
350
18
  0
DICTIONARY
  5
19
102
{ACAD_REACTORS
330
C
102
}
330
C
100
AcDbDictionary
281
     1
  0
ACDBDICTIONARYWDFLT
  5
E
102
{ACAD_REACTORS
330
C
102
}
330
C
100
AcDbDictionary
281
     1
  3
Normal
350
F
100
AcDbDictionaryWithDefault
340
F
  0
DICTIONARY
  5
47
102
{ACAD_REACTORS
330
C
102
}
330
C
100
AcDbDictionary
281
     1
  3
A0
350
48
  3
A1
350
49
  3
A2
350
4A
  3
A3
350
4B
  3
A4
350
4C
  3
A5
350
4D
  3
A6
350
4E
  3
A7
350
4F
  3
A8
350
50
  3
A9
350
51
  3
B0
350
52
  3
B1
350
53
  3
B2
350
54
  3
B3
350
55
  3
B4
350
56
  3
B5
350
57
  3
B6
350
58
  3
B7
350
59
  3
B8
350
5A
  3
B9
350
5B
  3
C0
350
5C
  3
C1
350
5D
  3
C2
350
5E
  3
C3
350
5F
  3
C4
350
60
  3
C5
350
61
  3
C6
350
62
  3
C7
350
63
  3
C8
350
64
  3
C9
350
65
  3
D0
350
66
  3
D1
350
67
  3
D2
350
68
  0
LAYOUT
  5
1E
102
{ACAD_REACTORS
330
1A
102
}
330
1A
100
AcDbPlotSettings
  1

  2
none_device
  4

  6

 40
0.0
 41
0.0
 42
0.0
 43
0.0
 44
0.0
 45
0.0
 46
0.0
 47
0.0
 48
0.0
 49
0.0
140
0.0
141
0.0
142
1.0
143
1.0
 70
   688
 72
     1
 73
     0
 74
     5
  7

 75
    16
147
1.0
148
0.0
149
0.0
100
AcDbLayout
  1
Layout1
 70
     1
 71
     1
 10
0.0
 20
0.0
 11
420.0
 21
297.0
 12
0.0
 22
0.0
 32
0.0
 14
1.0000000000E+20
 24
1.0000000000E+20
 34
1.0000000000E+20
 15
-1.0000000000E+20
 25
-1.0000000000E+20
 35
-1.0000000000E+20
146
0.0
 13
0.0
 23
0.0
 33
0.0
 16
1.0
 26
0.0
 36
0.0
 17
0.0
 27
1.0
 37
0.0
 76
     0
330
1B
  0
LAYOUT
  5
26
102
{ACAD_REACTORS
330
1A
102
}
330
1A
100
AcDbPlotSettings
  1

  2
none_device
  4

  6

 40
0.0
 41
0.0
 42
0.0
 43
0.0
 44
0.0
 45
0.0
 46
0.0
 47
0.0
 48
0.0
 49
0.0
140
0.0
141
0.0
142
1.0
143
1.0
 70
   688
 72
     1
 73
     0
 74
     5
  7

 75
    16
147
1.0
148
0.0
149
0.0
100
AcDbLayout
  1
Layout2
 70
     1
 71
     2
 10
0.0
 20
0.0
 11
0.0
 21
0.0
 12
0.0
 22
0.0
 32
0.0
 14
0.0
 24
0.0
 34
0.0
 15
0.0
 25
0.0
 35
0.0
146
0.0
 13
0.0
 23
0.0
 33
0.0
 16
1.0
 26
0.0
 36
0.0
 17
0.0
 27
1.0
 37
0.0
 76
     0
330
23
  0
LAYOUT
  5
22
102
{ACAD_REACTORS
330
1A
102
}
330
1A
100
AcDbPlotSettings
  1

  2
none_device
  4
Letter_(8.50_x_11.00_Inches)
  6

 40
6.35
 41
6.35
 42
6.35000508
 43
6.35000508
 44
215.9
 45
279.4
 46
0.0
 47
0.0
 48
0.0
 49
0.0
140
0.0
141
0.0
142
1.0
143
1.0
 70
  1712
 72
     1
 73
     0
 74
     0
  7

 75
     0
147
1.0
148
0.0
149
0.0
100
AcDbLayout
  1
Model
 70
     1
 71
     0
 10
0.0
 20
0.0
 11
420.0
 21
297.0
 12
0.0
 22
0.0
 32
0.0
 14
0.0
 24
0.0
 34
0.0
 15
420.0
 25
297.0
 35
0.0
146
0.0
 13
0.0
 23
0.0
 33
0.0
 16
1.0
 26
0.0
 36
0.0
 17
0.0
 27
1.0
 37
0.0
 76
     0
330
1F
331
29
  0
MLINESTYLE
  5
18
102
{ACAD_REACTORS
330
17
102
}
330
17
100
AcDbMlineStyle
  2
Standard
 70
     0
  3

 62
   256
 51
90.0
 52
90.0
 71
     2
 49
0.5
 62
   256
  6
BYLAYER
 49
-0.5
 62
   256
  6
BYLAYER
  0
ACDBPLACEHOLDER
  5
F
102
{ACAD_REACTORS
330
E
102
}
330
E
  0
SCALE
  5
48
102
{ACAD_REACTORS
330
47
102
}
330
47
100
AcDbScale
 70
     0
300
1:1
140
1.0
141
1.0
290
     1
  0
SCALE
  5
49
102
{ACAD_REACTORS
330
47
102
}
330
47
100
AcDbScale
 70
     0
300
1:2
140
1.0
141
2.0
290
     0
  0
SCALE
  5
4A
102
{ACAD_REACTORS
330
47
102
}
330
47
100
AcDbScale
 70
     0
300
1:4
140
1.0
141
4.0
290
     0
  0
SCALE
  5
4B
102
{ACAD_REACTORS
330
47
102
}
330
47
100
AcDbScale
 70
     0
300
1:5
140
1.0
141
5.0
290
     0
  0
SCALE
  5
4C
102
{ACAD_REACTORS
330
47
102
}
330
47
100
AcDbScale
 70
     0
300
1:8
140
1.0
141
8.0
290
     0
  0
SCALE
  5
4D
102
{ACAD_REACTORS
330
47
102
}
330
47
100
AcDbScale
 70
     0
300
1:10
140
1.0
141
10.0
290
     0
  0
SCALE
  5
4E
102
{ACAD_REACTORS
330
47
102
}
330
47
100
AcDbScale
 70
     0
300
1:16
140
1.0
141
16.0
290
     0
  0
SCALE
  5
4F
102
{ACAD_REACTORS
330
47
102
}
330
47
100
AcDbScale
 70
     0
300
1:20
140
1.0
141
20.0
290
     0
  0
SCALE
  5
50
102
{ACAD_REACTORS
330
47
102
}
330
47
100
AcDbScale
 70
     0
300
1:30
140
1.0
141
30.0
290
     0
  0
SCALE
  5
51
102
{ACAD_REACTORS
330
47
102
}
330
47
100
AcDbScale
 70
     0
300
1:40
140
1.0
141
40.0
290
     0
  0
SCALE
  5
52
102
{ACAD_REACTORS
330
47
102
}
330
47
100
AcDbScale
 70
     0
300
1:50
140
1.0
141
50.0
290
     0
  0
SCALE
  5
53
102
{ACAD_REACTORS
330
47
102
}
330
47
100
AcDbScale
 70
     0
300
1:100
140
1.0
141
100.0
290
     0
  0
SCALE
  5
54
102
{ACAD_REACTORS
330
47
102
}
330
47
100
AcDbScale
 70
     0
300
2:1
140
2.0
141
1.0
290
     0
  0
SCALE
  5
55
102
{ACAD_REACTORS
330
47
102
}
330
47
100
AcDbScale
 70
     0
300
4:1
140
4.0
141
1.0
290
     0
  0
SCALE
  5
56
102
{ACAD_REACTORS
330
47
102
}
330
47
100
AcDbScale
 70
     0
300
8:1
140
8.0
141
1.0
290
     0
  0
SCALE
  5
57
102
{ACAD_REACTORS
330
47
102
}
330
47
100
AcDbScale
 70
     0
300
10:1
140
10.0
141
1.0
290
     0
  0
SCALE
  5
58
102
{ACAD_REACTORS
330
47
102
}
330
47
100
AcDbScale
 70
     0
300
100:1
140
100.0
141
1.0
290
     0
  0
SCALE
  5
59
102
{ACAD_REACTORS
330
47
102
}
330
47
100
AcDbScale
 70
     0
300
1/128" = 1'-0"
140
0.0078125
141
12.0
290
     0
  0
SCALE
  5
5A
102
{ACAD_REACTORS
330
47
102
}
330
47
100
AcDbScale
 70
     0
300
1/64" = 1'-0"
140
0.015625
141
12.0
290
     0
  0
SCALE
  5
5B
102
{ACAD_REACTORS
330
47
102
}
330
47
100
AcDbScale
 70
     0
300
1/32" = 1'-0"
140
0.03125
141
12.0
290
     0
  0
SCALE
  5
5C
102
{ACAD_REACTORS
330
47
102
}
330
47
100
AcDbScale
 70
     0
300
1/16" = 1'-0"
140
0.0625
141
12.0
290
     0
  0
SCALE
  5
5D
102
{ACAD_REACTORS
330
47
102
}
330
47
100
AcDbScale
 70
     0
300
3/32" = 1'-0"
140
0.09375
141
12.0
290
     0
  0
SCALE
  5
5E
102
{ACAD_REACTORS
330
47
102
}
330
47
100
AcDbScale
 70
     0
300
1/8" = 1'-0"
140
0.125
141
12.0
290
     0
  0
SCALE
  5
5F
102
{ACAD_REACTORS
330
47
102
}
330
47
100
AcDbScale
 70
     0
300
3/16" = 1'-0"
140
0.1875
141
12.0
290
     0
  0
SCALE
  5
60
102
{ACAD_REACTORS
330
47
102
}
330
47
100
AcDbScale
 70
     0
300
1/4" = 1'-0"
140
0.25
141
12.0
290
     0
  0
SCALE
  5
61
102
{ACAD_REACTORS
330
47
102
}
330
47
100
AcDbScale
 70
     0
300
3/8" = 1'-0"
140
0.375
141
12.0
290
     0
  0
SCALE
  5
62
102
{ACAD_REACTORS
330
47
102
}
330
47
100
AcDbScale
 70
     0
300
1/2" = 1'-0"
140
0.5
141
12.0
290
     0
  0
SCALE
  5
63
102
{ACAD_REACTORS
330
47
102
}
330
47
100
AcDbScale
 70
     0
300
3/4" = 1'-0"
140
0.75
141
12.0
290
     0
  0
SCALE
  5
64
102
{ACAD_REACTORS
330
47
102
}
330
47
100
AcDbScale
 70
     0
300
1" = 1'-0"
140
1.0
141
12.0
290
     0
  0
SCALE
  5
65
102
{ACAD_REACTORS
330
47
102
}
330
47
100
AcDbScale
 70
     0
300
1-1/2" = 1'-0"
140
1.5
141
12.0
290
     0
  0
SCALE
  5
66
102
{ACAD_REACTORS
330
47
102
}
330
47
100
AcDbScale
 70
     0
300
3" = 1'-0"
140
3.0
141
12.0
290
     0
  0
SCALE
  5
67
102
{ACAD_REACTORS
330
47
102
}
330
47
100
AcDbScale
 70
     0
300
6" = 1'-0"
140
6.0
141
12.0
290
     0
  0
SCALE
  5
68
102
{ACAD_REACTORS
330
47
102
}
330
47
100
AcDbScale
 70
     0
300
1'-0" = 1'-0"
140
12.0
141
12.0
290
     0
  0
ENDSEC
  0
EOF
