  0
SECTION
  2
HEADER
  9
$ACADVER
  1
AC1015
  9
$ACADMAINTVER
 70
     6
  9
$DWGCODEPAGE
  3
ANSI_1252
  9
$INSBASE
 10
0.0
 20
0.0
 30
0.0
  9
$EXTMIN
 10
0.0
 20
0.0
 30
0.0
  9
$EXTMAX
 10
420.0
 20
297.0
 30
0.0
  9
$LIMMIN
 10
0.0
 20
0.0
  9
$LIMMAX
 10
420.0
 20
297.0
  9
$ORTHOMODE
 70
     0
  9
$REGENMODE
 70
     1
  9
$FILLMODE
 70
     1
  9
$QTEXTMODE
 70
     0
  9
$MIRRTEXT
 70
     1
  9
$LTSCALE
 40
1.0
  9
$ATTMODE
 70
     1
  9
$TEXTSIZE
 40
3.5
  9
$TRACEWID
 40
1.0
  9
$TEXTSTYLE
  7
Standard
  9
$CLAYER
  8
0
  9
$CELTYPE
  6
ByLayer
  9
$CECOLOR
 62
   256
  9
$CELTSCALE
 40
1.0
  9
$DISPSILH
 70
     0
  9
$DIMSCALE
 40
1.0
  9
$DIMASZ
 40
6.0
  9
$DIMEXO
 40
1.0
  9
$DIMDLI
 40
3.75
  9
$DIMRND
 40
0.0
  9
$DIMDLE
 40
0.0
  9
$DIMEXE
 40
1.0
  9
$DIMTP
 40
0.0
  9
$DIMTM
 40
0.0
  9
$DIMTXT
 40
3.5
  9
$DIMCEN
 40
2.5
  9
$DIMTSZ
 40
0.0
  9
$DIMTOL
 70
     0
  9
$DIMLIM
 70
     0
  9
$DIMTIH
 70
     1
  9
$DIMTOH
 70
     1
  9
$DIMSE1
 70
     0
  9
$DIMSE2
 70
     0
  9
$DIMTAD
 70
     1
  9
$DIMZIN
 70
     0
  9
$DIMBLK
  1

  9
$DIMASO
 70
     1
  9
$DIMSHO
 70
     1
  9
$DIMPOST
  1

  9
$DIMAPOST
  1

  9
$DIMALT
 70
     0
  9
$DIMALTD
 70
     3
  9
$DIMALTF
 40
0.0393700787
  9
$DIMLFAC
 40
1.0
  9
$DIMTOFL
 70
     1
  9
$DIMTVP
 40
0.0
  9
$DIMTIX
 70
     0
  9
$DIMSOXD
 70
     0
  9
$DIMSAH
 70
     0
  9
$DIMBLK1
  1

  9
$DIMBLK2
  1

  9
$DIMSTYLE
  2
ISO-25
  9
$DIMCLRD
 70
     0
  9
$DIMCLRE
 70
     0
  9
$DIMCLRT
 70
     0
  9
$DIMTFAC
 40
1.0
  9
$DIMGAP
 40
1.524
  9
$DIMJUST
 70
     0
  9
$DIMSD1
 70
     0
  9
$DIMSD2
 70
     0
  9
$DIMTOLJ
 70
     0
  9
$DIMTZIN
 70
     0
  9
$DIMALTZ
 70
     0
  9
$DIMALTTZ
 70
     0
  9
$DIMUPT
 70
     0
  9
$DIMDEC
 70
     2
  9
$DIMTDEC
 70
     2
  9
$DIMALTU
 70
     2
  9
$DIMALTTD
 70
     3
  9
$DIMTXSTY
  7
Standard
  9
$DIMAUNIT
 70
     0
  9
$DIMADEC
 70
     2
  9
$DIMALTRND
 40
0.0
  9
$DIMAZIN
 70
     0
  9
$DIMDSEP
 70
    44
  9
$DIMATFIT
 70
     3
  9
$DIMFRAC
 70
     0
  9
$DIMLDRBLK
  1

  9
$DIMLUNIT
 70
     2
  9
$DIMLWD
 70
    -2
  9
$DIMLWE
 70
    -2
  9
$DIMTMOVE
 70
     0
  9
$LUNITS
 70
     2
  9
$LUPREC
 70
     2
  9
$SKETCHINC
 40
1.0
  9
$FILLETRAD
 40
10.0
  9
$AUNITS
 70
     0
  9
$AUPREC
 70
     2
  9
$MENU
  1
.
  9
$ELEVATION
 40
0.0
  9
$PELEVATION
 40
0.0
  9
$THICKNESS
 40
0.0
  9
$LIMCHECK
 70
     0
  9
$CHAMFERA
 40
0.0
  9
$CHAMFERB
 40
0.0
  9
$CHAMFERC
 40
0.0
  9
$CHAMFERD
 40
0.0
  9
$SKPOLY
 70
     0
  9
$TDCREATE
 40
2457463.4426789
  9
$TDUCREATE
 40
2457463.359345567
  9
$TDUPDATE
 40
2457463.442679259
  9
$TDUUPDATE
 40
2457463.359345926
  9
$TDINDWG
 40
0.0000000116
  9
$TDUSRTIMER
 40
0.0000000116
  9
$USRTIMER
 70
     1
  9
$ANGBASE
 50
0.0
  9
$ANGDIR
 70
     0
  9
$PDMODE
 70
     0
  9
$PDSIZE
 40
-1.0
  9
$PLINEWID
 40
0.0
  9
$SPLFRAME
 70
     0
  9
$SPLINETYPE
 70
     6
  9
$SPLINESEGS
 70
     8
  9
$HANDSEED
  5
237
  9
$SURFTAB1
 70
     6
  9
$SURFTAB2
 70
     6
  9
$SURFTYPE
 70
     6
  9
$SURFU
 70
     6
  9
$SURFV
 70
     6
  9
$UCSBASE
  2

  9
$UCSNAME
  2

  9
$UCSORG
 10
0.0
 20
0.0
 30
0.0
  9
$UCSXDIR
 10
1.0
 20
0.0
 30
0.0
  9
$UCSYDIR
 10
0.0
 20
1.0
 30
0.0
  9
$UCSORTHOREF
  2

  9
$UCSORTHOVIEW
 70
     0
  9
$UCSORGTOP
 10
0.0
 20
0.0
 30
0.0
  9
$UCSORGBOTTOM
 10
0.0
 20
0.0
 30
0.0
  9
$UCSORGLEFT
 10
0.0
 20
0.0
 30
0.0
  9
$UCSORGRIGHT
 10
0.0
 20
0.0
 30
0.0
  9
$UCSORGFRONT
 10
0.0
 20
0.0
 30
0.0
  9
$UCSORGBACK
 10
0.0
 20
0.0
 30
0.0
  9
$PUCSBASE
  2

  9
$PUCSNAME
  2

  9
$PUCSORG
 10
0.0
 20
0.0
 30
0.0
  9
$PUCSXDIR
 10
1.0
 20
0.0
 30
0.0
  9
$PUCSYDIR
 10
0.0
 20
1.0
 30
0.0
  9
$PUCSORTHOREF
  2

  9
$PUCSORTHOVIEW
 70
     0
  9
$PUCSORGTOP
 10
0.0
 20
0.0
 30
0.0
  9
$PUCSORGBOTTOM
 10
0.0
 20
0.0
 30
0.0
  9
$PUCSORGLEFT
 10
0.0
 20
0.0
 30
0.0
  9
$PUCSORGRIGHT
 10
0.0
 20
0.0
 30
0.0
  9
$PUCSORGFRONT
 10
0.0
 20
0.0
 30
0.0
  9
$PUCSORGBACK
 10
0.0
 20
0.0
 30
0.0
  9
$USERI1
 70
     0
  9
$USERI2
 70
     0
  9
$USERI3
 70
     0
  9
$USERI4
 70
     0
  9
$USERI5
 70
     0
  9
$USERR1
 40
0.0
  9
$USERR2
 40
0.0
  9
$USERR3
 40
0.0
  9
$USERR4
 40
0.0
  9
$USERR5
 40
0.0
  9
$WORLDVIEW
 70
     1
  9
$SHADEDGE
 70
     3
  9
$SHADEDIF
 70
    70
  9
$TILEMODE
 70
     1
  9
$MAXACTVP
 70
    64
  9
$PINSBASE
 10
0.0
 20
0.0
 30
0.0
  9
$PLIMCHECK
 70
     0
  9
$PEXTMIN
 10
1.0000000000E+20
 20
1.0000000000E+20
 30
1.0000000000E+20
  9
$PEXTMAX
 10
-1.0000000000E+20
 20
-1.0000000000E+20
 30
-1.0000000000E+20
  9
$PLIMMIN
 10
0.0
 20
0.0
  9
$PLIMMAX
 10
420.0
 20
297.0
  9
$UNITMODE
 70
     0
  9
$VISRETAIN
 70
     1
  9
$PLINEGEN
 70
     0
  9
$PSLTSCALE
 70
     1
  9
$TREEDEPTH
 70
  3020
  9
$CMLSTYLE
  2
Standard
  9
$CMLJUST
 70
     0
  9
$CMLSCALE
 40
20.0
  9
$PROXYGRAPHICS
 70
     1
  9
$MEASUREMENT
 70
     1
  9
$CELWEIGHT
370
    -1
  9
$ENDCAPS
280
     0
  9
$JOINSTYLE
280
     0
  9
$LWDISPLAY
290
     1
  9
$INSUNITS
 70
     4
  9
$HYPERLINKBASE
  1

  9
$STYLESHEET
  1

  9
$XEDIT
290
     1
  9
$CEPSNTYPE
380
     0
  9
$PSTYLEMODE
290
     1
  9
$FINGERPRINTGUID
  2
{4E4FFBA5-2798-4E20-99DF-5EE8E6ACDFAF}
  9
$VERSIONGUID
  2
{FAEB1C32-E019-11D5-929B-00C0DF256EC4}
  9
$EXTNAMES
290
     1
  9
$PSVPSCALE
 40
0.0
  9
$OLESTARTUP
290
     0
  0
ENDSEC
  0
SECTION
  2
CLASSES
  0
CLASS
  1
ACDBDICTIONARYWDFLT
  2
AcDbDictionaryWithDefault
  3
ObjectDBX Classes
 90
        0
280
     0
281
     0
  0
CLASS
  1
VISUALSTYLE
  2
AcDbVisualStyle
  3
ObjectDBX Classes
 90
     4095
280
     0
281
     0
  0
CLASS
  1
MATERIAL
  2
AcDbMaterial
  3
ObjectDBX Classes
 90
     1153
280
     0
281
     0
  0
CLASS
  1
SCALE
  2
AcDbScale
  3
ObjectDBX Classes
 90
     1153
280
     0
281
     0
  0
CLASS
  1
TABLESTYLE
  2
AcDbTableStyle
  3
ObjectDBX Classes
 90
     4095
280
     0
281
     0
  0
CLASS
  1
MLEADERSTYLE
  2
AcDbMLeaderStyle
  3
ACDB_MLEADERSTYLE_CLASS
 90
     4095
280
     0
281
     0
  0
CLASS
  1
SUN
  2
AcDbSun
  3
SCENEOE
 90
     1153
280
     0
281
     0
  0
CLASS
  1
ACDBPLACEHOLDER
  2
AcDbPlaceHolder
  3
ObjectDBX Classes
 90
        0
280
     0
281
     0
  0
CLASS
  1
LAYOUT
  2
AcDbLayout
  3
ObjectDBX Classes
 90
        0
280
     0
281
     0
  0
ENDSEC
  0
SECTION
  2
TABLES
  0
TABLE
  2
VPORT
  5
8
330
0
100
AcDbSymbolTable
 70
     1
  0
VPORT
  5
29
330
8
100
AcDbSymbolTableRecord
100
AcDbViewportTableRecord
  2
*Active
 70
     0
 10
0.0
 20
0.0
 11
1.0
 21
1.0
 12
210.0
 22
148.5
 13
0.0
 23
0.0
 14
10.0
 24
10.0
 15
10.0
 25
10.0
 16
0.0
 26
0.0
 36
1.0
 17
0.0
 27
0.0
 37
0.0
 40
297.0
 41
1.4141414141
 42
50.0
 43
0.0
 44
0.0
 50
0.0
 51
0.0
 71
     0
 72
  2000
 73
     1
 74
     3
 75
     0
 76
     0
 77
     0
 78
     0
281
     0
 65
     1
110
0.0
120
0.0
130
0.0
111
1.0
121
0.0
131
0.0
112
0.0
122
1.0
132
0.0
 79
     0
146
0.0
  0
ENDTAB
  0
TABLE
  2
LTYPE
  5
5
330
0
100
AcDbSymbolTable
 70
     6
  0
LTYPE
  5
14
330
5
100
AcDbSymbolTableRecord
100
AcDbLinetypeTableRecord
  2
ByBlock
 70
     0
  3

 72
    65
 73
     0
 40
0.0
  0
LTYPE
  5
15
330
5
100
AcDbSymbolTableRecord
100
AcDbLinetypeTableRecord
  2
ByLayer
 70
     0
  3

 72
    65
 73
     0
 40
0.0
  0
LTYPE
  5
16
330
5
100
AcDbSymbolTableRecord
100
AcDbLinetypeTableRecord
  2
Continuous
 70
     0
  3
Solid line
 72
    65
 73
     0
 40
0.0
  0
LTYPE
  5
6E
330
5
100
AcDbSymbolTableRecord
100
AcDbLinetypeTableRecord
  2
HIDDEN
 70
     0
  3
Hidden __ __ __ __ __ __ __ __ __ __ __ __ __ __
 72
    65
 73
     2
 40
1.905
 49
1.27
 74
     0
 49
-0.635
 74
     0
  0
LTYPE
  5
6F
330
5
100
AcDbSymbolTableRecord
100
AcDbLinetypeTableRecord
  2
PHANTOM
 70
     0
  3
Phantom ______  __  __  ______  __  __  ______
 72
    65
 73
     6
 40
12.7
 49
6.35
 74
     0
 49
-1.27
 74
     0
 49
1.27
 74
     0
 49
-1.27
 74
     0
 49
1.27
 74
     0
 49
-1.27
 74
     0
  0
LTYPE
  5
70
330
5
100
AcDbSymbolTableRecord
100
AcDbLinetypeTableRecord
  2
CENTER
 70
     0
  3
Center ____ _ ____ _ ____ _ ____ _ ____ _ ____
 72
    65
 73
     4
 40
10.16
 49
6.35
 74
     0
 49
-1.27
 74
     0
 49
1.27
 74
     0
 49
-1.27
 74
     0
  0
LTYPE
  5
71
330
5
100
AcDbSymbolTableRecord
100
AcDbLinetypeTableRecord
  2
CENTERX2
 70
     0
  3
Center (2x) ________  __  ________  __  _____
 72
    65
 73
     4
 40
20.32
 49
12.7
 74
     0
 49
-2.54
 74
     0
 49
2.54
 74
     0
 49
-2.54
 74
     0
  0
LTYPE
  5
72
330
5
100
AcDbSymbolTableRecord
100
AcDbLinetypeTableRecord
  2
DOT2
 70
     0
  3
Dot (.5x) ........................................
 72
    65
 73
     2
 40
0.635
 49
0.0
 74
     0
 49
-0.635
 74
     0
  0
ENDTAB
  0
TABLE
  2
LAYER
  5
2
330
0
100
AcDbSymbolTable
 70
     1
  0
LAYER
  5
10
330
2
100
AcDbSymbolTableRecord
100
AcDbLayerTableRecord
  2
0
 70
     0
 62
     7
  6
Continuous
370
    -3
390
F
  0
ENDTAB
  0
TABLE
  2
STYLE
  5
3
330
0
100
AcDbSymbolTable
 70
     1
  0
STYLE
  5
11
330
3
100
AcDbSymbolTableRecord
100
AcDbTextStyleTableRecord
  2
Standard
 70
     0
 40
0.0
 41
1.0
 50
0.0
 71
     0
 42
3.5
  3
txt
  4

  0
ENDTAB
  0
TABLE
  2
VIEW
  5
6
330
0
100
AcDbSymbolTable
 70
     0
  0
ENDTAB
  0
TABLE
  2
UCS
  5
7
330
0
100
AcDbSymbolTable
 70
     0
  0
ENDTAB
  0
TABLE
  2
APPID
  5
9
330
0
100
AcDbSymbolTable
 70
     1
  0
APPID
  5
12
330
9
100
AcDbSymbolTableRecord
100
AcDbRegAppTableRecord
  2
ACAD
 70
     0
  0
ENDTAB
  0
TABLE
  2
DIMSTYLE
  5
A
330
0
100
AcDbSymbolTable
 70
     1
100
AcDbDimStyleTable
  0
DIMSTYLE
105
27
330
A
100
AcDbSymbolTableRecord
100
AcDbDimStyleTableRecord
  2
ISO-25
 70
     0
 41
2.5
 42
0.625
 43
3.75
 44
1.25
 73
     0
 74
     0
 77
     1
 78
     8
140
2.5
141
2.5
143
0.0393700787
147
0.625
171
     3
172
     1
178
     0
271
     2
272
     2
274
     3
278
    44
283
     0
284
     8
340
11
  0
ENDTAB
  0
TABLE
  2
BLOCK_RECORD
  5
1
330
0
100
AcDbSymbolTable
 70
     1
  0
BLOCK_RECORD
  5
1F
330
1
100
AcDbSymbolTableRecord
100
AcDbBlockTableRecord
  2
*Model_Space
340
22
  0
BLOCK_RECORD
  5
1B
330
1
100
AcDbSymbolTableRecord
100
AcDbBlockTableRecord
  2
*Paper_Space
340
1E
  0
BLOCK_RECORD
  5
23
330
1
100
AcDbSymbolTableRecord
100
AcDbBlockTableRecord
  2
*Paper_Space0
340
26
  0
ENDTAB
  0
ENDSEC
  0
SECTION
  2
BLOCKS
  0
BLOCK
  5
20
330
1F
100
AcDbEntity
  8
0
100
AcDbBlockBegin
  2
*Model_Space
 70
     0
 10
0.0
 20
0.0
 30
0.0
  3
*Model_Space
  1

  0
ENDBLK
  5
21
330
1F
100
AcDbEntity
  8
0
100
AcDbBlockEnd
  0
BLOCK
  5
1C
330
1B
100
AcDbEntity
 67
     1
  8
0
100
AcDbBlockBegin
  2
*Paper_Space
 70
     0
 10
0.0
 20
0.0
 30
0.0
  3
*Paper_Space
  1

  0
ENDBLK
  5
1D
330
1B
100
AcDbEntity
 67
     1
  8
0
100
AcDbBlockEnd
  0
BLOCK
  5
24
330
23
100
AcDbEntity
  8
0
100
AcDbBlockBegin
  2
*Paper_Space0
 70
     0
 10
0.0
 20
0.0
 30
0.0
  3
*Paper_Space0
  1

  0
ENDBLK
  5
25
330
23
100
AcDbEntity
  8
0
100
AcDbBlockEnd
  0
ENDSEC
  0
SECTION
  2
ENTITIES
  0
ARC
  5
73
330
1F
100
AcDbEntity
  8
0
  6
Continuous
 62
     7
370
    15
100
AcDbCircle
 10
173.5817334046
 20
124.4138808664
 30
0.0
 40
2.750284523154963
100
AcDbArc
 50
44.2656013153
 51
135.7343986847
  0
SPLINE
  5
74
330
1F
100
AcDbEntity
  8
0
  6
Continuous
 62
     7
370
    15
100
AcDbSpline
210
0.0
220
0.0
230
1.0
 70
     8
 71
     3
 72
    10
 73
     6
 74
     0
 42
0.000000001
 43
0.00000001
 40
0.0
 40
0.0
 40
0.0
 40
0.0
 40
0.5
 40
0.5
 40
1.0
 40
1.0
 40
1.0
 40
1.0
 10
171.6122218947761
 20
126.3335395264907
 30
0.0
 10
171.3930607339918
 20
126.4358763031302
 30
0.0
 10
171.1775934352491
 20
126.5323772071328
 30
0.0
 10
170.8276114631475
 20
126.6801984287199
 30
0.0
 10
170.7028153048868
 20
126.7273280735686
 30
0.0
 10
170.6565817737417
 20
126.7364661174436
 30
0.0
  0
ARC
  5
75
330
1F
100
AcDbEntity
  8
0
  6
Continuous
 62
     7
370
    15
100
AcDbCircle
 10
173.5817334046
 20
124.4138808664
 30
0.0
 40
3.73509227616715
100
AcDbArc
 50
38.4497536473
 51
141.5502463527
  0
SPLINE
  5
76
330
1F
100
AcDbEntity
  8
0
  6
Continuous
 62
     7
370
    15
100
AcDbSpline
210
0.0
220
0.0
230
1.0
 70
     8
 71
     3
 72
    12
 73
     8
 74
     0
 42
0.000000001
 43
0.00000001
 40
0.0
 40
0.0
 40
0.0
 40
0.0
 40
0.2499999999999991
 40
0.2499999999999991
 40
0.4999999999999981
 40
0.4999999999999981
 40
1.0
 40
1.0
 40
1.0
 40
1.0
 10
176.5068850353645
 20
126.7364661174436
 30
0.0
 10
176.4837993007752
 20
126.7319032287708
 30
0.0
 10
176.441813240097
 20
126.7181467815571
 30
0.0
 10
176.32308592649
 20
126.6734437901527
 30
0.0
 10
176.2481379301223
 20
126.6431473295776
 30
0.0
 10
175.9869089391425
 20
126.5328187111428
 30
0.0
 10
175.7701507503209
 20
126.4357570798323
 30
0.0
 10
175.5512449143301
 20
126.3335395264907
 30
0.0
  0
ARC
  5
77
330
1F
100
AcDbEntity
  8
0
  6
Continuous
 62
     7
370
    15
100
AcDbCircle
 10
173.5817334046
 20
124.4138808664
 30
0.0
 40
2.750284523154992
100
AcDbArc
 50
224.2656013153
 51
315.7343986847
  0
SPLINE
  5
78
330
1F
100
AcDbEntity
  8
0
  6
Continuous
 62
     7
370
    15
100
AcDbSpline
210
0.0
220
0.0
230
1.0
 70
     8
 71
     3
 72
    10
 73
     6
 74
     0
 42
0.000000001
 43
0.00000001
 40
0.0
 40
0.0
 40
0.0
 40
0.0
 40
0.5
 40
0.5
 40
1.0
 40
1.0
 40
1.0
 40
1.0
 10
175.5512449143301
 20
122.4942222063612
 30
0.0
 10
175.7704060751144
 20
122.3918854297216
 30
0.0
 10
175.9858733738571
 20
122.295384525719
 30
0.0
 10
176.3358553459587
 20
122.1475633041319
 30
0.0
 10
176.4606515042194
 20
122.1004336592833
 30
0.0
 10
176.5068850353645
 20
122.0912956154082
 30
0.0
  0
ARC
  5
79
330
1F
100
AcDbEntity
  8
0
  6
Continuous
 62
     7
370
    15
100
AcDbCircle
 10
173.5817334046
 20
124.4138808664
 30
0.0
 40
3.735092276167177
100
AcDbArc
 50
218.4497536473
 51
321.5502463527
  0
SPLINE
  5
7A
330
1F
100
AcDbEntity
  8
0
  6
Continuous
 62
     7
370
    15
100
AcDbSpline
210
0.0
220
0.0
230
1.0
 70
     8
 71
     3
 72
    12
 73
     8
 74
     0
 42
0.000000001
 43
0.00000001
 40
0.0
 40
0.0
 40
0.0
 40
0.0
 40
0.2499999999999991
 40
0.2499999999999991
 40
0.4999999999999981
 40
0.4999999999999981
 40
1.0
 40
1.0
 40
1.0
 40
1.0
 10
170.6565817737417
 20
122.0912956154082
 30
0.0
 10
170.679667508331
 20
122.095858504081
 30
0.0
 10
170.7216535690091
 20
122.1096149512947
 30
0.0
 10
170.8403808826162
 20
122.1543179426992
 30
0.0
 10
170.9153288789839
 20
122.1846144032742
 30
0.0
 10
171.1765578699637
 20
122.2949430217091
 30
0.0
 10
171.3933160587853
 20
122.3920046530196
 30
0.0
 10
171.6122218947761
 20
122.4942222063612
 30
0.0
  0
LINE
  5
7B
330
1F
100
AcDbEntity
  8
0
  6
Continuous
 62
     7
370
    15
100
AcDbLine
 10
177.8643717955
 20
126.9943863231
 30
0.0
 11
176.9519471904
 21
126.5683318494
 31
0.0
  0
ARC
  5
7C
330
1F
100
AcDbEntity
  8
0
  6
Continuous
 62
     7
370
    15
100
AcDbCircle
 10
173.5817334046
 20
124.4138808664
 30
0.0
 40
3.999999999999992
100
AcDbArc
 50
31.0497384945
 51
32.5892522828
  0
LINE
  5
7D
330
1F
100
AcDbEntity
  8
0
  6
Continuous
 62
     7
370
    15
100
AcDbLine
 10
175.5622611378
 20
125.8016383456
 30
0.0
 11
177.0086128964
 21
126.4770088189
 31
0.0
  0
LINE
  5
7E
330
1F
100
AcDbEntity
  8
0
  6
Continuous
 62
     7
370
    15
100
AcDbLine
 10
174.9650101997
 20
126.0597986372
 30
0.0
 11
175.5512449143
 21
126.3335395265
 31
0.0
  0
SPLINE
  5
7F
330
1F
100
AcDbEntity
  8
0
  6
Continuous
 62
     7
370
    15
100
AcDbSpline
210
0.0
220
0.0
230
1.0
 70
     8
 71
     3
 72
     8
 73
     4
 74
     0
 42
0.000000001
 43
0.00000001
 40
0.0
 40
0.0
 40
0.0
 40
0.0
 40
1.0
 40
1.0
 40
1.0
 40
1.0
 10
177.8643717955478
 20
126.9943863231104
 30
0.0
 10
177.4209292280962
 20
126.9127366307058
 30
0.0
 10
176.9717479435251
 20
126.8283461349426
 30
0.0
 10
176.5068850353645
 20
126.7364661174436
 30
0.0
  0
ELLIPSE
  5
80
330
1F
100
AcDbEntity
  8
0
  6
Continuous
 62
     7
370
    15
100
AcDbEllipse
 10
174.4700718209
 20
122.5114437867
 30
0.0
 11
-1.610925859588377
 21
3.449907187992395
 31
0.0
210
0.0
220
0.0
230
1.0
 40
0.8342106746
 41
5.435362770406045
 42
5.622253690307225
  0
LINE
  5
81
330
1F
100
AcDbEntity
  8
0
  6
Continuous
 62
     7
370
    15
100
AcDbLine
 10
177.0086128964
 20
122.350752914
 30
0.0
 11
175.5622611378
 21
123.0261233872
 31
0.0
  0
ARC
  5
82
330
1F
100
AcDbEntity
  8
0
  6
Continuous
 62
     7
370
    15
100
AcDbCircle
 10
173.5817334046
 20
124.4138808664
 30
0.0
 40
4.000000000000006
100
AcDbArc
 50
327.4107477172
 51
328.9502615055
  0
LINE
  5
83
330
1F
100
AcDbEntity
  8
0
  6
Continuous
 62
     7
370
    15
100
AcDbLine
 10
177.8643717955
 20
121.8333754097
 30
0.0
 11
176.9519471904
 21
122.2594298835
 31
0.0
  0
SPLINE
  5
84
330
1F
100
AcDbEntity
  8
0
  6
Continuous
 62
     7
370
    15
100
AcDbSpline
210
0.0
220
0.0
230
1.0
 70
     8
 71
     3
 72
     8
 73
     4
 74
     0
 42
0.000000001
 43
0.00000001
 40
0.0
 40
0.0
 40
0.0
 40
0.0
 40
1.0
 40
1.0
 40
1.0
 40
1.0
 10
177.8643717955478
 20
121.8333754097414
 30
0.0
 10
177.4209222115263
 20
121.9150263940851
 30
0.0
 10
176.9717378955555
 20
121.9994175838875
 30
0.0
 10
176.5068850353645
 20
122.0912956154082
 30
0.0
  0
LINE
  5
85
330
1F
100
AcDbEntity
  8
0
  6
Continuous
 62
     7
370
    15
100
AcDbLine
 10
174.9650101997
 20
122.7679630957
 30
0.0
 11
175.5512449143
 21
122.4942222064
 31
0.0
  0
ELLIPSE
  5
86
330
1F
100
AcDbEntity
  8
0
  6
Continuous
 62
     7
370
    15
100
AcDbEllipse
 10
174.4700718209
 20
126.3163179461
 30
0.0
 11
1.610925859588349
 21
3.449907187992408
 31
0.0
210
0.0
220
0.0
230
1.0
 40
0.8342106746
 41
3.802524270462169
 42
3.989415190363347
  0
LINE
  5
87
330
1F
100
AcDbEntity
  8
0
  6
Continuous
 62
     7
370
    15
100
AcDbLine
 10
170.1548539127
 20
126.4770088189
 30
0.0
 11
171.6012056713
 21
125.8016383456
 31
0.0
  0
ARC
  5
88
330
1F
100
AcDbEntity
  8
0
  6
Continuous
 62
     7
370
    15
100
AcDbCircle
 10
173.5817334046
 20
124.4138808664
 30
0.0
 40
3.999999999999983
100
AcDbArc
 50
147.4107477172
 51
148.9502615055
  0
LINE
  5
89
330
1F
100
AcDbEntity
  8
0
  6
Continuous
 62
     7
370
    15
100
AcDbLine
 10
169.2990950136
 20
126.9943863231
 30
0.0
 11
170.2115196187
 21
126.5683318494
 31
0.0
  0
SPLINE
  5
8A
330
1F
100
AcDbEntity
  8
0
  6
Continuous
 62
     7
370
    15
100
AcDbSpline
210
0.0
220
0.0
230
1.0
 70
     8
 71
     3
 72
     8
 73
     4
 74
     0
 42
0.000000001
 43
0.00000001
 40
0.0
 40
0.0
 40
0.0
 40
0.0
 40
1.0
 40
1.0
 40
1.0
 40
1.0
 10
169.2990950135584
 20
126.9943863231104
 30
0.0
 10
169.7425445975799
 20
126.9127353387667
 30
0.0
 10
170.1917289135507
 20
126.8283441489643
 30
0.0
 10
170.6565817737417
 20
126.7364661174436
 30
0.0
  0
LINE
  5
8B
330
1F
100
AcDbEntity
  8
0
  6
Continuous
 62
     7
370
    15
100
AcDbLine
 10
172.1984566094
 20
126.0597986372
 30
0.0
 11
171.6122218948
 21
126.3335395265
 31
0.0
  0
ELLIPSE
  5
8C
330
1F
100
AcDbEntity
  8
0
  6
Continuous
 62
     7
370
    15
100
AcDbEllipse
 10
172.6933949882
 20
122.5114437867
 30
0.0
 11
1.610925859588349
 21
3.449907187992394
 31
0.0
210
0.0
220
0.0
230
1.0
 40
0.8342106746
 41
0.6609316168723717
 42
0.8478225367735501
  0
LINE
  5
8D
330
1F
100
AcDbEntity
  8
0
  6
Continuous
 62
     7
370
    15
100
AcDbLine
 10
169.2990950136
 20
121.8333754097
 30
0.0
 11
170.2115196187
 21
122.2594298835
 31
0.0
  0
ARC
  5
8E
330
1F
100
AcDbEntity
  8
0
  6
Continuous
 62
     7
370
    15
100
AcDbCircle
 10
173.5817334046
 20
124.4138808664
 30
0.0
 40
4.000000000000006
100
AcDbArc
 50
211.0497384945
 51
212.5892522828
  0
LINE
  5
8F
330
1F
100
AcDbEntity
  8
0
  6
Continuous
 62
     7
370
    15
100
AcDbLine
 10
171.6012056713
 20
123.0261233872
 30
0.0
 11
170.1548539127
 21
122.350752914
 31
0.0
  0
LINE
  5
90
330
1F
100
AcDbEntity
  8
0
  6
Continuous
 62
     7
370
    15
100
AcDbLine
 10
172.1984566094
 20
122.7679630957
 30
0.0
 11
171.6122218948
 21
122.4942222064
 31
0.0
  0
SPLINE
  5
91
330
1F
100
AcDbEntity
  8
0
  6
Continuous
 62
     7
370
    15
100
AcDbSpline
210
0.0
220
0.0
230
1.0
 70
     8
 71
     3
 72
     8
 73
     4
 74
     0
 42
0.000000001
 43
0.00000001
 40
0.0
 40
0.0
 40
0.0
 40
0.0
 40
1.0
 40
1.0
 40
1.0
 40
1.0
 10
169.2990950135584
 20
121.8333754097414
 30
0.0
 10
169.74253758101
 20
121.9150251021461
 30
0.0
 10
170.1917188655811
 20
121.9994155979093
 30
0.0
 10
170.6565817737417
 20
122.0912956154082
 30
0.0
  0
ELLIPSE
  5
92
330
1F
100
AcDbEntity
  8
0
  6
Continuous
 62
     7
370
    15
100
AcDbEllipse
 10
172.6933949882
 20
126.3163179461
 30
0.0
 11
-1.610925859588406
 21
3.44990718799241
 31
0.0
210
0.0
220
0.0
230
1.0
 40
0.8342106746
 41
2.293770116816219
 42
2.480661036717398
  0
ARC
  5
93
330
1F
100
AcDbEntity
  8
0
  6
Continuous
 62
     7
370
    15
100
AcDbCircle
 10
173.5817334046
 20
124.4138808664
 30
0.0
 40
2.15
100
AcDbArc
 50
49.9553372004
 51
130.0446627996
  0
ARC
  5
94
330
1F
100
AcDbEntity
  8
0
  6
Continuous
 62
     7
370
    15
100
AcDbCircle
 10
173.5817334046
 20
124.4138808664
 30
0.0
 40
2.150000000000033
100
AcDbArc
 50
229.9553372004
 51
310.0446627996
  0
ARC
  5
95
330
1F
100
AcDbEntity
  8
0
  6
Continuous
 62
     7
370
    15
100
AcDbCircle
 10
173.5817334046
 20
124.4138808664
 30
0.0
 40
5.000000000000004
100
AcDbArc
 50
211.0710818993
 51
328.9289181007
  0
ARC
  5
96
330
1F
100
AcDbEntity
  8
0
  6
Continuous
 62
     7
370
    15
100
AcDbCircle
 10
173.5817334046
 20
124.4138808664
 30
0.0
 40
4.999999999999981
100
AcDbArc
 50
31.0710818993
 51
148.9289181007
  0
LINE
  5
97
330
1F
100
AcDbEntity
  8
0
  6
Continuous
 62
     7
370
    15
100
AcDbLine
 10
189.083691045
 20
142.861923226
 30
0.0
 11
189.083691045
 21
161.8304944236
 31
0.0
  0
ELLIPSE
  5
98
330
1F
100
AcDbEntity
  8
0
  6
Continuous
 62
     7
370
    15
100
AcDbEllipse
 10
189.083691045
 20
161.7868334807
 30
0.0
 11
0.9999999949907022
 21
-0.002292531223503147
 31
0.0
210
0.0
220
0.0
230
1.0
 40
0.0436604857
 41
0.0524599705930005
 42
1.570896419821809
  0
LINE
  5
99
330
1F
100
AcDbEntity
  8
0
  6
Continuous
 62
     7
370
    15
100
AcDbLine
 10
190.0823205798
 20
161.7868334807
 30
0.0
 11
190.0823205798
 21
142.861923226
 31
0.0
  0
LINE
  5
9A
330
1F
100
AcDbEntity
  8
0
  6
Continuous
 62
     7
370
    15
100
AcDbLine
 10
189.083691045
 20
142.861923226
 30
0.0
 11
190.0823205798
 21
142.861923226
 31
0.0
  0
LINE
  5
9B
330
1F
100
AcDbEntity
  8
0
  6
Continuous
 62
     7
370
    15
100
AcDbLine
 10
190.1888638639
 20
185.0237522563
 30
0.0
 11
190.0823205798
 21
161.7868334807
 31
0.0
  0
LINE
  5
9C
330
1F
100
AcDbEntity
  8
0
  6
Continuous
 62
     7
370
    15
100
AcDbLine
 10
189.083691045
 20
161.8304944236
 30
0.0
 11
189.0834916176
 21
161.8304944236
 31
0.0
  0
LINE
  5
9D
330
1F
100
AcDbEntity
  8
0
  6
Continuous
 62
     7
370
    15
100
AcDbLine
 10
189.0834916176
 20
161.8304944236
 30
0.0
 11
189.1902343292
 21
185.110907999
 31
0.0
  0
ARC
  5
9E
330
1F
100
AcDbEntity
  8
0
  6
Continuous
 62
     7
370
    15
100
AcDbCircle
 10
189.4059815055
 20
181.8182158114
 30
0.0
 40
3.299752822079105
100
AcDbArc
 50
76.2754242136
 51
93.7488344195
  0
ELLIPSE
  5
9F
330
1F
100
AcDbEntity
  8
0
  6
Continuous
 62
     7
370
    15
100
AcDbEllipse
 10
158.0797757641
 20
161.7868334807
 30
0.0
 11
0.9999999949906738
 21
0.002292531223531569
 31
0.0
210
0.0
220
0.0
230
1.0
 40
0.0436604857
 41
1.570696233768011
 42
3.089132683000082
  0
LINE
  5
A0
330
1F
100
AcDbEntity
  8
0
  6
Continuous
 62
     7
370
    15
100
AcDbLine
 10
157.0811462293
 20
161.7868334807
 30
0.0
 11
156.9746029452
 21
185.0237522563
 31
0.0
  0
ARC
  5
A1
330
1F
100
AcDbEntity
  8
0
  6
Continuous
 62
     7
370
    15
100
AcDbCircle
 10
157.7574853036
 20
181.8182158114
 30
0.0
 40
3.299752822079275
100
AcDbArc
 50
86.2511655805
 51
103.7245757864
  0
LINE
  5
A2
330
1F
100
AcDbEntity
  8
0
  6
Continuous
 62
     7
370
    15
100
AcDbLine
 10
157.9732324799
 20
185.110907999
 30
0.0
 11
158.0799751915
 21
161.8304944236
 31
0.0
  0
LINE
  5
A3
330
1F
100
AcDbEntity
  8
0
  6
Continuous
 62
     7
370
    15
100
AcDbLine
 10
158.0799751915
 20
161.8304944236
 30
0.0
 11
158.0797757641
 21
161.8304944236
 31
0.0
  0
LINE
  5
A4
330
1F
100
AcDbEntity
  8
0
  6
Continuous
 62
     7
370
    15
100
AcDbLine
 10
157.0811462293
 20
142.861923226
 30
0.0
 11
157.0811462293
 21
161.7868334807
 31
0.0
  0
LINE
  5
A5
330
1F
100
AcDbEntity
  8
0
  6
Continuous
 62
     7
370
    15
100
AcDbLine
 10
158.0797757641
 20
161.8304944236
 30
0.0
 11
158.0797757641
 21
142.861923226
 31
0.0
  0
LINE
  5
A6
330
1F
100
AcDbEntity
  8
0
  6
Continuous
 62
     7
370
    15
100
AcDbLine
 10
158.0797757641
 20
142.861923226
 30
0.0
 11
157.0811462293
 21
142.861923226
 31
0.0
  0
LINE
  5
A7
330
1F
100
AcDbEntity
  8
0
  6
Continuous
 62
     7
370
    15
100
AcDbLine
 10
158.0797757641
 20
142.861923226
 30
0.0
 11
158.0797757641
 21
141.8632936912
 31
0.0
  0
ARC
  5
A8
330
1F
100
AcDbEntity
  8
0
  6
Continuous
 62
     7
370
    15
100
AcDbCircle
 10
158.0829860303
 20
142.8651334922
 30
0.0
 40
1.001844944373273
100
AcDbArc
 50
180.1835962936
 51
269.8164037064
  0
LINE
  5
A9
330
1F
100
AcDbEntity
  8
0
  6
Continuous
 62
     7
370
    15
100
AcDbLine
 10
158.0797757641
 20
142.861923226
 30
0.0
 11
189.083691045
 21
142.861923226
 31
0.0
  0
LINE
  5
AA
330
1F
100
AcDbEntity
  8
0
  6
Continuous
 62
     7
370
    15
100
AcDbLine
 10
189.083691045
 20
142.861923226
 30
0.0
 11
189.083691045
 21
141.8632936912
 31
0.0
  0
LINE
  5
AB
330
1F
100
AcDbEntity
  8
0
  6
Continuous
 62
     7
370
    15
100
AcDbLine
 10
189.083691045
 20
141.8632936912
 30
0.0
 11
158.0797757641
 21
141.8632936912
 31
0.0
  0
ARC
  5
AC
330
1F
100
AcDbEntity
  8
0
  6
Continuous
 62
     7
370
    15
100
AcDbCircle
 10
189.0804807788
 20
142.8651334922
 30
0.0
 40
1.001844944373216
100
AcDbArc
 50
270.1835962936
 51
359.8164037064
  0
LINE
  5
AD
330
1F
100
AcDbEntity
  8
0
  6
Continuous
 62
     7
370
    15
100
AcDbLine
 10
163.0009956388
 20
163.4138808664
 30
0.0
 11
162.5889933685
 21
163.4138808664
 31
0.0
  0
ARC
  5
AE
330
1F
100
AcDbEntity
  8
0
  6
Continuous
 62
     7
370
    15
100
AcDbCircle
 10
173.5817334046
 20
163.4138808664
 30
0.0
 40
10.58073776573568
100
AcDbArc
 50
180.0
 51
0.0
  0
LINE
  5
AF
330
1F
100
AcDbEntity
  8
0
  6
Continuous
 62
     7
370
    15
100
AcDbLine
 10
184.1624711703
 20
163.4138808664
 30
0.0
 11
184.5744734406
 21
163.4138808664
 31
0.0
  0
ELLIPSE
  5
B0
330
1F
100
AcDbEntity
  8
0
  6
Continuous
 62
     7
370
    15
100
AcDbEllipse
 10
173.5817334046
 20
163.3634771421
 30
0.0
 11
0.0
 21
10.9929711415289
 31
0.0
210
0.0
220
0.0
230
1.0
 40
0.9999894884
 41
4.57248183004957
 42
4.716974083018087
  0
ARC
  5
B1
330
1F
100
AcDbEntity
  8
0
  6
Continuous
 62
     7
370
    15
100
AcDbCircle
 10
173.5817334046
 20
163.4138808664
 30
0.0
 40
11.00000000000001
100
AcDbArc
 50
188.2761462126
 51
351.7238537874
  0
ELLIPSE
  5
B2
330
1F
100
AcDbEntity
  8
0
  6
Continuous
 62
     7
370
    15
100
AcDbEllipse
 10
173.5817334046
 20
163.3634771421
 30
0.0
 11
0.0
 21
10.9929711415289
 31
0.0
210
0.0
220
0.0
230
1.0
 40
0.9999894884
 41
1.566211224161513
 42
1.71070347713003
  0
LINE
  5
B3
330
1F
100
AcDbEntity
  8
0
  6
Continuous
 62
     7
370
    15
100
AcDbLine
 10
162.6962895747
 20
161.8304944236
 30
0.0
 11
158.0799751915
 21
161.8304944236
 31
0.0
  0
LINE
  5
B4
330
1F
100
AcDbEntity
  8
0
  6
Continuous
 62
     7
370
    15
100
AcDbLine
 10
189.0834916176
 20
161.8304944236
 30
0.0
 11
184.4671772344
 21
161.8304944236
 31
0.0
  0
LINE
  5
B5
330
1F
100
AcDbEntity
  8
0
  6
Continuous
 62
     7
370
    15
100
AcDbLine
 10
184.5240374884
 20
174.4138808664
 30
0.0
 11
184.5744734406
 21
163.4138808664
 31
0.0
  0
ELLIPSE
  5
B6
330
1F
100
AcDbEntity
  8
0
  6
Continuous
 62
     7
370
    15
100
AcDbEllipse
 10
173.5817334046
 20
174.3637084002
 30
0.0
 11
0.0
 21
10.9425341289444
 31
0.0
210
0.0
220
0.0
230
1.0
 40
0.9999894884
 41
4.716974083018083
 42
7.849396531341103
  0
LINE
  5
B7
330
1F
100
AcDbEntity
  8
0
  6
Continuous
 62
     7
370
    15
100
AcDbLine
 10
162.5889933685
 20
163.4138808664
 30
0.0
 11
162.6394293207
 21
174.4138808664
 31
0.0
  0
ELLIPSE
  5
B8
330
1F
100
AcDbEntity
  8
0
  6
Continuous
 62
     7
370
    15
100
AcDbEllipse
 10
158.9746174599
 20
185.1081525538
 30
0.0
 11
-0.4894477091758346
 21
0.8812242862800871
 31
0.0
210
0.0
220
0.0
230
1.0
 40
0.9913851819
 41
5.779856208288937
 42
7.347913479343032
  0
LINE
  5
B9
330
1F
100
AcDbEntity
  8
0
  6
Continuous
 62
     7
370
    15
100
AcDbLine
 10
188.1962046882
 20
186.1141374276
 30
0.0
 11
158.9672621209
 21
186.1141374276
 31
0.0
  0
ELLIPSE
  5
BA
330
1F
100
AcDbEntity
  8
0
  6
Continuous
 62
     7
370
    15
100
AcDbEllipse
 10
188.1888493492
 20
185.1081525538
 30
0.0
 11
0.4894477091758346
 21
0.8812242862800871
 31
0.0
210
0.0
220
0.0
230
1.0
 40
0.9913851819
 41
5.218457135016154
 42
6.786514406070221
  0
LINE
  5
BB
330
1F
100
AcDbEntity
  8
0
  6
Continuous
 62
     7
370
    15
100
AcDbLine
 10
184.1624711703
 20
163.4138808664
 30
0.0
 11
184.1624711703
 21
174.4138808664
 31
0.0
  0
LINE
  5
BC
330
1F
100
AcDbEntity
  8
0
  6
Continuous
 62
     7
370
    15
100
AcDbLine
 10
184.1624711703
 20
174.4138808664
 30
0.0
 11
184.5240374884
 21
174.4138808664
 31
0.0
  0
LINE
  5
BD
330
1F
100
AcDbEntity
  8
0
  6
Continuous
 62
     7
370
    15
100
AcDbLine
 10
163.0009956388
 20
174.4138808664
 30
0.0
 11
162.6394293207
 21
174.4138808664
 31
0.0
  0
LINE
  5
BE
330
1F
100
AcDbEntity
  8
0
  6
Continuous
 62
     7
370
    15
100
AcDbLine
 10
163.0009956388
 20
174.4138808664
 30
0.0
 11
163.0009956388
 21
163.4138808664
 31
0.0
  0
LINE
  5
BF
330
1F
100
AcDbEntity
  8
0
  6
Continuous
 62
     7
370
    15
100
AcDbLine
 10
189.4587739337
 20
141.4882108025
 30
0.0
 11
189.083691045
 21
141.8632936912
 31
0.0
  0
LINE
  5
C0
330
1F
100
AcDbEntity
  8
0
  6
Continuous
 62
     7
370
    15
100
AcDbLine
 10
190.0823205798
 20
142.861923226
 30
0.0
 11
190.4574034685
 21
142.4868403373
 31
0.0
  0
ARC
  5
C1
330
1F
100
AcDbEntity
  8
0
  6
Continuous
 62
     7
370
    15
100
AcDbCircle
 10
189.4555636675
 20
142.4900506035
 30
0.0
 40
1.001844944373273
100
AcDbArc
 50
270.1835962936
 51
359.8164037064
  0
LINE
  5
C2
330
1F
100
AcDbEntity
  8
0
  6
Continuous
 62
     7
370
    15
100
AcDbLine
 10
156.7060633406
 20
142.4868403373
 30
0.0
 11
157.0811462293
 21
142.861923226
 31
0.0
  0
LINE
  5
C3
330
1F
100
AcDbEntity
  8
0
  6
Continuous
 62
     7
370
    15
100
AcDbLine
 10
158.0797757641
 20
141.8632936912
 30
0.0
 11
157.7046928754
 21
141.4882108025
 31
0.0
  0
ARC
  5
C4
330
1F
100
AcDbEntity
  8
0
  6
Continuous
 62
     7
370
    15
100
AcDbCircle
 10
157.7079031416
 20
142.4900506035
 30
0.0
 40
1.001844944373245
100
AcDbArc
 50
180.1835962936
 51
269.8164037064
  0
ELLIPSE
  5
C5
330
1F
100
AcDbEntity
  8
0
  6
Continuous
 62
     7
370
    15
100
AcDbEllipse
 10
156.7142917744
 20
139.490951733
 30
0.0
 11
0.0
 21
3.0
 31
0.0
210
0.0
220
0.0
230
1.0
 40
0.0524077793
 41
0.0523598775596343
 42
1.570796326794897
  0
LINE
  5
C6
330
1F
100
AcDbEntity
  8
0
  6
Continuous
 62
     7
370
    15
100
AcDbLine
 10
156.5570684365
 20
115.3864749679
 30
0.0
 11
156.5570684365
 21
139.490951733
 31
0.0
  0
LINE
  5
C7
330
1F
100
AcDbEntity
  8
0
  6
Continuous
 62
     7
370
    15
100
AcDbLine
 10
156.0826556117
 20
114.9120621431
 30
0.0
 11
156.5570684365
 21
115.3864749679
 31
0.0
  0
LINE
  5
C8
330
1F
100
AcDbEntity
  8
0
  6
Continuous
 62
     7
370
    15
100
AcDbLine
 10
156.0826556117
 20
185.9156995897
 30
0.0
 11
156.0826556117
 21
114.9120621431
 31
0.0
  0
LINE
  5
C9
330
1F
100
AcDbEntity
  8
0
  6
Continuous
 62
     7
370
    15
100
AcDbLine
 10
156.9746029452
 20
185.0237522563
 30
0.0
 11
156.0826556117
 21
185.9156995897
 31
0.0
  0
LINE
  5
CA
330
1F
100
AcDbEntity
  8
0
  6
Continuous
 62
     7
370
    15
100
AcDbLine
 10
157.7046928754
 20
141.4882108025
 30
0.0
 11
189.4587739337
 21
141.4882108025
 31
0.0
  0
LINE
  5
CB
330
1F
100
AcDbEntity
  8
0
  6
Continuous
 62
     7
370
    15
100
AcDbLine
 10
191.0808111974
 20
114.9120621431
 30
0.0
 11
191.0808111974
 21
185.9156995897
 31
0.0
  0
LINE
  5
CC
330
1F
100
AcDbEntity
  8
0
  6
Continuous
 62
     7
370
    15
100
AcDbLine
 10
190.6063983726
 20
115.3864749679
 30
0.0
 11
191.0808111974
 21
114.9120621431
 31
0.0
  0
LINE
  5
CD
330
1F
100
AcDbEntity
  8
0
  6
Continuous
 62
     7
370
    15
100
AcDbLine
 10
190.6063983726
 20
139.490951733
 30
0.0
 11
190.6063983726
 21
115.3864749679
 31
0.0
  0
ELLIPSE
  5
CE
330
1F
100
AcDbEntity
  8
0
  6
Continuous
 62
     7
370
    15
100
AcDbEllipse
 10
190.4491750347
 20
139.490951733
 30
0.0
 11
0.0
 21
3.0
 31
0.0
210
0.0
220
0.0
230
1.0
 40
0.0524077793
 41
4.712388980384691
 42
6.23082542962002
  0
LINE
  5
CF
330
1F
100
AcDbEntity
  8
0
  6
Continuous
 62
     7
370
    15
100
AcDbLine
 10
191.0808111974
 20
185.9156995897
 30
0.0
 11
190.1888638639
 21
185.0237522563
 31
0.0
  0
ARC
  5
D0
330
1F
100
AcDbEntity
  8
0
  6
Continuous
 62
     7
370
    15
100
AcDbCircle
 10
173.5817334046
 20
174.4138808664
 30
0.0
 40
10.58073776573568
100
AcDbArc
 50
0.0
 51
180.0
  0
ELLIPSE
  5
D1
330
1F
100
AcDbEntity
  8
0
  6
Continuous
 62
     7
370
    15
100
AcDbEllipse
 10
188.1888493492
 20
185.0209968111
 30
0.0
 11
0.7705869266556249
 21
1.851632177745728
 31
0.0
210
0.0
220
0.0
230
1.0
 40
0.9967448728
 41
5.106972990105311
 42
6.675030261159397
  0
LINE
  5
D2
330
1F
100
AcDbEntity
  8
0
  6
Continuous
 62
     7
370
    15
100
AcDbLine
 10
188.1962046882
 20
187.0256112196
 30
0.0
 11
188.1962046882
 21
186.1141374276
 31
0.0
  0
ELLIPSE
  5
D3
330
1F
100
AcDbEntity
  8
0
  6
Continuous
 62
     7
370
    15
100
AcDbEllipse
 10
158.9746174599
 20
185.0209968111
 30
0.0
 11
-0.7705869266556249
 21
1.851632177745699
 31
0.0
210
0.0
220
0.0
230
1.0
 40
0.9967448728
 41
5.891340353199777
 42
7.459397624253863
  0
LINE
  5
D4
330
1F
100
AcDbEntity
  8
0
  6
Continuous
 62
     7
370
    15
100
AcDbLine
 10
158.9672621209
 20
187.0256112196
 30
0.0
 11
158.9672621209
 21
186.1141374276
 31
0.0
  0
LINE
  5
D5
330
1F
100
AcDbEntity
  8
0
  6
Continuous
 62
     7
370
    15
100
AcDbLine
 10
158.9672621209
 20
187.0256112196
 30
0.0
 11
188.1962046882
 21
187.0256112196
 31
0.0
  0
ELLIPSE
  5
D6
330
1F
100
AcDbEntity
  8
0
  6
Continuous
 62
     7
370
    15
100
AcDbEllipse
 10
189.0780665054
 20
185.9102139673
 30
0.0
 11
-1.418092486870137
 21
-1.418092486870137
 31
0.0
210
0.0
220
0.0
230
1.0
 40
0.9972646886
 41
2.357564018062742
 42
3.925621289116859
  0
LINE
  5
D7
330
1F
100
AcDbEntity
  8
0
  6
Continuous
 62
     7
370
    15
100
AcDbLine
 10
188.1962046882
 20
187.0256112196
 30
0.0
 11
189.0835521279
 21
187.9129586593
 31
0.0
  0
ELLIPSE
  5
D8
330
1F
100
AcDbEntity
  8
0
  6
Continuous
 62
     7
370
    15
100
AcDbEllipse
 10
158.0854003037
 20
185.9102139673
 30
0.0
 11
1.418092486870137
 21
-1.418092486870137
 31
0.0
210
0.0
220
0.0
230
1.0
 40
0.9972646886
 41
2.357564018062742
 42
3.925621289116859
  0
LINE
  5
D9
330
1F
100
AcDbEntity
  8
0
  6
Continuous
 62
     7
370
    15
100
AcDbLine
 10
158.0799146812
 20
187.9129586593
 30
0.0
 11
158.9672621209
 21
187.0256112196
 31
0.0
  0
LINE
  5
DA
330
1F
100
AcDbEntity
  8
0
  6
Continuous
 62
     7
370
    15
100
AcDbLine
 10
189.0835521279
 20
187.9129586593
 30
0.0
 11
158.0799146812
 21
187.9129586593
 31
0.0
  0
LINE
  5
DB
330
1F
100
AcDbEntity
  8
0
  6
Continuous
 62
     7
370
    15
100
AcDbLine
 10
171.1859182841
 20
124.8931494877
 30
0.0
 11
169.7504744973
 21
125.5634265097
 31
0.0
  0
SPLINE
  5
DC
330
1F
100
AcDbEntity
  8
0
  6
Continuous
 62
     7
370
    15
100
AcDbSpline
210
0.0
220
0.0
230
1.0
 70
     8
 71
     3
 72
    12
 73
     8
 74
     0
 42
0.000000001
 43
0.00000001
 40
0.0
 40
0.0
 40
0.0
 40
0.0
 40
0.2500000000000001
 40
0.2500000000000001
 40
0.5000000000000001
 40
0.5000000000000001
 40
1.0
 40
1.0
 40
1.0
 40
1.0
 10
169.7504744973481
 20
125.5634265096964
 30
0.0
 10
169.7873301818705
 20
125.6862608403159
 30
0.0
 10
169.8295560862996
 20
125.8049783445167
 30
0.0
 10
169.9182983309948
 20
126.0242318477305
 30
0.0
 10
169.9641182173646
 20
126.1230601273359
 30
0.0
 10
170.0874934920866
 20
126.3693912826936
 30
0.0
 10
170.1485446674042
 20
126.4665290891917
 30
0.0
 10
170.1548539126679
 20
126.4770088188556
 30
0.0
  0
SPLINE
  5
DD
330
1F
100
AcDbEntity
  8
0
  6
Continuous
 62
     7
370
    15
100
AcDbSpline
210
0.0
220
0.0
230
1.0
 70
     8
 71
     3
 72
    14
 73
    10
 74
     0
 42
0.000000001
 43
0.00000001
 40
0.0
 40
0.0
 40
0.0
 40
0.0
 40
0.25
 40
0.25
 40
0.5
 40
0.5
 40
0.75
 40
0.75
 40
1.0
 40
1.0
 40
1.0
 40
1.0
 10
171.6012056713247
 20
125.8016383456466
 30
0.0
 10
171.5945565244332
 20
125.7980109158651
 30
0.0
 10
171.5735272972681
 20
125.7741951993722
 30
0.0
 10
171.5099359669894
 20
125.6868545680944
 30
0.0
 10
171.4678723648324
 20
125.6235864979096
 30
0.0
 10
171.3783163177017
 20
125.4622514478746
 30
0.0
 10
171.3306214530858
 20
125.3630896688834
 30
0.0
 10
171.2473009382494
 20
125.142496544414
 30
0.0
 10
171.2111730910154
 20
125.01939570053
 30
0.0
 10
171.1859182840671
 20
124.8931494877349
 30
0.0
  0
LINE
  5
DE
330
1F
100
AcDbEntity
  8
0
  6
Continuous
 62
     7
370
    15
100
AcDbLine
 10
175.977548525
 20
123.9346122451
 30
0.0
 11
177.4129923118
 21
123.2643352232
 31
0.0
  0
SPLINE
  5
DF
330
1F
100
AcDbEntity
  8
0
  6
Continuous
 62
     7
370
    15
100
AcDbSpline
210
0.0
220
0.0
230
1.0
 70
     8
 71
     3
 72
    12
 73
     8
 74
     0
 42
0.000000001
 43
0.00000001
 40
0.0
 40
0.0
 40
0.0
 40
0.0
 40
0.2500000000000001
 40
0.2500000000000001
 40
0.5000000000000001
 40
0.5000000000000001
 40
1.0
 40
1.0
 40
1.0
 40
1.0
 10
177.4129923117581
 20
123.2643352231555
 30
0.0
 10
177.3761366272357
 20
123.141500892536
 30
0.0
 10
177.3339107228066
 20
123.0227833883352
 30
0.0
 10
177.2451684781115
 20
122.8035298851213
 30
0.0
 10
177.1993485917416
 20
122.704701605516
 30
0.0
 10
177.0759733170196
 20
122.4583704501583
 30
0.0
 10
177.014922141702
 20
122.3612326436601
 30
0.0
 10
177.0086128964383
 20
122.3507529139963
 30
0.0
  0
SPLINE
  5
E0
330
1F
100
AcDbEntity
  8
0
  6
Continuous
 62
     7
370
    15
100
AcDbSpline
210
0.0
220
0.0
230
1.0
 70
     8
 71
     3
 72
    14
 73
    10
 74
     0
 42
0.000000001
 43
0.00000001
 40
0.0
 40
0.0
 40
0.0
 40
0.0
 40
0.25
 40
0.25
 40
0.5
 40
0.5
 40
0.75
 40
0.75
 40
1.0
 40
1.0
 40
1.0
 40
1.0
 10
175.5622611377815
 20
123.0261233872052
 30
0.0
 10
175.5689102846729
 20
123.0297508169868
 30
0.0
 10
175.5899395118381
 20
123.0535665334796
 30
0.0
 10
175.6535308421169
 20
123.1409071647575
 30
0.0
 10
175.6955944442738
 20
123.2041752349422
 30
0.0
 10
175.7851504914045
 20
123.3655102849772
 30
0.0
 10
175.8328453560204
 20
123.4646720639685
 30
0.0
 10
175.9161658708568
 20
123.6852651884379
 30
0.0
 10
175.9522937180908
 20
123.8083660323219
 30
0.0
 10
175.9775485250391
 20
123.934612245117
 30
0.0
  0
LINE
  5
E1
330
1F
100
AcDbEntity
  8
0
  6
Continuous
 62
     7
370
    15
100
AcDbLine
 10
169.7504744973
 20
123.2643352232
 30
0.0
 11
171.1859182841
 21
123.9346122451
 31
0.0
  0
SPLINE
  5
E2
330
1F
100
AcDbEntity
  8
0
  6
Continuous
 62
     7
370
    15
100
AcDbSpline
210
0.0
220
0.0
230
1.0
 70
     8
 71
     3
 72
    14
 73
    10
 74
     0
 42
0.000000001
 43
0.00000001
 40
0.0
 40
0.0
 40
0.0
 40
0.0
 40
0.25
 40
0.25
 40
0.5
 40
0.5
 40
0.75
 40
0.75
 40
1.0
 40
1.0
 40
1.0
 40
1.0
 10
170.1548539126679
 20
122.3507529139963
 30
0.0
 10
170.1516985775616
 20
122.3559939622566
 30
0.0
 10
170.1357866047059
 20
122.3820657880481
 30
0.0
 10
170.0830451935132
 20
122.4742925951603
 30
0.0
 10
170.0465908305344
 20
122.5400604517402
 30
0.0
 10
169.9643091359757
 20
122.7042968157751
 30
0.0
 10
169.9182993692791
 20
122.8035850780862
 30
0.0
 10
169.8301070802699
 20
123.0213646619623
 30
0.0
 10
169.7873414370553
 20
123.1414633807351
 30
0.0
 10
169.750474497348
 20
123.2643352231555
 30
0.0
  0
SPLINE
  5
E3
330
1F
100
AcDbEntity
  8
0
  6
Continuous
 62
     7
370
    15
100
AcDbSpline
210
0.0
220
0.0
230
1.0
 70
     8
 71
     3
 72
    14
 73
    10
 74
     0
 42
0.000000001
 43
0.00000001
 40
0.0
 40
0.0
 40
0.0
 40
0.0
 40
0.25
 40
0.25
 40
0.5
 40
0.5
 40
0.75
 40
0.75
 40
1.0
 40
1.0
 40
1.0
 40
1.0
 10
171.1859182840672
 20
123.934612245117
 30
0.0
 10
171.2111526246429
 20
123.8084683416378
 30
0.0
 10
171.2468570631948
 20
123.6865505780931
 30
0.0
 10
171.3305422344145
 20
123.4647722644117
 30
0.0
 10
171.3781548517862
 20
123.3658409089444
 30
0.0
 10
171.4676100281741
 20
123.2046082783282
 30
0.0
 10
171.5099147448332
 20
123.1409599857682
 30
0.0
 10
171.5731442257107
 20
123.0540691476993
 30
0.0
 10
171.5945602841727
 20
123.0297487658681
 30
0.0
 10
171.6012056713249
 20
123.0261233872053
 30
0.0
  0
LINE
  5
E4
330
1F
100
AcDbEntity
  8
0
  6
Continuous
 62
     7
370
    15
100
AcDbLine
 10
177.4129923118
 20
125.5634265097
 30
0.0
 11
175.977548525
 21
124.8931494877
 31
0.0
  0
SPLINE
  5
E5
330
1F
100
AcDbEntity
  8
0
  6
Continuous
 62
     7
370
    15
100
AcDbSpline
210
0.0
220
0.0
230
1.0
 70
     8
 71
     3
 72
    14
 73
    10
 74
     0
 42
0.000000001
 43
0.00000001
 40
0.0
 40
0.0
 40
0.0
 40
0.0
 40
0.25
 40
0.25
 40
0.5
 40
0.5
 40
0.75
 40
0.75
 40
1.0
 40
1.0
 40
1.0
 40
1.0
 10
177.0086128964383
 20
126.4770088188556
 30
0.0
 10
177.0117682315446
 20
126.4717677705953
 30
0.0
 10
177.0276802044004
 20
126.4456959448038
 30
0.0
 10
177.080421615593
 20
126.3534691376916
 30
0.0
 10
177.1168759785718
 20
126.2877012811117
 30
0.0
 10
177.1991576731305
 20
126.1234649170767
 30
0.0
 10
177.2451674398271
 20
126.0241766547656
 30
0.0
 10
177.3333597288363
 20
125.8063970708896
 30
0.0
 10
177.3761253720509
 20
125.6862983521167
 30
0.0
 10
177.4129923117582
 20
125.5634265096964
 30
0.0
  0
SPLINE
  5
E6
330
1F
100
AcDbEntity
  8
0
  6
Continuous
 62
     7
370
    15
100
AcDbSpline
210
0.0
220
0.0
230
1.0
 70
     8
 71
     3
 72
    14
 73
    10
 74
     0
 42
0.000000001
 43
0.00000001
 40
0.0
 40
0.0
 40
0.0
 40
0.0
 40
0.25
 40
0.25
 40
0.5
 40
0.5
 40
0.75
 40
0.75
 40
1.0
 40
1.0
 40
1.0
 40
1.0
 10
175.9775485250391
 20
124.8931494877348
 30
0.0
 10
175.9523141844633
 20
125.019293391214
 30
0.0
 10
175.9166097459114
 20
125.1412111547587
 30
0.0
 10
175.8329245746917
 20
125.3629894684401
 30
0.0
 10
175.78531195732
 20
125.4619208239074
 30
0.0
 10
175.6958567809322
 20
125.6231534545236
 30
0.0
 10
175.653552064273
 20
125.6868017470837
 30
0.0
 10
175.5903225833955
 20
125.7736925851525
 30
0.0
 10
175.5689065249335
 20
125.7980129669838
 30
0.0
 10
175.5622611377813
 20
125.8016383456465
 30
0.0
  0
SPLINE
  5
E7
330
1F
100
AcDbEntity
  8
0
  6
Continuous
 62
     7
370
    15
100
AcDbSpline
210
0.0
220
0.0
230
1.0
 70
     8
 71
     3
 72
    11
 73
     7
 74
     0
 42
0.000000001
 43
0.00000001
 40
0.0
 40
0.0
 40
0.0
 40
0.0
 40
0.0059844028462813
 40
0.0059844028462813
 40
0.0059844028462813
 40
0.0120198159743065
 40
0.0120198159743065
 40
0.0120198159743065
 40
0.0120198159743065
 10
177.7335778188923
 20
170.58842496298
 30
0.0
 10
177.8379473983185
 20
170.6364307466885
 30
0.0
 10
177.9423175868239
 20
170.6839552206992
 30
0.0
 10
178.0466883327842
 20
170.7310259644191
 30
0.0
 10
178.1519487217534
 20
170.778497933192
 30
0.0
 10
178.257209683303
 20
170.8255083863062
 30
0.0
 10
178.3624711702888
 20
170.8720830031755
 30
0.0
  0
SPLINE
  5
E8
330
1F
100
AcDbEntity
  8
0
  6
Continuous
 62
     7
370
    15
100
AcDbSpline
210
0.0
220
0.0
230
1.0
 70
     8
 71
     3
 72
    14
 73
    10
 74
     0
 42
0.000000001
 43
0.00000001
 40
0.0
 40
0.0
 40
0.0
 40
0.0
 40
0.25
 40
0.25
 40
0.5
 40
0.5
 40
0.75
 40
0.75
 40
1.0
 40
1.0
 40
1.0
 40
1.0
 10
178.3624711702888
 20
170.8720830031755
 30
0.0
 10
178.3624711702888
 20
170.7322833003396
 30
0.0
 10
178.3769808558786
 20
170.5949541539956
 30
0.0
 10
178.4338821665782
 20
170.3250433044045
 30
0.0
 10
178.4770699305361
 20
170.1909982176371
 30
0.0
 10
178.5889773916842
 20
169.9378877532264
 30
0.0
 10
178.6574277901594
 20
169.8182583899155
 30
0.0
 10
178.8195351549567
 20
169.5929695779595
 30
0.0
 10
178.9130068333457
 20
169.4880384677764
 30
0.0
 10
179.0164657127687
 20
169.3940152776766
 30
0.0
  0
SPLINE
  5
E9
330
1F
100
AcDbEntity
  8
0
  6
Continuous
 62
     7
370
    15
100
AcDbSpline
210
0.0
220
0.0
230
1.0
 70
     8
 71
     3
 72
    11
 73
     7
 74
     0
 42
0.000000001
 43
0.00000001
 40
0.0
 40
0.0
 40
0.0
 40
0.0
 40
0.0060348160300127
 40
0.0060348160300127
 40
0.0060348160300127
 40
0.0120185856144942
 40
0.0120185856144942
 40
0.0120185856144942
 40
0.0120185856144942
 10
179.0164657127687
 20
169.3940152776766
 30
0.0
 10
178.9180353106161
 20
169.3412330474669
 30
0.0
 10
178.8198189007153
 20
169.2879068112465
 30
0.0
 10
178.7218379382842
 20
169.2340054716022
 30
0.0
 10
178.6246857636174
 20
169.1805600651278
 30
0.0
 10
178.5277650340476
 20
169.1265492545969
 30
0.0
 10
178.4310995404658
 20
169.0719400085153
 30
0.0
  0
SPLINE
  5
EA
330
1F
100
AcDbEntity
  8
0
  6
Continuous
 62
     7
370
    15
100
AcDbSpline
210
0.0
220
0.0
230
1.0
 70
     8
 71
     3
 72
    12
 73
     8
 74
     0
 42
0.000000001
 43
0.00000001
 40
0.0
 40
0.0
 40
0.0
 40
0.0
 40
0.2500000000000014
 40
0.2500000000000014
 40
0.5000000000000028
 40
0.5000000000000028
 40
1.0
 40
1.0
 40
1.0
 40
1.0
 10
178.4310995404658
 20
169.0719400085153
 30
0.0
 10
178.3212507317658
 20
169.1660883868907
 30
0.0
 10
178.2235134562249
 20
169.2703056352196
 30
0.0
 10
178.0513352845353
 20
169.4981074746745
 30
0.0
 10
177.9763792469625
 20
169.6232879710667
 30
0.0
 10
177.7969489425363
 20
170.0130484734742
 30
0.0
 10
177.7335778188923
 20
170.2990750648494
 30
0.0
 10
177.7335778188923
 20
170.58842496298
 30
0.0
  0
LINE
  5
EB
330
1F
100
AcDbEntity
  8
0
  6
Continuous
 62
     7
370
    15
100
AcDbLine
 10
177.7335778189
 20
174.4138808664
 30
0.0
 11
178.3624711703
 21
174.4138808664
 31
0.0
  0
ARC
  5
EC
330
1F
100
AcDbEntity
  8
0
  6
Continuous
 62
     7
370
    15
100
AcDbCircle
 10
173.5817334046
 20
174.4138808664
 30
0.0
 40
4.151844414339166
100
AcDbArc
 50
0.0
 51
180.0
  0
LINE
  5
ED
330
1F
100
AcDbEntity
  8
0
  6
Continuous
 62
     7
370
    15
100
AcDbLine
 10
169.4298889902
 20
174.4138808664
 30
0.0
 11
168.8009956388
 21
174.4138808664
 31
0.0
  0
ARC
  5
EE
330
1F
100
AcDbEntity
  8
0
  6
Continuous
 62
     7
370
    15
100
AcDbCircle
 10
173.5817334046
 20
174.4138808664
 30
0.0
 40
4.780737765735694
100
AcDbArc
 50
0.0
 51
180.0
  0
LINE
  5
EF
330
1F
100
AcDbEntity
  8
0
  6
Continuous
 62
     7
370
    15
100
AcDbLine
 10
178.3624711703
 20
174.4138808664
 30
0.0
 11
178.3624711703
 21
170.8720830032
 31
0.0
  0
LINE
  5
F0
330
1F
100
AcDbEntity
  8
0
  6
Continuous
 62
     7
370
    15
100
AcDbLine
 10
177.7335778189
 20
174.4138808664
 30
0.0
 11
177.7335778189
 21
170.588424963
 31
0.0
  0
SPLINE
  5
F1
330
1F
100
AcDbEntity
  8
0
  6
Continuous
 62
     7
370
    15
100
AcDbSpline
210
0.0
220
0.0
230
1.0
 70
     8
 71
     3
 72
    11
 73
     7
 74
     0
 42
0.000000001
 43
0.00000001
 40
0.0
 40
0.0
 40
0.0
 40
0.0
 40
0.0059837695658632
 40
0.0059837695658632
 40
0.0059837695658632
 40
0.0120185855770986
 40
0.0120185855770986
 40
0.0120185855770986
 40
0.0120185855770986
 10
168.7323672686404
 20
169.0719400085153
 30
0.0
 10
168.6357017750586
 20
169.1265492545969
 30
0.0
 10
168.5387810454888
 20
169.1805600651278
 30
0.0
 10
168.441628870822
 20
169.2340054716022
 30
0.0
 10
168.3436479083909
 20
169.2879068112465
 30
0.0
 10
168.2454314984901
 20
169.3412330474669
 30
0.0
 10
168.1470010963375
 20
169.3940152776766
 30
0.0
  0
ARC
  5
F2
330
1F
100
AcDbEntity
  8
0
  6
Continuous
 62
     7
370
    15
100
AcDbCircle
 10
173.5817334046
 20
163.4138808664
 30
0.0
 40
7.451844414339157
100
AcDbArc
 50
130.5989662888
 51
49.4010337112
  0
ARC
  5
F3
330
1F
100
AcDbEntity
  8
0
  6
Continuous
 62
     7
370
    15
100
AcDbCircle
 10
173.5817334046
 20
163.4138808664
 30
0.0
 40
8.08073776573565
100
AcDbArc
 50
132.2644891943
 51
47.7355108057
  0
LINE
  5
F4
330
1F
100
AcDbEntity
  8
0
  6
Continuous
 62
     7
370
    15
100
AcDbLine
 10
169.4298889902
 20
170.588424963
 30
0.0
 11
169.4298889902
 21
174.4138808664
 31
0.0
  0
SPLINE
  5
F5
330
1F
100
AcDbEntity
  8
0
  6
Continuous
 62
     7
370
    15
100
AcDbSpline
210
0.0
220
0.0
230
1.0
 70
     8
 71
     3
 72
    11
 73
     7
 74
     0
 42
0.000000001
 43
0.00000001
 40
0.0
 40
0.0
 40
0.0
 40
0.0
 40
0.0060354131375744
 40
0.0060354131375744
 40
0.0060354131375744
 40
0.0120198159933242
 40
0.0120198159933242
 40
0.0120198159933242
 40
0.0120198159933242
 10
168.8009956388174
 20
170.8720830031755
 30
0.0
 10
168.9062571258032
 20
170.8255083863062
 30
0.0
 10
169.0115180873528
 20
170.778497933192
 30
0.0
 10
169.1167784763219
 20
170.7310259644191
 30
0.0
 10
169.2211492222823
 20
170.6839552206992
 30
0.0
 10
169.3255194107877
 20
170.6364307466885
 30
0.0
 10
169.4298889902139
 20
170.58842496298
 30
0.0
  0
LINE
  5
F6
330
1F
100
AcDbEntity
  8
0
  6
Continuous
 62
     7
370
    15
100
AcDbLine
 10
168.8009956388
 20
170.8720830032
 30
0.0
 11
168.8009956388
 21
174.4138808664
 31
0.0
  0
SPLINE
  5
F7
330
1F
100
AcDbEntity
  8
0
  6
Continuous
 62
     7
370
    15
100
AcDbSpline
210
0.0
220
0.0
230
1.0
 70
     8
 71
     3
 72
    14
 73
    10
 74
     0
 42
0.000000001
 43
0.00000001
 40
0.0
 40
0.0
 40
0.0
 40
0.0
 40
0.25
 40
0.25
 40
0.5
 40
0.5
 40
0.75
 40
0.75
 40
1.0
 40
1.0
 40
1.0
 40
1.0
 10
168.1470010963375
 20
169.3940152776766
 30
0.0
 10
168.2504595969579
 20
169.4880381235216
 30
0.0
 10
168.3423312208162
 20
169.5911372512547
 30
0.0
 10
168.503809022336
 20
169.8147765713146
 30
0.0
 10
168.5739627278607
 20
169.9368901490095
 30
0.0
 10
168.6860128306524
 20
170.1899374993572
 30
0.0
 10
168.7285077225087
 20
170.3210512888837
 30
0.0
 10
168.786206321215
 20
170.5925374180399
 30
0.0
 10
168.8009956388174
 20
170.7322827885773
 30
0.0
 10
168.8009956388174
 20
170.8720830031755
 30
0.0
  0
SPLINE
  5
F8
330
1F
100
AcDbEntity
  8
0
  6
Continuous
 62
     7
370
    15
100
AcDbSpline
210
0.0
220
0.0
230
1.0
 70
     8
 71
     3
 72
    12
 73
     8
 74
     0
 42
0.000000001
 43
0.00000001
 40
0.0
 40
0.0
 40
0.0
 40
0.0
 40
0.2500000000000002
 40
0.2500000000000002
 40
0.5000000000000003
 40
0.5000000000000003
 40
1.0
 40
1.0
 40
1.0
 40
1.0
 10
169.4298889902139
 20
170.58842496298
 30
0.0
 10
169.4298889902139
 20
170.4437506742438
 30
0.0
 10
169.4143621796167
 20
170.3017199253022
 30
0.0
 10
169.3534427987897
 20
170.0227432659048
 30
0.0
 10
169.3071737821467
 20
169.8843679383997
 30
0.0
 10
169.1280015949198
 20
169.4944892215547
 30
0.0
 10
168.9520655935748
 20
169.2602373716744
 30
0.0
 10
168.7323672686404
 20
169.0719400085153
 30
0.0
  0
ELLIPSE
  5
F9
330
1F
100
AcDbEntity
  8
0
  6
Continuous
 62
     7
370
    15
100
AcDbEllipse
 10
157.7129213091
 20
139.490951733
 30
0.0
 11
0.0
 21
2.0
 31
0.0
210
0.0
220
0.0
230
1.0
 40
0.0786116689
 41
0.0523598775596437
 42
1.570796326794897
  0
LINE
  5
FA
330
1F
100
AcDbEntity
  8
0
  6
Continuous
 62
     7
370
    15
100
AcDbLine
 10
156.5570684365
 20
139.490951733
 30
0.0
 11
157.5556979713
 21
139.490951733
 31
0.0
  0
ELLIPSE
  5
FB
330
1F
100
AcDbEntity
  8
0
  6
Continuous
 62
     7
370
    15
100
AcDbEllipse
 10
189.4505455
 20
139.490951733
 30
0.0
 11
0.0
 21
2.0
 31
0.0
210
0.0
220
0.0
230
1.0
 40
0.0786116689
 41
4.712388980384691
 42
6.230825429619939
  0
LINE
  5
FC
330
1F
100
AcDbEntity
  8
0
  6
Continuous
 62
     7
370
    15
100
AcDbLine
 10
189.6077688378
 20
139.490951733
 30
0.0
 11
190.6063983726
 21
139.490951733
 31
0.0
  0
LINE
  5
FD
330
1F
100
AcDbEntity
  8
0
  6
Continuous
 62
     7
370
    15
100
AcDbLine
 10
189.6077688378
 20
139.490951733
 30
0.0
 11
157.5556979713
 21
139.490951733
 31
0.0
  0
ARC
  5
FE
330
1F
100
AcDbEntity
  8
0
  6
Continuous
 62
     7
370
    15
100
AcDbCircle
 10
173.5817334046
 20
124.4138808664
 30
0.0
 40
4.000000000000005
100
AcDbArc
 50
163.2984512274
 51
196.7015487726
  0
ARC
  5
FF
330
1F
100
AcDbEntity
  8
0
  6
Continuous
 62
     7
370
    15
100
AcDbCircle
 10
173.5817334046
 20
124.4138808664
 30
0.0
 40
2.443282321574893
100
AcDbArc
 50
168.6876393243
 51
191.3123606757
  0
ARC
  5
100
330
1F
100
AcDbEntity
  8
0
  6
Continuous
 62
     7
370
    15
100
AcDbCircle
 10
173.5817334046
 20
124.4138808664
 30
0.0
 40
4.00000000000001
100
AcDbArc
 50
343.2984512274
 51
16.7015487726
  0
ARC
  5
101
330
1F
100
AcDbEntity
  8
0
  6
Continuous
 62
     7
370
    15
100
AcDbCircle
 10
173.5817334046
 20
124.4138808664
 30
0.0
 40
2.443282321574921
100
AcDbArc
 50
348.6876393243
 51
11.3123606757
  0
ELLIPSE
  5
102
330
1F
100
AcDbEntity
  8
0
  6
Continuous
 62
     7
370
    15
100
AcDbEllipse
 10
158.5570703173
 20
115.3892177791
 30
0.0
 11
0.7090462434350684
 21
0.7090462434350684
 31
0.0
210
0.0
220
0.0
230
1.0
 40
0.9972646886
 41
2.357564018062756
 42
3.925621289116873
  0
LINE
  5
103
330
1F
100
AcDbEntity
  8
0
  6
Continuous
 62
     7
370
    15
100
AcDbLine
 10
158.554327506
 20
114.3878454331
 30
0.0
 11
158.554327506
 21
113.3892158984
 31
0.0
  0
ARC
  5
104
330
1F
100
AcDbEntity
  8
0
  6
Continuous
 62
     7
370
    15
100
AcDbCircle
 10
158.5570703173
 20
115.3892177791
 30
0.0
 40
2.000003761503233
100
AcDbArc
 50
180.078575631
 51
269.921424369
  0
LINE
  5
105
330
1F
100
AcDbEntity
  8
0
  6
Continuous
 62
     7
370
    15
100
AcDbLine
 10
156.5570684365
 20
115.3864749679
 30
0.0
 11
157.5556979713
 21
115.3864749679
 31
0.0
  0
ELLIPSE
  5
106
330
1F
100
AcDbEntity
  8
0
  6
Continuous
 62
     7
370
    15
100
AcDbEllipse
 10
188.6063964918
 20
115.3892177791
 30
0.0
 11
-0.7090462434350968
 21
0.7090462434350684
 31
0.0
210
0.0
220
0.0
230
1.0
 40
0.9972646886
 41
2.357564018062702
 42
3.925621289116843
  0
LINE
  5
107
330
1F
100
AcDbEntity
  8
0
  6
Continuous
 62
     7
370
    15
100
AcDbLine
 10
189.6077688378
 20
115.3864749679
 30
0.0
 11
190.6063983726
 21
115.3864749679
 31
0.0
  0
ARC
  5
108
330
1F
100
AcDbEntity
  8
0
  6
Continuous
 62
     7
370
    15
100
AcDbCircle
 10
188.6063964918
 20
115.3892177791
 30
0.0
 40
2.000003761503233
100
AcDbArc
 50
270.078575631
 51
359.921424369
  0
LINE
  5
109
330
1F
100
AcDbEntity
  8
0
  6
Continuous
 62
     7
370
    15
100
AcDbLine
 10
188.6091393031
 20
114.3878454331
 30
0.0
 11
188.6091393031
 21
113.3892158984
 31
0.0
  0
LINE
  5
10A
330
1F
100
AcDbEntity
  8
0
  6
Continuous
 62
     7
370
    15
100
AcDbLine
 10
158.554327506
 20
114.3878454331
 30
0.0
 11
188.6091393031
 21
114.3878454331
 31
0.0
  0
LINE
  5
10B
330
1F
100
AcDbEntity
  8
0
  6
Continuous
 62
     7
370
    15
100
AcDbLine
 10
188.6091393031
 20
113.3892158984
 30
0.0
 11
158.554327506
 21
113.3892158984
 31
0.0
  0
LINE
  5
10C
330
1F
100
AcDbEntity
  8
0
  6
Continuous
 62
     7
370
    15
100
AcDbLine
 10
157.5556979713
 20
139.490951733
 30
0.0
 11
157.5556979713
 21
115.3864749679
 31
0.0
  0
LINE
  5
10D
330
1F
100
AcDbEntity
  8
0
  6
Continuous
 62
     7
370
    15
100
AcDbLine
 10
189.6077688378
 20
115.3864749679
 30
0.0
 11
189.6077688378
 21
139.490951733
 31
0.0
  0
ELLIPSE
  5
10E
330
1F
100
AcDbEntity
  8
0
  6
Continuous
 62
     7
370
    15
100
AcDbEllipse
 10
189.0780665054
 20
114.9175477656
 30
0.0
 11
-1.418092486870108
 21
1.418092486870137
 31
0.0
210
0.0
220
0.0
230
1.0
 40
0.9972646886
 41
2.357564018062767
 42
3.925621289116861
  0
LINE
  5
10F
330
1F
100
AcDbEntity
  8
0
  6
Continuous
 62
     7
370
    15
100
AcDbLine
 10
189.0835521279
 20
112.9148030736
 30
0.0
 11
188.6091393031
 21
113.3892158984
 31
0.0
  0
ELLIPSE
  5
110
330
1F
100
AcDbEntity
  8
0
  6
Continuous
 62
     7
370
    15
100
AcDbEllipse
 10
158.0854003037
 20
114.9175477656
 30
0.0
 11
1.418092486870137
 21
1.418092486870137
 31
0.0
210
0.0
220
0.0
230
1.0
 40
0.9972646886
 41
2.35756401806273
 42
3.925621289116856
  0
LINE
  5
111
330
1F
100
AcDbEntity
  8
0
  6
Continuous
 62
     7
370
    15
100
AcDbLine
 10
158.554327506
 20
113.3892158984
 30
0.0
 11
158.0799146812
 21
112.9148030736
 31
0.0
  0
LINE
  5
112
330
1F
100
AcDbEntity
  8
0
  6
Continuous
 62
     7
370
    15
100
AcDbLine
 10
158.0799146812
 20
112.9148030736
 30
0.0
 11
189.0835521279
 21
112.9148030736
 31
0.0
  0
LINE
  5
113
330
1F
100
AcDbEntity
  8
0
  6
Continuous
 62
     7
370
    15
100
AcDbLine
 10
101.637506549
 20
129.4138808664
 30
0.0
 11
94.4638583713
 21
128.1489731426
 31
0.0
  0
LINE
  5
114
330
1F
100
AcDbEntity
  8
0
  6
Continuous
 62
     7
370
    15
100
AcDbLine
 10
94.4638583713
 20
120.6787885903
 30
0.0
 11
101.637506549
 21
119.4138808664
 31
0.0
  0
LINE
  5
115
330
1F
100
AcDbEntity
  8
0
  6
Continuous
 62
     7
370
    15
100
AcDbLine
 10
106.337506549
 20
128.4138808664
 30
0.0
 11
101.637506549
 21
128.4138808664
 31
0.0
  0
LINE
  5
116
330
1F
100
AcDbEntity
  8
0
  6
Continuous
 62
     7
370
    15
100
AcDbLine
 10
101.637506549
 20
120.4138808664
 30
0.0
 11
106.337506549
 21
120.4138808664
 31
0.0
  0
ARC
  5
117
330
1F
100
AcDbEntity
  8
0
  6
Continuous
 62
     7
370
    15
100
AcDbCircle
 10
94.637506549
 20
121.6635963433
 30
0.0
 40
1.0
100
AcDbArc
 50
180.0
 51
260.0
  0
ARC
  5
118
330
1F
100
AcDbEntity
  8
0
  6
Continuous
 62
     7
370
    15
100
AcDbCircle
 10
94.637506549
 20
127.1641653896
 30
0.0
 40
1.0
100
AcDbArc
 50
100.0
 51
180.0
  0
LINE
  5
119
330
1F
100
AcDbEntity
  8
0
  6
Continuous
 62
     7
370
    15
100
AcDbLine
 10
116.337506549
 20
114.9120621431
 30
0.0
 11
116.337506549
 21
112.9148030736
 31
0.0
  0
LINE
  5
11A
330
1F
100
AcDbEntity
  8
0
  6
Continuous
 62
     7
370
    15
100
AcDbLine
 10
116.337506549
 20
112.9148030736
 30
0.0
 11
107.2851705928
 21
113.3892158984
 31
0.0
  0
ELLIPSE
  5
11B
330
1F
100
AcDbEntity
  8
0
  6
Continuous
 62
     7
370
    15
100
AcDbEllipse
 10
107.337506549
 20
115.3892177791
 30
0.0
 11
0.05230020429473825
 21
2.000003284889331
 31
0.0
210
0.0
220
0.0
230
1.0
 40
0.0261142704
 41
1.572850619884848
 42
3.140907890939065
  0
LINE
  5
11C
330
1F
100
AcDbEntity
  8
0
  6
Continuous
 62
     7
370
    15
100
AcDbLine
 10
107.2851705928
 20
115.3864749679
 30
0.0
 11
116.337506549
 21
114.9120621431
 31
0.0
  0
LINE
  5
11D
330
1F
100
AcDbEntity
  8
0
  6
Continuous
 62
     7
370
    15
100
AcDbLine
 10
107.2851705928
 20
139.490951733
 30
0.0
 11
107.2851705928
 21
115.3864749679
 31
0.0
  0
ARC
  5
11E
330
1F
100
AcDbEntity
  8
0
  6
Continuous
 62
     7
370
    15
100
AcDbCircle
 10
104.2851705928
 20
139.490951733
 30
0.0
 40
3.0
100
AcDbArc
 50
0.0
 51
87.0
  0
LINE
  5
11F
330
1F
100
AcDbEntity
  8
0
  6
Continuous
 62
     7
370
    15
100
AcDbLine
 10
97.2851705928
 20
142.861923226
 30
0.0
 11
104.4421784615
 21
142.4868403373
 31
0.0
  0
LINE
  5
120
330
1F
100
AcDbEntity
  8
0
  6
Continuous
 62
     7
370
    15
100
AcDbLine
 10
97.2851705928
 20
161.7868334807
 30
0.0
 11
97.2851705928
 21
142.861923226
 31
0.0
  0
LINE
  5
121
330
1F
100
AcDbEntity
  8
0
  6
Continuous
 62
     7
370
    15
100
AcDbLine
 10
99.3181375609
 20
185.0237522563
 30
0.0
 11
97.2851705928
 21
161.7868334807
 31
0.0
  0
LINE
  5
122
330
1F
100
AcDbEntity
  8
0
  6
Continuous
 62
     7
370
    15
100
AcDbLine
 10
116.337506549
 20
185.9156995897
 30
0.0
 11
99.3181375609
 21
185.0237522563
 31
0.0
  0
LINE
  5
123
330
1F
100
AcDbEntity
  8
0
  6
Continuous
 62
     7
370
    15
100
AcDbLine
 10
116.337506549
 20
114.9120621431
 30
0.0
 11
116.337506549
 21
185.9156995897
 31
0.0
  0
ELLIPSE
  5
124
330
1F
100
AcDbEntity
  8
0
  6
Continuous
 62
     7
370
    15
100
AcDbEllipse
 10
99.3702324469
 20
185.0209968111
 30
0.0
 11
0.03577169244573498
 21
2.004616058837968
 31
0.0
210
0.0
220
0.0
230
1.0
 40
0.0260037219
 41
0.0018285329080896
 42
1.569885803962097
  0
LINE
  5
125
330
1F
100
AcDbEntity
  8
0
  6
Continuous
 62
     7
370
    15
100
AcDbLine
 10
99.4059087628
 20
187.0256112196
 30
0.0
 11
116.337506549
 21
187.9129586593
 31
0.0
  0
LINE
  5
126
330
1F
100
AcDbEntity
  8
0
  6
Continuous
 62
     7
370
    15
100
AcDbLine
 10
116.337506549
 20
187.9129586593
 30
0.0
 11
116.337506549
 21
185.9156995897
 31
0.0
  0
ARC
  5
127
330
1F
100
AcDbEntity
  8
0
  6
Continuous
 62
     7
370
    15
100
AcDbCircle
 10
104.337506549
 20
139.490951733
 30
0.0
 40
2.0
100
AcDbArc
 50
0.0
 51
87.0
  0
ARC
  5
128
330
1F
100
AcDbEntity
  8
0
  6
Continuous
 62
     7
370
    15
100
AcDbCircle
 10
109.227633317
 20
141.9875255699
 30
0.0
 40
4.811433612876817
100
AcDbArc
 50
174.0433076282
 51
185.9566923718
  0
LINE
  5
129
330
1F
100
AcDbEntity
  8
0
  6
Continuous
 62
     7
370
    15
100
AcDbLine
 10
106.337506549
 20
139.490951733
 30
0.0
 11
107.2851705928
 21
139.490951733
 31
0.0
  0
LINE
  5
12A
330
1F
100
AcDbEntity
  8
0
  6
Continuous
 62
     7
370
    15
100
AcDbLine
 10
106.337506549
 20
114.3878454331
 30
0.0
 11
106.337506549
 21
115.3864749679
 31
0.0
  0
LINE
  5
12B
330
1F
100
AcDbEntity
  8
0
  6
Continuous
 62
     7
370
    15
100
AcDbLine
 10
106.337506549
 20
115.3864749679
 30
0.0
 11
107.2851705928
 21
115.3864749679
 31
0.0
  0
ARC
  5
12C
330
1F
100
AcDbEntity
  8
0
  6
Continuous
 62
     7
370
    15
100
AcDbCircle
 10
107.337506549
 20
114.3878454331
 30
0.0
 40
1.0
100
AcDbArc
 50
180.0
 51
267.0
  0
LINE
  5
12D
330
1F
100
AcDbEntity
  8
0
  6
Continuous
 62
     7
370
    15
100
AcDbLine
 10
106.337506549
 20
115.3864749679
 30
0.0
 11
106.337506549
 21
139.490951733
 31
0.0
  0
LINE
  5
12E
330
1F
100
AcDbEntity
  8
0
  6
Continuous
 62
     7
370
    15
100
AcDbLine
 10
104.4421784615
 20
141.4882108025
 30
0.0
 11
97.2851705928
 21
141.8632936912
 31
0.0
  0
ARC
  5
12F
330
1F
100
AcDbEntity
  8
0
  6
Continuous
 62
     7
370
    15
100
AcDbCircle
 10
102.0706254483
 20
142.3626084586
 30
0.0
 40
4.81143361287399
100
AcDbArc
 50
174.0433076282
 51
185.9566923718
  0
ARC
  5
130
330
1F
100
AcDbEntity
  8
0
  6
Continuous
 62
     7
370
    15
100
AcDbCircle
 10
103.528077257
 20
235.7699333963
 30
0.0
 40
50.92051151101375
100
AcDbArc
 50
264.1909971393
 51
265.2575609298
  0
LINE
  5
131
330
1F
100
AcDbEntity
  8
0
  6
Continuous
 62
     7
370
    15
100
AcDbLine
 10
98.374278819
 20
185.110907999
 30
0.0
 11
98.462050021
 21
186.1141374276
 31
0.0
  0
ARC
  5
132
330
1F
100
AcDbEntity
  8
0
  6
Continuous
 62
     7
370
    15
100
AcDbCircle
 10
99.4582447191
 20
186.0269816848
 30
0.0
 40
1.000000000000025
100
AcDbArc
 50
93.0
 51
175.0
  0
ELLIPSE
  5
133
330
1F
100
AcDbEntity
  8
0
  6
Continuous
 62
     7
370
    15
100
AcDbEllipse
 10
97.337506549
 20
161.7868334807
 30
0.0
 11
0.9999999950286309
 21
-0.04366094269144583
 31
0.0
210
0.0
220
0.0
230
1.0
 40
0.0022838076
 41
3.141592653452068
 42
4.660128816009014
  0
LINE
  5
134
330
1F
100
AcDbEntity
  8
0
  6
Continuous
 62
     7
370
    15
100
AcDbLine
 10
96.337506549
 20
161.8304944236
 30
0.0
 11
98.374278819
 21
185.110907999
 31
0.0
  0
LINE
  5
135
330
1F
100
AcDbEntity
  8
0
  6
Continuous
 62
     7
370
    15
100
AcDbLine
 10
96.337506549
 20
142.861923226
 30
0.0
 11
96.337506549
 21
161.8304944236
 31
0.0
  0
LINE
  5
136
330
1F
100
AcDbEntity
  8
0
  6
Continuous
 62
     7
370
    15
100
AcDbLine
 10
96.337506549
 20
142.861923226
 30
0.0
 11
97.2851705928
 21
142.861923226
 31
0.0
  0
ARC
  5
137
330
1F
100
AcDbEntity
  8
0
  6
Continuous
 62
     7
370
    15
100
AcDbCircle
 10
97.337506549
 20
142.861923226
 30
0.0
 40
1.0
100
AcDbArc
 50
180.0
 51
267.0
  0
LINE
  5
138
330
1F
100
AcDbEntity
  8
0
  6
Continuous
 62
     7
370
    15
100
AcDbLine
 10
101.637506549
 20
126.9943863231
 30
0.0
 11
101.637506549
 21
126.5683318494
 31
0.0
  0
ELLIPSE
  5
139
330
1F
100
AcDbEntity
  8
0
  6
Continuous
 62
     7
370
    15
100
AcDbEllipse
 10
112.7186432367
 20
124.4138808664
 30
0.0
 11
84.2354416611177
 21
-3.625801784981007
 31
0.0
210
0.0
220
0.0
230
1.0
 40
0.0200538958
 41
1.676721865128372
 42
1.703591449615122
  0
LINE
  5
13A
330
1F
100
AcDbEntity
  8
0
  6
Continuous
 62
     7
370
    15
100
AcDbLine
 10
103.8849390337
 20
125.8016383456
 30
0.0
 11
103.8849390337
 21
126.4770088189
 31
0.0
  0
ELLIPSE
  5
13B
330
1F
100
AcDbEntity
  8
0
  6
Continuous
 62
     7
370
    15
100
AcDbEllipse
 10
156.9343035307
 20
122.5114437867
 30
0.0
 11
80.18130342301704
 21
-3.450873862354826
 31
0.0
210
0.0
220
0.0
230
1.0
 40
0.0167291778
 41
2.294490113496763
 42
2.481381033397934
  0
LINE
  5
13C
330
1F
100
AcDbEntity
  8
0
  6
Continuous
 62
     7
370
    15
100
AcDbLine
 10
93.637506549
 20
126.0597986372
 30
0.0
 11
93.637506549
 21
126.3335395265
 31
0.0
  0
SPLINE
  5
13D
330
1F
100
AcDbEntity
  8
0
  6
Continuous
 62
     7
370
    15
100
AcDbSpline
210
0.0
220
0.0
230
1.0
 70
     8
 71
     3
 72
    12
 73
     8
 74
     0
 42
0.000000001
 43
0.00000001
 40
0.0
 40
0.0
 40
0.0
 40
0.0
 40
0.2499999999999991
 40
0.2499999999999991
 40
0.4999999999999981
 40
0.4999999999999981
 40
1.0
 40
1.0
 40
1.0
 40
1.0
 10
94.46385837133873
 20
126.7364661174436
 30
0.0
 10
94.34523209819157
 20
126.7319032287708
 30
0.0
 10
94.23362952954875
 20
126.7181467815571
 30
0.0
 10
94.02876601260014
 20
126.6734437901527
 30
0.0
 10
93.93907845020905
 20
126.6431473295776
 30
0.0
 10
93.71675210015118
 20
126.5328187111428
 30
0.0
 10
93.63750654900566
 20
126.4357570798323
 30
0.0
 10
93.63750654900566
 20
126.3335395264907
 30
0.0
  0
SPLINE
  5
13E
330
1F
100
AcDbEntity
  8
0
  6
Continuous
 62
     7
370
    15
100
AcDbSpline
210
0.0
220
0.0
230
1.0
 70
     8
 71
     3
 72
     8
 73
     4
 74
     0
 42
0.000000001
 43
0.00000001
 40
0.0
 40
0.0
 40
0.0
 40
0.0
 40
1.0
 40
1.0
 40
1.0
 40
1.0
 10
101.6375065490057
 20
126.9943863231104
 30
0.0
 10
99.2444506118153
 20
126.9127366307058
 30
0.0
 10
96.85256097493544
 20
126.8283461349426
 30
0.0
 10
94.46385837133873
 20
126.7364661174436
 30
0.0
  0
ELLIPSE
  5
13F
330
1F
100
AcDbEntity
  8
0
  6
Continuous
 62
     7
370
    15
100
AcDbEllipse
 10
156.9343035307
 20
126.3163179461
 30
0.0
 11
80.1813034230173
 21
3.450873862354826
 31
0.0
210
0.0
220
0.0
230
1.0
 40
0.0167291778
 41
3.801804273782193
 42
3.988695193683204
  0
LINE
  5
140
330
1F
100
AcDbEntity
  8
0
  6
Continuous
 62
     7
370
    15
100
AcDbLine
 10
103.8849390337
 20
122.350752914
 30
0.0
 11
103.8849390337
 21
123.0261233872
 31
0.0
  0
ELLIPSE
  5
141
330
1F
100
AcDbEntity
  8
0
  6
Continuous
 62
     7
370
    15
100
AcDbEllipse
 10
112.7186432367
 20
124.4138808664
 30
0.0
 11
84.23544166111772
 21
3.625801784980964
 31
0.0
210
0.0
220
0.0
230
1.0
 40
0.0200538958
 41
4.579593857564475
 42
4.60646344205122
  0
LINE
  5
142
330
1F
100
AcDbEntity
  8
0
  6
Continuous
 62
     7
370
    15
100
AcDbLine
 10
101.637506549
 20
121.8333754097
 30
0.0
 11
101.637506549
 21
122.2594298835
 31
0.0
  0
SPLINE
  5
143
330
1F
100
AcDbEntity
  8
0
  6
Continuous
 62
     7
370
    15
100
AcDbSpline
210
0.0
220
0.0
230
1.0
 70
     8
 71
     3
 72
     8
 73
     4
 74
     0
 42
0.000000001
 43
0.00000001
 40
0.0
 40
0.0
 40
0.0
 40
0.0
 40
1.0
 40
1.0
 40
1.0
 40
1.0
 10
101.6375065490057
 20
121.8333754097414
 30
0.0
 10
99.2444127466093
 20
121.9150263940851
 30
0.0
 10
96.85250934334532
 20
121.9994175838875
 30
0.0
 10
94.46385837133873
 20
122.0912956154082
 30
0.0
  0
SPLINE
  5
144
330
1F
100
AcDbEntity
  8
0
  6
Continuous
 62
     7
370
    15
100
AcDbSpline
210
0.0
220
0.0
230
1.0
 70
     8
 71
     3
 72
    10
 73
     6
 74
     0
 42
0.000000001
 43
0.00000001
 40
0.0
 40
0.0
 40
0.0
 40
0.0
 40
0.5
 40
0.5
 40
1.0
 40
1.0
 40
1.0
 40
1.0
 10
93.63750654900566
 20
122.4942222063612
 30
0.0
 10
93.63750654900566
 20
122.3918854297216
 30
0.0
 10
93.71594972484259
 20
122.295384525719
 30
0.0
 10
94.01365396462816
 20
122.1475633041319
 30
0.0
 10
94.22628691902227
 20
122.1004336592833
 30
0.0
 10
94.46385837133873
 20
122.0912956154082
 30
0.0
  0
LINE
  5
145
330
1F
100
AcDbEntity
  8
0
  6
Continuous
 62
     7
370
    15
100
AcDbLine
 10
93.637506549
 20
122.7679630957
 30
0.0
 11
93.637506549
 21
122.4942222064
 31
0.0
  0
LINE
  5
146
330
1F
100
AcDbEntity
  8
0
  6
Continuous
 62
     7
370
    15
100
AcDbLine
 10
101.637506549
 20
126.9943863231
 30
0.0
 11
101.637506549
 21
129.4138808664
 31
0.0
  0
LINE
  5
147
330
1F
100
AcDbEntity
  8
0
  6
Continuous
 62
     7
370
    15
100
AcDbLine
 10
101.637506549
 20
119.4138808664
 30
0.0
 11
101.637506549
 21
121.8333754097
 31
0.0
  0
SPLINE
  5
148
330
1F
100
AcDbEntity
  8
0
  6
Continuous
 62
     7
370
    15
100
AcDbSpline
210
0.0
220
0.0
230
1.0
 70
     8
 71
     3
 72
    12
 73
     8
 74
     0
 42
0.000000001
 43
0.00000001
 40
0.0
 40
0.0
 40
0.0
 40
0.0
 40
0.2500000000000001
 40
0.2500000000000001
 40
0.5000000000000001
 40
0.5000000000000001
 40
1.0
 40
1.0
 40
1.0
 40
1.0
 10
104.8375065490057
 20
123.2643352231555
 30
0.0
 10
104.8375065490057
 20
123.141500892536
 30
0.0
 10
104.8134670249299
 20
123.0227833883352
 30
0.0
 10
104.7192668349127
 20
122.8035298851213
 30
0.0
 10
104.6493481869175
 20
122.704701605516
 30
0.0
 10
104.3873476508249
 20
122.4583704501583
 30
0.0
 10
104.1411188745624
 20
122.3612326436601
 30
0.0
 10
103.8849390336907
 20
122.3507529139963
 30
0.0
  0
LINE
  5
149
330
1F
100
AcDbEntity
  8
0
  6
Continuous
 62
     7
370
    15
100
AcDbLine
 10
104.837506549
 20
123.2643352232
 30
0.0
 11
104.837506549
 21
125.5634265097
 31
0.0
  0
SPLINE
  5
14A
330
1F
100
AcDbEntity
  8
0
  6
Continuous
 62
     7
370
    15
100
AcDbSpline
210
0.0
220
0.0
230
1.0
 70
     8
 71
     3
 72
    14
 73
    10
 74
     0
 42
0.000000001
 43
0.00000001
 40
0.0
 40
0.0
 40
0.0
 40
0.0
 40
0.25
 40
0.25
 40
0.5
 40
0.5
 40
0.75
 40
0.75
 40
1.0
 40
1.0
 40
1.0
 40
1.0
 10
103.8849390336907
 20
126.4770088188556
 30
0.0
 10
104.0130578833553
 20
126.4717677705953
 30
0.0
 10
104.1373999416042
 20
126.4456959448038
 30
0.0
 10
104.3690426988834
 20
126.3534691376916
 30
0.0
 10
104.474117512672
 20
126.2877012811117
 30
0.0
 10
104.6490335898858
 20
126.1234649170767
 30
0.0
 10
104.7191786869634
 20
126.0241766547656
 30
0.0
 10
104.8129686456219
 20
125.8063970708896
 30
0.0
 10
104.8375065490057
 20
125.6862983521167
 30
0.0
 10
104.8375065490057
 20
125.5634265096964
 30
0.0
  0
SPLINE
  5
14B
330
1F
100
AcDbEntity
  8
0
  6
Continuous
 62
     7
370
    15
100
AcDbSpline
210
0.0
220
0.0
230
1.0
 70
     8
 71
     3
 72
    14
 73
    10
 74
     0
 42
0.000000001
 43
0.00000001
 40
0.0
 40
0.0
 40
0.0
 40
0.0
 40
0.25
 40
0.25
 40
0.5
 40
0.5
 40
0.75
 40
0.75
 40
1.0
 40
1.0
 40
1.0
 40
1.0
 10
104.8375065490057
 20
124.8931494877348
 30
0.0
 10
104.8375065490057
 20
125.019293391214
 30
0.0
 10
104.8139231979521
 20
125.1412111547587
 30
0.0
 10
104.7201658523898
 20
125.3629894684401
 30
0.0
 10
104.6499408893104
 20
125.4619208239074
 30
0.0
 10
104.4752429184865
 20
125.6231534545236
 30
0.0
 10
104.3694155396382
 20
125.6868017470837
 30
0.0
 10
104.1394546557843
 20
125.7736925851525
 30
0.0
 10
104.0133250537449
 20
125.7980129669838
 30
0.0
 10
103.8849390336907
 20
125.8016383456465
 30
0.0
  0
SPLINE
  5
14C
330
1F
100
AcDbEntity
  8
0
  6
Continuous
 62
     7
370
    15
100
AcDbSpline
210
0.0
220
0.0
230
1.0
 70
     8
 71
     3
 72
    14
 73
    10
 74
     0
 42
0.000000001
 43
0.00000001
 40
0.0
 40
0.0
 40
0.0
 40
0.0
 40
0.25
 40
0.25
 40
0.5
 40
0.5
 40
0.75
 40
0.75
 40
1.0
 40
1.0
 40
1.0
 40
1.0
 10
103.8849390336907
 20
123.0261233872052
 30
0.0
 10
104.0133976902892
 20
123.0297508169868
 30
0.0
 10
104.1378603770451
 20
123.0535665334796
 30
0.0
 10
104.3695381591115
 20
123.1409071647575
 30
0.0
 10
104.4746593249261
 20
123.2041752349422
 30
0.0
 10
104.6496964978714
 20
123.3655102849772
 30
0.0
 10
104.7200080681639
 20
123.4646720639685
 30
0.0
 10
104.8134944978709
 20
123.6852651884379
 30
0.0
 10
104.8375065490057
 20
123.8083660323219
 30
0.0
 10
104.8375065490057
 20
123.934612245117
 30
0.0
  0
LINE
  5
14D
330
1F
100
AcDbEntity
  8
0
  6
Continuous
 62
     7
370
    15
100
AcDbLine
 10
93.637506549
 20
121.6635963433
 30
0.0
 11
93.637506549
 21
122.4942222064
 31
0.0
  0
LINE
  5
14E
330
1F
100
AcDbEntity
  8
0
  6
Continuous
 62
     7
370
    15
100
AcDbLine
 10
93.637506549
 20
126.3335395265
 30
0.0
 11
93.637506549
 21
127.1641653896
 31
0.0
  0
LINE
  5
14F
330
1F
100
AcDbEntity
  8
0
  6
Continuous
 62
     8
370
    15
100
AcDbLine
 10
94.4638583713
 20
128.1489731426
 30
0.0
 11
94.4638583713
 21
126.7364661174
 31
0.0
  0
LINE
  5
150
330
1F
100
AcDbEntity
  8
0
  6
Continuous
 62
     8
370
    15
100
AcDbLine
 10
94.4638583713
 20
122.0912956154
 30
0.0
 11
94.4638583713
 21
120.6787885903
 31
0.0
  0
LINE
  5
151
330
1F
100
AcDbEntity
  8
0
  6
Continuous
 62
     7
370
    15
100
AcDbLine
 10
242.2450216319
 20
119.4138808664
 30
0.0
 11
249.4186698096
 21
120.6787885903
 31
0.0
  0
LINE
  5
152
330
1F
100
AcDbEntity
  8
0
  6
Continuous
 62
     7
370
    15
100
AcDbLine
 10
249.4186698096
 20
128.1489731426
 30
0.0
 11
242.2450216319
 21
129.4138808664
 31
0.0
  0
LINE
  5
153
330
1F
100
AcDbEntity
  8
0
  6
Continuous
 62
     7
370
    15
100
AcDbLine
 10
237.5450216319
 20
120.4138808664
 30
0.0
 11
242.2450216319
 21
120.4138808664
 31
0.0
  0
LINE
  5
154
330
1F
100
AcDbEntity
  8
0
  6
Continuous
 62
     7
370
    15
100
AcDbLine
 10
242.2450216319
 20
128.4138808664
 30
0.0
 11
237.5450216319
 21
128.4138808664
 31
0.0
  0
ARC
  5
155
330
1F
100
AcDbEntity
  8
0
  6
Continuous
 62
     7
370
    15
100
AcDbCircle
 10
249.2450216319
 20
127.1641653896
 30
0.0
 40
0.999999999999998
100
AcDbArc
 50
0.0
 51
80.0
  0
ARC
  5
156
330
1F
100
AcDbEntity
  8
0
  6
Continuous
 62
     7
370
    15
100
AcDbCircle
 10
249.2450216319
 20
121.6635963433
 30
0.0
 40
0.999999999999998
100
AcDbArc
 50
280.0
 51
0.0
  0
LINE
  5
157
330
1F
100
AcDbEntity
  8
0
  6
Continuous
 62
     7
370
    15
100
AcDbLine
 10
227.5450216319
 20
185.9156995897
 30
0.0
 11
227.5450216319
 21
187.9129586593
 31
0.0
  0
LINE
  5
158
330
1F
100
AcDbEntity
  8
0
  6
Continuous
 62
     7
370
    15
100
AcDbLine
 10
227.5450216319
 20
187.9129586593
 30
0.0
 11
244.4766194181
 21
187.0256112196
 31
0.0
  0
ELLIPSE
  5
159
330
1F
100
AcDbEntity
  8
0
  6
Continuous
 62
     7
370
    15
100
AcDbEllipse
 10
244.512295734
 20
185.0209968111
 30
0.0
 11
-0.03577169244570656
 21
2.004616058837968
 31
0.0
210
0.0
220
0.0
230
1.0
 40
0.0260037219
 41
4.71329950321749
 42
6.281356774272032
  0
LINE
  5
15A
330
1F
100
AcDbEntity
  8
0
  6
Continuous
 62
     7
370
    15
100
AcDbLine
 10
244.5643906201
 20
185.0237522563
 30
0.0
 11
227.5450216319
 21
185.9156995897
 31
0.0
  0
LINE
  5
15B
330
1F
100
AcDbEntity
  8
0
  6
Continuous
 62
     7
370
    15
100
AcDbLine
 10
239.4403497195
 20
142.4868403373
 30
0.0
 11
246.5973575882
 21
142.861923226
 31
0.0
  0
ARC
  5
15C
330
1F
100
AcDbEntity
  8
0
  6
Continuous
 62
     7
370
    15
100
AcDbCircle
 10
239.5973575882
 20
139.490951733
 30
0.0
 40
3.0
100
AcDbArc
 50
93.0
 51
180.0
  0
LINE
  5
15D
330
1F
100
AcDbEntity
  8
0
  6
Continuous
 62
     7
370
    15
100
AcDbLine
 10
236.5973575882
 20
115.3864749679
 30
0.0
 11
236.5973575882
 21
139.490951733
 31
0.0
  0
LINE
  5
15E
330
1F
100
AcDbEntity
  8
0
  6
Continuous
 62
     7
370
    15
100
AcDbLine
 10
227.5450216319
 20
114.9120621431
 30
0.0
 11
236.5973575882
 21
115.3864749679
 31
0.0
  0
LINE
  5
15F
330
1F
100
AcDbEntity
  8
0
  6
Continuous
 62
     7
370
    15
100
AcDbLine
 10
246.5973575882
 20
161.7868334807
 30
0.0
 11
244.5643906201
 21
185.0237522563
 31
0.0
  0
LINE
  5
160
330
1F
100
AcDbEntity
  8
0
  6
Continuous
 62
     7
370
    15
100
AcDbLine
 10
246.5973575882
 20
142.861923226
 30
0.0
 11
246.5973575882
 21
161.7868334807
 31
0.0
  0
LINE
  5
161
330
1F
100
AcDbEntity
  8
0
  6
Continuous
 62
     7
370
    15
100
AcDbLine
 10
227.5450216319
 20
185.9156995897
 30
0.0
 11
227.5450216319
 21
114.9120621431
 31
0.0
  0
ELLIPSE
  5
162
330
1F
100
AcDbEntity
  8
0
  6
Continuous
 62
     7
370
    15
100
AcDbEllipse
 10
236.5450216319
 20
115.3892177791
 30
0.0
 11
-0.05230020429473825
 21
2.000003284889345
 31
0.0
210
0.0
220
0.0
230
1.0
 40
0.0261142704
 41
3.142277416241329
 42
4.710334687294739
  0
LINE
  5
163
330
1F
100
AcDbEntity
  8
0
  6
Continuous
 62
     7
370
    15
100
AcDbLine
 10
236.5973575882
 20
113.3892158984
 30
0.0
 11
227.5450216319
 21
112.9148030736
 31
0.0
  0
LINE
  5
164
330
1F
100
AcDbEntity
  8
0
  6
Continuous
 62
     7
370
    15
100
AcDbLine
 10
227.5450216319
 20
112.9148030736
 30
0.0
 11
227.5450216319
 21
114.9120621431
 31
0.0
  0
ARC
  5
165
330
1F
100
AcDbEntity
  8
0
  6
Continuous
 62
     7
370
    15
100
AcDbCircle
 10
234.6548948639
 20
141.9875255699
 30
0.0
 40
4.811433612871177
100
AcDbArc
 50
354.0433076282
 51
5.9566923718
  0
ARC
  5
166
330
1F
100
AcDbEntity
  8
0
  6
Continuous
 62
     7
370
    15
100
AcDbCircle
 10
239.5450216319
 20
139.490951733
 30
0.0
 40
2.0
100
AcDbArc
 50
93.0
 51
180.0
  0
LINE
  5
167
330
1F
100
AcDbEntity
  8
0
  6
Continuous
 62
     7
370
    15
100
AcDbLine
 10
236.5973575882
 20
139.490951733
 30
0.0
 11
237.5450216319
 21
139.490951733
 31
0.0
  0
LINE
  5
168
330
1F
100
AcDbEntity
  8
0
  6
Continuous
 62
     7
370
    15
100
AcDbLine
 10
237.5450216319
 20
139.490951733
 30
0.0
 11
237.5450216319
 21
115.3864749679
 31
0.0
  0
LINE
  5
169
330
1F
100
AcDbEntity
  8
0
  6
Continuous
 62
     7
370
    15
100
AcDbLine
 10
236.5973575882
 20
115.3864749679
 30
0.0
 11
237.5450216319
 21
115.3864749679
 31
0.0
  0
LINE
  5
16A
330
1F
100
AcDbEntity
  8
0
  6
Continuous
 62
     7
370
    15
100
AcDbLine
 10
237.5450216319
 20
115.3864749679
 30
0.0
 11
237.5450216319
 21
114.3878454331
 31
0.0
  0
ARC
  5
16B
330
1F
100
AcDbEntity
  8
0
  6
Continuous
 62
     7
370
    15
100
AcDbCircle
 10
236.5450216319
 20
114.3878454331
 30
0.0
 40
1.0
100
AcDbArc
 50
273.0
 51
0.0
  0
ARC
  5
16C
330
1F
100
AcDbEntity
  8
0
  6
Continuous
 62
     7
370
    15
100
AcDbCircle
 10
241.8119027327
 20
142.3626084586
 30
0.0
 40
4.811433612869057
100
AcDbArc
 50
354.0433076282
 51
5.9566923718
  0
LINE
  5
16D
330
1F
100
AcDbEntity
  8
0
  6
Continuous
 62
     7
370
    15
100
AcDbLine
 10
246.5973575882
 20
141.8632936912
 30
0.0
 11
239.4403497195
 21
141.4882108025
 31
0.0
  0
ARC
  5
16E
330
1F
100
AcDbEntity
  8
0
  6
Continuous
 62
     7
370
    15
100
AcDbCircle
 10
244.4242834619
 20
186.0269816848
 30
0.0
 40
1.000000000000027
100
AcDbArc
 50
5.0
 51
87.0
  0
LINE
  5
16F
330
1F
100
AcDbEntity
  8
0
  6
Continuous
 62
     7
370
    15
100
AcDbLine
 10
245.42047816
 20
186.1141374276
 30
0.0
 11
245.5082493619
 21
185.110907999
 31
0.0
  0
ARC
  5
170
330
1F
100
AcDbEntity
  8
0
  6
Continuous
 62
     7
370
    15
100
AcDbCircle
 10
240.3544509239
 20
235.7699333963
 30
0.0
 40
50.92051151099956
100
AcDbArc
 50
274.7424390702
 51
275.8090028607
  0
ELLIPSE
  5
171
330
1F
100
AcDbEntity
  8
0
  6
Continuous
 62
     7
370
    15
100
AcDbEllipse
 10
246.5450216319
 20
161.7868334807
 30
0.0
 11
0.9999999950285883
 21
0.04366094269144583
 31
0.0
210
0.0
220
0.0
230
1.0
 40
0.0022838076
 41
4.764649144756499
 42
6.283185307179586
  0
LINE
  5
172
330
1F
100
AcDbEntity
  8
0
  6
Continuous
 62
     7
370
    15
100
AcDbLine
 10
245.5082493619
 20
185.110907999
 30
0.0
 11
247.5450216319
 21
161.8304944236
 31
0.0
  0
LINE
  5
173
330
1F
100
AcDbEntity
  8
0
  6
Continuous
 62
     7
370
    15
100
AcDbLine
 10
247.5450216319
 20
161.8304944236
 30
0.0
 11
247.5450216319
 21
142.861923226
 31
0.0
  0
LINE
  5
174
330
1F
100
AcDbEntity
  8
0
  6
Continuous
 62
     7
370
    15
100
AcDbLine
 10
247.5450216319
 20
142.861923226
 30
0.0
 11
246.5973575882
 21
142.861923226
 31
0.0
  0
ARC
  5
175
330
1F
100
AcDbEntity
  8
0
  6
Continuous
 62
     7
370
    15
100
AcDbCircle
 10
246.5450216319
 20
142.861923226
 30
0.0
 40
1.0
100
AcDbArc
 50
273.0
 51
0.0
  0
LINE
  5
176
330
1F
100
AcDbEntity
  8
0
  6
Continuous
 62
     7
370
    15
100
AcDbLine
 10
242.2450216319
 20
121.8333754097
 30
0.0
 11
242.2450216319
 21
122.2594298835
 31
0.0
  0
ELLIPSE
  5
177
330
1F
100
AcDbEntity
  8
0
  6
Continuous
 62
     7
370
    15
100
AcDbEllipse
 10
231.1638849442
 20
124.4138808664
 30
0.0
 11
84.23544166111776
 21
-3.625801784981008
 31
0.0
210
0.0
220
0.0
230
1.0
 40
0.0200538958
 41
4.818314518718172
 42
4.845184103204923
  0
LINE
  5
178
330
1F
100
AcDbEntity
  8
0
  6
Continuous
 62
     7
370
    15
100
AcDbLine
 10
239.9975891473
 20
123.0261233872
 30
0.0
 11
239.9975891473
 21
122.350752914
 31
0.0
  0
ELLIPSE
  5
179
330
1F
100
AcDbEntity
  8
0
  6
Continuous
 62
     7
370
    15
100
AcDbEllipse
 10
186.9482246503
 20
126.3163179461
 30
0.0
 11
80.1813034230171
 21
-3.450873862354826
 31
0.0
210
0.0
220
0.0
230
1.0
 40
0.0167291778
 41
5.436082767086924
 42
5.622973686988262
  0
LINE
  5
17A
330
1F
100
AcDbEntity
  8
0
  6
Continuous
 62
     7
370
    15
100
AcDbLine
 10
250.2450216319
 20
122.7679630957
 30
0.0
 11
250.2450216319
 21
122.4942222064
 31
0.0
  0
SPLINE
  5
17B
330
1F
100
AcDbEntity
  8
0
  6
Continuous
 62
     7
370
    15
100
AcDbSpline
210
0.0
220
0.0
230
1.0
 70
     8
 71
     3
 72
    12
 73
     8
 74
     0
 42
0.000000001
 43
0.00000001
 40
0.0
 40
0.0
 40
0.0
 40
0.0
 40
0.2499999999999991
 40
0.2499999999999991
 40
0.4999999999999981
 40
0.4999999999999981
 40
1.0
 40
1.0
 40
1.0
 40
1.0
 10
249.4186698096086
 20
122.0912956154082
 30
0.0
 10
249.5372960827558
 20
122.095858504081
 30
0.0
 10
249.6488986513986
 20
122.1096149512947
 30
0.0
 10
249.8537621683472
 20
122.1543179426992
 30
0.0
 10
249.9434497307383
 20
122.1846144032742
 30
0.0
 10
250.1657760807962
 20
122.2949430217091
 30
0.0
 10
250.2450216319417
 20
122.3920046530196
 30
0.0
 10
250.2450216319417
 20
122.4942222063612
 30
0.0
  0
SPLINE
  5
17C
330
1F
100
AcDbEntity
  8
0
  6
Continuous
 62
     7
370
    15
100
AcDbSpline
210
0.0
220
0.0
230
1.0
 70
     8
 71
     3
 72
     8
 73
     4
 74
     0
 42
0.000000001
 43
0.00000001
 40
0.0
 40
0.0
 40
0.0
 40
0.0
 40
1.0
 40
1.0
 40
1.0
 40
1.0
 10
242.2450216319417
 20
121.8333754097414
 30
0.0
 10
244.6380775691321
 20
121.9150251021461
 30
0.0
 10
247.0299672060119
 20
121.9994155979093
 30
0.0
 10
249.4186698096086
 20
122.0912956154082
 30
0.0
  0
ELLIPSE
  5
17D
330
1F
100
AcDbEntity
  8
0
  6
Continuous
 62
     7
370
    15
100
AcDbEllipse
 10
186.9482246503
 20
122.5114437867
 30
0.0
 11
80.18130342301721
 21
3.450873862354812
 31
0.0
210
0.0
220
0.0
230
1.0
 40
0.0167291778
 41
0.6602116201918594
 42
0.8471025400930359
  0
LINE
  5
17E
330
1F
100
AcDbEntity
  8
0
  6
Continuous
 62
     7
370
    15
100
AcDbLine
 10
239.9975891473
 20
126.4770088189
 30
0.0
 11
239.9975891473
 21
125.8016383456
 31
0.0
  0
ELLIPSE
  5
17F
330
1F
100
AcDbEntity
  8
0
  6
Continuous
 62
     7
370
    15
100
AcDbEllipse
 10
231.1638849442
 20
124.4138808664
 30
0.0
 11
84.23544166111776
 21
3.625801784980965
 31
0.0
210
0.0
220
0.0
230
1.0
 40
0.0200538958
 41
1.438001203974669
 42
1.464870788461417
  0
LINE
  5
180
330
1F
100
AcDbEntity
  8
0
  6
Continuous
 62
     7
370
    15
100
AcDbLine
 10
242.2450216319
 20
126.9943863231
 30
0.0
 11
242.2450216319
 21
126.5683318494
 31
0.0
  0
SPLINE
  5
181
330
1F
100
AcDbEntity
  8
0
  6
Continuous
 62
     7
370
    15
100
AcDbSpline
210
0.0
220
0.0
230
1.0
 70
     8
 71
     3
 72
     8
 73
     4
 74
     0
 42
0.000000001
 43
0.00000001
 40
0.0
 40
0.0
 40
0.0
 40
0.0
 40
1.0
 40
1.0
 40
1.0
 40
1.0
 10
242.2450216319417
 20
126.9943863231104
 30
0.0
 10
244.6381154343381
 20
126.9127353387667
 30
0.0
 10
247.0300188376021
 20
126.8283441489643
 30
0.0
 10
249.4186698096086
 20
126.7364661174436
 30
0.0
  0
SPLINE
  5
182
330
1F
100
AcDbEntity
  8
0
  6
Continuous
 62
     7
370
    15
100
AcDbSpline
210
0.0
220
0.0
230
1.0
 70
     8
 71
     3
 72
    10
 73
     6
 74
     0
 42
0.000000001
 43
0.00000001
 40
0.0
 40
0.0
 40
0.0
 40
0.0
 40
0.5
 40
0.5
 40
1.0
 40
1.0
 40
1.0
 40
1.0
 10
250.2450216319417
 20
126.3335395264907
 30
0.0
 10
250.2450216319417
 20
126.4358763031302
 30
0.0
 10
250.1665784561048
 20
126.5323772071328
 30
0.0
 10
249.8688742163192
 20
126.6801984287199
 30
0.0
 10
249.6562412619251
 20
126.7273280735686
 30
0.0
 10
249.4186698096086
 20
126.7364661174436
 30
0.0
  0
LINE
  5
183
330
1F
100
AcDbEntity
  8
0
  6
Continuous
 62
     7
370
    15
100
AcDbLine
 10
250.2450216319
 20
126.0597986372
 30
0.0
 11
250.2450216319
 21
126.3335395265
 31
0.0
  0
LINE
  5
184
330
1F
100
AcDbEntity
  8
0
  6
Continuous
 62
     7
370
    15
100
AcDbLine
 10
242.2450216319
 20
121.8333754097
 30
0.0
 11
242.2450216319
 21
119.4138808664
 31
0.0
  0
LINE
  5
185
330
1F
100
AcDbEntity
  8
0
  6
Continuous
 62
     7
370
    15
100
AcDbLine
 10
242.2450216319
 20
129.4138808664
 30
0.0
 11
242.2450216319
 21
126.9943863231
 31
0.0
  0
SPLINE
  5
186
330
1F
100
AcDbEntity
  8
0
  6
Continuous
 62
     7
370
    15
100
AcDbSpline
210
0.0
220
0.0
230
1.0
 70
     8
 71
     3
 72
    14
 73
    10
 74
     0
 42
0.000000001
 43
0.00000001
 40
0.0
 40
0.0
 40
0.0
 40
0.0
 40
0.25
 40
0.25
 40
0.5
 40
0.5
 40
0.75
 40
0.75
 40
1.0
 40
1.0
 40
1.0
 40
1.0
 10
239.9975891472567
 20
122.3507529139963
 30
0.0
 10
239.8694702975921
 20
122.3559939622566
 30
0.0
 10
239.7451282393432
 20
122.3820657880481
 30
0.0
 10
239.513485482064
 20
122.4742925951603
 30
0.0
 10
239.4084106682754
 20
122.5400604517402
 30
0.0
 10
239.2334945910615
 20
122.7042968157751
 30
0.0
 10
239.163349493984
 20
122.8035850780862
 30
0.0
 10
239.0695595353255
 20
123.0213646619623
 30
0.0
 10
239.0450216319416
 20
123.1414633807351
 30
0.0
 10
239.0450216319416
 20
123.2643352231555
 30
0.0
  0
SPLINE
  5
187
330
1F
100
AcDbEntity
  8
0
  6
Continuous
 62
     7
370
    15
100
AcDbSpline
210
0.0
220
0.0
230
1.0
 70
     8
 71
     3
 72
    12
 73
     8
 74
     0
 42
0.000000001
 43
0.00000001
 40
0.0
 40
0.0
 40
0.0
 40
0.0
 40
0.2500000000000001
 40
0.2500000000000001
 40
0.5000000000000001
 40
0.5000000000000001
 40
1.0
 40
1.0
 40
1.0
 40
1.0
 10
239.0450216319417
 20
125.5634265096964
 30
0.0
 10
239.0450216319417
 20
125.6862608403159
 30
0.0
 10
239.0690611560175
 20
125.8049783445167
 30
0.0
 10
239.1632613460347
 20
126.0242318477305
 30
0.0
 10
239.2331799940299
 20
126.1230601273359
 30
0.0
 10
239.4951805301225
 20
126.3693912826936
 30
0.0
 10
239.7414093063849
 20
126.4665290891917
 30
0.0
 10
239.9975891472567
 20
126.4770088188556
 30
0.0
  0
LINE
  5
188
330
1F
100
AcDbEntity
  8
0
  6
Continuous
 62
     7
370
    15
100
AcDbLine
 10
239.0450216319
 20
125.5634265097
 30
0.0
 11
239.0450216319
 21
123.2643352232
 31
0.0
  0
SPLINE
  5
189
330
1F
100
AcDbEntity
  8
0
  6
Continuous
 62
     7
370
    15
100
AcDbSpline
210
0.0
220
0.0
230
1.0
 70
     8
 71
     3
 72
    14
 73
    10
 74
     0
 42
0.000000001
 43
0.00000001
 40
0.0
 40
0.0
 40
0.0
 40
0.0
 40
0.25
 40
0.25
 40
0.5
 40
0.5
 40
0.75
 40
0.75
 40
1.0
 40
1.0
 40
1.0
 40
1.0
 10
239.0450216319417
 20
123.934612245117
 30
0.0
 10
239.0450216319417
 20
123.8084683416378
 30
0.0
 10
239.0686049829953
 20
123.6865505780931
 30
0.0
 10
239.1623623285575
 20
123.4647722644117
 30
0.0
 10
239.2325872916369
 20
123.3658409089444
 30
0.0
 10
239.4072852624608
 20
123.2046082783282
 30
0.0
 10
239.5131126413091
 20
123.1409599857682
 30
0.0
 10
239.743073525163
 20
123.0540691476993
 30
0.0
 10
239.8692031272025
 20
123.0297487658681
 30
0.0
 10
239.9975891472567
 20
123.0261233872053
 30
0.0
  0
SPLINE
  5
18A
330
1F
100
AcDbEntity
  8
0
  6
Continuous
 62
     7
370
    15
100
AcDbSpline
210
0.0
220
0.0
230
1.0
 70
     8
 71
     3
 72
    14
 73
    10
 74
     0
 42
0.000000001
 43
0.00000001
 40
0.0
 40
0.0
 40
0.0
 40
0.0
 40
0.25
 40
0.25
 40
0.5
 40
0.5
 40
0.75
 40
0.75
 40
1.0
 40
1.0
 40
1.0
 40
1.0
 10
239.9975891472567
 20
125.8016383456466
 30
0.0
 10
239.8691304906582
 20
125.7980109158651
 30
0.0
 10
239.7446678039023
 20
125.7741951993722
 30
0.0
 10
239.5129900218358
 20
125.6868545680944
 30
0.0
 10
239.4078688560213
 20
125.6235864979096
 30
0.0
 10
239.232831683076
 20
125.4622514478746
 30
0.0
 10
239.1625201127834
 20
125.3630896688834
 30
0.0
 10
239.0690336830764
 20
125.142496544414
 30
0.0
 10
239.0450216319417
 20
125.01939570053
 30
0.0
 10
239.0450216319417
 20
124.8931494877349
 30
0.0
  0
LINE
  5
18B
330
1F
100
AcDbEntity
  8
0
  6
Continuous
 62
     7
370
    15
100
AcDbLine
 10
250.2450216319
 20
127.1641653896
 30
0.0
 11
250.2450216319
 21
126.3335395265
 31
0.0
  0
LINE
  5
18C
330
1F
100
AcDbEntity
  8
0
  6
Continuous
 62
     7
370
    15
100
AcDbLine
 10
250.2450216319
 20
122.4942222064
 30
0.0
 11
250.2450216319
 21
121.6635963433
 31
0.0
  0
LINE
  5
18D
330
1F
100
AcDbEntity
  8
0
  6
Continuous
 62
     8
370
    15
100
AcDbLine
 10
249.4186698096
 20
120.6787885903
 30
0.0
 11
249.4186698096
 21
122.0912956154
 31
0.0
  0
LINE
  5
18E
330
1F
100
AcDbEntity
  8
0
  6
Continuous
 62
     8
370
    15
100
AcDbLine
 10
249.4186698096
 20
126.7364661174
 30
0.0
 11
249.4186698096
 21
128.1489731426
 31
0.0
  0
LINE
  5
18F
330
1F
100
AcDbEntity
  8
0
  6
Continuous
 62
     7
370
    15
100
AcDbLine
 10
189.0835521279
 20
81.41295726
 30
0.0
 11
191.0808111974
 21
81.41295726
 31
0.0
  0
LINE
  5
190
330
1F
100
AcDbEntity
  8
0
  6
Continuous
 62
     7
370
    15
100
AcDbLine
 10
191.0808111974
 20
81.41295726
 30
0.0
 11
190.1888638639
 21
64.3935882719
 31
0.0
  0
ELLIPSE
  5
191
330
1F
100
AcDbEntity
  8
0
  6
Continuous
 62
     7
370
    15
100
AcDbEllipse
 10
188.1888493492
 20
64.4456831579
 30
0.0
 11
2.000015177898916
 21
-0.05207797596412433
 31
0.0
210
0.0
220
0.0
230
1.0
 40
0.0179217251
 41
6.282713373462406
 42
7.850770644515753
  0
LINE
  5
192
330
1F
100
AcDbEntity
  8
0
  6
Continuous
 62
     7
370
    15
100
AcDbLine
 10
188.1962046882
 20
64.4813594738
 30
0.0
 11
189.0835521279
 21
81.41295726
 31
0.0
  0
LINE
  5
193
330
1F
100
AcDbEntity
  8
0
  6
Continuous
 62
     7
370
    15
100
AcDbLine
 10
156.0826556117
 20
81.41295726
 30
0.0
 11
158.0799146812
 21
81.41295726
 31
0.0
  0
LINE
  5
194
330
1F
100
AcDbEntity
  8
0
  6
Continuous
 62
     7
370
    15
100
AcDbLine
 10
158.0799146812
 20
81.41295726
 30
0.0
 11
158.9672621209
 21
64.4813594738
 31
0.0
  0
ELLIPSE
  5
195
330
1F
100
AcDbEntity
  8
0
  6
Continuous
 62
     7
370
    15
100
AcDbEllipse
 10
158.9746174599
 20
64.4456831579
 30
0.0
 11
2.000015177898916
 21
0.05207797596411012
 31
0.0
210
0.0
220
0.0
230
1.0
 40
0.0179217251
 41
1.574007316253613
 42
3.14206458730891
  0
LINE
  5
196
330
1F
100
AcDbEntity
  8
0
  6
Continuous
 62
     7
370
    15
100
AcDbLine
 10
156.9746029452
 20
64.3935882719
 30
0.0
 11
156.0826556117
 21
81.41295726
 31
0.0
  0
LINE
  5
197
330
1F
100
AcDbEntity
  8
0
  6
Continuous
 62
     7
370
    15
100
AcDbLine
 10
158.9672621209
 20
64.4813594738
 30
0.0
 11
188.1962046882
 21
64.4813594738
 31
0.0
  0
LINE
  5
198
330
1F
100
AcDbEntity
  8
0
  6
Continuous
 62
     7
370
    15
100
AcDbLine
 10
189.0835521279
 20
81.41295726
 30
0.0
 11
158.0799146812
 21
81.41295726
 31
0.0
  0
ARC
  5
199
330
1F
100
AcDbEntity
  8
0
  6
Continuous
 62
     7
370
    15
100
AcDbCircle
 10
189.1924651242
 20
64.4475879558
 30
0.0
 40
0.9978609193092877
100
AcDbArc
 50
269.8719107572
 51
356.8978982805
  0
ELLIPSE
  5
19A
330
1F
100
AcDbEntity
  8
0
  6
Continuous
 62
     7
370
    15
100
AcDbEllipse
 10
188.1888493492
 20
63.4494884598
 30
0.0
 11
1.001395601173101
 21
0.0006514901125385107
 31
0.0
210
0.0
220
0.0
230
1.0
 40
0.0878872054
 41
6.278522030876494
 42
7.846579301930445
  0
LINE
  5
19B
330
1F
100
AcDbEntity
  8
0
  6
Continuous
 62
     7
370
    15
100
AcDbLine
 10
188.1962046882
 20
64.4813594738
 30
0.0
 11
188.1962046882
 21
63.5375007319
 31
0.0
  0
LINE
  5
19C
330
1F
100
AcDbEntity
  8
0
  6
Continuous
 62
     7
370
    15
100
AcDbLine
 10
188.1962046882
 20
63.5375007319
 30
0.0
 11
158.9672621209
 21
63.5375007319
 31
0.0
  0
LINE
  5
19D
330
1F
100
AcDbEntity
  8
0
  6
Continuous
 62
     7
370
    15
100
AcDbLine
 10
158.9672621209
 20
64.4813594738
 30
0.0
 11
158.9672621209
 21
63.5375007319
 31
0.0
  0
ELLIPSE
  5
19E
330
1F
100
AcDbEntity
  8
0
  6
Continuous
 62
     7
370
    15
100
AcDbEllipse
 10
158.9746174599
 20
63.4494884598
 30
0.0
 11
1.00139560117313
 21
-0.0006514901125243
 31
0.0
210
0.0
220
0.0
230
1.0
 40
0.0878872054
 41
1.578198658838905
 42
3.146255929893038
  0
ARC
  5
19F
330
1F
100
AcDbEntity
  8
0
  6
Continuous
 62
     7
370
    15
100
AcDbCircle
 10
157.9710016849
 20
64.4475879558
 30
0.0
 40
0.9978609193093169
100
AcDbArc
 50
183.1021017195
 51
270.1280892428
  0
ELLIPSE
  5
1A0
330
1F
100
AcDbEntity
  8
0
  6
Continuous
 62
     7
370
    15
100
AcDbEllipse
 10
173.5817334046
 20
61.5470758692
 30
0.0
 11
10.99285558820188
 21
0.0
 31
0.0
210
0.0
220
0.0
230
1.0
 40
0.0874895832
 41
6.143278156844604
 42
6.287770409812963
  0
LINE
  5
1A1
330
1F
100
AcDbEntity
  8
0
  6
Continuous
 62
     7
370
    15
100
AcDbLine
 10
184.5240374884
 20
62.5138609225
 30
0.0
 11
184.5744734406
 21
61.5514856237
 31
0.0
  0
ELLIPSE
  5
1A2
330
1F
100
AcDbEntity
  8
0
  6
Continuous
 62
     7
370
    15
100
AcDbEllipse
 10
173.5817334046
 20
62.5094714005
 30
0.0
 11
10.94241910578933
 21
0.0
 31
0.0
210
0.0
220
0.0
230
1.0
 40
0.0874895832
 41
0.0045851026333682
 42
3.137007550956427
  0
LINE
  5
1A3
330
1F
100
AcDbEntity
  8
0
  6
Continuous
 62
     7
370
    15
100
AcDbLine
 10
162.5889933685
 20
61.5514856237
 30
0.0
 11
162.6394293207
 21
62.5138609225
 31
0.0
  0
ELLIPSE
  5
1A4
330
1F
100
AcDbEntity
  8
0
  6
Continuous
 62
     7
370
    15
100
AcDbEllipse
 10
173.5817334046
 20
61.5470758692
 30
0.0
 11
10.99285558820188
 21
0.0
 31
0.0
210
0.0
220
0.0
230
1.0
 40
0.0874895832
 41
3.137007550956412
 42
3.28149980392509
  0
LINE
  5
1A5
330
1F
100
AcDbEntity
  8
0
  6
Continuous
 62
     7
370
    15
100
AcDbLine
 10
162.6962895747
 20
61.41295726
 30
0.0
 11
158.0799751915
 21
61.41295726
 31
0.0
  0
LINE
  5
1A6
330
1F
100
AcDbEntity
  8
0
  6
Continuous
 62
     7
370
    15
100
AcDbLine
 10
157.9732324799
 20
63.44972953
 30
0.0
 11
158.0799751915
 21
61.41295726
 31
0.0
  0
LINE
  5
1A7
330
1F
100
AcDbEntity
  8
0
  6
Continuous
 62
     7
370
    15
100
AcDbLine
 10
189.0834916176
 20
61.41295726
 30
0.0
 11
189.1902343292
 21
63.44972953
 31
0.0
  0
LINE
  5
1A8
330
1F
100
AcDbEntity
  8
0
  6
Continuous
 62
     7
370
    15
100
AcDbLine
 10
189.0834916176
 20
61.41295726
 30
0.0
 11
184.4671772344
 21
61.41295726
 31
0.0
  0
ARC
  5
1A9
330
1F
100
AcDbEntity
  8
0
  6
Continuous
 62
     7
370
    15
100
AcDbCircle
 10
158.0797757641
 20
62.41295726
 30
0.0
 40
0.9999999999999967
100
AcDbArc
 50
183.0
 51
270.0
  0
LINE
  5
1AA
330
1F
100
AcDbEntity
  8
0
  6
Continuous
 62
     7
370
    15
100
AcDbLine
 10
158.0799751915
 20
61.41295726
 30
0.0
 11
158.0797757641
 21
61.41295726
 31
0.0
  0
LINE
  5
1AB
330
1F
100
AcDbEntity
  8
0
  6
Continuous
 62
     7
370
    15
100
AcDbLine
 10
157.0811462293
 20
62.3606213037
 30
0.0
 11
156.9746029452
 21
64.3935882719
 31
0.0
  0
ARC
  5
1AC
330
1F
100
AcDbEntity
  8
0
  6
Continuous
 62
     7
370
    15
100
AcDbCircle
 10
189.083691045
 20
62.41295726
 30
0.0
 40
0.9999999999999962
100
AcDbArc
 50
270.0
 51
357.0
  0
LINE
  5
1AD
330
1F
100
AcDbEntity
  8
0
  6
Continuous
 62
     7
370
    15
100
AcDbLine
 10
189.083691045
 20
61.41295726
 30
0.0
 11
189.0834916176
 21
61.41295726
 31
0.0
  0
LINE
  5
1AE
330
1F
100
AcDbEntity
  8
0
  6
Continuous
 62
     7
370
    15
100
AcDbLine
 10
190.1888638639
 20
64.3935882719
 30
0.0
 11
190.0823205798
 21
62.3606213037
 31
0.0
  0
LINE
  5
1AF
330
1F
100
AcDbEntity
  8
0
  6
Continuous
 62
     7
370
    15
100
AcDbLine
 10
162.6962895747
 20
61.41295726
 30
0.0
 11
184.4671772344
 21
61.41295726
 31
0.0
  0
LINE
  5
1B0
330
1F
100
AcDbEntity
  8
0
  6
Continuous
 62
     7
370
    15
100
AcDbLine
 10
176.5068850354
 20
59.5393090823
 30
0.0
 11
176.8614400026
 21
61.41295726
 31
0.0
  0
LINE
  5
1B1
330
1F
100
AcDbEntity
  8
0
  6
Continuous
 62
     7
370
    15
100
AcDbLine
 10
170.6565817737
 20
59.5393090823
 30
0.0
 11
176.5068850354
 21
59.5393090823
 31
0.0
  0
LINE
  5
1B2
330
1F
100
AcDbEntity
  8
0
  6
Continuous
 62
     7
370
    15
100
AcDbLine
 10
170.6565817737
 20
59.5393090823
 30
0.0
 11
170.3020268065
 21
61.41295726
 31
0.0
  0
LINE
  5
1B3
330
1F
100
AcDbEntity
  8
0
  6
Continuous
 62
     7
370
    15
100
AcDbLine
 10
175.5512449143
 20
58.71295726
 30
0.0
 11
171.6122218948
 21
58.71295726
 31
0.0
  0
SPLINE
  5
1B4
330
1F
100
AcDbEntity
  8
0
  6
Continuous
 62
     7
370
    15
100
AcDbSpline
210
0.0
220
0.0
230
1.0
 70
     8
 71
     3
 72
    10
 73
     6
 74
     0
 42
0.000000001
 43
0.00000001
 40
0.0
 40
0.0
 40
0.0
 40
0.0
 40
0.5
 40
0.5
 40
1.0
 40
1.0
 40
1.0
 40
1.0
 10
171.6122218947761
 20
58.71295725997598
 30
0.0
 10
171.3930607339918
 20
58.71295725997598
 30
0.0
 10
171.1775934352491
 20
58.7914004358129
 30
0.0
 10
170.8276114631475
 20
59.08910467559846
 30
0.0
 10
170.7028153048868
 20
59.30173762999259
 30
0.0
 10
170.6565817737417
 20
59.53930908230905
 30
0.0
  0
SPLINE
  5
1B5
330
1F
100
AcDbEntity
  8
0
  6
Continuous
 62
     7
370
    15
100
AcDbSpline
210
0.0
220
0.0
230
1.0
 70
     8
 71
     3
 72
    12
 73
     8
 74
     0
 42
0.000000001
 43
0.00000001
 40
0.0
 40
0.0
 40
0.0
 40
0.0
 40
0.2499999999999991
 40
0.2499999999999991
 40
0.4999999999999981
 40
0.4999999999999981
 40
1.0
 40
1.0
 40
1.0
 40
1.0
 10
176.5068850353645
 20
59.53930908230905
 30
0.0
 10
176.4837993007752
 20
59.42068280916187
 30
0.0
 10
176.441813240097
 20
59.30908024051907
 30
0.0
 10
176.32308592649
 20
59.10421672357045
 30
0.0
 10
176.2481379301223
 20
59.01452916117936
 30
0.0
 10
175.9869089391425
 20
58.79220281112149
 30
0.0
 10
175.7701507503209
 20
58.71295725997598
 30
0.0
 10
175.5512449143301
 20
58.71295725997598
 30
0.0
  0
LINE
  5
1B6
330
1F
100
AcDbEntity
  8
0
  6
Continuous
 62
     7
370
    15
100
AcDbLine
 10
177.5817334046
 20
226.9541005018
 30
0.0
 11
177.5817334046
 21
228.4541005018
 31
0.0
  0
LINE
  5
1B7
330
1F
100
AcDbEntity
  8
0
  6
Continuous
 62
     7
370
    15
100
AcDbLine
 10
169.5817334046
 20
228.4541005018
 30
0.0
 11
169.5817334046
 21
226.9541005018
 31
0.0
  0
LINE
  5
1B8
330
1F
100
AcDbEntity
  8
0
  6
Continuous
 62
     7
370
    15
100
AcDbLine
 10
158.0799146812
 20
216.9541005018
 30
0.0
 11
156.0826556117
 21
216.9541005018
 31
0.0
  0
LINE
  5
1B9
330
1F
100
AcDbEntity
  8
0
  6
Continuous
 62
     7
370
    15
100
AcDbLine
 10
156.0826556117
 20
216.9541005018
 30
0.0
 11
156.5570684365
 21
226.006436458
 31
0.0
  0
ELLIPSE
  5
1BA
330
1F
100
AcDbEntity
  8
0
  6
Continuous
 62
     7
370
    15
100
AcDbEllipse
 10
158.5570703173
 20
225.9541005018
 30
0.0
 11
2.000003284889374
 21
-0.05230020429470983
 31
0.0
210
0.0
220
0.0
230
1.0
 40
0.0261142704
 41
1.572850619884832
 42
3.140907890937687
  0
LINE
  5
1BB
330
1F
100
AcDbEntity
  8
0
  6
Continuous
 62
     7
370
    15
100
AcDbLine
 10
158.554327506
 20
226.006436458
 30
0.0
 11
158.0799146812
 21
216.9541005018
 31
0.0
  0
LINE
  5
1BC
330
1F
100
AcDbEntity
  8
0
  6
Continuous
 62
     7
370
    15
100
AcDbLine
 10
189.0835521279
 20
216.9541005018
 30
0.0
 11
188.6091393031
 21
226.006436458
 31
0.0
  0
ELLIPSE
  5
1BD
330
1F
100
AcDbEntity
  8
0
  6
Continuous
 62
     7
370
    15
100
AcDbEllipse
 10
188.6063964918
 20
225.9541005018
 30
0.0
 11
2.000003284889345
 21
0.05230020429476667
 31
0.0
210
0.0
220
0.0
230
1.0
 40
0.0261142704
 41
0.0006847626510151
 42
1.56874203370496
  0
LINE
  5
1BE
330
1F
100
AcDbEntity
  8
0
  6
Continuous
 62
     7
370
    15
100
AcDbLine
 10
190.6063983726
 20
226.006436458
 30
0.0
 11
191.0808111974
 21
216.9541005018
 31
0.0
  0
LINE
  5
1BF
330
1F
100
AcDbEntity
  8
0
  6
Continuous
 62
     7
370
    15
100
AcDbLine
 10
191.0808111974
 20
216.9541005018
 30
0.0
 11
189.0835521279
 21
216.9541005018
 31
0.0
  0
LINE
  5
1C0
330
1F
100
AcDbEntity
  8
0
  6
Continuous
 62
     7
370
    15
100
AcDbLine
 10
188.6091393031
 20
226.006436458
 30
0.0
 11
158.554327506
 21
226.006436458
 31
0.0
  0
LINE
  5
1C1
330
1F
100
AcDbEntity
  8
0
  6
Continuous
 62
     7
370
    15
100
AcDbLine
 10
158.0799146812
 20
216.9541005018
 30
0.0
 11
189.0835521279
 21
216.9541005018
 31
0.0
  0
LINE
  5
1C2
330
1F
100
AcDbEntity
  8
0
  6
Continuous
 62
     7
370
    15
100
AcDbLine
 10
158.554327506
 20
226.9541005018
 30
0.0
 11
188.6091393031
 21
226.9541005018
 31
0.0
  0
LINE
  5
1C3
330
1F
100
AcDbEntity
  8
0
  6
Continuous
 62
     7
370
    15
100
AcDbLine
 10
188.6091393031
 20
226.9541005018
 30
0.0
 11
188.6091393031
 21
226.006436458
 31
0.0
  0
LINE
  5
1C4
330
1F
100
AcDbEntity
  8
0
  6
Continuous
 62
     7
370
    15
100
AcDbLine
 10
158.554327506
 20
226.9541005018
 30
0.0
 11
158.554327506
 21
226.006436458
 31
0.0
  0
LINE
  5
1C5
330
1F
100
AcDbEntity
  8
0
  6
Continuous
 62
     7
370
    15
100
AcDbLine
 10
188.6091393031
 20
226.9541005018
 30
0.0
 11
189.6077688378
 21
226.9541005018
 31
0.0
  0
ARC
  5
1C6
330
1F
100
AcDbEntity
  8
0
  6
Continuous
 62
     7
370
    15
100
AcDbCircle
 10
189.6077688378
 20
225.9541005018
 30
0.0
 40
1.0
100
AcDbArc
 50
3.0
 51
90.0
  0
LINE
  5
1C7
330
1F
100
AcDbEntity
  8
0
  6
Continuous
 62
     7
370
    15
100
AcDbLine
 10
157.5556979713
 20
226.9541005018
 30
0.0
 11
158.554327506
 21
226.9541005018
 31
0.0
  0
ARC
  5
1C8
330
1F
100
AcDbEntity
  8
0
  6
Continuous
 62
     7
370
    15
100
AcDbCircle
 10
157.5556979713
 20
225.9541005018
 30
0.0
 40
1.000000000000027
100
AcDbArc
 50
90.0
 51
177.0
  0
SPLINE
  5
1C9
330
1F
100
AcDbEntity
  8
0
  6
Continuous
 62
     7
370
    15
100
AcDbSpline
210
0.0
220
0.0
230
1.0
 70
     8
 71
     3
 72
     8
 73
     4
 74
     0
 42
0.000000001
 43
0.00000001
 40
0.0
 40
0.0
 40
0.0
 40
0.0
 40
1.0
 40
1.0
 40
1.0
 40
1.0
 10
169.2990950135584
 20
231.6541005017568
 30
0.0
 10
169.74253758101
 20
234.0471564389472
 30
0.0
 10
170.1917188655811
 20
236.439046075827
 30
0.0
 10
170.6565817737417
 20
238.8277486794237
 30
0.0
  0
LINE
  5
1CA
330
1F
100
AcDbEntity
  8
0
  6
Continuous
 62
     7
370
    15
100
AcDbLine
 10
176.5068850354
 20
238.8277486794
 30
0.0
 11
170.6565817737
 21
238.8277486794
 31
0.0
  0
SPLINE
  5
1CB
330
1F
100
AcDbEntity
  8
0
  6
Continuous
 62
     7
370
    15
100
AcDbSpline
210
0.0
220
0.0
230
1.0
 70
     8
 71
     3
 72
     8
 73
     4
 74
     0
 42
0.000000001
 43
0.00000001
 40
0.0
 40
0.0
 40
0.0
 40
0.0
 40
1.0
 40
1.0
 40
1.0
 40
1.0
 10
177.8643717955478
 20
231.6541005017568
 30
0.0
 10
177.4209222115263
 20
234.0471943041531
 30
0.0
 10
176.9717378955555
 20
236.4390977074171
 30
0.0
 10
176.5068850353645
 20
238.8277486794237
 30
0.0
  0
LINE
  5
1CC
330
1F
100
AcDbEntity
  8
0
  6
Continuous
 62
     7
370
    15
100
AcDbLine
 10
169.2990950136
 20
231.6541005018
 30
0.0
 11
177.8643717955
 21
231.6541005018
 31
0.0
  0
SPLINE
  5
1CD
330
1F
100
AcDbEntity
  8
0
  6
Continuous
 62
     7
370
    15
100
AcDbSpline
210
0.0
220
0.0
230
1.0
 70
     8
 71
     3
 72
    14
 73
    10
 74
     0
 42
0.000000001
 43
0.00000001
 40
0.0
 40
0.0
 40
0.0
 40
0.0
 40
0.25
 40
0.25
 40
0.5
 40
0.5
 40
0.75
 40
0.75
 40
1.0
 40
1.0
 40
1.0
 40
1.0
 10
170.1548539126679
 20
229.4066680170718
 30
0.0
 10
170.1516985775616
 20
229.2785491674072
 30
0.0
 10
170.1357866047059
 20
229.1542071091583
 30
0.0
 10
170.0830451935132
 20
228.9225643518791
 30
0.0
 10
170.0465908305344
 20
228.8174895380905
 30
0.0
 10
169.9643091359757
 20
228.6425734608766
 30
0.0
 10
169.9182993692791
 20
228.572428363799
 30
0.0
 10
169.8301070802699
 20
228.4786384051406
 30
0.0
 10
169.7873414370553
 20
228.4541005017567
 30
0.0
 10
169.750474497348
 20
228.4541005017567
 30
0.0
  0
ELLIPSE
  5
1CE
330
1F
100
AcDbEntity
  8
0
  6
Continuous
 62
     7
370
    15
100
AcDbEllipse
 10
173.5817334046
 20
220.572963814
 30
0.0
 11
1.695514851994659
 21
84.23544147887468
 31
0.0
210
0.0
220
0.0
230
1.0
 40
0.0430089257
 41
1.43973009248805
 42
1.466599676974799
  0
ELLIPSE
  5
1CF
330
1F
100
AcDbEntity
  8
0
  6
Continuous
 62
     7
370
    15
100
AcDbEllipse
 10
173.5817334046
 20
220.572963814
 30
0.0
 11
-1.695514851994631
 21
84.23544147887468
 31
0.0
210
0.0
220
0.0
230
1.0
 40
0.0430089257
 41
4.816585630204792
 42
4.843455214691543
  0
SPLINE
  5
1D0
330
1F
100
AcDbEntity
  8
0
  6
Continuous
 62
     7
370
    15
100
AcDbSpline
210
0.0
220
0.0
230
1.0
 70
     8
 71
     3
 72
    12
 73
     8
 74
     0
 42
0.000000001
 43
0.00000001
 40
0.0
 40
0.0
 40
0.0
 40
0.0
 40
0.2500000000000001
 40
0.2500000000000001
 40
0.5000000000000001
 40
0.5000000000000001
 40
1.0
 40
1.0
 40
1.0
 40
1.0
 10
177.4129923117581
 20
228.4541005017568
 30
0.0
 10
177.3761366272357
 20
228.4541005017568
 30
0.0
 10
177.3339107228066
 20
228.4781400258326
 30
0.0
 10
177.2451684781115
 20
228.5723402158497
 30
0.0
 10
177.1993485917416
 20
228.642258863845
 30
0.0
 10
177.0759733170196
 20
228.9042593999376
 30
0.0
 10
177.014922141702
 20
229.1504881762
 30
0.0
 10
177.0086128964383
 20
229.4066680170718
 30
0.0
  0
LINE
  5
1D1
330
1F
100
AcDbEntity
  8
0
  6
Continuous
 62
     7
370
    15
100
AcDbLine
 10
177.4129923118
 20
228.4541005018
 30
0.0
 11
177.5817334046
 21
228.4541005018
 31
0.0
  0
LINE
  5
1D2
330
1F
100
AcDbEntity
  8
0
  6
Continuous
 62
     7
370
    15
100
AcDbLine
 10
169.5817334046
 20
228.4541005018
 30
0.0
 11
169.7504744973
 21
228.4541005018
 31
0.0
  0
LINE
  5
1D3
330
1F
100
AcDbEntity
  8
0
  6
Continuous
 62
     7
370
    15
100
AcDbLine
 10
171.6122218948
 20
239.6541005018
 30
0.0
 11
175.5512449143
 21
239.6541005018
 31
0.0
  0
SPLINE
  5
1D4
330
1F
100
AcDbEntity
  8
0
  6
Continuous
 62
     7
370
    15
100
AcDbSpline
210
0.0
220
0.0
230
1.0
 70
     8
 71
     3
 72
    10
 73
     6
 74
     0
 42
0.000000001
 43
0.00000001
 40
0.0
 40
0.0
 40
0.0
 40
0.0
 40
0.5
 40
0.5
 40
1.0
 40
1.0
 40
1.0
 40
1.0
 10
175.5512449143301
 20
239.6541005017568
 30
0.0
 10
175.7704060751144
 20
239.6541005017568
 30
0.0
 10
175.9858733738571
 20
239.5756573259198
 30
0.0
 10
176.3358553459587
 20
239.2779530861343
 30
0.0
 10
176.4606515042194
 20
239.0653201317402
 30
0.0
 10
176.5068850353645
 20
238.8277486794237
 30
0.0
  0
SPLINE
  5
1D5
330
1F
100
AcDbEntity
  8
0
  6
Continuous
 62
     7
370
    15
100
AcDbSpline
210
0.0
220
0.0
230
1.0
 70
     8
 71
     3
 72
    12
 73
     8
 74
     0
 42
0.000000001
 43
0.00000001
 40
0.0
 40
0.0
 40
0.0
 40
0.0
 40
0.2499999999999991
 40
0.2499999999999991
 40
0.4999999999999981
 40
0.4999999999999981
 40
1.0
 40
1.0
 40
1.0
 40
1.0
 10
170.6565817737417
 20
238.8277486794237
 30
0.0
 10
170.679667508331
 20
238.9463749525709
 30
0.0
 10
170.7216535690091
 20
239.0579775212137
 30
0.0
 10
170.8403808826162
 20
239.2628410381623
 30
0.0
 10
170.9153288789839
 20
239.3525286005534
 30
0.0
 10
171.1765578699637
 20
239.5748549506113
 30
0.0
 10
171.3933160587853
 20
239.6541005017568
 30
0.0
 10
171.6122218947761
 20
239.6541005017568
 30
0.0
  0
ARC
  5
1D6
330
1F
100
AcDbEntity
  8
0
  6
Continuous
 62
     7
370
    15
100
AcDbCircle
 10
157.205378108
 20
224.0639737338
 30
0.0
 40
4.811433612871149
100
AcDbArc
 50
84.0433076282
 51
95.9566923718
  0
LINE
  5
1D7
330
1F
100
AcDbEntity
  8
0
  6
Continuous
 62
     7
370
    15
100
AcDbLine
 10
157.7046928754
 20
228.8494285893
 30
0.0
 11
157.5556979713
 21
226.9541005018
 31
0.0
  0
LINE
  5
1D8
330
1F
100
AcDbEntity
  8
0
  6
Continuous
 62
     7
370
    15
100
AcDbLine
 10
156.5570684365
 20
226.006436458
 30
0.0
 11
156.7060633406
 21
228.8494285893
 31
0.0
  0
LINE
  5
1D9
330
1F
100
AcDbEntity
  8
0
  6
Continuous
 62
     7
370
    15
100
AcDbLine
 10
189.6077688378
 20
226.9541005018
 30
0.0
 11
189.4587739337
 21
228.8494285893
 31
0.0
  0
ARC
  5
1DA
330
1F
100
AcDbEntity
  8
0
  6
Continuous
 62
     7
370
    15
100
AcDbCircle
 10
189.9580887011
 20
224.0639737338
 30
0.0
 40
4.811433612871435
100
AcDbArc
 50
84.0433076282
 51
95.9566923718
  0
LINE
  5
1DB
330
1F
100
AcDbEntity
  8
0
  6
Continuous
 62
     7
370
    15
100
AcDbLine
 10
190.4574034685
 20
228.8494285893
 30
0.0
 11
190.6063983726
 21
226.006436458
 31
0.0
  0
LINE
  5
1DC
330
1F
100
AcDbEntity
  8
0
  6
Continuous
 62
     7
370
    15
100
AcDbLine
 10
189.4587739337
 20
228.8494285893
 30
0.0
 11
189.083691045
 21
236.006436458
 31
0.0
  0
ARC
  5
1DD
330
1F
100
AcDbEntity
  8
0
  6
Continuous
 62
     7
370
    15
100
AcDbCircle
 10
189.5830058124
 20
231.2209816025
 30
0.0
 40
4.811433612876803
100
AcDbArc
 50
84.0433076282
 51
95.9566923718
  0
LINE
  5
1DE
330
1F
100
AcDbEntity
  8
0
  6
Continuous
 62
     7
370
    15
100
AcDbLine
 10
190.0823205798
 20
236.006436458
 30
0.0
 11
190.4574034685
 21
228.8494285893
 31
0.0
  0
LINE
  5
1DF
330
1F
100
AcDbEntity
  8
0
  6
Continuous
 62
     7
370
    15
100
AcDbLine
 10
158.0797757641
 20
236.006436458
 30
0.0
 11
157.7046928754
 21
228.8494285893
 31
0.0
  0
ARC
  5
1E0
330
1F
100
AcDbEntity
  8
0
  6
Continuous
 62
     7
370
    15
100
AcDbCircle
 10
157.5804609967
 20
231.2209816025
 30
0.0
 40
4.811433612877028
100
AcDbArc
 50
84.0433076282
 51
95.9566923718
  0
LINE
  5
1E1
330
1F
100
AcDbEntity
  8
0
  6
Continuous
 62
     7
370
    15
100
AcDbLine
 10
156.7060633406
 20
228.8494285893
 30
0.0
 11
157.0811462293
 21
236.006436458
 31
0.0
  0
ARC
  5
1E2
330
1F
100
AcDbEntity
  8
0
  6
Continuous
 62
     7
370
    15
100
AcDbCircle
 10
189.083691045
 20
235.9541005018
 30
0.0
 40
1.0
100
AcDbArc
 50
3.0
 51
90.0
  0
LINE
  5
1E3
330
1F
100
AcDbEntity
  8
0
  6
Continuous
 62
     7
370
    15
100
AcDbLine
 10
189.083691045
 20
236.9541005018
 30
0.0
 11
189.083691045
 21
236.006436458
 31
0.0
  0
LINE
  5
1E4
330
1F
100
AcDbEntity
  8
0
  6
Continuous
 62
     7
370
    15
100
AcDbLine
 10
158.0797757641
 20
236.9541005018
 30
0.0
 11
158.0797757641
 21
236.006436458
 31
0.0
  0
ARC
  5
1E5
330
1F
100
AcDbEntity
  8
0
  6
Continuous
 62
     7
370
    15
100
AcDbCircle
 10
158.0797757641
 20
235.9541005018
 30
0.0
 40
1.0
100
AcDbArc
 50
90.0
 51
177.0
  0
LINE
  5
1E6
330
1F
100
AcDbEntity
  8
0
  6
Continuous
 62
     7
370
    15
100
AcDbLine
 10
158.0797757641
 20
236.9541005018
 30
0.0
 11
170.3020268065
 21
236.9541005018
 31
0.0
  0
LINE
  5
1E7
330
1F
100
AcDbEntity
  8
0
  6
Continuous
 62
     7
370
    15
100
AcDbLine
 10
176.8614400026
 20
236.9541005018
 30
0.0
 11
189.083691045
 21
236.9541005018
 31
0.0
  0
LINE
  5
1E8
330
1F
100
AcDbEntity
  8
0
  6
Continuous
 62
     8
370
    15
100
AcDbLine
 10
157.7046928754
 20
228.8494285893
 30
0.0
 11
170.0498978074
 21
228.8494285893
 31
0.0
  0
LINE
  5
1E9
330
1F
100
AcDbEntity
  8
0
  6
Continuous
 62
     8
370
    15
100
AcDbLine
 10
177.1135769413
 20
228.8494285893
 30
0.0
 11
189.4587739337
 21
228.8494285893
 31
0.0
  0
LINE
  5
1EA
330
1F
100
AcDbEntity
  8
0
  6
Continuous
 62
     8
370
    15
100
AcDbLine
 10
189.083691045
 20
236.006436458
 30
0.0
 11
177.040768757
 21
236.006436458
 31
0.0
  0
LINE
  5
1EB
330
1F
100
AcDbEntity
  8
0
  6
Continuous
 62
     8
370
    15
100
AcDbLine
 10
170.1226980521
 20
236.006436458
 30
0.0
 11
158.0797757641
 21
236.006436458
 31
0.0
  0
ELLIPSE
  5
1EC
330
1F
100
AcDbEntity
  8
0
  6
Continuous
 62
     7
370
    15
100
AcDbEllipse
 10
290.4165916395
 20
185.9102139673
 30
0.0
 11
1.418092486870137
 21
-1.418092486870137
 31
0.0
210
0.0
220
0.0
230
1.0
 40
0.9972646886
 41
2.357564018062761
 42
3.925621289116854
  0
LINE
  5
1ED
330
1F
100
AcDbEntity
  8
0
  6
Continuous
 62
     7
370
    15
100
AcDbLine
 10
290.411106017
 20
187.9129586593
 30
0.0
 11
321.4147434636
 21
187.9129586593
 31
0.0
  0
ELLIPSE
  5
1EE
330
1F
100
AcDbEntity
  8
0
  6
Continuous
 62
     7
370
    15
100
AcDbEllipse
 10
321.4092578411
 20
185.9102139673
 30
0.0
 11
-1.418092486870137
 21
-1.418092486870137
 31
0.0
210
0.0
220
0.0
230
1.0
 40
0.9972646886
 41
2.357564018062746
 42
3.925621289116868
  0
LINE
  5
1EF
330
1F
100
AcDbEntity
  8
0
  6
Continuous
 62
     7
370
    15
100
AcDbLine
 10
323.4120025331
 20
185.9156995897
 30
0.0
 11
323.4120025331
 21
114.9120621431
 31
0.0
  0
ELLIPSE
  5
1F0
330
1F
100
AcDbEntity
  8
0
  6
Continuous
 62
     7
370
    15
100
AcDbEllipse
 10
321.4092578411
 20
114.9175477656
 30
0.0
 11
-1.418092486870137
 21
1.418092486870137
 31
0.0
210
0.0
220
0.0
230
1.0
 40
0.9972646886
 41
2.35756401806273
 42
3.92562128911687
  0
LINE
  5
1F1
330
1F
100
AcDbEntity
  8
0
  6
Continuous
 62
     7
370
    15
100
AcDbLine
 10
321.4147434636
 20
112.9148030736
 30
0.0
 11
290.411106017
 21
112.9148030736
 31
0.0
  0
ELLIPSE
  5
1F2
330
1F
100
AcDbEntity
  8
0
  6
Continuous
 62
     7
370
    15
100
AcDbEllipse
 10
290.4165916395
 20
114.9175477656
 30
0.0
 11
1.418092486870137
 21
1.418092486870137
 31
0.0
210
0.0
220
0.0
230
1.0
 40
0.9972646886
 41
2.35756401806274
 42
3.925621289116868
  0
LINE
  5
1F3
330
1F
100
AcDbEntity
  8
0
  6
Continuous
 62
     7
370
    15
100
AcDbLine
 10
319.9071993221
 20
184.4081554483
 30
0.0
 11
319.9071993221
 21
116.4196062846
 31
0.0
  0
LINE
  5
1F4
330
1F
100
AcDbEntity
  8
0
  6
Continuous
 62
     7
370
    15
100
AcDbLine
 10
291.9186501585
 20
184.4081554483
 30
0.0
 11
319.9071993221
 21
184.4081554483
 31
0.0
  0
LINE
  5
1F5
330
1F
100
AcDbEntity
  8
0
  6
Continuous
 62
     7
370
    15
100
AcDbLine
 10
291.9186501585
 20
116.4196062846
 30
0.0
 11
291.9186501585
 21
184.4081554483
 31
0.0
  0
LINE
  5
1F6
330
1F
100
AcDbEntity
  8
0
  6
Continuous
 62
     7
370
    15
100
AcDbLine
 10
319.9071993221
 20
116.4196062846
 30
0.0
 11
291.9186501585
 21
116.4196062846
 31
0.0
  0
LINE
  5
1F7
330
1F
100
AcDbEntity
  8
0
  6
Continuous
 62
     7
370
    15
100
AcDbLine
 10
288.4138469475
 20
114.9120621431
 30
0.0
 11
288.4138469475
 21
185.9156995897
 31
0.0
  0
LINE
  5
1F8
330
1F
100
AcDbEntity
  8
0
  6
Continuous
 62
     7
370
    15
100
AcDbLine
 10
291.9186501585
 20
116.4196062846
 30
0.0
 11
292.2593007238
 21
116.7602568499
 31
0.0
  0
LINE
  5
1F9
330
1F
100
AcDbEntity
  8
0
  6
Continuous
 62
     7
370
    15
100
AcDbLine
 10
291.9186501585
 20
184.4081554483
 30
0.0
 11
292.7833785166
 21
183.5434270901
 31
0.0
  0
LINE
  5
1FA
330
1F
100
AcDbEntity
  8
0
  6
Continuous
 62
     7
370
    15
100
AcDbLine
 10
292.7833785166
 20
145.2343346428
 30
0.0
 11
292.7833785166
 21
183.5434270901
 31
0.0
  0
LINE
  5
1FB
330
1F
100
AcDbEntity
  8
0
  6
Continuous
 62
     7
370
    15
100
AcDbLine
 10
292.7833785166
 20
145.2343346428
 30
0.0
 11
292.2593007238
 21
144.7102568499
 31
0.0
  0
LINE
  5
1FC
330
1F
100
AcDbEntity
  8
0
  6
Continuous
 62
     7
370
    15
100
AcDbLine
 10
292.2593007238
 20
116.7602568499
 30
0.0
 11
292.2593007238
 21
144.7102568499
 31
0.0
  0
LINE
  5
1FD
330
1F
100
AcDbEntity
  8
0
  6
Continuous
 62
     7
370
    15
100
AcDbLine
 10
313.823779735
 20
183.9626893244
 30
0.0
 11
298.0020697456
 21
183.9626893244
 31
0.0
  0
SPLINE
  5
1FE
330
1F
100
AcDbEntity
  8
0
  6
Continuous
 62
     7
370
    15
100
AcDbSpline
210
0.0
220
0.0
230
1.0
 70
     8
 71
     3
 72
     8
 73
     4
 74
     0
 42
0.000000001
 43
0.00000001
 40
0.0
 40
0.0
 40
0.0
 40
0.0
 40
1.0
 40
1.0
 40
1.0
 40
1.0
 10
298.0020697456195
 20
183.9626893243578
 30
0.0
 10
297.6148871264693
 20
183.8231401613546
 30
0.0
 10
297.2549830914942
 20
183.6833617981571
 30
0.0
 10
296.9136866611174
 20
183.5434270900934
 30
0.0
  0
LINE
  5
1FF
330
1F
100
AcDbEntity
  8
0
  6
Continuous
 62
     7
370
    15
100
AcDbLine
 10
292.7833785166
 20
183.5434270901
 30
0.0
 11
296.9136866611
 21
183.5434270901
 31
0.0
  0
LINE
  5
200
330
1F
100
AcDbEntity
  8
0
  6
Continuous
 62
     7
370
    15
100
AcDbLine
 10
319.9071993221
 20
184.4081554483
 30
0.0
 11
319.042470964
 21
183.5434270901
 31
0.0
  0
LINE
  5
201
330
1F
100
AcDbEntity
  8
0
  6
Continuous
 62
     7
370
    15
100
AcDbLine
 10
314.9121628195
 20
183.5434270901
 30
0.0
 11
319.042470964
 21
183.5434270901
 31
0.0
  0
SPLINE
  5
202
330
1F
100
AcDbEntity
  8
0
  6
Continuous
 62
     7
370
    15
100
AcDbSpline
210
0.0
220
0.0
230
1.0
 70
     8
 71
     3
 72
     8
 73
     4
 74
     0
 42
0.000000001
 43
0.00000001
 40
0.0
 40
0.0
 40
0.0
 40
0.0
 40
1.0
 40
1.0
 40
1.0
 40
1.0
 10
313.8237797349674
 20
183.9626893243578
 30
0.0
 10
314.2109561494045
 20
183.8231423976702
 30
0.0
 10
314.5709219375075
 20
183.6833390227906
 30
0.0
 10
314.9121628194689
 20
183.5434270900934
 30
0.0
  0
LINE
  5
203
330
1F
100
AcDbEntity
  8
0
  6
Continuous
 62
     7
370
    15
100
AcDbLine
 10
319.9071993221
 20
116.4196062846
 30
0.0
 11
319.5665487568
 21
116.7602568499
 31
0.0
  0
LINE
  5
204
330
1F
100
AcDbEntity
  8
0
  6
Continuous
 62
     7
370
    15
100
AcDbLine
 10
319.5665487568
 20
116.7602568499
 30
0.0
 11
292.2593007238
 21
116.7602568499
 31
0.0
  0
SPLINE
  5
205
330
1F
100
AcDbEntity
  8
0
  6
Continuous
 62
     7
370
    15
100
AcDbSpline
210
0.0
220
0.0
230
1.0
 70
     8
 71
     3
 72
     8
 73
     4
 74
     0
 42
0.000000001
 43
0.00000001
 40
0.0
 40
0.0
 40
0.0
 40
0.0
 40
0.0085136833629083
 40
0.0085136833629083
 40
0.0085136833629083
 40
0.0085136833629083
 10
298.2562771149613
 20
171.2512193385854
 30
0.0
 10
298.1077892444807
 20
171.3137418357732
 30
0.0
 10
297.9593005076665
 20
171.3755170373963
 30
0.0
 10
297.8108109910554
 20
171.4365955407098
 30
0.0
  0
ARC
  5
206
330
1F
100
AcDbEntity
  8
0
  6
Continuous
 62
     7
370
    15
100
AcDbCircle
 10
305.9129247403
 20
163.4138808664
 30
0.0
 40
10.95664762533189
100
AcDbArc
 50
134.3318469787
 51
45.6681530213
  0
SPLINE
  5
207
330
1F
100
AcDbEntity
  8
0
  6
Continuous
 62
     7
370
    15
100
AcDbSpline
210
0.0
220
0.0
230
1.0
 70
     8
 71
     3
 72
     8
 73
     4
 74
     0
 42
0.000000001
 43
0.00000001
 40
0.0
 40
0.0
 40
0.0
 40
0.0
 40
0.0085136833629083
 40
0.0085136833629083
 40
0.0085136833629083
 40
0.0085136833629083
 10
313.569572365625
 20
171.2512193385854
 30
0.0
 10
313.7180602361056
 20
171.3137418357732
 30
0.0
 10
313.8665489729198
 20
171.3755170373962
 30
0.0
 10
314.0150384895309
 20
171.4365955407098
 30
0.0
  0
ARC
  5
208
330
1F
100
AcDbEntity
  8
0
  6
Continuous
 62
     7
370
    15
100
AcDbCircle
 10
305.9129247403
 20
163.4138808664
 30
0.0
 40
11.40211374923774
100
AcDbArc
 50
135.2821236299
 51
44.7178763701
  0
SPLINE
  5
209
330
1F
100
AcDbEntity
  8
0
  6
Continuous
 62
     7
370
    15
100
AcDbSpline
210
0.0
220
0.0
230
1.0
 70
     8
 71
     3
 72
    12
 73
     8
 74
     0
 42
0.000000001
 43
0.00000001
 40
0.0
 40
0.0
 40
0.0
 40
0.0
 40
0.2500000000000002
 40
0.2500000000000002
 40
0.5000000000000003
 40
0.5000000000000003
 40
1.0
 40
1.0
 40
1.0
 40
1.0
 10
310.0647691546323
 20
170.58842496298
 30
0.0
 10
310.0647691546323
 20
170.4437506742438
 30
0.0
 10
310.0802959652296
 20
170.3017199253022
 30
0.0
 10
310.1412153460565
 20
170.0227432659048
 30
0.0
 10
310.1874843626995
 20
169.8843679383997
 30
0.0
 10
310.3666565499265
 20
169.4944892215547
 30
0.0
 10
310.5425925512714
 20
169.2602373716744
 30
0.0
 10
310.7622908762058
 20
169.0719400085153
 30
0.0
  0
LINE
  5
20A
330
1F
100
AcDbEntity
  8
0
  6
Continuous
 62
     7
370
    15
100
AcDbLine
 10
310.0647691546
 20
170.588424963
 30
0.0
 11
310.0647691546
 21
174.4138808664
 31
0.0
  0
ARC
  5
20B
330
1F
100
AcDbEntity
  8
0
  6
Continuous
 62
     7
370
    15
100
AcDbCircle
 10
305.9129247403
 20
174.4138808664
 30
0.0
 40
4.151844414339166
100
AcDbArc
 50
0.0
 51
180.0
  0
LINE
  5
20C
330
1F
100
AcDbEntity
  8
0
  6
Continuous
 62
     7
370
    15
100
AcDbLine
 10
301.761080326
 20
174.4138808664
 30
0.0
 11
301.761080326
 21
170.588424963
 31
0.0
  0
SPLINE
  5
20D
330
1F
100
AcDbEntity
  8
0
  6
Continuous
 62
     7
370
    15
100
AcDbSpline
210
0.0
220
0.0
230
1.0
 70
     8
 71
     3
 72
    12
 73
     8
 74
     0
 42
0.000000001
 43
0.00000001
 40
0.0
 40
0.0
 40
0.0
 40
0.0
 40
0.2500000000000014
 40
0.2500000000000014
 40
0.5000000000000028
 40
0.5000000000000028
 40
1.0
 40
1.0
 40
1.0
 40
1.0
 10
301.0635586043804
 20
169.0719400085153
 30
0.0
 10
301.1734074130804
 20
169.1660883868907
 30
0.0
 10
301.2711446886213
 20
169.2703056352196
 30
0.0
 10
301.443322860311
 20
169.4981074746745
 30
0.0
 10
301.5182788978838
 20
169.6232879710667
 30
0.0
 10
301.6977092023099
 20
170.0130484734742
 30
0.0
 10
301.761080325954
 20
170.2990750648494
 30
0.0
 10
301.761080325954
 20
170.58842496298
 30
0.0
  0
ARC
  5
20E
330
1F
100
AcDbEntity
  8
0
  6
Continuous
 62
     7
370
    15
100
AcDbCircle
 10
305.9129247403
 20
163.4138808664
 30
0.0
 40
7.451844414339157
100
AcDbArc
 50
130.5989662888
 51
49.4010337112
  0
LINE
  5
20F
330
1F
100
AcDbEntity
  8
0
  6
Continuous
 62
     7
370
    15
100
AcDbLine
 10
313.5695723656
 20
171.2512193386
 30
0.0
 11
313.5695723656
 21
174.4138808664
 31
0.0
  0
LINE
  5
210
330
1F
100
AcDbEntity
  8
0
  6
Continuous
 62
     7
370
    15
100
AcDbLine
 10
298.256277115
 20
174.4138808664
 30
0.0
 11
298.256277115
 21
171.2512193386
 31
0.0
  0
ARC
  5
211
330
1F
100
AcDbEntity
  8
0
  6
Continuous
 62
     7
370
    15
100
AcDbCircle
 10
305.9129247403
 20
174.4138808664
 30
0.0
 40
7.656647625331914
100
AcDbArc
 50
0.0
 51
180.0
  0
LINE
  5
212
330
1F
100
AcDbEntity
  8
0
  6
Continuous
 62
     7
370
    15
100
AcDbLine
 10
298.256277115
 20
174.4138808664
 30
0.0
 11
297.8108109911
 21
174.4138808664
 31
0.0
  0
LINE
  5
213
330
1F
100
AcDbEntity
  8
0
  6
Continuous
 62
     7
370
    15
100
AcDbLine
 10
297.8108109911
 20
174.4138808664
 30
0.0
 11
297.8108109911
 21
171.4365955407
 31
0.0
  0
LINE
  5
214
330
1F
100
AcDbEntity
  8
0
  6
Continuous
 62
     7
370
    15
100
AcDbLine
 10
313.5695723656
 20
174.4138808664
 30
0.0
 11
314.0150384895
 21
174.4138808664
 31
0.0
  0
ARC
  5
215
330
1F
100
AcDbEntity
  8
0
  6
Continuous
 62
     7
370
    15
100
AcDbCircle
 10
305.9129247403
 20
174.4138808664
 30
0.0
 40
8.10211374923773
100
AcDbArc
 50
0.0
 51
180.0
  0
LINE
  5
216
330
1F
100
AcDbEntity
  8
0
  6
Continuous
 62
     7
370
    15
100
AcDbLine
 10
314.0150384895
 20
171.4365955407
 30
0.0
 11
314.0150384895
 21
174.4138808664
 31
0.0
  0
LINE
  5
217
330
1F
100
AcDbEntity
  8
0
  6
Continuous
 62
     7
370
    15
100
AcDbLine
 10
319.042470964
 20
145.2343346428
 30
0.0
 11
319.5665487568
 21
144.7102568499
 31
0.0
  0
LINE
  5
218
330
1F
100
AcDbEntity
  8
0
  6
Continuous
 62
     7
370
    15
100
AcDbLine
 10
319.042470964
 20
183.5434270901
 30
0.0
 11
319.042470964
 21
145.2343346428
 31
0.0
  0
LINE
  5
219
330
1F
100
AcDbEntity
  8
0
  6
Continuous
 62
     7
370
    15
100
AcDbLine
 10
319.5665487568
 20
144.7102568499
 30
0.0
 11
319.5665487568
 21
116.7602568499
 31
0.0
  0
LINE
  5
21A
330
1F
100
AcDbEntity
  8
0
  6
Continuous
 62
     7
370
    15
100
AcDbLine
 10
319.5665487568
 20
144.7102568499
 30
0.0
 11
292.2593007238
 21
144.7102568499
 31
0.0
  0
CIRCLE
  5
21B
330
1F
100
AcDbEntity
  8
0
  6
Continuous
 62
     7
370
    15
100
AcDbCircle
 10
305.9129247403
 20
124.4138808664
 30
0.0
 40
2.574211929420812
  0
LINE
  5
21C
330
1F
100
AcDbEntity
  8
0
  6
Continuous
 62
     7
370
    15
100
AcDbLine
 10
319.042470964
 20
145.2343346428
 30
0.0
 11
292.7833785166
 21
145.2343346428
 31
0.0
  0
ELLIPSE
  5
21D
330
1F
100
AcDbEntity
  8
0
  6
Continuous
 62
     7
370
    15
100
AcDbEllipse
 10
305.0245863239
 20
122.5114437867
 30
0.0
 11
1.610925859588406
 21
3.449907187992395
 31
0.0
210
0.0
220
0.0
230
1.0
 40
0.8342106746
 41
0.6609316168723842
 42
0.8478225367735631
  0
SPLINE
  5
21E
330
1F
100
AcDbEntity
  8
0
  6
Continuous
 62
     7
370
    15
100
AcDbSpline
210
0.0
220
0.0
230
1.0
 70
     8
 71
     3
 72
    14
 73
    10
 74
     0
 42
0.000000001
 43
0.00000001
 40
0.0
 40
0.0
 40
0.0
 40
0.0
 40
0.25
 40
0.25
 40
0.5
 40
0.5
 40
0.75
 40
0.75
 40
1.0
 40
1.0
 40
1.0
 40
1.0
 10
303.5171096198072
 20
124.8931494877348
 30
0.0
 10
303.542343960383
 20
125.019293391214
 30
0.0
 10
303.5780483989349
 20
125.1412111547587
 30
0.0
 10
303.6617335701545
 20
125.3629894684401
 30
0.0
 10
303.7093461875262
 20
125.4619208239074
 30
0.0
 10
303.7988013639141
 20
125.6231534545236
 30
0.0
 10
303.8411060805732
 20
125.6868017470837
 30
0.0
 10
303.9043355614508
 20
125.7736925851525
 30
0.0
 10
303.9257516199128
 20
125.7980129669838
 30
0.0
 10
303.9323970070649
 20
125.8016383456465
 30
0.0
  0
ARC
  5
21F
330
1F
100
AcDbEntity
  8
0
  6
Continuous
 62
     7
370
    15
100
AcDbCircle
 10
305.9129247403
 20
124.4138808664
 30
0.0
 40
2.443282321574865
100
AcDbArc
 50
168.6876393243
 51
191.3123606757
  0
SPLINE
  5
220
330
1F
100
AcDbEntity
  8
0
  6
Continuous
 62
     7
370
    15
100
AcDbSpline
210
0.0
220
0.0
230
1.0
 70
     8
 71
     3
 72
    14
 73
    10
 74
     0
 42
0.000000001
 43
0.00000001
 40
0.0
 40
0.0
 40
0.0
 40
0.0
 40
0.25
 40
0.25
 40
0.5
 40
0.5
 40
0.75
 40
0.75
 40
1.0
 40
1.0
 40
1.0
 40
1.0
 10
303.9323970070647
 20
123.0261233872052
 30
0.0
 10
303.9257478601733
 20
123.0297508169868
 30
0.0
 10
303.9047186330081
 20
123.0535665334796
 30
0.0
 10
303.8411273027294
 20
123.1409071647575
 30
0.0
 10
303.7990637005724
 20
123.2041752349422
 30
0.0
 10
303.7095076534417
 20
123.3655102849772
 30
0.0
 10
303.6618127888258
 20
123.4646720639685
 30
0.0
 10
303.5784922739894
 20
123.6852651884379
 30
0.0
 10
303.5423644267555
 20
123.8083660323219
 30
0.0
 10
303.5171096198072
 20
123.934612245117
 30
0.0
  0
ELLIPSE
  5
221
330
1F
100
AcDbEntity
  8
0
  6
Continuous
 62
     7
370
    15
100
AcDbEllipse
 10
305.0245863239
 20
126.3163179461
 30
0.0
 11
-1.610925859588349
 21
3.449907187992408
 31
0.0
210
0.0
220
0.0
230
1.0
 40
0.8342106746
 41
2.293770116816265
 42
2.480661036717444
  0
ARC
  5
222
330
1F
100
AcDbEntity
  8
0
  6
Continuous
 62
     7
370
    15
100
AcDbCircle
 10
305.9129247403
 20
124.4138808664
 30
0.0
 40
2.150000000000041
100
AcDbArc
 50
229.9553372004
 51
310.0446627996
  0
ELLIPSE
  5
223
330
1F
100
AcDbEntity
  8
0
  6
Continuous
 62
     7
370
    15
100
AcDbEllipse
 10
306.8012631566
 20
126.3163179461
 30
0.0
 11
1.610925859588349
 21
3.449907187992408
 31
0.0
210
0.0
220
0.0
230
1.0
 40
0.8342106746
 41
3.802524270462174
 42
3.989415190363336
  0
SPLINE
  5
224
330
1F
100
AcDbEntity
  8
0
  6
Continuous
 62
     7
370
    15
100
AcDbSpline
210
0.0
220
0.0
230
1.0
 70
     8
 71
     3
 72
    14
 73
    10
 74
     0
 42
0.000000001
 43
0.00000001
 40
0.0
 40
0.0
 40
0.0
 40
0.0
 40
0.25
 40
0.25
 40
0.5
 40
0.5
 40
0.75
 40
0.75
 40
1.0
 40
1.0
 40
1.0
 40
1.0
 10
308.308739860779
 20
123.934612245117
 30
0.0
 10
308.2835055202033
 20
123.8084683416378
 30
0.0
 10
308.2478010816514
 20
123.6865505780931
 30
0.0
 10
308.1641159104317
 20
123.4647722644117
 30
0.0
 10
308.1165032930601
 20
123.3658409089444
 30
0.0
 10
308.0270481166722
 20
123.2046082783282
 30
0.0
 10
307.984743400013
 20
123.1409599857682
 30
0.0
 10
307.9215139191355
 20
123.0540691476993
 30
0.0
 10
307.9000978606735
 20
123.0297487658681
 30
0.0
 10
307.8934524735213
 20
123.0261233872053
 30
0.0
  0
ARC
  5
225
330
1F
100
AcDbEntity
  8
0
  6
Continuous
 62
     7
370
    15
100
AcDbCircle
 10
305.9129247403
 20
124.4138808664
 30
0.0
 40
2.443282321574865
100
AcDbArc
 50
348.6876393243
 51
11.3123606757
  0
SPLINE
  5
226
330
1F
100
AcDbEntity
  8
0
  6
Continuous
 62
     7
370
    15
100
AcDbSpline
210
0.0
220
0.0
230
1.0
 70
     8
 71
     3
 72
    14
 73
    10
 74
     0
 42
0.000000001
 43
0.00000001
 40
0.0
 40
0.0
 40
0.0
 40
0.0
 40
0.25
 40
0.25
 40
0.5
 40
0.5
 40
0.75
 40
0.75
 40
1.0
 40
1.0
 40
1.0
 40
1.0
 10
307.8934524735216
 20
125.8016383456466
 30
0.0
 10
307.900101620413
 20
125.7980109158651
 30
0.0
 10
307.9211308475781
 20
125.7741951993722
 30
0.0
 10
307.9847221778569
 20
125.6868545680944
 30
0.0
 10
308.0267857800138
 20
125.6235864979096
 30
0.0
 10
308.1163418271446
 20
125.4622514478746
 30
0.0
 10
308.1640366917604
 20
125.3630896688834
 30
0.0
 10
308.2473572065969
 20
125.142496544414
 30
0.0
 10
308.2834850538308
 20
125.01939570053
 30
0.0
 10
308.3087398607792
 20
124.8931494877349
 30
0.0
  0
ELLIPSE
  5
227
330
1F
100
AcDbEntity
  8
0
  6
Continuous
 62
     7
370
    15
100
AcDbEllipse
 10
306.8012631566
 20
122.5114437867
 30
0.0
 11
-1.610925859588406
 21
3.449907187992395
 31
0.0
210
0.0
220
0.0
230
1.0
 40
0.8342106746
 41
5.435362770406044
 42
5.622253690307224
  0
ARC
  5
228
330
1F
100
AcDbEntity
  8
0
  6
Continuous
 62
     7
370
    15
100
AcDbCircle
 10
305.9129247403
 20
124.4138808664
 30
0.0
 40
2.149999999999982
100
AcDbArc
 50
49.9553372004
 51
130.0446627996
  0
ARC
  5
229
330
1F
100
AcDbEntity
  8
0
  6
Continuous
 62
     7
370
    15
100
AcDbCircle
 10
305.9129247403
 20
174.4138808664
 30
0.0
 40
12.40005523024092
100
AcDbArc
 50
0.0
 51
50.3594359184
  0
LINE
  5
22A
330
1F
100
AcDbEntity
  8
0
  6
Continuous
 62
     7
370
    15
100
AcDbLine
 10
318.3129799705
 20
174.4138808664
 30
0.0
 11
318.3129799705
 21
163.4138808664
 31
0.0
  0
ARC
  5
22B
330
1F
100
AcDbEntity
  8
0
  6
Continuous
 62
     7
370
    15
100
AcDbCircle
 10
305.9129247403
 20
163.4138808664
 30
0.0
 40
12.40005523024092
100
AcDbArc
 50
180.0
 51
0.0
  0
LINE
  5
22C
330
1F
100
AcDbEntity
  8
0
  6
Continuous
 62
     7
370
    15
100
AcDbLine
 10
293.5128695101
 20
163.4138808664
 30
0.0
 11
293.5128695101
 21
174.4138808664
 31
0.0
  0
ARC
  5
22D
330
1F
100
AcDbEntity
  8
0
  6
Continuous
 62
     7
370
    15
100
AcDbCircle
 10
305.9129247403
 20
174.4138808664
 30
0.0
 40
12.40005523024087
100
AcDbArc
 50
129.6405640816
 51
180.0
  0
ARC
  5
22E
330
1F
100
AcDbEntity
  8
0
  6
Continuous
 62
     7
370
    15
100
AcDbCircle
 10
305.9129247403
 20
174.4138808664
 30
0.0
 40
12.81931746450524
100
AcDbArc
 50
0.0
 51
45.4118300496
  0
LINE
  5
22F
330
1F
100
AcDbEntity
  8
0
  6
Continuous
 62
     7
370
    15
100
AcDbLine
 10
318.3129799705
 20
174.4138808664
 30
0.0
 11
318.7322422048
 21
174.4138808664
 31
0.0
  0
LINE
  5
230
330
1F
100
AcDbEntity
  8
0
  6
Continuous
 62
     7
370
    15
100
AcDbLine
 10
293.5128695101
 20
174.4138808664
 30
0.0
 11
293.0936072758
 21
174.4138808664
 31
0.0
  0
ARC
  5
231
330
1F
100
AcDbEntity
  8
0
  6
Continuous
 62
     7
370
    15
100
AcDbCircle
 10
305.9129247403
 20
174.4138808664
 30
0.0
 40
12.8193174645052
100
AcDbArc
 50
134.5881699504
 51
180.0
  0
LINE
  5
232
330
1F
100
AcDbEntity
  8
0
  6
Continuous
 62
     7
370
    15
100
AcDbLine
 10
293.5128695101
 20
163.4138808664
 30
0.0
 11
293.0936072758
 21
163.4138808664
 31
0.0
  0
LINE
  5
233
330
1F
100
AcDbEntity
  8
0
  6
Continuous
 62
     7
370
    15
100
AcDbLine
 10
318.3129799705
 20
163.4138808664
 30
0.0
 11
318.7322422048
 21
163.4138808664
 31
0.0
  0
ARC
  5
234
330
1F
100
AcDbEntity
  8
0
  6
Continuous
 62
     7
370
    15
100
AcDbCircle
 10
305.9129247403
 20
163.4138808664
 30
0.0
 40
12.81931746450522
100
AcDbArc
 50
180.0
 51
0.0
  0
LINE
  5
235
330
1F
100
AcDbEntity
  8
0
  6
Continuous
 62
     7
370
    15
100
AcDbLine
 10
293.0936072758
 20
163.4138808664
 30
0.0
 11
293.0936072758
 21
174.4138808664
 31
0.0
  0
LINE
  5
236
330
1F
100
AcDbEntity
  8
0
  6
Continuous
 62
     7
370
    15
100
AcDbLine
 10
318.7322422048
 20
174.4138808664
 30
0.0
 11
318.7322422048
 21
163.4138808664
 31
0.0
  0
ENDSEC
  0
SECTION
  2
OBJECTS
  0
DICTIONARY
  5
C
330
0
100
AcDbDictionary
281
     1
  3
ACAD_GROUP
350
D
  3
ACAD_LAYOUT
350
1A
  3
ACAD_MLINESTYLE
350
17
  3
ACAD_PLOTSETTINGS
350
19
  3
ACAD_PLOTSTYLENAME
350
E
  3
ACAD_SCALELIST
350
47
  0
DICTIONARY
  5
D
102
{ACAD_REACTORS
330
C
102
}
330
C
100
AcDbDictionary
281
     1
  0
DICTIONARY
  5
1A
102
{ACAD_REACTORS
330
C
102
}
330
C
100
AcDbDictionary
281
     1
  3
Layout1
350
1E
  3
Layout2
350
26
  3
Model
350
22
  0
DICTIONARY
  5
17
102
{ACAD_REACTORS
330
C
102
}
330
C
100
AcDbDictionary
281
     1
  3
Standard
350
18
  0
DICTIONARY
  5
19
102
{ACAD_REACTORS
330
C
102
}
330
C
100
AcDbDictionary
281
     1
  0
ACDBDICTIONARYWDFLT
  5
E
102
{ACAD_REACTORS
330
C
102
}
330
C
100
AcDbDictionary
281
     1
  3
Normal
350
F
100
AcDbDictionaryWithDefault
340
F
  0
DICTIONARY
  5
47
102
{ACAD_REACTORS
330
C
102
}
330
C
100
AcDbDictionary
281
     1
  3
A0
350
48
  3
A1
350
49
  3
A2
350
4A
  3
A3
350
4B
  3
A4
350
4C
  3
A5
350
4D
  3
A6
350
4E
  3
A7
350
4F
  3
A8
350
50
  3
A9
350
51
  3
B0
350
52
  3
B1
350
53
  3
B2
350
54
  3
B3
350
55
  3
B4
350
56
  3
B5
350
57
  3
B6
350
58
  3
B7
350
59
  3
B8
350
5A
  3
B9
350
5B
  3
C0
350
5C
  3
C1
350
5D
  3
C2
350
5E
  3
C3
350
5F
  3
C4
350
60
  3
C5
350
61
  3
C6
350
62
  3
C7
350
63
  3
C8
350
64
  3
C9
350
65
  3
D0
350
66
  3
D1
350
67
  3
D2
350
68
  0
LAYOUT
  5
1E
102
{ACAD_REACTORS
330
1A
102
}
330
1A
100
AcDbPlotSettings
  1

  2
none_device
  4

  6

 40
0.0
 41
0.0
 42
0.0
 43
0.0
 44
0.0
 45
0.0
 46
0.0
 47
0.0
 48
0.0
 49
0.0
140
0.0
141
0.0
142
1.0
143
1.0
 70
   688
 72
     1
 73
     0
 74
     5
  7

 75
    16
147
1.0
148
0.0
149
0.0
100
AcDbLayout
  1
Layout1
 70
     1
 71
     1
 10
0.0
 20
0.0
 11
420.0
 21
297.0
 12
0.0
 22
0.0
 32
0.0
 14
1.0000000000E+20
 24
1.0000000000E+20
 34
1.0000000000E+20
 15
-1.0000000000E+20
 25
-1.0000000000E+20
 35
-1.0000000000E+20
146
0.0
 13
0.0
 23
0.0
 33
0.0
 16
1.0
 26
0.0
 36
0.0
 17
0.0
 27
1.0
 37
0.0
 76
     0
330
1B
  0
LAYOUT
  5
26
102
{ACAD_REACTORS
330
1A
102
}
330
1A
100
AcDbPlotSettings
  1

  2
none_device
  4

  6

 40
0.0
 41
0.0
 42
0.0
 43
0.0
 44
0.0
 45
0.0
 46
0.0
 47
0.0
 48
0.0
 49
0.0
140
0.0
141
0.0
142
1.0
143
1.0
 70
   688
 72
     1
 73
     0
 74
     5
  7

 75
    16
147
1.0
148
0.0
149
0.0
100
AcDbLayout
  1
Layout2
 70
     1
 71
     2
 10
0.0
 20
0.0
 11
0.0
 21
0.0
 12
0.0
 22
0.0
 32
0.0
 14
0.0
 24
0.0
 34
0.0
 15
0.0
 25
0.0
 35
0.0
146
0.0
 13
0.0
 23
0.0
 33
0.0
 16
1.0
 26
0.0
 36
0.0
 17
0.0
 27
1.0
 37
0.0
 76
     0
330
23
  0
LAYOUT
  5
22
102
{ACAD_REACTORS
330
1A
102
}
330
1A
100
AcDbPlotSettings
  1

  2
none_device
  4
Letter_(8.50_x_11.00_Inches)
  6

 40
6.35
 41
6.35
 42
6.35000508
 43
6.35000508
 44
215.9
 45
279.4
 46
0.0
 47
0.0
 48
0.0
 49
0.0
140
0.0
141
0.0
142
1.0
143
1.0
 70
  1712
 72
     1
 73
     0
 74
     0
  7

 75
     0
147
1.0
148
0.0
149
0.0
100
AcDbLayout
  1
Model
 70
     1
 71
     0
 10
0.0
 20
0.0
 11
420.0
 21
297.0
 12
0.0
 22
0.0
 32
0.0
 14
0.0
 24
0.0
 34
0.0
 15
420.0
 25
297.0
 35
0.0
146
0.0
 13
0.0
 23
0.0
 33
0.0
 16
1.0
 26
0.0
 36
0.0
 17
0.0
 27
1.0
 37
0.0
 76
     0
330
1F
331
29
  0
MLINESTYLE
  5
18
102
{ACAD_REACTORS
330
17
102
}
330
17
100
AcDbMlineStyle
  2
Standard
 70
     0
  3

 62
   256
 51
90.0
 52
90.0
 71
     2
 49
0.5
 62
   256
  6
BYLAYER
 49
-0.5
 62
   256
  6
BYLAYER
  0
ACDBPLACEHOLDER
  5
F
102
{ACAD_REACTORS
330
E
102
}
330
E
  0
SCALE
  5
48
102
{ACAD_REACTORS
330
47
102
}
330
47
100
AcDbScale
 70
     0
300
1:1
140
1.0
141
1.0
290
     1
  0
SCALE
  5
49
102
{ACAD_REACTORS
330
47
102
}
330
47
100
AcDbScale
 70
     0
300
1:2
140
1.0
141
2.0
290
     0
  0
SCALE
  5
4A
102
{ACAD_REACTORS
330
47
102
}
330
47
100
AcDbScale
 70
     0
300
1:4
140
1.0
141
4.0
290
     0
  0
SCALE
  5
4B
102
{ACAD_REACTORS
330
47
102
}
330
47
100
AcDbScale
 70
     0
300
1:5
140
1.0
141
5.0
290
     0
  0
SCALE
  5
4C
102
{ACAD_REACTORS
330
47
102
}
330
47
100
AcDbScale
 70
     0
300
1:8
140
1.0
141
8.0
290
     0
  0
SCALE
  5
4D
102
{ACAD_REACTORS
330
47
102
}
330
47
100
AcDbScale
 70
     0
300
1:10
140
1.0
141
10.0
290
     0
  0
SCALE
  5
4E
102
{ACAD_REACTORS
330
47
102
}
330
47
100
AcDbScale
 70
     0
300
1:16
140
1.0
141
16.0
290
     0
  0
SCALE
  5
4F
102
{ACAD_REACTORS
330
47
102
}
330
47
100
AcDbScale
 70
     0
300
1:20
140
1.0
141
20.0
290
     0
  0
SCALE
  5
50
102
{ACAD_REACTORS
330
47
102
}
330
47
100
AcDbScale
 70
     0
300
1:30
140
1.0
141
30.0
290
     0
  0
SCALE
  5
51
102
{ACAD_REACTORS
330
47
102
}
330
47
100
AcDbScale
 70
     0
300
1:40
140
1.0
141
40.0
290
     0
  0
SCALE
  5
52
102
{ACAD_REACTORS
330
47
102
}
330
47
100
AcDbScale
 70
     0
300
1:50
140
1.0
141
50.0
290
     0
  0
SCALE
  5
53
102
{ACAD_REACTORS
330
47
102
}
330
47
100
AcDbScale
 70
     0
300
1:100
140
1.0
141
100.0
290
     0
  0
SCALE
  5
54
102
{ACAD_REACTORS
330
47
102
}
330
47
100
AcDbScale
 70
     0
300
2:1
140
2.0
141
1.0
290
     0
  0
SCALE
  5
55
102
{ACAD_REACTORS
330
47
102
}
330
47
100
AcDbScale
 70
     0
300
4:1
140
4.0
141
1.0
290
     0
  0
SCALE
  5
56
102
{ACAD_REACTORS
330
47
102
}
330
47
100
AcDbScale
 70
     0
300
8:1
140
8.0
141
1.0
290
     0
  0
SCALE
  5
57
102
{ACAD_REACTORS
330
47
102
}
330
47
100
AcDbScale
 70
     0
300
10:1
140
10.0
141
1.0
290
     0
  0
SCALE
  5
58
102
{ACAD_REACTORS
330
47
102
}
330
47
100
AcDbScale
 70
     0
300
100:1
140
100.0
141
1.0
290
     0
  0
SCALE
  5
59
102
{ACAD_REACTORS
330
47
102
}
330
47
100
AcDbScale
 70
     0
300
1/128" = 1'-0"
140
0.0078125
141
12.0
290
     0
  0
SCALE
  5
5A
102
{ACAD_REACTORS
330
47
102
}
330
47
100
AcDbScale
 70
     0
300
1/64" = 1'-0"
140
0.015625
141
12.0
290
     0
  0
SCALE
  5
5B
102
{ACAD_REACTORS
330
47
102
}
330
47
100
AcDbScale
 70
     0
300
1/32" = 1'-0"
140
0.03125
141
12.0
290
     0
  0
SCALE
  5
5C
102
{ACAD_REACTORS
330
47
102
}
330
47
100
AcDbScale
 70
     0
300
1/16" = 1'-0"
140
0.0625
141
12.0
290
     0
  0
SCALE
  5
5D
102
{ACAD_REACTORS
330
47
102
}
330
47
100
AcDbScale
 70
     0
300
3/32" = 1'-0"
140
0.09375
141
12.0
290
     0
  0
SCALE
  5
5E
102
{ACAD_REACTORS
330
47
102
}
330
47
100
AcDbScale
 70
     0
300
1/8" = 1'-0"
140
0.125
141
12.0
290
     0
  0
SCALE
  5
5F
102
{ACAD_REACTORS
330
47
102
}
330
47
100
AcDbScale
 70
     0
300
3/16" = 1'-0"
140
0.1875
141
12.0
290
     0
  0
SCALE
  5
60
102
{ACAD_REACTORS
330
47
102
}
330
47
100
AcDbScale
 70
     0
300
1/4" = 1'-0"
140
0.25
141
12.0
290
     0
  0
SCALE
  5
61
102
{ACAD_REACTORS
330
47
102
}
330
47
100
AcDbScale
 70
     0
300
3/8" = 1'-0"
140
0.375
141
12.0
290
     0
  0
SCALE
  5
62
102
{ACAD_REACTORS
330
47
102
}
330
47
100
AcDbScale
 70
     0
300
1/2" = 1'-0"
140
0.5
141
12.0
290
     0
  0
SCALE
  5
63
102
{ACAD_REACTORS
330
47
102
}
330
47
100
AcDbScale
 70
     0
300
3/4" = 1'-0"
140
0.75
141
12.0
290
     0
  0
SCALE
  5
64
102
{ACAD_REACTORS
330
47
102
}
330
47
100
AcDbScale
 70
     0
300
1" = 1'-0"
140
1.0
141
12.0
290
     0
  0
SCALE
  5
65
102
{ACAD_REACTORS
330
47
102
}
330
47
100
AcDbScale
 70
     0
300
1-1/2" = 1'-0"
140
1.5
141
12.0
290
     0
  0
SCALE
  5
66
102
{ACAD_REACTORS
330
47
102
}
330
47
100
AcDbScale
 70
     0
300
3" = 1'-0"
140
3.0
141
12.0
290
     0
  0
SCALE
  5
67
102
{ACAD_REACTORS
330
47
102
}
330
47
100
AcDbScale
 70
     0
300
6" = 1'-0"
140
6.0
141
12.0
290
     0
  0
SCALE
  5
68
102
{ACAD_REACTORS
330
47
102
}
330
47
100
AcDbScale
 70
     0
300
1'-0" = 1'-0"
140
12.0
141
12.0
290
     0
  0
ENDSEC
  0
EOF
