  0
SECTION
  2
HEADER
  9
$ACADVER
  1
AC1014
  9
$ACADMAINTVER
 70
     9
  9
$DWGCODEPAGE
  3
ANSI_1252
  9
$INSBASE
 10
0.0
 20
0.0
 30
0.0
  9
$EXTMIN
 10
-0.0000002980229258
 20
-0.0000000404194225
 30
0.0
  9
$EXTMAX
 10
452.2141588849855
 20
293.5919209718469
 30
0.0
  9
$LIMMIN
 10
0.0
 20
0.0
  9
$LIMMAX
 10
12.0
 20
9.0
  9
$ORTHOMODE
 70
     0
  9
$REGENMODE
 70
     1
  9
$FILLMODE
 70
     1
  9
$QTEXTMODE
 70
     0
  9
$MIRRTEXT
 70
     1
  9
$DRAGMODE
 70
     2
  9
$LTSCALE
 40
1.0
  9
$OSMODE
 70
    37
  9
$ATTMODE
 70
     1
  9
$TEXTSIZE
 40
0.2
  9
$TRACEWID
 40
0.05
  9
$TEXTSTYLE
  7
STANDARD
  9
$CLAYER
  8
0
  9
$CELTYPE
  6
BYLAYER
  9
$CECOLOR
 62
   256
  9
$CELTSCALE
 40
1.0
  9
$DELOBJ
 70
     1
  9
$DISPSILH
 70
     0
  9
$DIMSCALE
 40
1.0
  9
$DIMASZ
 40
0.18
  9
$DIMEXO
 40
0.0625
  9
$DIMDLI
 40
0.38
  9
$DIMRND
 40
0.0
  9
$DIMDLE
 40
0.0
  9
$DIMEXE
 40
0.18
  9
$DIMTP
 40
0.0
  9
$DIMTM
 40
0.0
  9
$DIMTXT
 40
0.18
  9
$DIMCEN
 40
0.09
  9
$DIMTSZ
 40
0.0
  9
$DIMTOL
 70
     0
  9
$DIMLIM
 70
     0
  9
$DIMTIH
 70
     1
  9
$DIMTOH
 70
     1
  9
$DIMSE1
 70
     0
  9
$DIMSE2
 70
     0
  9
$DIMTAD
 70
     0
  9
$DIMZIN
 70
     0
  9
$DIMBLK
  1

  9
$DIMASO
 70
     1
  9
$DIMSHO
 70
     1
  9
$DIMPOST
  1

  9
$DIMAPOST
  1

  9
$DIMALT
 70
     0
  9
$DIMALTD
 70
     2
  9
$DIMALTF
 40
25.4
  9
$DIMLFAC
 40
1.0
  9
$DIMTOFL
 70
     0
  9
$DIMTVP
 40
0.0
  9
$DIMTIX
 70
     0
  9
$DIMSOXD
 70
     0
  9
$DIMSAH
 70
     0
  9
$DIMBLK1
  1

  9
$DIMBLK2
  1

  9
$DIMSTYLE
  2
STANDARD
  9
$DIMCLRD
 70
     0
  9
$DIMCLRE
 70
     0
  9
$DIMCLRT
 70
     0
  9
$DIMTFAC
 40
1.0
  9
$DIMGAP
 40
0.09
  9
$DIMJUST
 70
     0
  9
$DIMSD1
 70
     0
  9
$DIMSD2
 70
     0
  9
$DIMTOLJ
 70
     1
  9
$DIMTZIN
 70
     0
  9
$DIMALTZ
 70
     0
  9
$DIMALTTZ
 70
     0
  9
$DIMFIT
 70
     3
  9
$DIMUPT
 70
     0
  9
$DIMUNIT
 70
     2
  9
$DIMDEC
 70
     4
  9
$DIMTDEC
 70
     4
  9
$DIMALTU
 70
     2
  9
$DIMALTTD
 70
     2
  9
$DIMTXSTY
  7
STANDARD
  9
$DIMAUNIT
 70
     0
  9
$LUNITS
 70
     2
  9
$LUPREC
 70
     4
  9
$SKETCHINC
 40
0.1
  9
$FILLETRAD
 40
0.5
  9
$AUNITS
 70
     0
  9
$AUPREC
 70
     0
  9
$MENU
  1
.
  9
$ELEVATION
 40
0.0
  9
$PELEVATION
 40
0.0
  9
$THICKNESS
 40
0.0
  9
$LIMCHECK
 70
     0
  9
$CHAMFERA
 40
0.5
  9
$CHAMFERB
 40
0.5
  9
$CHAMFERC
 40
1.0
  9
$CHAMFERD
 40
0.0
  9
$SKPOLY
 70
     0
  9
$TDCREATE
 40
2453353.842125822
  9
$TDUPDATE
 40
2454692.631208762
  9
$TDINDWG
 40
0.0432986227
  9
$TDUSRTIMER
 40
0.0432986227
  9
$USRTIMER
 70
     1
  9
$ANGBASE
 50
0.0
  9
$ANGDIR
 70
     0
  9
$PDMODE
 70
     0
  9
$PDSIZE
 40
0.0
  9
$PLINEWID
 40
0.0
  9
$COORDS
 70
     1
  9
$SPLFRAME
 70
     0
  9
$SPLINETYPE
 70
     6
  9
$SPLINESEGS
 70
     8
  9
$ATTDIA
 70
     0
  9
$ATTREQ
 70
     1
  9
$HANDLING
 70
     1
  9
$HANDSEED
  5
7E0
  9
$SURFTAB1
 70
     6
  9
$SURFTAB2
 70
     6
  9
$SURFTYPE
 70
     6
  9
$SURFU
 70
     6
  9
$SURFV
 70
     6
  9
$UCSNAME
  2

  9
$UCSORG
 10
0.0
 20
0.0
 30
0.0
  9
$UCSXDIR
 10
1.0
 20
0.0
 30
0.0
  9
$UCSYDIR
 10
0.0
 20
1.0
 30
0.0
  9
$PUCSNAME
  2

  9
$PUCSORG
 10
0.0
 20
0.0
 30
0.0
  9
$PUCSXDIR
 10
1.0
 20
0.0
 30
0.0
  9
$PUCSYDIR
 10
0.0
 20
1.0
 30
0.0
  9
$USERI1
 70
     0
  9
$USERI2
 70
     0
  9
$USERI3
 70
     0
  9
$USERI4
 70
     0
  9
$USERI5
 70
     0
  9
$USERR1
 40
0.0
  9
$USERR2
 40
0.0
  9
$USERR3
 40
0.0
  9
$USERR4
 40
0.0
  9
$USERR5
 40
0.0
  9
$WORLDVIEW
 70
     1
  9
$SHADEDGE
 70
     3
  9
$SHADEDIF
 70
    70
  9
$TILEMODE
 70
     1
  9
$MAXACTVP
 70
    64
  9
$PINSBASE
 10
0.0
 20
0.0
 30
0.0
  9
$PLIMCHECK
 70
     0
  9
$PEXTMIN
 10
1.000000000000000E+20
 20
1.000000000000000E+20
 30
1.000000000000000E+20
  9
$PEXTMAX
 10
-1.000000000000000E+20
 20
-1.000000000000000E+20
 30
-1.000000000000000E+20
  9
$PLIMMIN
 10
0.0
 20
0.0
  9
$PLIMMAX
 10
12.0
 20
9.0
  9
$UNITMODE
 70
     0
  9
$VISRETAIN
 70
     1
  9
$PLINEGEN
 70
     0
  9
$PSLTSCALE
 70
     1
  9
$TREEDEPTH
 70
  3020
  9
$PICKSTYLE
 70
     1
  9
$CMLSTYLE
  2
STANDARD
  9
$CMLJUST
 70
     0
  9
$CMLSCALE
 40
1.0
  9
$PROXYGRAPHICS
 70
     1
  9
$MEASUREMENT
 70
     0
  0
ENDSEC
  0
SECTION
  2
CLASSES
  0
CLASS
  1
ACDBDICTIONARYWDFLT
  2
AcDbDictionaryWithDefault
  3
ObjectDBX Classes
 90
        0
280
     0
281
     0
  0
CLASS
  1
ACDBPLACEHOLDER
  2
AcDbPlaceHolder
  3
ObjectDBX Classes
 90
        0
280
     0
281
     0
  0
CLASS
  1
LAYOUT
  2
AcDbLayout
  3
ObjectDBX Classes
 90
        0
280
     0
281
     0
  0
CLASS
  1
DICTIONARYVAR
  2
AcDbDictionaryVar
  3
ObjectDBX Classes
 90
        0
280
     0
281
     0
  0
CLASS
  1
TABLESTYLE
  2
AcDbTableStyle
  3
ObjectDBX Classes
 90
     2047
280
     0
281
     0
  0
CLASS
  1
XRECORD
  2
AcDbXrecord
  3
AutoCAD 2000
 90
        0
280
     0
281
     0
  0
CLASS
  1
LWPOLYLINE
  2
AcDbPolyline
  3
AutoCAD 2000
 90
        0
280
     0
281
     1
  0
CLASS
  1
HATCH
  2
AcDbHatch
  3
AutoCAD 2000
 90
        0
280
     0
281
     1
  0
ENDSEC
  0
SECTION
  2
TABLES
  0
TABLE
  2
VPORT
  5
8
330
0
100
AcDbSymbolTable
 70
     2
  0
VPORT
  5
97
330
8
100
AcDbSymbolTableRecord
100
AcDbViewportTableRecord
  2
*ACTIVE
 70
     0
 10
0.0
 20
0.0
 11
1.0
 21
1.0
 12
241.1521278583359
 22
108.1565099024882
 13
0.0
 23
0.0
 14
0.5
 24
0.5
 15
0.5
 25
0.5
 16
0.0
 26
0.0
 36
1.0
 17
0.0
 27
0.0
 37
0.0
 40
463.8023354943883
 41
1.6
 42
50.0
 43
0.0
 44
0.0
 50
0.0
 51
0.0
 71
    16
 72
   100
 73
     1
 74
     3
 75
     0
 76
     0
 77
     0
 78
     0
  0
ENDTAB
  0
TABLE
  2
LTYPE
  5
5
330
0
100
AcDbSymbolTable
 70
     1
  0
LTYPE
  5
14
330
5
100
AcDbSymbolTableRecord
100
AcDbLinetypeTableRecord
  2
BYBLOCK
 70
     0
  3

 72
    65
 73
     0
 40
0.0
  0
LTYPE
  5
15
330
5
100
AcDbSymbolTableRecord
100
AcDbLinetypeTableRecord
  2
BYLAYER
 70
     0
  3

 72
    65
 73
     0
 40
0.0
  0
LTYPE
  5
16
330
5
100
AcDbSymbolTableRecord
100
AcDbLinetypeTableRecord
  2
CONTINUOUS
 70
     0
  3
Solid line
 72
    65
 73
     0
 40
0.0
  0
ENDTAB
  0
TABLE
  2
LAYER
  5
2
330
0
100
AcDbSymbolTable
 70
     3
  0
LAYER
  5
10
330
2
100
AcDbSymbolTableRecord
100
AcDbLayerTableRecord
  2
0
 70
     0
 62
     7
  6
CONTINUOUS
  0
LAYER
  5
2A
330
2
100
AcDbSymbolTableRecord
100
AcDbLayerTableRecord
  2
FORMAT
 70
     0
 62
     7
  6
CONTINUOUS
  0
LAYER
  5
760
330
2
100
AcDbSymbolTableRecord
100
AcDbLayerTableRecord
  2
LAYER_01
 70
     0
 62
     1
  6
CONTINUOUS
  0
ENDTAB
  0
TABLE
  2
STYLE
  5
3
330
0
100
AcDbSymbolTable
 70
     2
  0
STYLE
  5
11
330
3
100
AcDbSymbolTableRecord
100
AcDbTextStyleTableRecord
  2
STANDARD
 70
     0
 40
0.0
 41
1.0
 50
0.0
 71
     0
 42
0.2
  3
txt
  4

  0
STYLE
  5
2B
330
3
100
AcDbSymbolTableRecord
100
AcDbTextStyleTableRecord
  2
DEFAULT
 70
     0
 40
0.0
 41
1.0
 50
0.0
 71
     0
 42
0.2
  3
ARIAL.TTF
  4

1001
ACAD
1000
Arial
1071
      256
  0
ENDTAB
  0
TABLE
  2
VIEW
  5
6
330
0
100
AcDbSymbolTable
 70
     0
  0
ENDTAB
  0
TABLE
  2
UCS
  5
7
330
0
100
AcDbSymbolTable
 70
     0
  0
ENDTAB
  0
TABLE
  2
APPID
  5
9
330
0
100
AcDbSymbolTable
 70
     1
  0
APPID
  5
12
330
9
100
AcDbSymbolTableRecord
100
AcDbRegAppTableRecord
  2
ACAD
 70
     0
  0
ENDTAB
  0
TABLE
  2
DIMSTYLE
  5
A
330
0
100
AcDbSymbolTable
 70
     1
  0
DIMSTYLE
105
27
330
A
100
AcDbSymbolTableRecord
100
AcDbDimStyleTableRecord
  2
STANDARD
 70
     0
  3

  4

  5

  6

  7

 40
1.0
 41
0.18
 42
0.0625
 43
0.38
 44
0.18
 45
0.0
 46
0.0
 47
0.0
 48
0.0
140
0.18
141
0.09
142
0.0
143
25.4
144
1.0
145
0.0
146
1.0
147
0.09
 71
     0
 72
     0
 73
     1
 74
     1
 75
     0
 76
     0
 77
     0
 78
     0
170
     0
171
     2
172
     0
173
     0
174
     0
175
     0
176
     0
177
     0
178
     0
270
     2
271
     4
272
     4
273
     2
274
     2
340
11
275
     0
280
     0
281
     0
282
     0
283
     1
284
     0
285
     0
286
     0
287
     3
288
     0
  0
ENDTAB
  0
TABLE
  2
BLOCK_RECORD
  5
1
330
0
100
AcDbSymbolTable
 70
     1
  0
BLOCK_RECORD
  5
1F
330
1
100
AcDbSymbolTableRecord
100
AcDbBlockTableRecord
  2
*MODEL_SPACE
  0
BLOCK_RECORD
  5
73
330
1
100
AcDbSymbolTableRecord
100
AcDbBlockTableRecord
  2
*PAPER_SPACE
  0
ENDTAB
  0
ENDSEC
  0
SECTION
  2
BLOCKS
  0
BLOCK
  5
20
330
1F
100
AcDbEntity
  8
0
100
AcDbBlockBegin
  2
*MODEL_SPACE
 70
     0
 71
     0
 10
0.0
 20
0.0
 30
0.0
  3
*MODEL_SPACE
  1

  0
ENDBLK
  5
21
330
1F
100
AcDbEntity
  8
0
100
AcDbBlockEnd
  0
BLOCK
  5
75
330
73
100
AcDbEntity
 67
     1
  8
0
100
AcDbBlockBegin
  2
*PAPER_SPACE
 70
     0
 71
     0
 10
0.0
 20
0.0
 30
0.0
  3
*PAPER_SPACE
  1

  0
ENDBLK
  5
76
330
73
100
AcDbEntity
 67
     1
  8
0
100
AcDbBlockEnd
  0
ENDSEC
  0
SECTION
  2
ENTITIES
  0
TEXT
  5
2C
330
1F
100
AcDbEntity
  8
FORMAT
100
AcDbText
 10
52.53804726110035
 20
255.3295993702587
 30
0.0
 40
6.879166666666666
  1
FIBOX TAM 1111 Base
  7
DEFAULT
100
AcDbText
  0
LINE
  5
2D
330
1F
100
AcDbEntity
  8
0
100
AcDbLine
 10
348.9496475140033
 20
107.3266777465163
 30
0.0
 11
351.4499543289123
 21
107.3266777465163
 31
0.0
  0
ARC
  5
2E
330
1F
100
AcDbEntity
  8
0
100
AcDbCircle
 10
348.9496481100497
 20
100.126678205472
 30
0.0
 40
7.199999999999989
100
AcDbArc
 50
90.0
 51
180.0
  0
LINE
  5
2F
330
1F
100
AcDbEntity
  8
0
100
AcDbLine
 10
341.7496485690055
 20
97.62637198660948
 30
0.0
 11
341.7496485690055
 21
100.1266788015185
 31
0.0
  0
LWPOLYLINE
  5
30
330
1F
100
AcDbEntity
  8
0
100
AcDbPolyline
 90
       14
 70
     0
 43
0.0
 10
341.7496481100497
 20
97.6263735957848
 10
341.7034128365145
 20
97.07283486962632
 10
341.5650789838269
 20
96.53783835717894
 10
341.3603997085074
 20
96.0709359551511
 10
341.1942555425019
 20
95.79301841207351
 10
341.0010348357083
 20
95.53297737835044
 10
340.7832266478435
 20
95.29309966767816
 10
340.5435604174804
 20
95.0754546574048
 10
340.2837702060718
 20
94.88237965852639
 10
340.0056628551672
 20
94.71611335350248
 10
339.7126996372228
 20
94.57782496684689
 10
339.4066897436209
 20
94.46802969662753
 10
339.0942286261726
 20
94.3895734796586
 10
338.4499527197369
 20
94.32667820547204
  0
LINE
  5
40
330
1F
100
AcDbEntity
  8
0
100
AcDbLine
 10
264.4493421594081
 20
94.32667747829535
 30
0.0
 11
338.4499540606914
 21
94.32667747829535
 31
0.0
  0
ARC
  5
41
330
1F
100
AcDbEntity
  8
0
100
AcDbCircle
 10
264.4492173791016
 20
97.62624747452391
 30
0.0
 40
3.299569271462273
100
AcDbArc
 50
179.9978099517352
 51
270.0021900482641
  0
LINE
  5
42
330
1F
100
AcDbEntity
  8
0
100
AcDbLine
 10
261.149647651094
 20
97.62637198660948
 30
0.0
 11
261.149647651094
 21
100.1266788015185
 31
0.0
  0
ARC
  5
43
330
1F
100
AcDbEntity
  8
0
100
AcDbCircle
 10
253.9496481100497
 20
100.126678205472
 30
0.0
 40
7.199999999999989
100
AcDbArc
 50
0.0
 51
90.0
  0
LINE
  5
44
330
1F
100
AcDbEntity
  8
0
100
AcDbLine
 10
253.9496487060962
 20
107.3266777465163
 30
0.0
 11
251.4493418911872
 21
107.3266777465163
 31
0.0
  0
ARC
  5
45
330
1F
100
AcDbEntity
  8
0
100
AcDbCircle
 10
251.4492173791016
 20
110.6262474745239
 30
0.0
 40
3.299569271462302
100
AcDbArc
 50
179.9978099517352
 51
270.0021900482646
  0
LINE
  5
46
330
1F
100
AcDbEntity
  8
0
100
AcDbLine
 10
248.1496473828731
 20
184.6269841561136
 30
0.0
 11
248.1496473828731
 21
110.6263722548304
 31
0.0
  0
LWPOLYLINE
  5
47
330
1F
100
AcDbEntity
  8
0
100
AcDbPolyline
 90
       14
 70
     0
 43
0.0
 10
248.1496481100497
 20
184.6269828151592
 10
248.195883383585
 20
185.1805215413178
 10
248.3342172362726
 20
185.7155180537651
 10
248.5388965115926
 20
186.1824204557948
 10
248.7050406775991
 20
186.4603379988741
 10
248.8982613843918
 20
186.7203790325955
 10
249.1160695722559
 20
186.9602567432659
 10
249.3557358026192
 20
187.177901753538
 10
249.6155260140277
 20
187.3709767524156
 10
249.8936333649324
 20
187.5372430574402
 10
250.1865965828767
 20
187.6755314440971
 10
250.4926064764747
 20
187.7853267143165
 10
250.8050675939218
 20
187.8637829312854
 10
251.4493435003625
 20
187.926678205472
  0
LINE
  5
57
330
1F
100
AcDbEntity
  8
0
100
AcDbLine
 10
253.9496487060962
 20
187.9266786644278
 30
0.0
 11
251.4493418911872
 21
187.9266786644278
 31
0.0
  0
ARC
  5
58
330
1F
100
AcDbEntity
  8
0
100
AcDbCircle
 10
253.9496481100497
 20
195.126678205472
 30
0.0
 40
7.199999999999989
100
AcDbArc
 50
270.0
 51
359.9999999999991
  0
LINE
  5
7B9
330
1F
100
AcDbEntity
  8
0
100
AcDbLine
 10
261.149647651094
 20
197.6269844243345
 30
0.0
 11
261.149647651094
 21
195.1266776094255
 31
0.0
  0
LWPOLYLINE
  5
7BA
330
1F
100
AcDbEntity
  8
0
100
AcDbPolyline
 90
       14
 70
     0
 43
0.0
 10
261.1496481100497
 20
197.6269828151592
 10
261.1958833835849
 20
198.1805215413177
 10
261.3342172362726
 20
198.7155180537651
 10
261.5388965115919
 20
199.182420455793
 10
261.7050406775975
 20
199.4603379988705
 10
261.8982613843912
 20
199.7203790325936
 10
262.1160695722558
 20
199.9602567432659
 10
262.355735802619
 20
200.1779017535393
 10
262.6155260140276
 20
200.3709767524177
 10
262.8936333649322
 20
200.5372430574416
 10
263.1865965828767
 20
200.6755314440971
 10
263.4926064764786
 20
200.7853267143165
 10
263.8050675939268
 20
200.8637829312854
 10
264.4493435003625
 20
200.926678205472
  0
LINE
  5
6A
330
1F
100
AcDbEntity
  8
0
100
AcDbLine
 10
264.4493421594081
 20
200.9266789326487
 30
0.0
 11
338.4499540606914
 21
200.9266789326487
 31
0.0
  0
ARC
  5
7BB
330
1F
100
AcDbEntity
  8
0
100
AcDbCircle
 10
338.4500788409978
 20
197.62710893642
 30
0.0
 40
3.299569271462401
100
AcDbArc
 50
359.9978099517364
 51
90.0021900482641
  0
LINE
  5
7BC
330
1F
100
AcDbEntity
  8
0
100
AcDbLine
 10
341.7496485690055
 20
197.6269844243345
 30
0.0
 11
341.7496485690055
 21
195.1266776094255
 31
0.0
  0
ARC
  5
6D
330
1F
100
AcDbEntity
  8
0
100
AcDbCircle
 10
348.9496481100497
 20
195.126678205472
 30
0.0
 40
7.199999999999989
100
AcDbArc
 50
180.0
 51
270.0000000000009
  0
LINE
  5
6E
330
1F
100
AcDbEntity
  8
0
100
AcDbLine
 10
348.9496475140033
 20
187.9266786644278
 30
0.0
 11
351.4499543289123
 21
187.9266786644278
 31
0.0
  0
ARC
  5
6F
330
1F
100
AcDbEntity
  8
0
100
AcDbCircle
 10
351.4500788409978
 20
184.62710893642
 30
0.0
 40
3.299569271462373
100
AcDbArc
 50
359.9978099517369
 51
90.00219004826312
  0
LINE
  5
70
330
1F
100
AcDbEntity
  8
0
100
AcDbLine
 10
354.7496488372264
 20
184.6269841561136
 30
0.0
 11
354.7496488372264
 21
110.6263722548304
 31
0.0
  0
LWPOLYLINE
  5
71
330
1F
100
AcDbEntity
  8
0
100
AcDbPolyline
 90
       14
 70
     0
 43
0.0
 10
354.7496481100497
 20
110.6263735957848
 10
354.7034128365145
 20
110.0728348696263
 10
354.5650789838269
 20
109.5378383571789
 10
354.3603997085069
 20
109.0709359551492
 10
354.1942555425005
 20
108.7930184120699
 10
354.0010348357076
 20
108.5329773783485
 10
353.7832266478435
 20
108.2930996676781
 10
353.5435604174803
 20
108.0754546574061
 10
353.2837702060718
 20
107.8823796585285
 10
353.0056628551671
 20
107.7161133535038
 10
352.7126996372228
 20
107.5778249668469
 10
352.4066897436247
 20
107.4680296966275
 10
352.0942286261777
 20
107.3895734796586
 10
351.449952719737
 20
107.326678205472
  0
ARC
  5
81
330
1F
100
AcDbEntity
  8
0
100
AcDbCircle
 10
348.9496481100497
 20
195.126678205472
 30
0.0
 40
8.300000000000011
100
AcDbArc
 50
180.0
 51
270.0000000000007
  0
LINE
  5
82
330
1F
100
AcDbEntity
  8
0
100
AcDbLine
 10
340.649648574966
 20
197.6269844243345
 30
0.0
 11
340.649648574966
 21
195.1266776094255
 31
0.0
  0
LWPOLYLINE
  5
83
330
1F
100
AcDbEntity
  8
0
100
AcDbPolyline
 90
       15
 70
     0
 43
0.0
 10
338.4499527197369
 20
199.826678205472
 10
338.7380789993962
 20
199.8079781859302
 10
339.0186880631525
 20
199.7521690119852
 10
339.2917799110057
 20
199.659250683637
 10
339.4868562803073
 20
199.5672114250561
 10
339.6720787944022
 20
199.4564880055483
 10
339.845470163522
 20
199.3276640718495
 10
340.0054091885384
 20
199.1824392839607
 10
340.1504473254911
 20
199.0227057974685
 10
340.2791474191274
 20
198.8495735937917
 10
340.3900771717512
 20
198.6641658378771
 10
340.4822205882147
 20
198.4688100064281
 10
340.5751387909823
 20
198.1959714207026
 10
340.6309479649273
 20
197.9153623569462
 10
340.6496481100497
 20
197.6269828151592
  0
LINE
  5
94
330
1F
100
AcDbEntity
  8
0
100
AcDbLine
 10
264.4493421594081
 20
199.8266789386091
 30
0.0
 11
338.4499540606914
 21
199.8266789386091
 31
0.0
  0
LWPOLYLINE
  5
95
330
1F
100
AcDbEntity
  8
0
100
AcDbPolyline
 90
       17
 70
     0
 43
0.0
 10
262.2496481100497
 20
197.6269828151592
 10
262.2603633703382
 20
197.8423269006792
 10
262.292174430972
 20
198.0560968349267
 10
262.3445792116033
 20
198.2657665571077
 10
262.4170756318847
 20
198.4688100064281
 10
262.5093729542117
 20
198.6636489167772
 10
262.6205612280725
 20
198.8489612478614
 10
262.7492095537585
 20
199.0226052776121
 10
262.893887031561
 20
199.1824392839606
 10
263.0537211624483
 20
199.3271168133442
 10
263.2273653997635
 20
199.4557652249985
 10
263.4126777723606
 20
199.566953516053
 10
263.6075163090937
 20
199.6592506836371
 10
263.8105593847981
 20
199.7317469491755
 10
264.0202291484919
 20
199.7841517470005
 10
264.2339992903038
 20
199.8159628936025
 10
264.4493435003625
 20
199.826678205472
  0
LINE
  5
A8
330
1F
100
AcDbEntity
  8
0
100
AcDbLine
 10
262.2496476451335
 20
197.6269844243345
 30
0.0
 11
262.2496476451335
 21
195.1266776094255
 31
0.0
  0
ARC
  5
A9
330
1F
100
AcDbEntity
  8
0
100
AcDbCircle
 10
253.9496481100497
 20
195.126678205472
 30
0.0
 40
8.299999999999955
100
AcDbArc
 50
270.0
 51
359.9999999999993
  0
LINE
  5
AA
330
1F
100
AcDbEntity
  8
0
100
AcDbLine
 10
253.9496487060962
 20
186.8266786703882
 30
0.0
 11
251.4493418911872
 21
186.8266786703882
 31
0.0
  0
LWPOLYLINE
  5
AB
330
1F
100
AcDbEntity
  8
0
100
AcDbPolyline
 90
       17
 70
     0
 43
0.0
 10
249.2496481100497
 20
184.6269828151592
 10
249.2603633703382
 20
184.8423269006792
 10
249.2921744309719
 20
185.0560968349267
 10
249.3445792116033
 20
185.2657665571076
 10
249.4170756318847
 20
185.468810006428
 10
249.5093729542117
 20
185.6636489167772
 10
249.6205612280725
 20
185.8489612478614
 10
249.7492095537585
 20
186.0226052776121
 10
249.8938870315611
 20
186.1824392839606
 10
250.0537211624483
 20
186.3271168133442
 10
250.2273653997634
 20
186.4557652249985
 10
250.4126777723605
 20
186.566953516053
 10
250.6075163090937
 20
186.659250683637
 10
250.810559384798
 20
186.7317469491754
 10
251.0202291484919
 20
186.7841517470005
 10
251.2339992903038
 20
186.8159628936025
 10
251.4493435003625
 20
186.826678205472
  0
LINE
  5
BE
330
1F
100
AcDbEntity
  8
0
100
AcDbLine
 10
249.2496473769126
 20
184.6269841561136
 30
0.0
 11
249.2496473769126
 21
110.6263722548304
 31
0.0
  0
LWPOLYLINE
  5
BF
330
1F
100
AcDbEntity
  8
0
100
AcDbPolyline
 90
       15
 70
     0
 43
0.0
 10
251.4493435003625
 20
108.426678205472
 10
251.1612172206989
 20
108.4453782250138
 10
250.8806081569427
 20
108.5011873989588
 10
250.6075163090936
 20
108.594105727307
 10
250.4124399397892
 20
108.6861449858902
 10
250.2272174256913
 20
108.7968684054001
 10
250.0538260565747
 20
108.925692339097
 10
249.8938870315611
 20
109.0709171269834
 10
249.7488488946072
 20
109.2306506134772
 10
249.6201488009701
 20
109.4037828171557
 10
249.5092190483473
 20
109.5891905730687
 10
249.4170756318847
 20
109.784546404516
 10
249.3241574291172
 20
110.0573849902428
 10
249.2683482551722
 20
110.337994053999
 10
249.2496481100497
 20
110.6263735957848
  0
LINE
  5
D0
330
1F
100
AcDbEntity
  8
0
100
AcDbLine
 10
253.9496487060962
 20
108.4266777405558
 30
0.0
 11
251.4493418911872
 21
108.4266777405558
 31
0.0
  0
ARC
  5
D1
330
1F
100
AcDbEntity
  8
0
100
AcDbCircle
 10
253.9496481100497
 20
100.126678205472
 30
0.0
 40
8.300000000000011
100
AcDbArc
 50
0.0
 51
90.0
  0
LINE
  5
D2
330
1F
100
AcDbEntity
  8
0
100
AcDbLine
 10
262.2496476451335
 20
97.62637198660948
 30
0.0
 11
262.2496476451335
 21
100.1266788015185
 31
0.0
  0
LWPOLYLINE
  5
D3
330
1F
100
AcDbEntity
  8
0
100
AcDbPolyline
 90
       15
 70
     0
 43
0.0
 10
264.4493435003625
 20
95.42667820547203
 10
264.1612172207032
 20
95.44537822501381
 10
263.8806081569469
 20
95.50118739895879
 10
263.6075163090937
 20
95.59410572730698
 10
263.4124399397922
 20
95.68614498588792
 10
263.2272174256972
 20
95.79686840539571
 10
263.0538260565775
 20
95.92569233909458
 10
262.8938870315611
 20
96.07091712698337
 10
262.7488488946083
 20
96.23065061347556
 10
262.6201488009721
 20
96.40378281715229
 10
262.5092190483482
 20
96.58919057306693
 10
262.4170756318847
 20
96.78454640451595
 10
262.3241574291172
 20
97.05738499024146
 10
262.2683482551722
 20
97.33799405399776
 10
262.2496481100497
 20
97.6263735957848
  0
LINE
  5
E4
330
1F
100
AcDbEntity
  8
0
100
AcDbLine
 10
264.4493421594081
 20
95.42667747233489
 30
0.0
 11
338.4499540606914
 21
95.42667747233489
 31
0.0
  0
LWPOLYLINE
  5
E5
330
1F
100
AcDbEntity
  8
0
100
AcDbPolyline
 90
       17
 70
     0
 43
0.0
 10
340.6496481100497
 20
97.6263735957848
 10
340.6389328497612
 20
97.4110295102648
 10
340.6071217891275
 20
97.1972595760173
 10
340.5547170084961
 20
96.98758985383634
 10
340.4822205882147
 20
96.78454640451596
 10
340.3899232658878
 20
96.58970749416683
 10
340.278734992027
 20
96.40439516308263
 10
340.150086666341
 20
96.23075113333195
 10
340.0054091885384
 20
96.07091712698337
 10
339.8455750576512
 20
95.92623959759982
 10
339.671930820336
 20
95.79759118594549
 10
339.4866184477389
 20
95.68640289489102
 10
339.2917799110057
 20
95.59410572730701
 10
339.0887368353013
 20
95.52160946176858
 10
338.8790670716075
 20
95.46920466394354
 10
338.6652969297956
 20
95.43739351734152
 10
338.4499527197369
 20
95.42667820547203
  0
LINE
  5
F8
330
1F
100
AcDbEntity
  8
0
100
AcDbLine
 10
340.649648574966
 20
97.62637198660948
 30
0.0
 11
340.649648574966
 21
100.1266788015185
 31
0.0
  0
ARC
  5
F9
330
1F
100
AcDbEntity
  8
0
100
AcDbCircle
 10
348.9496481100497
 20
100.126678205472
 30
0.0
 40
8.300000000000011
100
AcDbArc
 50
90.0
 51
180.0
  0
LINE
  5
FA
330
1F
100
AcDbEntity
  8
0
100
AcDbLine
 10
348.9496475140033
 20
108.4266777405558
 30
0.0
 11
351.4499543289123
 21
108.4266777405558
 31
0.0
  0
LWPOLYLINE
  5
FB
330
1F
100
AcDbEntity
  8
0
100
AcDbPolyline
 90
       17
 70
     0
 43
0.0
 10
353.6496481100497
 20
110.6263735957848
 10
353.6389328497612
 20
110.4110295102648
 10
353.6071217891275
 20
110.1972595760173
 10
353.5547170084961
 20
109.9875898538364
 10
353.4822205882147
 20
109.784546404516
 10
353.3899232658877
 20
109.5897074941669
 10
353.2787349920269
 20
109.4043951630826
 10
353.1500866663409
 20
109.2307511333319
 10
353.0054091885384
 20
109.0709171269834
 10
352.8455750576511
 20
108.9262395975998
 10
352.671930820336
 20
108.7975911859455
 10
352.4866184477389
 20
108.686402894891
 10
352.2917799110058
 20
108.594105727307
 10
352.0887368353015
 20
108.5216094617686
 10
351.8790670716076
 20
108.4692046639435
 10
351.6652969297956
 20
108.4373935173415
 10
351.449952719737
 20
108.426678205472
  0
LINE
  5
10E
330
1F
100
AcDbEntity
  8
0
100
AcDbLine
 10
353.6496488431869
 20
184.6269841561136
 30
0.0
 11
353.6496488431869
 21
110.6263722548304
 31
0.0
  0
LWPOLYLINE
  5
10F
330
1F
100
AcDbEntity
  8
0
100
AcDbPolyline
 90
       15
 70
     0
 43
0.0
 10
351.449952719737
 20
186.826678205472
 10
351.7380789994005
 20
186.8079781859302
 10
352.0186880631568
 20
186.7521690119852
 10
352.2917799110058
 20
186.659250683637
 10
352.4868562803103
 20
186.5672114250538
 10
352.6720787944081
 20
186.4564880055439
 10
352.8454701635247
 20
186.327664071847
 10
353.0054091885384
 20
186.1824392839606
 10
353.1504473254923
 20
186.0227057974669
 10
353.2791474191294
 20
185.8495735937883
 10
353.3900771717521
 20
185.6641658378753
 10
353.4822205882147
 20
185.468810006428
 10
353.5751387909822
 20
185.1959714207013
 10
353.6309479649271
 20
184.915362356945
 10
353.6496481100497
 20
184.6269828151592
  0
LINE
  5
120
330
1F
100
AcDbEntity
  8
0
100
AcDbLine
 10
348.9496475140033
 20
186.8266786703882
 30
0.0
 11
351.4499543289123
 21
186.8266786703882
 31
0.0
  0
ARC
  5
121
330
1F
100
AcDbEntity
  8
0
100
AcDbCircle
 10
252.6996481100497
 20
98.87667820547202
 30
0.0
 40
4.5
100
AcDbArc
 50
180.0
 51
270.0000000000007
  0
LINE
  5
122
330
1F
100
AcDbEntity
  8
0
100
AcDbLine
 10
252.6996498981891
 20
94.37667832468131
 30
0.0
 11
259.6996491829333
 21
94.37667832468131
 31
0.0
  0
ARC
  5
123
330
1F
100
AcDbEntity
  8
0
100
AcDbCircle
 10
259.6996481100497
 20
94.87667820547202
 30
0.0
 40
0.5
100
AcDbArc
 50
270.0
 51
359.9999999999984
  0
LINE
  5
124
330
1F
100
AcDbEntity
  8
0
100
AcDbLine
 10
260.199646470922
 20
94.87667933796027
 30
0.0
 11
260.199646470922
 21
100.3766793081579
 31
0.0
  0
ARC
  5
125
330
1F
100
AcDbEntity
  8
0
100
AcDbCircle
 10
254.1996481100497
 20
100.376678205472
 30
0.0
 40
6.000000000000057
100
AcDbArc
 50
0.0
 51
90.0
  0
LINE
  5
126
330
1F
100
AcDbEntity
  8
0
100
AcDbLine
 10
254.1996492127357
 20
106.3766765663443
 30
0.0
 11
248.699649242538
 21
106.3766765663443
 31
0.0
  0
ARC
  5
127
330
1F
100
AcDbEntity
  8
0
100
AcDbCircle
 10
248.6996481100497
 20
105.876678205472
 30
0.0
 40
0.5
100
AcDbArc
 50
90.0
 51
180.0
  0
LINE
  5
128
330
1F
100
AcDbEntity
  8
0
100
AcDbLine
 10
248.199648229259
 20
105.8766792783556
 30
0.0
 11
248.199648229259
 21
98.87667999361136
 31
0.0
  0
ARC
  5
129
330
1F
100
AcDbEntity
  8
0
100
AcDbCircle
 10
354.1996481100497
 20
105.876678205472
 30
0.0
 40
0.5
100
AcDbArc
 50
0.0
 51
90.0
  0
LINE
  5
12A
330
1F
100
AcDbEntity
  8
0
100
AcDbLine
 10
348.6996470073638
 20
106.3766765663443
 30
0.0
 11
354.1996469775615
 21
106.3766765663443
 31
0.0
  0
ARC
  5
12B
330
1F
100
AcDbEntity
  8
0
100
AcDbCircle
 10
348.6996481100497
 20
100.376678205472
 30
0.0
 40
6.0
100
AcDbArc
 50
90.0
 51
180.0
  0
LINE
  5
12C
330
1F
100
AcDbEntity
  8
0
100
AcDbLine
 10
342.6996497491775
 20
94.87667933796027
 30
0.0
 11
342.6996497491775
 21
100.3766793081579
 31
0.0
  0
ARC
  5
12D
330
1F
100
AcDbEntity
  8
0
100
AcDbCircle
 10
343.1996481100497
 20
94.87667820547202
 30
0.0
 40
0.5
100
AcDbArc
 50
180.0
 51
270.0
  0
LINE
  5
12E
330
1F
100
AcDbEntity
  8
0
100
AcDbLine
 10
350.1996463219104
 20
94.37667832468131
 30
0.0
 11
343.1996470371661
 21
94.37667832468131
 31
0.0
  0
ARC
  5
12F
330
1F
100
AcDbEntity
  8
0
100
AcDbCircle
 10
350.1996481100497
 20
98.87667820547202
 30
0.0
 40
4.5
100
AcDbArc
 50
270.0
 51
359.9999999999991
  0
LINE
  5
130
330
1F
100
AcDbEntity
  8
0
100
AcDbLine
 10
354.6996479908404
 20
105.8766792783556
 30
0.0
 11
354.6996479908404
 21
98.87667999361136
 31
0.0
  0
ARC
  5
131
330
1F
100
AcDbEntity
  8
0
100
AcDbCircle
 10
248.6996481100497
 20
189.376678205472
 30
0.0
 40
0.5
100
AcDbArc
 50
180.0
 51
270.0
  0
LINE
  5
132
330
1F
100
AcDbEntity
  8
0
100
AcDbLine
 10
254.1996492127357
 20
188.8766798445997
 30
0.0
 11
248.699649242538
 21
188.8766798445997
 31
0.0
  0
ARC
  5
133
330
1F
100
AcDbEntity
  8
0
100
AcDbCircle
 10
254.1996481100497
 20
194.876678205472
 30
0.0
 40
6.000000000000057
100
AcDbArc
 50
270.0
 51
359.9999999999992
  0
LINE
  5
134
330
1F
100
AcDbEntity
  8
0
100
AcDbLine
 10
260.199646470922
 20
200.3766770729837
 30
0.0
 11
260.199646470922
 21
194.8766771027861
 31
0.0
  0
ARC
  5
135
330
1F
100
AcDbEntity
  8
0
100
AcDbCircle
 10
259.6996481100497
 20
200.376678205472
 30
0.0
 40
0.5
100
AcDbArc
 50
0.0
 51
90.0
  0
LINE
  5
136
330
1F
100
AcDbEntity
  8
0
100
AcDbLine
 10
252.6996498981891
 20
200.8766780862627
 30
0.0
 11
259.6996491829333
 21
200.8766780862627
 31
0.0
  0
ARC
  5
137
330
1F
100
AcDbEntity
  8
0
100
AcDbCircle
 10
252.6996481100497
 20
196.376678205472
 30
0.0
 40
4.5
100
AcDbArc
 50
90.0
 51
180.0
  0
LINE
  5
138
330
1F
100
AcDbEntity
  8
0
100
AcDbLine
 10
248.199648229259
 20
189.3766771325884
 30
0.0
 11
248.199648229259
 21
196.3766764173326
 31
0.0
  0
ARC
  5
139
330
1F
100
AcDbEntity
  8
0
100
AcDbCircle
 10
350.1996481100497
 20
196.376678205472
 30
0.0
 40
4.5
100
AcDbArc
 50
0.0
 51
90.0
  0
LINE
  5
13A
330
1F
100
AcDbEntity
  8
0
100
AcDbLine
 10
350.1996463219104
 20
200.8766780862627
 30
0.0
 11
343.1996470371661
 21
200.8766780862627
 31
0.0
  0
ARC
  5
13B
330
1F
100
AcDbEntity
  8
0
100
AcDbCircle
 10
343.1996481100497
 20
200.376678205472
 30
0.0
 40
0.5
100
AcDbArc
 50
90.0
 51
180.0
  0
LINE
  5
13C
330
1F
100
AcDbEntity
  8
0
100
AcDbLine
 10
342.6996497491775
 20
200.3766770729837
 30
0.0
 11
342.6996497491775
 21
194.8766771027861
 31
0.0
  0
ARC
  5
13D
330
1F
100
AcDbEntity
  8
0
100
AcDbCircle
 10
348.6996481100497
 20
194.876678205472
 30
0.0
 40
6.0
100
AcDbArc
 50
180.0
 51
270.0000000000005
  0
LINE
  5
13E
330
1F
100
AcDbEntity
  8
0
100
AcDbLine
 10
348.6996470073638
 20
188.8766798445997
 30
0.0
 11
354.1996469775615
 21
188.8766798445997
 31
0.0
  0
ARC
  5
13F
330
1F
100
AcDbEntity
  8
0
100
AcDbCircle
 10
354.1996481100497
 20
189.376678205472
 30
0.0
 40
0.5
100
AcDbArc
 50
270.0
 51
0.0
  0
LINE
  5
140
330
1F
100
AcDbEntity
  8
0
100
AcDbLine
 10
354.6996479908404
 20
189.3766771325884
 30
0.0
 11
354.6996479908404
 21
196.3766764173326
 31
0.0
  0
ARC
  5
141
330
1F
100
AcDbEntity
  8
0
100
AcDbCircle
 10
252.4496481100497
 20
196.626678205472
 30
0.0
 40
5.5
100
AcDbArc
 50
90.0
 51
180.0
  0
LINE
  5
142
330
1F
100
AcDbEntity
  8
0
100
AcDbLine
 10
350.4496468285499
 20
202.1266768941698
 30
0.0
 11
252.4496493915496
 21
202.1266768941698
 31
0.0
  0
ARC
  5
143
330
1F
100
AcDbEntity
  8
0
100
AcDbCircle
 10
350.4496481100497
 20
196.626678205472
 30
0.0
 40
5.5
100
AcDbArc
 50
0.0
 51
90.0
  0
LINE
  5
144
330
1F
100
AcDbEntity
  8
0
100
AcDbLine
 10
355.9496467987476
 20
98.62667948697188
 30
0.0
 11
355.9496467987476
 21
196.6266769239721
 31
0.0
  0
ARC
  5
145
330
1F
100
AcDbEntity
  8
0
100
AcDbCircle
 10
350.4496481100497
 20
98.62667820547202
 30
0.0
 40
5.5
100
AcDbArc
 50
270.0
 51
359.9999999999991
  0
LINE
  5
146
330
1F
100
AcDbEntity
  8
0
100
AcDbLine
 10
350.4496468285499
 20
93.1266795167742
 30
0.0
 11
252.4496493915496
 21
93.1266795167742
 31
0.0
  0
ARC
  5
147
330
1F
100
AcDbEntity
  8
0
100
AcDbCircle
 10
252.4496481100497
 20
98.62667820547202
 30
0.0
 40
5.5
100
AcDbArc
 50
180.0
 51
270.0000000000009
  0
LINE
  5
148
330
1F
100
AcDbEntity
  8
0
100
AcDbLine
 10
246.9496494213519
 20
98.62667948697188
 30
0.0
 11
246.9496494213519
 21
196.6266769239721
 31
0.0
  0
LINE
  5
149
330
1F
100
AcDbEntity
  8
0
100
AcDbLine
 10
251.4493418911872
 20
108.6266774008093
 30
0.0
 11
253.9496487060962
 21
108.6266774008093
 31
0.0
  0
ARC
  5
14A
330
1F
100
AcDbEntity
  8
0
100
AcDbCircle
 10
253.9496481100497
 20
100.126678205472
 30
0.0
 40
8.500000000000028
100
AcDbArc
 50
0.0
 51
90.0
  0
LINE
  5
14B
330
1F
100
AcDbEntity
  8
0
100
AcDbLine
 10
262.449647305387
 20
100.1266788015185
 30
0.0
 11
262.449647305387
 21
97.62637198660948
 31
0.0
  0
LWPOLYLINE
  5
14C
330
1F
100
AcDbEntity
  8
0
100
AcDbPolyline
 90
        3
 70
     0
 43
0.0
 10
262.4496481100496
 20
97.62637359578478
 42
0.1989412228625904
 10
263.0353083877984
 20
96.21233848322066
 42
0.1989162959840784
 10
264.4493435003625
 20
95.626678205472
  0
LINE
  5
151
330
1F
100
AcDbEntity
  8
0
100
AcDbLine
 10
338.4499540606914
 20
95.62667713258841
 30
0.0
 11
264.4493421594081
 21
95.62667713258841
 31
0.0
  0
LWPOLYLINE
  5
152
330
1F
100
AcDbEntity
  8
0
100
AcDbPolyline
 90
        3
 70
     0
 43
0.0
 10
338.449952719737
 20
95.62667820547196
 42
0.1989412228626287
 10
339.8639878323011
 20
96.21233848322066
 42
0.1989162959840667
 10
340.4496481100497
 20
97.6263735957848
  0
LINE
  5
157
330
1F
100
AcDbEntity
  8
0
100
AcDbLine
 10
340.4496489147124
 20
100.1266788015185
 30
0.0
 11
340.4496489147124
 21
97.62637198660948
 31
0.0
  0
ARC
  5
158
330
1F
100
AcDbEntity
  8
0
100
AcDbCircle
 10
348.9496481100497
 20
100.126678205472
 30
0.0
 40
8.500000000000028
100
AcDbArc
 50
90.0
 51
180.0
  0
LINE
  5
159
330
1F
100
AcDbEntity
  8
0
100
AcDbLine
 10
351.4499543289123
 20
108.6266774008093
 30
0.0
 11
348.9496475140033
 21
108.6266774008093
 31
0.0
  0
LWPOLYLINE
  5
15A
330
1F
100
AcDbEntity
  8
0
100
AcDbPolyline
 90
        3
 70
     0
 43
0.0
 10
351.449952719737
 20
108.6266782054721
 42
0.198941222862676
 10
352.863987832301
 20
109.2123384832207
 42
0.1989162959840192
 10
353.4496481100497
 20
110.6263735957849
  0
LINE
  5
15F
330
1F
100
AcDbEntity
  8
0
100
AcDbLine
 10
353.4496491829333
 20
184.6269841561136
 30
0.0
 11
353.4496491829333
 21
110.6263722548304
 31
0.0
  0
LWPOLYLINE
  5
160
330
1F
100
AcDbEntity
  8
0
100
AcDbPolyline
 90
        3
 70
     0
 43
0.0
 10
353.4496481100496
 20
184.6269828151592
 42
0.1989412228627679
 10
352.863987832301
 20
186.0410179277234
 42
0.1989162959839343
 10
351.449952719737
 20
186.626678205472
  0
LINE
  5
165
330
1F
100
AcDbEntity
  8
0
100
AcDbLine
 10
351.4499543289123
 20
186.6266790101347
 30
0.0
 11
348.9496475140033
 21
186.6266790101347
 31
0.0
  0
ARC
  5
166
330
1F
100
AcDbEntity
  8
0
100
AcDbCircle
 10
348.9496481100497
 20
195.126678205472
 30
0.0
 40
8.5
100
AcDbArc
 50
180.0
 51
270.0000000000007
  0
LINE
  5
167
330
1F
100
AcDbEntity
  8
0
100
AcDbLine
 10
340.4496489147124
 20
195.1266776094255
 30
0.0
 11
340.4496489147124
 21
197.6269844243345
 31
0.0
  0
LWPOLYLINE
  5
168
330
1F
100
AcDbEntity
  8
0
100
AcDbPolyline
 90
        3
 70
     0
 43
0.0
 10
340.4496481100497
 20
197.6269828151591
 42
0.1989412228626497
 10
339.8639878323011
 20
199.0410179277234
 42
0.1989162959840704
 10
338.4499527197369
 20
199.626678205472
  0
LINE
  5
16D
330
1F
100
AcDbEntity
  8
0
100
AcDbLine
 10
338.4499540606914
 20
199.6266792783556
 30
0.0
 11
264.4493421594081
 21
199.6266792783556
 31
0.0
  0
LWPOLYLINE
  5
16E
330
1F
100
AcDbEntity
  8
0
100
AcDbPolyline
 90
        3
 70
     0
 43
0.0
 10
264.4493435003625
 20
199.626678205472
 42
0.1989412228626768
 10
263.0353083877984
 20
199.0410179277234
 42
0.1989162959840128
 10
262.4496481100497
 20
197.6269828151592
  0
LINE
  5
173
330
1F
100
AcDbEntity
  8
0
100
AcDbLine
 10
262.449647305387
 20
195.1266776094255
 30
0.0
 11
262.449647305387
 21
197.6269844243345
 31
0.0
  0
ARC
  5
174
330
1F
100
AcDbEntity
  8
0
100
AcDbCircle
 10
253.9496481100497
 20
195.126678205472
 30
0.0
 40
8.5
100
AcDbArc
 50
270.0
 51
359.9999999999993
  0
LINE
  5
175
330
1F
100
AcDbEntity
  8
0
100
AcDbLine
 10
251.4493418911872
 20
186.6266790101347
 30
0.0
 11
253.9496487060962
 21
186.6266790101347
 31
0.0
  0
LWPOLYLINE
  5
176
330
1F
100
AcDbEntity
  8
0
100
AcDbPolyline
 90
        3
 70
     0
 43
0.0
 10
251.4493435003625
 20
186.626678205472
 42
0.1989412228626522
 10
250.0353083877984
 20
186.0410179277234
 42
0.1989162959840636
 10
249.4496481100498
 20
184.6269828151591
  0
LINE
  5
17B
330
1F
100
AcDbEntity
  8
0
100
AcDbLine
 10
249.4496470371661
 20
184.6269841561136
 30
0.0
 11
249.4496470371661
 21
110.6263722548304
 31
0.0
  0
LWPOLYLINE
  5
17C
330
1F
100
AcDbEntity
  8
0
100
AcDbPolyline
 90
        3
 70
     0
 43
0.0
 10
249.4496481100497
 20
110.6263735957848
 42
0.1989412228625876
 10
250.0353083877984
 20
109.2123384832207
 42
0.1989162959840839
 10
251.4493435003624
 20
108.626678205472
  0
LINE
  5
181
330
1F
100
AcDbEntity
  8
0
100
AcDbLine
 10
265.269733039516
 20
198.8062883982477
 30
0.0
 11
264.4493421594081
 21
199.6266792783556
 31
0.0
  0
LINE
  5
182
330
1F
100
AcDbEntity
  8
0
100
AcDbLine
 10
337.6295631805835
 20
198.8062883982477
 30
0.0
 11
338.4499540606914
 21
199.6266792783556
 31
0.0
  0
LINE
  5
183
330
1F
100
AcDbEntity
  8
0
100
AcDbLine
 10
265.269733039516
 20
198.8062883982477
 30
0.0
 11
337.6295631805835
 21
198.8062883982477
 31
0.0
  0
LINE
  5
184
330
1F
100
AcDbEntity
  8
0
100
AcDbLine
 10
340.4496489147124
 20
97.62637198660948
 30
0.0
 11
339.6292617598949
 21
98.44676286671736
 31
0.0
  0
LINE
  5
185
330
1F
100
AcDbEntity
  8
0
100
AcDbLine
 10
337.6295631805835
 20
96.44706801269629
 30
0.0
 11
338.4499540606914
 21
95.62667713258841
 31
0.0
  0
LWPOLYLINE
  5
186
330
1F
100
AcDbEntity
  8
0
100
AcDbPolyline
 90
        3
 70
     0
 43
0.0
 10
337.6295646681107
 20
96.44706625709826
 42
0.1989412228626384
 10
339.0435997806749
 20
97.03272653484689
 42
0.1989162959840732
 10
339.6292600584235
 20
98.44676164741105
  0
LINE
  5
18B
330
1F
100
AcDbEntity
  8
0
100
AcDbLine
 10
263.2700344602046
 20
100.1266788015185
 30
0.0
 11
262.449647305387
 21
100.1266788015185
 31
0.0
  0
LINE
  5
18C
330
1F
100
AcDbEntity
  8
0
100
AcDbLine
 10
263.2700344602046
 20
98.44676286671736
 30
0.0
 11
263.2700344602046
 21
100.1266788015185
 31
0.0
  0
LINE
  5
18D
330
1F
100
AcDbEntity
  8
0
100
AcDbLine
 10
262.449647305387
 20
97.62637198660948
 30
0.0
 11
263.2700344602046
 21
98.44676286671736
 31
0.0
  0
LINE
  5
18E
330
1F
100
AcDbEntity
  8
0
100
AcDbLine
 10
253.9496487060962
 20
109.4470645556269
 30
0.0
 11
253.9496487060962
 21
108.6266774008093
 31
0.0
  0
LINE
  5
18F
330
1F
100
AcDbEntity
  8
0
100
AcDbLine
 10
252.2697327712951
 20
109.4470645556269
 30
0.0
 11
251.4493418911872
 21
108.6266774008093
 31
0.0
  0
LINE
  5
190
330
1F
100
AcDbEntity
  8
0
100
AcDbLine
 10
253.9496487060962
 20
109.4470645556269
 30
0.0
 11
252.2697327712951
 21
109.4470645556269
 31
0.0
  0
LINE
  5
191
330
1F
100
AcDbEntity
  8
0
100
AcDbLine
 10
265.269733039516
 20
96.44706801269629
 30
0.0
 11
264.4493421594081
 21
95.62667713258841
 31
0.0
  0
LWPOLYLINE
  5
192
330
1F
100
AcDbEntity
  8
0
100
AcDbPolyline
 90
        3
 70
     0
 43
0.0
 10
263.270036161676
 20
98.44676164741104
 42
0.1989412228626174
 10
263.8556964394247
 20
97.03272653484689
 42
0.1989162959840622
 10
265.2697315519887
 20
96.44706625709827
  0
LINE
  5
197
330
1F
100
AcDbEntity
  8
0
100
AcDbLine
 10
350.6295634488044
 20
109.4470645556269
 30
0.0
 11
351.4499543289123
 21
108.6266774008093
 31
0.0
  0
LINE
  5
198
330
1F
100
AcDbEntity
  8
0
100
AcDbLine
 10
348.9496475140033
 20
109.4470645556269
 30
0.0
 11
348.9496475140033
 21
108.6266774008093
 31
0.0
  0
LINE
  5
199
330
1F
100
AcDbEntity
  8
0
100
AcDbLine
 10
348.9496475140033
 20
109.4470645556269
 30
0.0
 11
350.6295634488044
 21
109.4470645556269
 31
0.0
  0
ARC
  5
19A
330
1F
100
AcDbEntity
  8
0
100
AcDbCircle
 10
253.9496481100497
 20
100.126678205472
 30
0.0
 40
9.233112726985125
100
AcDbArc
 50
14.55513769002966
 51
75.44486230997272
  0
ARC
  5
19B
330
1F
100
AcDbEntity
  8
0
100
AcDbCircle
 10
253.9496481100497
 20
100.126678205472
 30
0.0
 40
9.320388051626235
100
AcDbArc
 50
0.0
 51
14.41587886839752
  0
ARC
  5
19C
330
1F
100
AcDbEntity
  8
0
100
AcDbCircle
 10
253.9496481100497
 20
100.126678205472
 30
0.0
 40
9.320388051626228
100
AcDbArc
 50
75.58412113160232
 51
89.99999999999966
  0
LINE
  5
19D
330
1F
100
AcDbEntity
  8
0
100
AcDbLine
 10
339.6292617598949
 20
195.1266776094255
 30
0.0
 11
340.4496489147124
 21
195.1266776094255
 31
0.0
  0
LINE
  5
19E
330
1F
100
AcDbEntity
  8
0
100
AcDbLine
 10
339.6292617598949
 20
196.8065935442266
 30
0.0
 11
339.6292617598949
 21
195.1266776094255
 31
0.0
  0
LINE
  5
19F
330
1F
100
AcDbEntity
  8
0
100
AcDbLine
 10
340.4496489147124
 20
197.6269844243345
 30
0.0
 11
339.6292617598949
 21
196.8065935442266
 31
0.0
  0
LINE
  5
1A0
330
1F
100
AcDbEntity
  8
0
100
AcDbLine
 10
348.9496475140033
 20
185.8062918553171
 30
0.0
 11
348.9496475140033
 21
186.6266790101347
 31
0.0
  0
LINE
  5
1A1
330
1F
100
AcDbEntity
  8
0
100
AcDbLine
 10
350.6295634488044
 20
185.8062918553171
 30
0.0
 11
351.4499543289123
 21
186.6266790101347
 31
0.0
  0
LINE
  5
1A2
330
1F
100
AcDbEntity
  8
0
100
AcDbLine
 10
348.9496475140033
 20
185.8062918553171
 30
0.0
 11
350.6295634488044
 21
185.8062918553171
 31
0.0
  0
LINE
  5
1A3
330
1F
100
AcDbEntity
  8
0
100
AcDbLine
 10
353.4496491829333
 20
110.6263722548304
 30
0.0
 11
352.6292583028255
 21
111.4467631349383
 31
0.0
  0
LINE
  5
1A4
330
1F
100
AcDbEntity
  8
0
100
AcDbLine
 10
352.6292583028255
 20
183.8065932760057
 30
0.0
 11
352.6292583028255
 21
111.4467631349383
 31
0.0
  0
LINE
  5
1A5
330
1F
100
AcDbEntity
  8
0
100
AcDbLine
 10
353.4496491829333
 20
184.6269841561136
 30
0.0
 11
352.6292583028255
 21
183.8065932760057
 31
0.0
  0
LWPOLYLINE
  5
1A6
330
1F
100
AcDbEntity
  8
0
100
AcDbPolyline
 90
        3
 70
     0
 43
0.0
 10
339.6292600584235
 20
196.806594763533
 42
0.1989412228626647
 10
339.0435997806749
 20
198.2206298760971
 42
0.1989162959840144
 10
337.6295646681107
 20
198.8062901538458
  0
LWPOLYLINE
  5
1AB
330
1F
100
AcDbEntity
  8
0
100
AcDbPolyline
 90
        3
 70
     0
 43
0.0
 10
352.6292600584235
 20
183.8065947635329
 42
0.1989412228626388
 10
352.0435997806748
 20
185.2206298760972
 42
0.1989162959840423
 10
350.6295646681107
 20
185.8062901538459
  0
LINE
  5
1B0
330
1F
100
AcDbEntity
  8
0
100
AcDbLine
 10
249.4496470371661
 20
184.6269841561136
 30
0.0
 11
250.270037917274
 21
183.8065932760057
 31
0.0
  0
LINE
  5
1B1
330
1F
100
AcDbEntity
  8
0
100
AcDbLine
 10
252.2697327712951
 20
185.8062918553171
 30
0.0
 11
251.4493418911872
 21
186.6266790101347
 31
0.0
  0
LWPOLYLINE
  5
1B2
330
1F
100
AcDbEntity
  8
0
100
AcDbPolyline
 90
        3
 70
     0
 43
0.0
 10
252.2697315519888
 20
185.8062901538459
 42
0.1989412228626599
 10
250.8556964394246
 20
185.2206298760972
 42
0.1989162959840051
 10
250.2700361616759
 20
183.8065947635331
  0
LWPOLYLINE
  5
1B7
330
1F
100
AcDbEntity
  8
0
100
AcDbPolyline
 90
        3
 70
     0
 43
0.0
 10
350.6295646681106
 20
109.4470662570982
 42
0.1989412228626762
 10
352.0435997806748
 20
110.0327265348469
 42
0.19891629598404
 10
352.6292600584234
 20
111.4467616474111
  0
ARC
  5
1BC
330
1F
100
AcDbEntity
  8
0
100
AcDbCircle
 10
253.9496481100497
 20
195.126678205472
 30
0.0
 40
9.320388051626196
100
AcDbArc
 50
270.0
 51
284.4158788683974
  0
LINE
  5
1BD
330
1F
100
AcDbEntity
  8
0
100
AcDbLine
 10
253.9496487060962
 20
185.8062918553171
 30
0.0
 11
253.9496487060962
 21
186.6266790101347
 31
0.0
  0
LINE
  5
1BE
330
1F
100
AcDbEntity
  8
0
100
AcDbLine
 10
263.2700344602046
 20
195.1266776094255
 30
0.0
 11
262.449647305387
 21
195.1266776094255
 31
0.0
  0
ARC
  5
1BF
330
1F
100
AcDbEntity
  8
0
100
AcDbCircle
 10
253.9496481100497
 20
195.126678205472
 30
0.0
 40
9.320388051626228
100
AcDbArc
 50
345.5841211316028
 51
359.9999999999993
  0
ARC
  5
1C0
330
1F
100
AcDbEntity
  8
0
100
AcDbCircle
 10
253.9496481100497
 20
195.126678205472
 30
0.0
 40
9.233112726985125
100
AcDbArc
 50
284.5551376900281
 51
345.4448623099713
  0
LINE
  5
1C1
330
1F
100
AcDbEntity
  8
0
100
AcDbLine
 10
265.269733039516
 20
96.44706801269629
 30
0.0
 11
337.6295631805835
 21
96.44706801269629
 31
0.0
  0
LINE
  5
1C2
330
1F
100
AcDbEntity
  8
0
100
AcDbLine
 10
339.6292617598949
 20
98.44676286671736
 30
0.0
 11
339.6292617598949
 21
100.1266788015185
 31
0.0
  0
LINE
  5
1C3
330
1F
100
AcDbEntity
  8
0
100
AcDbLine
 10
339.6292617598949
 20
100.1266788015185
 30
0.0
 11
340.4496489147124
 21
100.1266788015185
 31
0.0
  0
LINE
  5
1C4
330
1F
100
AcDbEntity
  8
0
100
AcDbLine
 10
262.449647305387
 20
197.6269844243345
 30
0.0
 11
263.2700344602046
 21
196.8065935442266
 31
0.0
  0
LWPOLYLINE
  5
1C5
330
1F
100
AcDbEntity
  8
0
100
AcDbPolyline
 90
        3
 70
     0
 43
0.0
 10
265.2697315519887
 20
198.8062901538458
 42
0.1989412228626369
 10
263.8556964394247
 20
198.2206298760971
 42
0.1989162959839956
 10
263.2700361616759
 20
196.806594763533
  0
LINE
  5
1CA
330
1F
100
AcDbEntity
  8
0
100
AcDbLine
 10
250.270037917274
 20
183.8065932760057
 30
0.0
 11
250.270037917274
 21
111.4467631349383
 31
0.0
  0
LINE
  5
1CB
330
1F
100
AcDbEntity
  8
0
100
AcDbLine
 10
249.4496470371661
 20
110.6263722548304
 30
0.0
 11
250.270037917274
 21
111.4467631349383
 31
0.0
  0
LINE
  5
1CC
330
1F
100
AcDbEntity
  8
0
100
AcDbLine
 10
263.2700344602046
 20
196.8065935442266
 30
0.0
 11
263.2700344602046
 21
195.1266776094255
 31
0.0
  0
ARC
  5
1CD
330
1F
100
AcDbEntity
  8
0
100
AcDbCircle
 10
348.9496481100497
 20
195.126678205472
 30
0.0
 40
9.233112726985139
100
AcDbArc
 50
194.5551376900279
 51
255.4448623099709
  0
ARC
  5
1CE
330
1F
100
AcDbEntity
  8
0
100
AcDbCircle
 10
348.9496481100497
 20
195.126678205472
 30
0.0
 40
9.320388051626253
100
AcDbArc
 50
180.0
 51
194.4158788683982
  0
ARC
  5
1CF
330
1F
100
AcDbEntity
  8
0
100
AcDbCircle
 10
348.9496481100497
 20
195.126678205472
 30
0.0
 40
9.320388051626196
100
AcDbArc
 50
255.5841211316018
 51
269.9999999999997
  0
LWPOLYLINE
  5
1D0
330
1F
100
AcDbEntity
  8
0
100
AcDbPolyline
 90
        3
 70
     0
 43
0.0
 10
250.270036161676
 20
111.446761647411
 42
0.1989412228626532
 10
250.8556964394246
 20
110.0327265348469
 42
0.1989162959840524
 10
252.2697315519888
 20
109.4470662570982
  0
LINE
  5
1D5
330
1F
100
AcDbEntity
  8
0
100
AcDbLine
 10
253.9496487060962
 20
185.8062918553171
 30
0.0
 11
252.2697327712951
 21
185.8062918553171
 31
0.0
  0
ARC
  5
1D6
330
1F
100
AcDbEntity
  8
0
100
AcDbCircle
 10
348.9496481100497
 20
100.126678205472
 30
0.0
 40
9.32038805162624
100
AcDbArc
 50
90.0
 51
104.4158788683977
  0
ARC
  5
1D7
330
1F
100
AcDbEntity
  8
0
100
AcDbCircle
 10
348.9496481100497
 20
100.126678205472
 30
0.0
 40
9.320388051626253
100
AcDbArc
 50
165.584121131602
 51
179.9999999999995
  0
ARC
  5
1D8
330
1F
100
AcDbEntity
  8
0
100
AcDbCircle
 10
348.9496481100497
 20
100.126678205472
 30
0.0
 40
9.233112726985139
100
AcDbArc
 50
104.5551376900276
 51
165.4448623099703
  0
ARC
  5
1D9
330
1F
100
AcDbEntity
  8
0
100
AcDbCircle
 10
350.4496481100497
 20
196.626678205472
 30
0.0
 40
6.0
100
AcDbArc
 50
0.0
 51
90.0
  0
LINE
  5
1DA
330
1F
100
AcDbEntity
  8
0
100
AcDbLine
 10
356.4496478120265
 20
98.62667948697188
 30
0.0
 11
356.4496478120265
 21
196.6266769239721
 31
0.0
  0
LINE
  5
1DB
330
1F
100
AcDbEntity
  8
0
100
AcDbLine
 10
246.449648408073
 20
98.62667948697188
 30
0.0
 11
246.449648408073
 21
196.6266769239721
 31
0.0
  0
ARC
  5
1DC
330
1F
100
AcDbEntity
  8
0
100
AcDbCircle
 10
252.4496481100497
 20
196.626678205472
 30
0.0
 40
6.0
100
AcDbArc
 50
90.0
 51
180.0
  0
ARC
  5
1DD
330
1F
100
AcDbEntity
  8
0
100
AcDbCircle
 10
350.4496481100497
 20
98.62667820547202
 30
0.0
 40
6.0
100
AcDbArc
 50
270.0
 51
359.9999999999992
  0
LINE
  5
1DE
330
1F
100
AcDbEntity
  8
0
100
AcDbLine
 10
350.4496468285499
 20
92.62667850349524
 30
0.0
 11
252.4496493915496
 21
92.62667850349524
 31
0.0
  0
LINE
  5
1DF
330
1F
100
AcDbEntity
  8
0
100
AcDbLine
 10
350.4496468285499
 20
202.6266779074488
 30
0.0
 11
252.4496493915496
 21
202.6266779074488
 31
0.0
  0
ARC
  5
1E0
330
1F
100
AcDbEntity
  8
0
100
AcDbCircle
 10
252.4496481100497
 20
98.62667820547202
 30
0.0
 40
6.0
100
AcDbArc
 50
180.0
 51
270.0000000000008
  0
CIRCLE
  5
1E1
330
1F
100
AcDbEntity
  8
0
100
AcDbCircle
 10
253.8187450900497
 20
195.257581225472
 30
0.0
 40
4.0
  0
CIRCLE
  5
1E2
330
1F
100
AcDbEntity
  8
0
100
AcDbCircle
 10
253.8187450900497
 20
99.99577518547201
 30
0.0
 40
4.0
  0
CIRCLE
  5
1E3
330
1F
100
AcDbEntity
  8
0
100
AcDbCircle
 10
349.0805511300497
 20
99.99577518547201
 30
0.0
 40
4.0
  0
CIRCLE
  5
1E4
330
1F
100
AcDbEntity
  8
0
100
AcDbCircle
 10
349.0805511300497
 20
195.257581225472
 30
0.0
 40
4.0
  0
LINE
  5
1E5
330
1F
100
AcDbEntity
  8
0
100
AcDbLine
 10
318.6429822871862
 20
176.0771393099842
 30
0.0
 11
319.5179821977792
 21
176.0771393099842
 31
0.0
  0
LINE
  5
1E6
330
1F
100
AcDbEntity
  8
0
100
AcDbLine
 10
318.6429822871862
 20
179.5771408150015
 30
0.0
 11
318.6429822871862
 21
176.0771393099842
 31
0.0
  0
LINE
  5
1E7
330
1F
100
AcDbEntity
  8
0
100
AcDbLine
 10
319.5179821977792
 20
179.5771408150015
 30
0.0
 11
318.6429822871862
 21
179.5771408150015
 31
0.0
  0
LINE
  5
1E8
330
1F
100
AcDbEntity
  8
0
100
AcDbLine
 10
319.5179821977792
 20
176.0771393099842
 30
0.0
 11
319.5179821977792
 21
179.5771408150015
 31
0.0
  0
LINE
  5
1E9
330
1F
100
AcDbEntity
  8
0
100
AcDbLine
 10
321.0179815123258
 20
177.5146394291935
 30
0.0
 11
321.0179815123258
 21
176.7021405765829
 31
0.0
  0
LINE
  5
1EA
330
1F
100
AcDbEntity
  8
0
100
AcDbLine
 10
321.0179815123258
 20
176.7021405765829
 30
0.0
 11
323.0179818401513
 21
176.7021405765829
 31
0.0
  0
ARC
  5
1EB
330
1F
100
AcDbEntity
  8
0
100
AcDbCircle
 10
323.0179823869401
 20
177.1083897581869
 30
0.0
 40
0.406250000100016
100
AcDbArc
 50
270.0
 51
90.0
  0
LINE
  5
1EC
330
1F
100
AcDbEntity
  8
0
100
AcDbLine
 10
323.0179818401513
 20
177.5146394291935
 30
0.0
 11
321.0179815123258
 21
177.5146394291935
 31
0.0
  0
ARC
  5
1ED
330
1F
100
AcDbEntity
  8
0
100
AcDbCircle
 10
323.3929823872494
 20
178.5771397579566
 30
0.0
 40
0.9999999998553903
100
AcDbArc
 50
311.4096220914679
 51
90.0
  0
ARC
  5
1EE
330
1F
100
AcDbEntity
  8
0
100
AcDbCircle
 10
323.3929823871401
 20
177.0771397578494
 30
0.0
 40
0.9999999998625055
100
AcDbArc
 50
269.9999999882492
 51
48.59037790054563
  0
LINE
  5
1EF
330
1F
100
AcDbEntity
  8
0
100
AcDbLine
 10
320.1429816017327
 20
176.0771393099842
 30
0.0
 11
323.3929826001105
 21
176.0771393099842
 31
0.0
  0
LINE
  5
1F0
330
1F
100
AcDbEntity
  8
0
100
AcDbLine
 10
320.1429816017327
 20
179.5771408150015
 30
0.0
 11
320.1429816017327
 21
176.0771393099842
 31
0.0
  0
LINE
  5
1F1
330
1F
100
AcDbEntity
  8
0
100
AcDbLine
 10
323.3929826001105
 20
179.5771408150015
 30
0.0
 11
320.1429816017327
 21
179.5771408150015
 31
0.0
  0
LINE
  5
1F2
330
1F
100
AcDbEntity
  8
0
100
AcDbLine
 10
321.0179815123258
 20
178.9521414110479
 30
0.0
 11
321.0179815123258
 21
178.1396388331471
 31
0.0
  0
LINE
  5
1F3
330
1F
100
AcDbEntity
  8
0
100
AcDbLine
 10
321.0179815123258
 20
178.1396388331471
 30
0.0
 11
323.0179818401513
 21
178.1396388331471
 31
0.0
  0
ARC
  5
1F4
330
1F
100
AcDbEntity
  8
0
100
AcDbCircle
 10
323.0179823869401
 20
178.5458897581369
 30
0.0
 40
0.4062499997500595
100
AcDbArc
 50
270.0
 51
90.0
  0
LINE
  5
1F5
330
1F
100
AcDbEntity
  8
0
100
AcDbLine
 10
323.0179818401513
 20
178.9521414110479
 30
0.0
 11
321.0179815123258
 21
178.9521414110479
 31
0.0
  0
LINE
  5
1F6
330
1F
100
AcDbEntity
  8
0
100
AcDbLine
 10
315.142982644814
 20
177.5146394291935
 30
0.0
 11
317.6429821232734
 21
177.5146394291935
 31
0.0
  0
LINE
  5
1F7
330
1F
100
AcDbEntity
  8
0
100
AcDbLine
 10
315.142982644814
 20
176.0771393099842
 30
0.0
 11
315.142982644814
 21
177.5146394291935
 31
0.0
  0
LINE
  5
1F8
330
1F
100
AcDbEntity
  8
0
100
AcDbLine
 10
314.267982734221
 20
176.0771393099842
 30
0.0
 11
315.142982644814
 21
176.0771393099842
 31
0.0
  0
LINE
  5
1F9
330
1F
100
AcDbEntity
  8
0
100
AcDbLine
 10
314.267982734221
 20
179.5771408150015
 30
0.0
 11
314.267982734221
 21
176.0771393099842
 31
0.0
  0
LINE
  5
1FA
330
1F
100
AcDbEntity
  8
0
100
AcDbLine
 10
318.0179828832326
 20
179.5771408150015
 30
0.0
 11
314.267982734221
 21
179.5771408150015
 31
0.0
  0
LINE
  5
1FB
330
1F
100
AcDbEntity
  8
0
100
AcDbLine
 10
318.0179828832326
 20
178.9521414110479
 30
0.0
 11
318.0179828832326
 21
179.5771408150015
 31
0.0
  0
LINE
  5
1FC
330
1F
100
AcDbEntity
  8
0
100
AcDbLine
 10
315.142982644814
 20
178.9521414110479
 30
0.0
 11
318.0179828832326
 21
178.9521414110479
 31
0.0
  0
LINE
  5
1FD
330
1F
100
AcDbEntity
  8
0
100
AcDbLine
 10
315.142982644814
 20
178.1396388331471
 30
0.0
 11
315.142982644814
 21
178.9521414110479
 31
0.0
  0
LINE
  5
1FE
330
1F
100
AcDbEntity
  8
0
100
AcDbLine
 10
317.6429821232734
 20
178.1396388331471
 30
0.0
 11
315.142982644814
 21
178.1396388331471
 31
0.0
  0
LINE
  5
1FF
330
1F
100
AcDbEntity
  8
0
100
AcDbLine
 10
317.6429821232734
 20
177.5146394291935
 30
0.0
 11
317.6429821232734
 21
178.1396388331471
 31
0.0
  0
CIRCLE
  5
200
330
1F
100
AcDbEntity
  8
0
100
AcDbCircle
 10
263.4496481100497
 20
109.626678205472
 30
0.0
 40
1.599999999999994
  0
CIRCLE
  5
201
330
1F
100
AcDbEntity
  8
0
100
AcDbCircle
 10
301.4496481100497
 20
115.126678205472
 30
0.0
 40
8.5
  0
CIRCLE
  5
202
330
1F
100
AcDbEntity
  8
0
100
AcDbCircle
 10
339.4496481100497
 20
109.626678205472
 30
0.0
 40
1.599999999999994
  0
CIRCLE
  5
203
330
1F
100
AcDbEntity
  8
0
100
AcDbCircle
 10
263.4496481100497
 20
185.626678205472
 30
0.0
 40
1.599999999999966
  0
CIRCLE
  5
204
330
1F
100
AcDbEntity
  8
0
100
AcDbCircle
 10
268.9496481100497
 20
147.626678205472
 30
0.0
 40
8.5
  0
CIRCLE
  5
205
330
1F
100
AcDbEntity
  8
0
100
AcDbCircle
 10
287.4496481100497
 20
147.626678205472
 30
0.0
 40
1.599999999999994
  0
CIRCLE
  5
206
330
1F
100
AcDbEntity
  8
0
100
AcDbCircle
 10
301.4496481100496
 20
161.626678205472
 30
0.0
 40
1.600000000000023
  0
LINE
  5
207
330
1F
100
AcDbEntity
  8
0
100
AcDbLine
 10
319.0522110144076
 20
192.8062911400614
 30
0.0
 11
262.8864338675914
 21
192.8062911400614
 31
0.0
  0
ARC
  5
208
330
1F
100
AcDbEntity
  8
0
100
AcDbCircle
 10
323.4496481100497
 20
190.426678205472
 30
0.0
 40
5.000000000000028
100
AcDbArc
 50
28.41942373007554
 51
151.5805762699213
  0
LINE
  5
209
330
1F
100
AcDbEntity
  8
0
100
AcDbLine
 10
346.6292610446391
 20
109.0634639630137
 30
0.0
 11
346.6292610446391
 21
186.1898924479303
 31
0.0
  0
LINE
  5
20A
330
1F
100
AcDbEntity
  8
0
100
AcDbLine
 10
340.0128623525081
 20
102.4470652708826
 30
0.0
 11
283.8470852056918
 21
102.4470652708826
 31
0.0
  0
ARC
  5
20B
330
1F
100
AcDbEntity
  8
0
100
AcDbCircle
 10
279.44964811005
 20
104.8266782054719
 30
0.0
 40
4.999999999999996
100
AcDbArc
 50
208.4194237300754
 51
331.5805762699258
  0
LINE
  5
20C
330
1F
100
AcDbEntity
  8
0
100
AcDbLine
 10
275.0522112528262
 20
102.4470652708826
 30
0.0
 11
262.8864338675914
 21
102.4470652708826
 31
0.0
  0
CIRCLE
  5
20D
330
1F
100
AcDbEntity
  8
0
100
AcDbCircle
 10
276.4496481100497
 20
172.626678205472
 30
0.0
 40
10.5
  0
ARC
  5
20E
330
1F
100
AcDbEntity
  8
0
100
AcDbCircle
 10
314.4496481100497
 20
186.626678205472
 30
0.0
 40
2.0
100
AcDbArc
 50
90.0
 51
180.0
  0
LINE
  5
20F
330
1F
100
AcDbEntity
  8
0
100
AcDbLine
 10
312.4496480504451
 20
186.6266790101347
 30
0.0
 11
312.4496480504451
 21
168.62667792235
 31
0.0
  0
ARC
  5
210
330
1F
100
AcDbEntity
  8
0
100
AcDbCircle
 10
314.4496481100497
 20
168.626678205472
 30
0.0
 40
2.0
100
AcDbArc
 50
180.0
 51
270.0
  0
LINE
  5
211
330
1F
100
AcDbEntity
  8
0
100
AcDbLine
 10
314.4496483782706
 20
166.6266775945244
 30
0.0
 11
332.4496476034103
 21
166.6266775945244
 31
0.0
  0
ARC
  5
212
330
1F
100
AcDbEntity
  8
0
100
AcDbCircle
 10
332.4496481100497
 20
168.626678205472
 30
0.0
 40
2.000000000000028
100
AcDbArc
 50
270.0
 51
359.9999999999992
  0
LINE
  5
213
330
1F
100
AcDbEntity
  8
0
100
AcDbLine
 10
334.4496479312358
 20
168.62667792235
 30
0.0
 11
334.4496479312358
 21
186.6266790101347
 31
0.0
  0
ARC
  5
214
330
1F
100
AcDbEntity
  8
0
100
AcDbCircle
 10
332.4496481100497
 20
186.626678205472
 30
0.0
 40
2.000000000000057
100
AcDbArc
 50
0.0
 51
90.0
  0
CIRCLE
  5
215
330
1F
100
AcDbEntity
  8
0
100
AcDbCircle
 10
339.4496481100497
 20
185.626678205472
 30
0.0
 40
1.599999999999966
  0
LINE
  5
216
330
1F
100
AcDbEntity
  8
0
100
AcDbLine
 10
332.4496476034103
 20
188.6266793379602
 30
0.0
 11
314.4496483782706
 21
188.6266793379602
 31
0.0
  0
LINE
  5
217
330
1F
100
AcDbEntity
  8
0
100
AcDbLine
 10
340.0128623525081
 20
192.8062911400614
 30
0.0
 11
327.8470849672732
 21
192.8062911400614
 31
0.0
  0
CIRCLE
  5
218
330
1F
100
AcDbEntity
  8
0
100
AcDbCircle
 10
301.4496481100497
 20
180.126678205472
 30
0.0
 40
8.500000000000028
  0
CIRCLE
  5
219
330
1F
100
AcDbEntity
  8
0
100
AcDbCircle
 10
333.9496481100497
 20
147.626678205472
 30
0.0
 40
8.5
  0
CIRCLE
  5
21A
330
1F
100
AcDbEntity
  8
0
100
AcDbCircle
 10
301.4496481100498
 20
133.626678205472
 30
0.0
 40
1.599999999999966
  0
CIRCLE
  5
21B
330
1F
100
AcDbEntity
  8
0
100
AcDbCircle
 10
315.4496481100497
 20
147.6266782054721
 30
0.0
 40
1.599999999999994
  0
CIRCLE
  5
21C
330
1F
100
AcDbEntity
  8
0
100
AcDbCircle
 10
326.4496481100495
 20
122.6266782054718
 30
0.0
 40
10.5
  0
LINE
  5
21D
330
1F
100
AcDbEntity
  8
0
100
AcDbLine
 10
256.2700351754604
 20
109.0634639630137
 30
0.0
 11
256.2700351754604
 21
186.1898924479303
 31
0.0
  0
CIRCLE
  5
21E
330
1F
100
AcDbEntity
  8
0
100
AcDbCircle
 10
276.4496481100497
 20
172.626678205472
 30
0.0
 40
9.700000000000017
  0
ARC
  5
21F
330
1F
100
AcDbEntity
  8
0
100
AcDbCircle
 10
326.0519872493776
 20
177.1083897581869
 30
0.0
 40
0.3734951378374944
100
AcDbArc
 50
180.0000000110221
 51
269.9999999882454
  0
LINE
  5
220
330
1F
100
AcDbEntity
  8
0
100
AcDbLine
 10
326.051986781734
 20
176.7348951915322
 30
0.0
 11
327.6289766708789
 21
176.7348951915322
 31
0.0
  0
ARC
  5
221
330
1F
100
AcDbEntity
  8
0
100
AcDbCircle
 10
327.6289775257776
 20
177.1083897583619
 30
0.0
 40
0.3734951380124869
100
AcDbArc
 50
270.0
 51
359.9999999941227
  0
LINE
  5
222
330
1F
100
AcDbEntity
  8
0
100
AcDbLine
 10
328.0024724135575
 20
177.1083890715657
 30
0.0
 11
328.0024724135575
 21
178.5458891907749
 31
0.0
  0
ARC
  5
223
330
1F
100
AcDbEntity
  8
0
100
AcDbCircle
 10
327.6289775263901
 20
178.5458897584869
 30
0.0
 40
0.3734951374000559
100
AcDbArc
 50
0.0000000268489657
 51
90.00000016107636
  0
LINE
  5
224
330
1F
100
AcDbEntity
  8
0
100
AcDbLine
 10
327.6289766708789
 20
178.9193849334536
 30
0.0
 11
326.051986781734
 21
178.9193849334536
 31
0.0
  0
LINE
  5
225
330
1F
100
AcDbEntity
  8
0
100
AcDbLine
 10
325.6784929017005
 20
178.5458891907749
 30
0.0
 11
325.6784929017005
 21
177.1083890715657
 31
0.0
  0
LINE
  5
226
330
1F
100
AcDbEntity
  8
0
100
AcDbLine
 10
328.7679823169885
 20
177.077139473897
 30
0.0
 11
328.7679823169885
 21
178.5771406510887
 31
0.0
  0
ARC
  5
227
330
1F
100
AcDbEntity
  8
0
100
AcDbCircle
 10
327.7679823871401
 20
177.0771397583744
 30
0.0
 40
1.000000000037517
100
AcDbArc
 50
269.9999999882492
 51
359.9999999999984
  0
ARC
  5
228
330
1F
100
AcDbEntity
  8
0
100
AcDbCircle
 10
325.9129823871401
 20
177.0771397582869
 30
0.0
 40
0.9999999999499778
100
AcDbArc
 50
180.0000000110213
 51
269.9999999882524
  0
LINE
  5
229
330
1F
100
AcDbEntity
  8
0
100
AcDbLine
 10
324.9129829982696
 20
178.5771406510887
 30
0.0
 11
324.9129829982696
 21
177.077139473897
 31
0.0
  0
ARC
  5
22A
330
1F
100
AcDbEntity
  8
0
100
AcDbCircle
 10
325.9129823871401
 20
178.5771397583869
 30
0.0
 40
0.9999999999499778
100
AcDbArc
 50
90.00000000514588
 51
180.0000000000033
  0
ARC
  5
22B
330
1F
100
AcDbEntity
  8
0
100
AcDbCircle
 10
326.0519872489401
 20
178.5458897584869
 30
0.0
 40
0.3734951374000275
100
AcDbArc
 50
90.0
 51
180.0000000110308
  0
LINE
  5
22C
330
1F
100
AcDbEntity
  8
0
100
AcDbLine
 10
327.7679821530757
 20
179.5771408150015
 30
0.0
 11
325.9129831621823
 21
179.5771408150015
 31
0.0
  0
ARC
  5
22D
330
1F
100
AcDbEntity
  8
0
100
AcDbCircle
 10
327.7679823873151
 20
178.5771397584744
 30
0.0
 40
0.9999999998624673
100
AcDbArc
 50
359.9999999941246
 51
90.00000001002796
  0
LINE
  5
22E
330
1F
100
AcDbEntity
  8
0
100
AcDbLine
 10
325.9129831621823
 20
176.0771393099842
 30
0.0
 11
327.7679821530757
 21
176.0771393099842
 31
0.0
  0
LINE
  5
22F
330
1F
100
AcDbEntity
  8
0
100
AcDbLine
 10
331.8153442869363
 20
176.0771393099842
 30
0.0
 11
332.8804811517177
 21
176.0771393099842
 31
0.0
  0
LINE
  5
230
330
1F
100
AcDbEntity
  8
0
100
AcDbLine
 10
330.8304818401513
 20
177.1328809926329
 30
0.0
 11
331.8153442869363
 21
176.0771393099842
 31
0.0
  0
LINE
  5
231
330
1F
100
AcDbEntity
  8
0
100
AcDbLine
 10
329.8456193933663
 20
176.0771393099842
 30
0.0
 11
330.8304818401513
 21
177.1328809926329
 31
0.0
  0
LINE
  5
232
330
1F
100
AcDbEntity
  8
0
100
AcDbLine
 10
328.780482528585
 20
176.0771393099842
 30
0.0
 11
329.8456193933663
 21
176.0771393099842
 31
0.0
  0
LINE
  5
233
330
1F
100
AcDbEntity
  8
0
100
AcDbLine
 10
332.8804811517177
 20
176.0771393099842
 30
0.0
 11
331.3630512038646
 21
177.8271391311703
 31
0.0
  0
LINE
  5
234
330
1F
100
AcDbEntity
  8
0
100
AcDbLine
 10
331.3630512038646
 20
177.8271391311703
 30
0.0
 11
332.8804811517177
 21
179.5771408150015
 31
0.0
  0
LINE
  5
235
330
1F
100
AcDbEntity
  8
0
100
AcDbLine
 10
329.8456193933663
 20
179.5771408150015
 30
0.0
 11
328.780482528585
 21
179.5771408150015
 31
0.0
  0
LINE
  5
236
330
1F
100
AcDbEntity
  8
0
100
AcDbLine
 10
331.8153442869363
 20
179.5771408150015
 30
0.0
 11
330.8304818401513
 21
178.5213991323529
 31
0.0
  0
LINE
  5
237
330
1F
100
AcDbEntity
  8
0
100
AcDbLine
 10
330.8304818401513
 20
178.5213991323529
 30
0.0
 11
329.8456193933663
 21
179.5771408150015
 31
0.0
  0
LINE
  5
238
330
1F
100
AcDbEntity
  8
0
100
AcDbLine
 10
328.780482528585
 20
179.5771408150015
 30
0.0
 11
330.2979143390832
 21
177.8271391311703
 31
0.0
  0
LINE
  5
239
330
1F
100
AcDbEntity
  8
0
100
AcDbLine
 10
332.8804811517177
 20
179.5771408150015
 30
0.0
 11
331.8153442869363
 21
179.5771408150015
 31
0.0
  0
LINE
  5
23A
330
1F
100
AcDbEntity
  8
0
100
AcDbLine
 10
330.2979143390832
 20
177.8271391311703
 30
0.0
 11
328.780482528585
 21
176.0771393099842
 31
0.0
  0
CIRCLE
  5
23B
330
1F
100
AcDbEntity
  8
0
100
AcDbCircle
 10
326.4496481100495
 20
122.6266782054718
 30
0.0
 40
9.699999999999989
  0
CIRCLE
  5
23C
330
1F
100
AcDbEntity
  8
0
100
AcDbCircle
 10
301.4496481100497
 20
180.126678205472
 30
0.0
 40
7.250000000000028
  0
CIRCLE
  5
23D
330
1F
100
AcDbEntity
  8
0
100
AcDbCircle
 10
301.4496481100497
 20
115.126678205472
 30
0.0
 40
7.25
  0
CIRCLE
  5
23E
330
1F
100
AcDbEntity
  8
0
100
AcDbCircle
 10
333.9496481100497
 20
147.626678205472
 30
0.0
 40
7.25
  0
CIRCLE
  5
23F
330
1F
100
AcDbEntity
  8
0
100
AcDbCircle
 10
268.9496481100497
 20
147.626678205472
 30
0.0
 40
7.25
  0
CIRCLE
  5
240
330
1F
100
AcDbEntity
  8
0
100
AcDbCircle
 10
253.8187450900497
 20
195.257581225472
 30
0.0
 40
2.5
  0
CIRCLE
  5
241
330
1F
100
AcDbEntity
  8
0
100
AcDbCircle
 10
349.0805511300497
 20
99.99577518547201
 30
0.0
 40
2.5
  0
CIRCLE
  5
242
330
1F
100
AcDbEntity
  8
0
100
AcDbCircle
 10
349.0805511300497
 20
195.257581225472
 30
0.0
 40
2.5
  0
CIRCLE
  5
243
330
1F
100
AcDbEntity
  8
0
100
AcDbCircle
 10
253.8187450900497
 20
99.99577518547201
 30
0.0
 40
2.5
  0
LINE
  5
244
330
1F
100
AcDbEntity
  8
0
100
AcDbLine
 10
267.1996494809566
 20
144.8766782203732
 30
0.0
 11
270.6996472606835
 21
144.8766782203732
 31
0.0
  0
ARC
  5
245
330
1F
100
AcDbEntity
  8
0
100
AcDbCircle
 10
270.6996481100497
 20
147.626678205472
 30
0.0
 40
2.75
100
AcDbArc
 50
270.0
 51
89.99999999999882
  0
LINE
  5
246
330
1F
100
AcDbEntity
  8
0
100
AcDbLine
 10
270.6996472606835
 20
150.3766781905709
 30
0.0
 11
267.1996494809566
 21
150.3766781905709
 31
0.0
  0
ARC
  5
247
330
1F
100
AcDbEntity
  8
0
100
AcDbCircle
 10
267.1996481100497
 20
147.626678205472
 30
0.0
 40
2.75
100
AcDbArc
 50
90.0
 51
270.0000000000012
  0
LINE
  5
248
330
1F
100
AcDbEntity
  8
0
100
AcDbLine
 10
299.699648056033
 20
177.3766788909254
 30
0.0
 11
303.1996481640664
 21
177.3766788909254
 31
0.0
  0
ARC
  5
249
330
1F
100
AcDbEntity
  8
0
100
AcDbCircle
 10
303.1996481100497
 20
180.126678205472
 30
0.0
 40
2.750000000000028
100
AcDbArc
 50
270.0
 51
89.99999999999882
  0
LINE
  5
24A
330
1F
100
AcDbEntity
  8
0
100
AcDbLine
 10
303.1996481640664
 20
182.8766788611231
 30
0.0
 11
299.699648056033
 21
182.8766788611231
 31
0.0
  0
ARC
  5
24B
330
1F
100
AcDbEntity
  8
0
100
AcDbCircle
 10
299.6996481100497
 20
180.126678205472
 30
0.0
 40
2.750000000000028
100
AcDbArc
 50
90.0
 51
270.0000000000012
  0
ARC
  5
24C
330
1F
100
AcDbEntity
  8
0
100
AcDbCircle
 10
333.9496481100497
 20
149.376678205472
 30
0.0
 40
2.750000000000057
100
AcDbArc
 50
0.0
 51
180.0
  0
LINE
  5
24D
330
1F
100
AcDbEntity
  8
0
100
AcDbLine
 10
331.1996487955032
 20
149.3766782594887
 30
0.0
 11
331.1996487955032
 21
145.8766781514553
 31
0.0
  0
ARC
  5
24E
330
1F
100
AcDbEntity
  8
0
100
AcDbCircle
 10
333.9496481100497
 20
145.876678205472
 30
0.0
 40
2.750000000000057
100
AcDbArc
 50
180.0
 51
0.0
  0
LINE
  5
24F
330
1F
100
AcDbEntity
  8
0
100
AcDbLine
 10
336.6996487657008
 20
145.8766781514553
 30
0.0
 11
336.6996487657008
 21
149.3766782594887
 31
0.0
  0
LINE
  5
250
330
1F
100
AcDbEntity
  8
0
100
AcDbLine
 10
304.1996480951486
 20
113.3766795763788
 30
0.0
 11
304.1996480951486
 21
116.8766773561058
 31
0.0
  0
LINE
  5
251
330
1F
100
AcDbEntity
  8
0
100
AcDbLine
 10
298.6996481249509
 20
116.8766773561058
 30
0.0
 11
298.6996481249509
 21
113.3766795763788
 31
0.0
  0
ARC
  5
252
330
1F
100
AcDbEntity
  8
0
100
AcDbCircle
 10
301.4496481100497
 20
116.876678205472
 30
0.0
 40
2.75
100
AcDbArc
 50
0.0
 51
180.0
  0
ARC
  5
253
330
1F
100
AcDbEntity
  8
0
100
AcDbCircle
 10
301.4496481100497
 20
113.376678205472
 30
0.0
 40
2.75
100
AcDbArc
 50
180.0
 51
0.0
  0
LINE
  5
254
330
1F
100
AcDbEntity
  8
0
100
AcDbLine
 10
201.9930810429187
 20
138.1266785109458
 30
0.0
 11
204.9930833973022
 21
138.1266785109458
 31
0.0
  0
LINE
  5
255
330
1F
100
AcDbEntity
  8
0
100
AcDbLine
 10
204.9930833973022
 20
157.1266778999982
 30
0.0
 11
201.9930810429187
 21
157.1266778999982
 31
0.0
  0
LINE
  5
256
330
1F
100
AcDbEntity
  8
0
100
AcDbLine
 10
201.9930810429187
 20
182.1266773412046
 30
0.0
 11
204.9930833973021
 21
182.1266773412046
 31
0.0
  0
LINE
  5
257
330
1F
100
AcDbEntity
  8
0
100
AcDbLine
 10
204.9930833973021
 20
113.1266790697394
 30
0.0
 11
201.9930810429187
 21
113.1266790697394
 31
0.0
  0
LINE
  5
258
330
1F
100
AcDbEntity
  8
0
100
AcDbLine
 10
201.9930810429187
 20
179.376679218751
 30
0.0
 11
204.9930833973022
 21
179.376679218751
 31
0.0
  0
LINE
  5
259
330
1F
100
AcDbEntity
  8
0
100
AcDbLine
 10
201.9930810429188
 20
170.6266782501755
 30
0.0
 11
204.9930833973023
 21
170.6266782501755
 31
0.0
  0
LINE
  5
25A
330
1F
100
AcDbEntity
  8
0
100
AcDbLine
 10
204.9930833973023
 20
124.6266781607685
 30
0.0
 11
201.9930810429188
 21
124.6266781607685
 31
0.0
  0
LINE
  5
25B
330
1F
100
AcDbEntity
  8
0
100
AcDbLine
 10
201.9930810429188
 20
130.1266781309662
 30
0.0
 11
203.9930813707444
 21
130.1266781309662
 31
0.0
  0
LINE
  5
25C
330
1F
100
AcDbEntity
  8
0
100
AcDbLine
 10
203.9930813707444
 20
137.126678347033
 30
0.0
 11
201.9930810429188
 21
137.126678347033
 31
0.0
  0
LINE
  5
25D
330
1F
100
AcDbEntity
  8
0
100
AcDbLine
 10
201.9930810429188
 20
158.126678063911
 30
0.0
 11
203.9930813707444
 21
158.126678063911
 31
0.0
  0
LINE
  5
25E
330
1F
100
AcDbEntity
  8
0
100
AcDbLine
 10
203.9930813707444
 20
165.1266782799778
 30
0.0
 11
201.9930810429188
 21
165.1266782799778
 31
0.0
  0
LINE
  5
25F
330
1F
100
AcDbEntity
  8
0
100
AcDbLine
 10
204.9930833973021
 20
196.6266769239721
 30
0.0
 11
204.9930833973021
 21
190.6266796657858
 31
0.0
  0
LINE
  5
260
330
1F
100
AcDbEntity
  8
0
100
AcDbLine
 10
204.9930833973021
 20
190.6266796657858
 30
0.0
 11
162.9930821009011
 21
190.6266796657858
 31
0.0
  0
ARC
  5
261
330
1F
100
AcDbEntity
  8
0
100
AcDbCircle
 10
162.9930823244185
 20
185.626678205472
 30
0.0
 40
5.0
100
AcDbArc
 50
90.0
 51
180.0
  0
LINE
  5
262
330
1F
100
AcDbEntity
  8
0
100
AcDbLine
 10
157.9930822126598
 20
185.6266769835768
 30
0.0
 11
157.9930822126598
 21
109.6266794273672
 31
0.0
  0
ARC
  5
263
330
1F
100
AcDbEntity
  8
0
100
AcDbCircle
 10
162.9930823244185
 20
109.626678205472
 30
0.0
 40
5.000000000000028
100
AcDbArc
 50
180.0
 51
270.000000000001
  0
LINE
  5
264
330
1F
100
AcDbEntity
  8
0
100
AcDbLine
 10
204.9930833973021
 20
104.6266767451582
 30
0.0
 11
162.9930821009011
 21
104.6266767451582
 31
0.0
  0
LINE
  5
265
330
1F
100
AcDbEntity
  8
0
100
AcDbLine
 10
204.9930833973021
 20
98.62667948697188
 30
0.0
 11
204.9930833973021
 21
104.6266767451582
 31
0.0
  0
LINE
  5
266
330
1F
100
AcDbEntity
  8
0
100
AcDbLine
 10
204.9930833973021
 20
98.62667948697188
 30
0.0
 11
153.993082371916
 21
98.62667948697188
 31
0.0
  0
LINE
  5
267
330
1F
100
AcDbEntity
  8
0
100
AcDbLine
 10
153.993082371916
 20
98.62667948697188
 30
0.0
 11
153.993082371916
 21
196.6266769239721
 31
0.0
  0
LINE
  5
268
330
1F
100
AcDbEntity
  8
0
100
AcDbLine
 10
204.9930833973021
 20
196.6266769239721
 30
0.0
 11
153.993082371916
 21
196.6266769239721
 31
0.0
  0
LINE
  5
269
330
1F
100
AcDbEntity
  8
0
100
AcDbLine
 10
204.9930833973021
 20
188.6266793379602
 30
0.0
 11
204.9930833973021
 21
190.6266796657858
 31
0.0
  0
LINE
  5
26A
330
1F
100
AcDbEntity
  8
0
100
AcDbLine
 10
204.9930833973021
 20
188.6266793379602
 30
0.0
 11
162.9930821009011
 21
189.3597903916655
 31
0.0
  0
LINE
  5
26B
330
1F
100
AcDbEntity
  8
0
100
AcDbLine
 10
162.9930821009011
 20
190.6266796657858
 30
0.0
 11
162.9930821009011
 21
189.3597903916655
 31
0.0
  0
LINE
  5
26C
330
1F
100
AcDbEntity
  8
0
100
AcDbLine
 10
204.9930833973021
 20
202.6266779074488
 30
0.0
 11
204.9930833973021
 21
196.6266769239721
 31
0.0
  0
LINE
  5
26D
330
1F
100
AcDbEntity
  8
0
100
AcDbLine
 10
153.993082371916
 20
196.6266769239721
 30
0.0
 11
153.993082371916
 21
202.6266779074488
 31
0.0
  0
LINE
  5
26E
330
1F
100
AcDbEntity
  8
0
100
AcDbLine
 10
153.993082371916
 20
202.6266779074488
 30
0.0
 11
204.9930833973021
 21
202.6266779074488
 31
0.0
  0
LINE
  5
26F
330
1F
100
AcDbEntity
  8
0
100
AcDbLine
 10
162.9930821009011
 20
104.6266767451582
 30
0.0
 11
162.9930821009011
 21
105.8935660192786
 31
0.0
  0
LINE
  5
270
330
1F
100
AcDbEntity
  8
0
100
AcDbLine
 10
204.9930833973021
 20
106.6266770729838
 30
0.0
 11
162.9930821009011
 21
105.8935660192786
 31
0.0
  0
LINE
  5
271
330
1F
100
AcDbEntity
  8
0
100
AcDbLine
 10
204.9930833973021
 20
106.6266770729838
 30
0.0
 11
204.9930833973021
 21
104.6266767451582
 31
0.0
  0
LINE
  5
272
330
1F
100
AcDbEntity
  8
0
100
AcDbLine
 10
153.993082371916
 20
98.62667948697188
 30
0.0
 11
153.993082371916
 21
92.62667850349524
 31
0.0
  0
LINE
  5
273
330
1F
100
AcDbEntity
  8
0
100
AcDbLine
 10
204.9930833973021
 20
92.62667850349524
 30
0.0
 11
204.9930833973021
 21
98.62667948697188
 31
0.0
  0
LINE
  5
274
330
1F
100
AcDbEntity
  8
0
100
AcDbLine
 10
153.993082371916
 20
92.62667850349524
 30
0.0
 11
204.9930833973021
 21
92.62667850349524
 31
0.0
  0
LINE
  5
275
330
1F
100
AcDbEntity
  8
0
100
AcDbLine
 10
159.1936501435966
 20
109.6266794273672
 30
0.0
 11
157.9930822126598
 21
109.6266794273672
 31
0.0
  0
LWPOLYLINE
  5
276
330
1F
100
AcDbEntity
  8
0
100
AcDbPolyline
 90
        3
 70
     0
 43
0.0
 10
159.1936502641307
 20
109.626678205472
 42
0.414168936940368
 10
162.9279007399057
 20
105.8929966474297
 42
0.0043633507954963
 10
162.9930823244186
 20
105.8935654784869
  0
LINE
  5
27B
330
1F
100
AcDbEntity
  8
0
100
AcDbLine
 10
159.1936501435966
 20
185.6266769835768
 30
0.0
 11
157.9930822126598
 21
185.6266769835768
 31
0.0
  0
LWPOLYLINE
  5
27C
330
1F
100
AcDbEntity
  8
0
100
AcDbPolyline
 90
        3
 70
     0
 43
0.0
 10
162.9930823244185
 20
189.3597909324572
 42
0.0043252621873315
 10
162.9279007399057
 20
189.3603597635144
 42
0.4142135589734156
 10
159.1936502641307
 20
185.626678205472
  0
LINE
  5
281
330
1F
100
AcDbEntity
  8
0
100
AcDbLine
 10
159.1936501435966
 20
185.6266769835768
 30
0.0
 11
159.1936501435966
 21
109.6266794273672
 31
0.0
  0
LINE
  5
282
330
1F
100
AcDbEntity
  8
0
100
AcDbLine
 10
153.993082371916
 20
196.6266769239721
 30
0.0
 11
152.9930823244185
 21
196.6266769239721
 31
0.0
  0
LINE
  5
283
330
1F
100
AcDbEntity
  8
0
100
AcDbLine
 10
153.993082371916
 20
98.62667948697188
 30
0.0
 11
152.9930823244185
 21
98.62667948697188
 31
0.0
  0
LINE
  5
284
330
1F
100
AcDbEntity
  8
0
100
AcDbLine
 10
152.9930823244185
 20
98.62667948697188
 30
0.0
 11
152.9930823244185
 21
196.6266769239721
 31
0.0
  0
LINE
  5
285
330
1F
100
AcDbEntity
  8
0
100
AcDbLine
 10
153.993082371916
 20
93.1266795167742
 30
0.0
 11
152.9930823244186
 21
93.1266795167742
 31
0.0
  0
LINE
  5
286
330
1F
100
AcDbEntity
  8
0
100
AcDbLine
 10
152.9930823244185
 20
98.62667948697188
 30
0.0
 11
152.9930823244186
 21
93.1266795167742
 31
0.0
  0
LINE
  5
287
330
1F
100
AcDbEntity
  8
0
100
AcDbLine
 10
153.993082371916
 20
202.1266768941698
 30
0.0
 11
152.9930823244186
 21
202.1266768941698
 31
0.0
  0
LINE
  5
288
330
1F
100
AcDbEntity
  8
0
100
AcDbLine
 10
152.9930823244185
 20
196.6266769239721
 30
0.0
 11
152.9930823244186
 21
202.1266768941698
 31
0.0
  0
CIRCLE
  5
289
330
1F
100
AcDbEntity
  8
0
100
AcDbCircle
 10
176.9637995110422
 20
166.1265273394187
 30
0.0
 40
12.99937218008226
  0
CIRCLE
  5
28A
330
1F
100
AcDbEntity
  8
0
100
AcDbCircle
 10
176.9637995110422
 20
129.1268290715253
 30
0.0
 40
12.99937218008229
  0
LINE
  5
28B
330
1F
100
AcDbEntity
  8
0
100
AcDbLine
 10
201.9930810429187
 20
106.6266770729838
 30
0.0
 11
204.9930833973021
 21
106.6266770729838
 31
0.0
  0
LINE
  5
28C
330
1F
100
AcDbEntity
  8
0
100
AcDbLine
 10
201.9930810429187
 20
188.6266793379602
 30
0.0
 11
204.9930833973021
 21
188.6266793379602
 31
0.0
  0
LINE
  5
28D
330
1F
100
AcDbEntity
  8
0
100
AcDbLine
 10
201.9930810429187
 20
188.6266793379602
 30
0.0
 11
201.9930810429187
 21
106.6266770729838
 31
0.0
  0
CIRCLE
  5
28E
330
1F
100
AcDbEntity
  8
0
100
AcDbCircle
 10
176.9600851893046
 20
166.126543765678
 30
0.0
 40
10.49952895649102
  0
CIRCLE
  5
28F
330
1F
100
AcDbEntity
  8
0
100
AcDbCircle
 10
176.9600851893046
 20
129.126812645266
 30
0.0
 40
10.49952895649099
  0
LINE
  5
290
330
1F
100
AcDbEntity
  8
0
100
AcDbLine
 10
151.3930823648379
 20
184.6269841561136
 30
0.0
 11
152.9930823244185
 21
184.6269841561136
 31
0.0
  0
LINE
  5
291
330
1F
100
AcDbEntity
  8
0
100
AcDbLine
 10
151.3930823244185
 20
187.926678205472
 30
0.0
 11
151.3930823244185
 21
184.6269828151592
 31
0.0
  0
LINE
  5
292
330
1F
100
AcDbEntity
  8
0
100
AcDbLine
 10
151.393082364838
 20
187.9266786644278
 30
0.0
 11
152.9930823244186
 21
187.9266786644278
 31
0.0
  0
LINE
  5
293
330
1F
100
AcDbEntity
  8
0
100
AcDbLine
 10
151.393082364838
 20
107.3266777465163
 30
0.0
 11
152.9930823244186
 21
107.3266777465163
 31
0.0
  0
LINE
  5
294
330
1F
100
AcDbEntity
  8
0
100
AcDbLine
 10
151.3930823244185
 20
110.6263735957848
 30
0.0
 11
151.3930823244185
 21
107.326678205472
 31
0.0
  0
LINE
  5
295
330
1F
100
AcDbEntity
  8
0
100
AcDbLine
 10
151.3930823648379
 20
110.6263722548304
 30
0.0
 11
152.9930823244185
 21
110.6263722548304
 31
0.0
  0
LINE
  5
296
330
1F
100
AcDbEntity
  8
0
100
AcDbLine
 10
151.3930823648379
 20
184.6269841561136
 30
0.0
 11
151.3930823648379
 21
110.6263722548304
 31
0.0
  0
LINE
  5
297
330
1F
100
AcDbEntity
  8
0
100
AcDbLine
 10
151.393082364838
 20
100.1266788015185
 30
0.0
 11
152.9930823244186
 21
100.1266788015185
 31
0.0
  0
LINE
  5
298
330
1F
100
AcDbEntity
  8
0
100
AcDbLine
 10
151.393082364838
 20
100.1266788015185
 30
0.0
 11
151.393082364838
 21
107.3266777465163
 31
0.0
  0
LINE
  5
299
330
1F
100
AcDbEntity
  8
0
100
AcDbLine
 10
151.393082364838
 20
195.1266776094255
 30
0.0
 11
152.9930823244186
 21
195.1266776094255
 31
0.0
  0
LINE
  5
29A
330
1F
100
AcDbEntity
  8
0
100
AcDbLine
 10
151.393082364838
 20
195.1266776094255
 30
0.0
 11
151.393082364838
 21
187.9266786644278
 31
0.0
  0
LINE
  5
29B
330
1F
100
AcDbEntity
  8
0
100
AcDbLine
 10
204.9930833973022
 20
138.1266785109458
 30
0.0
 11
204.9930833973022
 21
157.1266778999982
 31
0.0
  0
LINE
  5
29C
330
1F
100
AcDbEntity
  8
0
100
AcDbLine
 10
204.9930833973021
 20
182.1266773412046
 30
0.0
 11
204.9930833973021
 21
188.6266793379602
 31
0.0
  0
LINE
  5
29D
330
1F
100
AcDbEntity
  8
0
100
AcDbLine
 10
204.9930833973021
 20
113.1266790697394
 30
0.0
 11
204.9930833973021
 21
106.6266770729838
 31
0.0
  0
LINE
  5
29E
330
1F
100
AcDbEntity
  8
0
100
AcDbLine
 10
151.393082364838
 20
197.6269844243345
 30
0.0
 11
152.9930823244186
 21
197.6269844243345
 31
0.0
  0
LINE
  5
29F
330
1F
100
AcDbEntity
  8
0
100
AcDbLine
 10
151.393082364838
 20
200.9266789326487
 30
0.0
 11
152.9930823244186
 21
200.9266789326487
 31
0.0
  0
LINE
  5
2A0
330
1F
100
AcDbEntity
  8
0
100
AcDbLine
 10
151.3930823244186
 20
200.926678205472
 30
0.0
 11
151.3930823244186
 21
197.6269828151592
 31
0.0
  0
LINE
  5
2A1
330
1F
100
AcDbEntity
  8
0
100
AcDbLine
 10
151.393082364838
 20
94.32667747829535
 30
0.0
 11
152.9930823244186
 21
94.32667747829535
 31
0.0
  0
LINE
  5
2A2
330
1F
100
AcDbEntity
  8
0
100
AcDbLine
 10
151.393082364838
 20
97.62637198660948
 30
0.0
 11
152.9930823244186
 21
97.62637198660948
 31
0.0
  0
LINE
  5
2A3
330
1F
100
AcDbEntity
  8
0
100
AcDbLine
 10
151.3930823244186
 20
97.6263735957848
 30
0.0
 11
151.3930823244186
 21
94.32667820547204
 31
0.0
  0
LINE
  5
2A4
330
1F
100
AcDbEntity
  8
0
100
AcDbLine
 10
151.393082364838
 20
97.62637198660948
 30
0.0
 11
151.393082364838
 21
100.1266788015185
 31
0.0
  0
LINE
  5
2A5
330
1F
100
AcDbEntity
  8
0
100
AcDbLine
 10
151.393082364838
 20
197.6269844243345
 30
0.0
 11
151.393082364838
 21
195.1266776094255
 31
0.0
  0
LINE
  5
2A6
330
1F
100
AcDbEntity
  8
0
100
AcDbLine
 10
204.9930833973022
 20
182.1266773412046
 30
0.0
 11
204.9930833973022
 21
179.376679218751
 31
0.0
  0
LINE
  5
2A7
330
1F
100
AcDbEntity
  8
0
100
AcDbLine
 10
204.9930833973023
 20
170.6266782501755
 30
0.0
 11
204.9930833973023
 21
179.376679218751
 31
0.0
  0
LINE
  5
2A8
330
1F
100
AcDbEntity
  8
0
100
AcDbLine
 10
204.9930833973023
 20
124.6266781607685
 30
0.0
 11
204.9930833973023
 21
113.1266790697394
 31
0.0
  0
LINE
  5
2A9
330
1F
100
AcDbEntity
  8
0
100
AcDbLine
 10
203.9930813707444
 20
133.6266777733383
 30
0.0
 11
203.9930813707444
 21
137.126678347033
 31
0.0
  0
LINE
  5
2AA
330
1F
100
AcDbEntity
  8
0
100
AcDbLine
 10
203.9930813707444
 20
130.1266781309662
 30
0.0
 11
203.9930813707444
 21
133.6266777733383
 31
0.0
  0
LINE
  5
2AB
330
1F
100
AcDbEntity
  8
0
100
AcDbLine
 10
203.9930813707444
 20
158.126678063911
 30
0.0
 11
203.9930813707444
 21
165.1266782799778
 31
0.0
  0
LINE
  5
2AC
330
1F
100
AcDbEntity
  8
0
100
AcDbLine
 10
162.9930821009015
 20
92.62667850349524
 30
0.0
 11
157.9930822126601
 21
92.62667850349524
 31
0.0
  0
LINE
  5
2AD
330
1F
100
AcDbEntity
  8
0
100
AcDbLine
 10
162.9930821009015
 20
202.6266779074488
 30
0.0
 11
157.9930822126601
 21
202.6266779074488
 31
0.0
  0
LINE
  5
2AE
330
1F
100
AcDbEntity
  8
0
100
AcDbLine
 10
162.9930821009015
 20
92.62667850349524
 30
0.0
 11
204.9930833973025
 21
92.62667850349524
 31
0.0
  0
LINE
  5
2AF
330
1F
100
AcDbEntity
  8
0
100
AcDbLine
 10
162.9930821009015
 20
202.6266779074488
 30
0.0
 11
204.9930833973025
 21
202.6266779074488
 31
0.0
  0
LINE
  5
2B0
330
1F
100
AcDbEntity
  8
0
100
AcDbLine
 10
401.6141601664853
 20
157.1266778999982
 30
0.0
 11
398.6141578121018
 21
157.1266778999982
 31
0.0
  0
LINE
  5
2B1
330
1F
100
AcDbEntity
  8
0
100
AcDbLine
 10
398.6141578121018
 20
138.1266785109458
 30
0.0
 11
401.6141601664853
 21
138.1266785109458
 31
0.0
  0
LINE
  5
2B2
330
1F
100
AcDbEntity
  8
0
100
AcDbLine
 10
401.6141601664853
 20
113.1266790697394
 30
0.0
 11
398.6141578121018
 21
113.1266790697394
 31
0.0
  0
LINE
  5
2B3
330
1F
100
AcDbEntity
  8
0
100
AcDbLine
 10
398.6141578121018
 20
182.1266773412046
 30
0.0
 11
401.6141601664853
 21
182.1266773412046
 31
0.0
  0
LINE
  5
2B4
330
1F
100
AcDbEntity
  8
0
 62
   255
100
AcDbLine
 10
401.6141601664852
 20
115.8766771921931
 30
0.0
 11
398.6141578121018
 21
115.8766771921931
 31
0.0
  0
LINE
  5
2B5
330
1F
100
AcDbEntity
  8
0
 62
   255
100
AcDbLine
 10
401.6141601664852
 20
124.6266781607685
 30
0.0
 11
398.6141578121017
 21
124.6266781607685
 31
0.0
  0
LINE
  5
2B6
330
1F
100
AcDbEntity
  8
0
100
AcDbLine
 10
398.6141578121017
 20
170.6266782501755
 30
0.0
 11
401.6141601664852
 21
170.6266782501755
 31
0.0
  0
LINE
  5
2B7
330
1F
100
AcDbEntity
  8
0
100
AcDbLine
 10
401.6141601664852
 20
165.1266782799778
 30
0.0
 11
399.6141598386596
 21
165.1266782799778
 31
0.0
  0
LINE
  5
2B8
330
1F
100
AcDbEntity
  8
0
100
AcDbLine
 10
399.6141598386596
 20
158.126678063911
 30
0.0
 11
401.6141601664852
 21
158.126678063911
 31
0.0
  0
LINE
  5
2B9
330
1F
100
AcDbEntity
  8
0
100
AcDbLine
 10
401.6141601664852
 20
137.126678347033
 30
0.0
 11
399.6141598386596
 21
137.126678347033
 31
0.0
  0
LINE
  5
2BA
330
1F
100
AcDbEntity
  8
0
100
AcDbLine
 10
399.6141598386596
 20
130.1266781309662
 30
0.0
 11
401.6141601664852
 21
130.1266781309662
 31
0.0
  0
LINE
  5
2BB
330
1F
100
AcDbEntity
  8
0
100
AcDbLine
 10
398.6141578121019
 20
92.62667850349524
 30
0.0
 11
398.6141578121019
 21
98.62667948697188
 31
0.0
  0
LINE
  5
2BC
330
1F
100
AcDbEntity
  8
0
100
AcDbLine
 10
398.6141578121019
 20
98.62667948697188
 30
0.0
 11
449.614158837488
 21
98.62667948697188
 31
0.0
  0
LINE
  5
2BD
330
1F
100
AcDbEntity
  8
0
100
AcDbLine
 10
449.614158837488
 20
98.62667948697188
 30
0.0
 11
449.614158837488
 21
92.62667850349524
 31
0.0
  0
LINE
  5
2BE
330
1F
100
AcDbEntity
  8
0
100
AcDbLine
 10
449.614158837488
 20
92.62667850349524
 30
0.0
 11
398.6141578121019
 21
92.62667850349524
 31
0.0
  0
LINE
  5
2BF
330
1F
100
AcDbEntity
  8
0
100
AcDbLine
 10
440.6141591085029
 20
190.6266796657858
 30
0.0
 11
440.6141591085029
 21
189.3597903916655
 31
0.0
  0
LINE
  5
2C0
330
1F
100
AcDbEntity
  8
0
100
AcDbLine
 10
398.6141578121019
 20
188.6266793379602
 30
0.0
 11
440.6141591085029
 21
189.3597903916655
 31
0.0
  0
LINE
  5
2C1
330
1F
100
AcDbEntity
  8
0
100
AcDbLine
 10
398.6141578121019
 20
188.6266793379602
 30
0.0
 11
398.6141578121019
 21
190.6266796657858
 31
0.0
  0
LINE
  5
2C2
330
1F
100
AcDbEntity
  8
0
100
AcDbLine
 10
398.6141578121019
 20
190.6266796657858
 30
0.0
 11
440.6141591085029
 21
190.6266796657858
 31
0.0
  0
LINE
  5
2C3
330
1F
100
AcDbEntity
  8
0
100
AcDbLine
 10
398.6141578121019
 20
106.6266770729838
 30
0.0
 11
440.6141591085029
 21
105.8935660192786
 31
0.0
  0
LINE
  5
2C4
330
1F
100
AcDbEntity
  8
0
100
AcDbLine
 10
440.6141591085029
 20
104.6266767451582
 30
0.0
 11
440.6141591085029
 21
105.8935660192786
 31
0.0
  0
LINE
  5
2C5
330
1F
100
AcDbEntity
  8
0
100
AcDbLine
 10
398.6141578121019
 20
104.6266767451582
 30
0.0
 11
440.6141591085029
 21
104.6266767451582
 31
0.0
  0
LINE
  5
2C6
330
1F
100
AcDbEntity
  8
0
100
AcDbLine
 10
398.6141578121019
 20
106.6266770729838
 30
0.0
 11
398.6141578121019
 21
104.6266767451582
 31
0.0
  0
LINE
  5
2C7
330
1F
100
AcDbEntity
  8
0
100
AcDbLine
 10
449.614158837488
 20
196.6266769239721
 30
0.0
 11
449.614158837488
 21
202.6266779074488
 31
0.0
  0
LINE
  5
2C8
330
1F
100
AcDbEntity
  8
0
100
AcDbLine
 10
398.6141578121019
 20
196.6266769239721
 30
0.0
 11
449.614158837488
 21
196.6266769239721
 31
0.0
  0
LINE
  5
2C9
330
1F
100
AcDbEntity
  8
0
100
AcDbLine
 10
398.6141578121019
 20
202.6266779074488
 30
0.0
 11
398.6141578121019
 21
196.6266769239721
 31
0.0
  0
LINE
  5
2CA
330
1F
100
AcDbEntity
  8
0
100
AcDbLine
 10
449.614158837488
 20
202.6266779074488
 30
0.0
 11
398.6141578121019
 21
202.6266779074488
 31
0.0
  0
LINE
  5
2CB
330
1F
100
AcDbEntity
  8
0
100
AcDbLine
 10
449.614158837488
 20
98.62667948697188
 30
0.0
 11
449.614158837488
 21
196.6266769239721
 31
0.0
  0
ARC
  5
2CC
330
1F
100
AcDbEntity
  8
0
100
AcDbCircle
 10
440.6141588849854
 20
109.626678205472
 30
0.0
 40
5.000000000000028
100
AcDbArc
 50
270.0
 51
359.9999999999993
  0
LINE
  5
2CD
330
1F
100
AcDbEntity
  8
0
100
AcDbLine
 10
445.6141589967442
 20
185.6266769835768
 30
0.0
 11
445.6141589967442
 21
109.6266794273672
 31
0.0
  0
ARC
  5
2CE
330
1F
100
AcDbEntity
  8
0
100
AcDbCircle
 10
440.6141588849854
 20
185.626678205472
 30
0.0
 40
5.0
100
AcDbArc
 50
0.0
 51
90.0
  0
LINE
  5
2CF
330
1F
100
AcDbEntity
  8
0
100
AcDbLine
 10
398.6141578121019
 20
196.6266769239721
 30
0.0
 11
398.6141578121019
 21
190.6266796657858
 31
0.0
  0
LINE
  5
2D0
330
1F
100
AcDbEntity
  8
0
100
AcDbLine
 10
398.6141578121019
 20
98.62667948697188
 30
0.0
 11
398.6141578121019
 21
104.6266767451582
 31
0.0
  0
LINE
  5
2D1
330
1F
100
AcDbEntity
  8
0
100
AcDbLine
 10
444.4135910658074
 20
185.6266769835768
 30
0.0
 11
445.6141589967442
 21
185.6266769835768
 31
0.0
  0
LWPOLYLINE
  5
2D2
330
1F
100
AcDbEntity
  8
0
100
AcDbPolyline
 90
        3
 70
     0
 43
0.0
 10
444.4135909452733
 20
185.626678205472
 42
0.4141689369417421
 10
440.6793404694983
 20
189.3603597635143
 42
0.0043633507939845
 10
440.6141588849853
 20
189.3597909324571
  0
LINE
  5
2D7
330
1F
100
AcDbEntity
  8
0
100
AcDbLine
 10
444.4135910658074
 20
109.6266794273672
 30
0.0
 11
445.6141589967442
 21
109.6266794273672
 31
0.0
  0
LWPOLYLINE
  5
2D8
330
1F
100
AcDbEntity
  8
0
100
AcDbPolyline
 90
        3
 70
     0
 43
0.0
 10
440.6141588849856
 20
105.893565478487
 42
0.0043252621882212
 10
440.6793404694984
 20
105.8929966474297
 42
0.4142135589734129
 10
444.4135909452733
 20
109.626678205472
  0
LINE
  5
2DD
330
1F
100
AcDbEntity
  8
0
100
AcDbLine
 10
444.4135910658074
 20
185.6266769835768
 30
0.0
 11
444.4135910658074
 21
109.6266794273672
 31
0.0
  0
LINE
  5
2DE
330
1F
100
AcDbEntity
  8
0
100
AcDbLine
 10
449.614158837488
 20
93.1266795167742
 30
0.0
 11
450.6141588849855
 21
93.1266795167742
 31
0.0
  0
LINE
  5
2DF
330
1F
100
AcDbEntity
  8
0
100
AcDbLine
 10
449.614158837488
 20
98.62667948697188
 30
0.0
 11
450.6141588849855
 21
98.62667948697188
 31
0.0
  0
LINE
  5
2E0
330
1F
100
AcDbEntity
  8
0
100
AcDbLine
 10
450.6141588849855
 20
98.62667948697188
 30
0.0
 11
450.6141588849855
 21
93.1266795167742
 31
0.0
  0
LINE
  5
2E1
330
1F
100
AcDbEntity
  8
0
100
AcDbLine
 10
449.614158837488
 20
196.6266769239721
 30
0.0
 11
450.6141588849855
 21
196.6266769239721
 31
0.0
  0
LINE
  5
2E2
330
1F
100
AcDbEntity
  8
0
100
AcDbLine
 10
449.614158837488
 20
202.1266768941698
 30
0.0
 11
450.6141588849855
 21
202.1266768941698
 31
0.0
  0
LINE
  5
2E3
330
1F
100
AcDbEntity
  8
0
100
AcDbLine
 10
450.6141588849855
 20
196.6266769239721
 30
0.0
 11
450.6141588849855
 21
202.1266768941698
 31
0.0
  0
LINE
  5
2E4
330
1F
100
AcDbEntity
  8
0
100
AcDbLine
 10
450.6141588849855
 20
98.62667948697188
 30
0.0
 11
450.6141588849855
 21
196.6266769239721
 31
0.0
  0
CIRCLE
  5
2E5
330
1F
100
AcDbEntity
  8
0
100
AcDbCircle
 10
426.6112469968162
 20
129.1265268632915
 30
0.0
 40
12.99937219249896
  0
CIRCLE
  5
2E6
330
1F
100
AcDbEntity
  8
0
100
AcDbCircle
 10
426.6112469968161
 20
166.1268295476526
 30
0.0
 40
12.9993721924989
  0
LINE
  5
2E7
330
1F
100
AcDbEntity
  8
0
100
AcDbLine
 10
401.6141601664854
 20
188.6266793379602
 30
0.0
 11
398.6141578121019
 21
188.6266793379602
 31
0.0
  0
LINE
  5
2E8
330
1F
100
AcDbEntity
  8
0
100
AcDbLine
 10
401.6141601664854
 20
106.6266770729838
 30
0.0
 11
398.6141578121019
 21
106.6266770729838
 31
0.0
  0
LINE
  5
2E9
330
1F
100
AcDbEntity
  8
0
100
AcDbLine
 10
401.6141601664854
 20
188.6266793379602
 30
0.0
 11
401.6141601664854
 21
106.6266770729838
 31
0.0
  0
CIRCLE
  5
2EA
330
1F
100
AcDbEntity
  8
0
100
AcDbCircle
 10
426.6145129009229
 20
129.1265525802036
 30
0.0
 40
10.4995298632627
  0
CIRCLE
  5
2EB
330
1F
100
AcDbEntity
  8
0
100
AcDbCircle
 10
426.6145129009228
 20
166.1268038307405
 30
0.0
 40
10.49952986326259
  0
LINE
  5
2EC
330
1F
100
AcDbEntity
  8
0
100
AcDbLine
 10
452.2141588445661
 20
187.9266786644278
 30
0.0
 11
450.6141588849855
 21
187.9266786644278
 31
0.0
  0
LINE
  5
2ED
330
1F
100
AcDbEntity
  8
0
100
AcDbLine
 10
452.2141588849855
 20
184.6269828151592
 30
0.0
 11
452.2141588849854
 21
187.926678205472
 31
0.0
  0
LINE
  5
2EE
330
1F
100
AcDbEntity
  8
0
100
AcDbLine
 10
452.2141588445661
 20
184.6269841561136
 30
0.0
 11
450.6141588849855
 21
184.6269841561136
 31
0.0
  0
LINE
  5
2EF
330
1F
100
AcDbEntity
  8
0
100
AcDbLine
 10
452.2141588445661
 20
184.6269841561136
 30
0.0
 11
452.2141588445661
 21
110.6263722548304
 31
0.0
  0
LINE
  5
2F0
330
1F
100
AcDbEntity
  8
0
100
AcDbLine
 10
452.2141588445661
 20
110.6263722548304
 30
0.0
 11
450.6141588849855
 21
110.6263722548304
 31
0.0
  0
LINE
  5
2F1
330
1F
100
AcDbEntity
  8
0
100
AcDbLine
 10
452.2141588849854
 20
107.326678205472
 30
0.0
 11
452.2141588849855
 21
110.6263735957848
 31
0.0
  0
LINE
  5
2F2
330
1F
100
AcDbEntity
  8
0
100
AcDbLine
 10
452.2141588445661
 20
107.3266777465163
 30
0.0
 11
450.6141588849855
 21
107.3266777465163
 31
0.0
  0
LINE
  5
2F3
330
1F
100
AcDbEntity
  8
0
100
AcDbLine
 10
452.2141588445661
 20
195.1266776094255
 30
0.0
 11
450.6141588849855
 21
195.1266776094255
 31
0.0
  0
LINE
  5
2F4
330
1F
100
AcDbEntity
  8
0
100
AcDbLine
 10
452.2141588445661
 20
195.1266776094255
 30
0.0
 11
452.2141588445661
 21
187.9266786644278
 31
0.0
  0
LINE
  5
2F5
330
1F
100
AcDbEntity
  8
0
100
AcDbLine
 10
452.2141588445661
 20
100.1266788015185
 30
0.0
 11
450.6141588849855
 21
100.1266788015185
 31
0.0
  0
LINE
  5
2F6
330
1F
100
AcDbEntity
  8
0
100
AcDbLine
 10
452.2141588445661
 20
100.1266788015185
 30
0.0
 11
452.2141588445661
 21
107.3266777465163
 31
0.0
  0
LINE
  5
2F7
330
1F
100
AcDbEntity
  8
0
100
AcDbLine
 10
398.6141578121018
 20
138.1266785109458
 30
0.0
 11
398.6141578121018
 21
157.1266778999982
 31
0.0
  0
LINE
  5
2F8
330
1F
100
AcDbEntity
  8
0
100
AcDbLine
 10
398.6141578121018
 20
113.1266790697394
 30
0.0
 11
398.6141578121018
 21
106.6266770729838
 31
0.0
  0
LINE
  5
2F9
330
1F
100
AcDbEntity
  8
0
100
AcDbLine
 10
398.6141578121018
 20
182.1266773412046
 30
0.0
 11
398.6141578121018
 21
188.6266793379602
 31
0.0
  0
LINE
  5
2FA
330
1F
100
AcDbEntity
  8
0
100
AcDbLine
 10
452.2141588445661
 20
97.62637198660948
 30
0.0
 11
450.6141588849855
 21
97.62637198660948
 31
0.0
  0
LINE
  5
2FB
330
1F
100
AcDbEntity
  8
0
100
AcDbLine
 10
452.214158844566
 20
94.32667747829535
 30
0.0
 11
450.6141588849854
 21
94.32667747829535
 31
0.0
  0
LINE
  5
2FC
330
1F
100
AcDbEntity
  8
0
100
AcDbLine
 10
452.2141588849854
 20
94.32667820547204
 30
0.0
 11
452.2141588849854
 21
97.6263735957848
 31
0.0
  0
LINE
  5
2FD
330
1F
100
AcDbEntity
  8
0
100
AcDbLine
 10
452.2141588445661
 20
97.62637198660948
 30
0.0
 11
452.2141588445661
 21
100.1266788015185
 31
0.0
  0
LINE
  5
2FE
330
1F
100
AcDbEntity
  8
0
100
AcDbLine
 10
452.2141588445661
 20
197.6269844243345
 30
0.0
 11
450.6141588849855
 21
197.6269844243345
 31
0.0
  0
LINE
  5
2FF
330
1F
100
AcDbEntity
  8
0
100
AcDbLine
 10
452.2141588445661
 20
197.6269844243345
 30
0.0
 11
452.2141588445661
 21
195.1266776094255
 31
0.0
  0
LINE
  5
300
330
1F
100
AcDbEntity
  8
0
100
AcDbLine
 10
452.214158844566
 20
200.9266789326487
 30
0.0
 11
450.6141588849854
 21
200.9266789326487
 31
0.0
  0
LINE
  5
301
330
1F
100
AcDbEntity
  8
0
100
AcDbLine
 10
452.2141588849854
 20
197.6269828151592
 30
0.0
 11
452.2141588849854
 21
200.926678205472
 31
0.0
  0
LINE
  5
302
330
1F
100
AcDbEntity
  8
0
100
AcDbLine
 10
398.6141578121018
 20
113.1266790697394
 30
0.0
 11
398.6141578121018
 21
115.8766771921931
 31
0.0
  0
LINE
  5
303
330
1F
100
AcDbEntity
  8
0
 62
   255
100
AcDbLine
 10
398.6141578121017
 20
115.8766771921931
 30
0.0
 11
398.6141578121017
 21
124.6266781607685
 31
0.0
  0
LINE
  5
304
330
1F
100
AcDbEntity
  8
0
100
AcDbLine
 10
398.6141578121017
 20
182.1266773412046
 30
0.0
 11
398.6141578121017
 21
170.6266782501755
 31
0.0
  0
LINE
  5
305
330
1F
100
AcDbEntity
  8
0
100
AcDbLine
 10
399.6141598386596
 20
161.6266786376057
 30
0.0
 11
399.6141598386596
 21
158.126678063911
 31
0.0
  0
LINE
  5
306
330
1F
100
AcDbEntity
  8
0
100
AcDbLine
 10
399.6141598386596
 20
165.1266782799778
 30
0.0
 11
399.6141598386596
 21
161.6266786376057
 31
0.0
  0
LINE
  5
307
330
1F
100
AcDbEntity
  8
0
100
AcDbLine
 10
399.6141598386596
 20
137.126678347033
 30
0.0
 11
399.6141598386596
 21
130.1266781309662
 31
0.0
  0
LINE
  5
308
330
1F
100
AcDbEntity
  8
0
100
AcDbLine
 10
440.6141591085026
 20
92.62667850349524
 30
0.0
 11
445.6141589967439
 21
92.62667850349524
 31
0.0
  0
LINE
  5
309
330
1F
100
AcDbEntity
  8
0
100
AcDbLine
 10
440.6141591085026
 20
202.6266779074488
 30
0.0
 11
445.6141589967439
 21
202.6266779074488
 31
0.0
  0
LINE
  5
30A
330
1F
100
AcDbEntity
  8
0
100
AcDbLine
 10
440.6141591085026
 20
202.6266779074488
 30
0.0
 11
398.6141578121016
 21
202.6266779074488
 31
0.0
  0
LINE
  5
30B
330
1F
100
AcDbEntity
  8
0
100
AcDbLine
 10
440.6141591085026
 20
92.62667850349524
 30
0.0
 11
398.6141578121016
 21
92.62667850349524
 31
0.0
  0
LINE
  5
30C
330
1F
100
AcDbEntity
  8
0
100
AcDbLine
 10
318.4496490339217
 20
51.60000070463866
 30
0.0
 11
318.4496490339217
 21
50.59999867808074
 31
0.0
  0
LINE
  5
30D
330
1F
100
AcDbEntity
  8
0
100
AcDbLine
 10
328.4496488104043
 20
50.59999867808074
 30
0.0
 11
328.4496488104043
 21
51.60000070463866
 31
0.0
  0
LINE
  5
30E
330
1F
100
AcDbEntity
  8
0
100
AcDbLine
 10
320.1996488551078
 20
53.20000171195716
 30
0.0
 11
320.1996488551078
 21
51.60000070463866
 31
0.0
  0
LINE
  5
30F
330
1F
100
AcDbEntity
  8
0
100
AcDbLine
 10
326.6996489892182
 20
51.60000070463866
 30
0.0
 11
326.6996489892182
 21
53.20000171195716
 31
0.0
  0
LINE
  5
310
330
1F
100
AcDbEntity
  8
0
100
AcDbLine
 10
310.9496478045759
 20
50.59999867808079
 30
0.0
 11
310.9496478045759
 21
53.60000103246426
 31
0.0
  0
LINE
  5
311
330
1F
100
AcDbEntity
  8
0
100
AcDbLine
 10
291.9496484155235
 20
53.60000103246426
 30
0.0
 11
291.9496484155235
 21
50.59999867808079
 31
0.0
  0
LINE
  5
312
330
1F
100
AcDbEntity
  8
0
100
AcDbLine
 10
335.9496472457824
 20
53.60000103246423
 30
0.0
 11
335.9496472457824
 21
50.59999867808077
 31
0.0
  0
LINE
  5
313
330
1F
100
AcDbEntity
  8
0
100
AcDbLine
 10
266.9496489743171
 20
50.59999867808077
 30
0.0
 11
266.9496489743171
 21
53.60000103246423
 31
0.0
  0
LINE
  5
314
330
1F
100
AcDbEntity
  8
0
100
AcDbLine
 10
326.3996476361928
 20
53.60000103246423
 30
0.0
 11
326.3996476361928
 21
53.20000171195719
 31
0.0
  0
LINE
  5
315
330
1F
100
AcDbEntity
  8
0
100
AcDbLine
 10
330.4996481219707
 20
50.59999867808077
 30
0.0
 11
330.4996481219707
 21
53.60000103246423
 31
0.0
  0
LINE
  5
316
330
1F
100
AcDbEntity
  8
0
100
AcDbLine
 10
316.3996478597102
 20
53.60000103246423
 30
0.0
 11
316.3996478597102
 21
50.59999867808077
 31
0.0
  0
LINE
  5
317
330
1F
100
AcDbEntity
  8
0
100
AcDbLine
 10
320.4996483454881
 20
53.20000171195719
 30
0.0
 11
320.4996483454881
 21
53.60000103246423
 31
0.0
  0
LINE
  5
318
330
1F
100
AcDbEntity
  8
0
100
AcDbLine
 10
324.4496481547532
 20
53.60000103246438
 30
0.0
 11
324.4496481547532
 21
53.20000171195733
 31
0.0
  0
LINE
  5
319
330
1F
100
AcDbEntity
  8
0
100
AcDbLine
 10
278.4496480653463
 20
50.59999867808091
 30
0.0
 11
278.4496480653463
 21
53.60000103246438
 31
0.0
  0
LINE
  5
31A
330
1F
100
AcDbEntity
  8
0
100
AcDbLine
 10
311.9496479684887
 20
52.59999900590645
 30
0.0
 11
311.9496479684887
 21
50.59999867808091
 31
0.0
  0
LINE
  5
31B
330
1F
100
AcDbEntity
  8
0
100
AcDbLine
 10
290.9496482516108
 20
50.59999867808091
 30
0.0
 11
290.9496482516108
 21
52.59999900590645
 31
0.0
  0
LINE
  5
31C
330
1F
100
AcDbEntity
  8
0
100
AcDbLine
 10
283.9496480355439
 20
52.59999900590645
 30
0.0
 11
283.9496480355439
 21
50.59999867808091
 31
0.0
  0
LINE
  5
31D
330
1F
100
AcDbEntity
  8
0
100
AcDbLine
 10
282.3996478746114
 20
53.60000103246449
 30
0.0
 11
282.3996478746114
 21
50.59999867808102
 31
0.0
  0
LINE
  5
31E
330
1F
100
AcDbEntity
  8
0
100
AcDbLine
 10
286.4996483603892
 20
52.59999900590657
 30
0.0
 11
286.4996483603892
 21
53.60000103246449
 31
0.0
  0
LINE
  5
31F
330
1F
100
AcDbEntity
  8
0
100
AcDbLine
 10
259.7165359238563
 20
11.59999973606315
 30
0.0
 11
258.4496466497359
 21
11.59999973606315
 31
0.0
  0
LINE
  5
320
330
1F
100
AcDbEntity
  8
0
100
AcDbLine
 10
258.4496466497359
 20
11.59999973606315
 30
0.0
 11
258.4496466497359
 21
53.60000103246418
 31
0.0
  0
LINE
  5
321
330
1F
100
AcDbEntity
  8
0
100
AcDbLine
 10
260.4496469775615
 20
53.60000103246418
 30
0.0
 11
258.4496466497359
 21
53.60000103246418
 31
0.0
  0
LINE
  5
322
330
1F
100
AcDbEntity
  8
0
100
AcDbLine
 10
259.7165359238563
 20
11.59999973606315
 30
0.0
 11
260.4496469775615
 21
53.60000103246418
 31
0.0
  0
LINE
  5
323
330
1F
100
AcDbEntity
  8
0
100
AcDbLine
 10
344.4496495703635
 20
11.59999973606315
 30
0.0
 11
344.4496495703635
 21
53.60000103246418
 31
0.0
  0
LINE
  5
324
330
1F
100
AcDbEntity
  8
0
100
AcDbLine
 10
343.1827602962432
 20
11.59999973606315
 30
0.0
 11
344.4496495703635
 21
11.59999973606315
 31
0.0
  0
LINE
  5
325
330
1F
100
AcDbEntity
  8
0
100
AcDbLine
 10
343.1827602962432
 20
11.59999973606315
 30
0.0
 11
342.449649242538
 21
53.60000103246418
 31
0.0
  0
LINE
  5
326
330
1F
100
AcDbEntity
  8
0
100
AcDbLine
 10
342.449649242538
 20
53.60000103246418
 30
0.0
 11
344.4496495703635
 21
53.60000103246418
 31
0.0
  0
ARC
  5
327
330
1F
100
AcDbEntity
  8
0
100
AcDbCircle
 10
339.4496481100497
 20
11.59999995958057
 30
0.0
 40
5.0
100
AcDbArc
 50
270.0
 51
359.9999999999993
  0
LINE
  5
328
330
1F
100
AcDbEntity
  8
0
100
AcDbLine
 10
350.4496468285499
 20
2.600000007078023
 30
0.0
 11
350.4496468285499
 21
53.60000103246418
 31
0.0
  0
LINE
  5
329
330
1F
100
AcDbEntity
  8
0
100
AcDbLine
 10
350.4496468285499
 20
2.600000007078023
 30
0.0
 11
252.4496493915496
 21
2.600000007078023
 31
0.0
  0
LINE
  5
32A
330
1F
100
AcDbEntity
  8
0
100
AcDbLine
 10
252.4496493915496
 20
2.600000007078023
 30
0.0
 11
252.4496493915496
 21
53.60000103246418
 31
0.0
  0
ARC
  5
32B
330
1F
100
AcDbEntity
  8
0
100
AcDbCircle
 10
263.4496481100497
 20
11.59999995958057
 30
0.0
 40
5.0
100
AcDbArc
 50
180.0
 51
270.0000000000007
  0
LINE
  5
32C
330
1F
100
AcDbEntity
  8
0
100
AcDbLine
 10
263.449649331945
 20
6.599999847821863
 30
0.0
 11
339.4496468881545
 21
6.599999847821863
 31
0.0
  0
LINE
  5
32D
330
1F
100
AcDbEntity
  8
0
100
AcDbLine
 10
258.4496466497359
 20
53.60000103246418
 30
0.0
 11
252.4496493915496
 21
53.60000103246418
 31
0.0
  0
LINE
  5
32E
330
1F
100
AcDbEntity
  8
0
100
AcDbLine
 10
344.4496495703635
 20
53.60000103246418
 30
0.0
 11
350.4496468285499
 21
53.60000103246418
 31
0.0
  0
LINE
  5
32F
330
1F
100
AcDbEntity
  8
0
100
AcDbLine
 10
356.4496478120265
 20
53.60000103246418
 30
0.0
 11
356.4496478120265
 21
2.600000007078037
 31
0.0
  0
LINE
  5
330
330
1F
100
AcDbEntity
  8
0
100
AcDbLine
 10
356.4496478120265
 20
2.600000007078037
 30
0.0
 11
350.4496468285499
 21
2.600000007078023
 31
0.0
  0
LINE
  5
331
330
1F
100
AcDbEntity
  8
0
100
AcDbLine
 10
350.4496468285499
 20
53.60000103246418
 30
0.0
 11
356.4496478120265
 21
53.60000103246418
 31
0.0
  0
LINE
  5
332
330
1F
100
AcDbEntity
  8
0
100
AcDbLine
 10
246.449648408073
 20
2.600000007078037
 30
0.0
 11
252.4496493915496
 21
2.600000007078023
 31
0.0
  0
LINE
  5
333
330
1F
100
AcDbEntity
  8
0
100
AcDbLine
 10
246.449648408073
 20
53.60000103246418
 30
0.0
 11
246.449648408073
 21
2.600000007078037
 31
0.0
  0
LINE
  5
334
330
1F
100
AcDbEntity
  8
0
100
AcDbLine
 10
252.4496493915496
 20
53.60000103246418
 30
0.0
 11
246.449648408073
 21
53.60000103246418
 31
0.0
  0
LINE
  5
335
330
1F
100
AcDbEntity
  8
0
100
AcDbLine
 10
263.449649331945
 20
6.599999847821863
 30
0.0
 11
263.449649331945
 21
7.800567778758676
 31
0.0
  0
LWPOLYLINE
  5
336
330
1F
100
AcDbEntity
  8
0
100
AcDbPolyline
 90
        3
 70
     0
 43
0.0
 10
259.7165353830646
 20
11.59999995958061
 42
0.0043252621881982
 10
259.7159665520073
 20
11.53481837506776
 42
0.4142135589734114
 10
263.4496481100496
 20
7.800567899292835
  0
LINE
  5
33B
330
1F
100
AcDbEntity
  8
0
100
AcDbLine
 10
339.4496468881545
 20
6.599999847821863
 30
0.0
 11
339.4496468881545
 21
7.800567778758676
 31
0.0
  0
LWPOLYLINE
  5
33C
330
1F
100
AcDbEntity
  8
0
100
AcDbPolyline
 90
        3
 70
     0
 43
0.0
 10
339.4496481100498
 20
7.800567899292766
 42
0.4141689369402214
 10
343.183329668092
 20
11.53481837506776
 42
0.0043633507948457
 10
343.1827608370349
 20
11.59999995958066
  0
LINE
  5
341
330
1F
100
AcDbEntity
  8
0
100
AcDbLine
 10
263.449649331945
 20
7.800567778758676
 30
0.0
 11
339.4496468881545
 21
7.800567778758676
 31
0.0
  0
LINE
  5
342
330
1F
100
AcDbEntity
  8
0
100
AcDbLine
 10
246.9496494213519
 20
2.600000007078037
 30
0.0
 11
246.9496494213519
 21
1.599999959580586
 31
0.0
  0
LINE
  5
343
330
1F
100
AcDbEntity
  8
0
100
AcDbLine
 10
252.4496493915496
 20
2.600000007078023
 30
0.0
 11
252.4496493915496
 21
1.599999959580572
 31
0.0
  0
LINE
  5
344
330
1F
100
AcDbEntity
  8
0
100
AcDbLine
 10
246.9496494213519
 20
1.599999959580586
 30
0.0
 11
252.4496493915496
 21
1.599999959580572
 31
0.0
  0
LINE
  5
345
330
1F
100
AcDbEntity
  8
0
100
AcDbLine
 10
350.4496468285499
 20
2.600000007078023
 30
0.0
 11
350.4496468285499
 21
1.599999959580572
 31
0.0
  0
LINE
  5
346
330
1F
100
AcDbEntity
  8
0
100
AcDbLine
 10
350.4496468285499
 20
1.599999959580572
 30
0.0
 11
252.4496493915496
 21
1.599999959580572
 31
0.0
  0
LINE
  5
347
330
1F
100
AcDbEntity
  8
0
100
AcDbLine
 10
355.9496467987476
 20
2.600000007078037
 30
0.0
 11
355.9496467987476
 21
1.599999959580586
 31
0.0
  0
LINE
  5
348
330
1F
100
AcDbEntity
  8
0
100
AcDbLine
 10
355.9496467987476
 20
1.599999959580586
 30
0.0
 11
350.4496468285499
 21
1.599999959580572
 31
0.0
  0
LINE
  5
349
330
1F
100
AcDbEntity
  8
0
100
AcDbLine
 10
260.4496469775615
 20
53.60000103246418
 30
0.0
 11
260.4496469775615
 21
50.59999867808071
 31
0.0
  0
LINE
  5
34A
330
1F
100
AcDbEntity
  8
0
100
AcDbLine
 10
260.4496469775615
 20
50.59999867808071
 30
0.0
 11
342.449649242538
 21
50.59999867808071
 31
0.0
  0
LINE
  5
34B
330
1F
100
AcDbEntity
  8
0
100
AcDbLine
 10
342.449649242538
 20
53.60000103246418
 30
0.0
 11
342.449649242538
 21
50.59999867808071
 31
0.0
  0
CIRCLE
  5
34C
330
1F
100
AcDbEntity
  8
0
100
AcDbCircle
 10
301.4494974574339
 20
25.57071690557069
 30
0.0
 40
12.99937193944351
  0
CIRCLE
  5
34D
330
1F
100
AcDbEntity
  8
0
100
AcDbCircle
 10
301.4495142491104
 20
25.56700286340084
 30
0.0
 40
10.49952899541474
  0
LINE
  5
34E
330
1F
100
AcDbEntity
  8
0
100
AcDbLine
 10
341.7496485690055
 20
-0.0000000000000142
 30
0.0
 11
341.7496485690055
 21
1.599999959580586
 31
0.0
  0
LINE
  5
34F
330
1F
100
AcDbEntity
  8
0
100
AcDbLine
 10
338.4499527197369
 20
-0.0000000404194225
 30
0.0
 11
341.7496481100497
 21
-0.0000000404194225
 31
0.0
  0
LINE
  5
350
330
1F
100
AcDbEntity
  8
0
100
AcDbLine
 10
338.4499540606914
 20
-0.0000000000000284
 30
0.0
 11
338.4499540606914
 21
1.599999959580572
 31
0.0
  0
LINE
  5
351
330
1F
100
AcDbEntity
  8
0
100
AcDbLine
 10
264.4493421594081
 20
-0.0000000000000284
 30
0.0
 11
264.4493421594081
 21
1.599999959580572
 31
0.0
  0
LINE
  5
352
330
1F
100
AcDbEntity
  8
0
100
AcDbLine
 10
261.1496481100497
 20
-0.0000000404194225
 30
0.0
 11
264.4493435003625
 21
-0.0000000404194225
 31
0.0
  0
LINE
  5
353
330
1F
100
AcDbEntity
  8
0
100
AcDbLine
 10
261.149647651094
 20
-0.0000000000000142
 30
0.0
 11
261.149647651094
 21
1.599999959580586
 31
0.0
  0
LINE
  5
354
330
1F
100
AcDbEntity
  8
0
100
AcDbLine
 10
264.4493421594081
 20
-0.0000000000000284
 30
0.0
 11
338.4499540606914
 21
-0.0000000000000284
 31
0.0
  0
LINE
  5
355
330
1F
100
AcDbEntity
  8
0
100
AcDbLine
 10
323.4496479908404
 20
51.60000070463866
 30
0.0
 11
318.4496490339217
 21
51.60000070463866
 31
0.0
  0
LINE
  5
356
330
1F
100
AcDbEntity
  8
0
100
AcDbLine
 10
328.4496488104043
 20
51.60000070463866
 30
0.0
 11
323.4496479908404
 21
51.60000070463866
 31
0.0
  0
LINE
  5
357
330
1F
100
AcDbEntity
  8
0
100
AcDbLine
 10
348.9496475140033
 20
0.0000000000000142
 30
0.0
 11
348.9496475140033
 21
1.599999959580614
 31
0.0
  0
LINE
  5
358
330
1F
100
AcDbEntity
  8
0
100
AcDbLine
 10
341.7496485690055
 20
0.0
 30
0.0
 11
348.9496475140033
 21
0.0000000000000142
 31
0.0
  0
LINE
  5
359
330
1F
100
AcDbEntity
  8
0
100
AcDbLine
 10
253.9496487060962
 20
0.0000000000000142
 30
0.0
 11
253.9496487060962
 21
1.599999959580614
 31
0.0
  0
LINE
  5
35A
330
1F
100
AcDbEntity
  8
0
100
AcDbLine
 10
261.149647651094
 20
0.0
 30
0.0
 11
253.9496487060962
 21
0.0000000000000142
 31
0.0
  0
LINE
  5
35B
330
1F
100
AcDbEntity
  8
0
100
AcDbLine
 10
323.4496479908404
 20
53.20000171195716
 30
0.0
 11
326.6996489892182
 21
53.20000171195716
 31
0.0
  0
LINE
  5
35C
330
1F
100
AcDbEntity
  8
0
100
AcDbLine
 10
320.1996488551078
 20
53.20000171195716
 30
0.0
 11
323.4496479908404
 21
53.20000171195716
 31
0.0
  0
LINE
  5
35D
330
1F
100
AcDbEntity
  8
0
100
AcDbLine
 10
310.9496478045759
 20
53.60000103246426
 30
0.0
 11
291.9496484155235
 21
53.60000103246426
 31
0.0
  0
LINE
  5
35E
330
1F
100
AcDbEntity
  8
0
100
AcDbLine
 10
342.449649242538
 20
53.60000103246423
 30
0.0
 11
335.9496472457824
 21
53.60000103246423
 31
0.0
  0
LINE
  5
35F
330
1F
100
AcDbEntity
  8
0
100
AcDbLine
 10
260.4496469775615
 20
53.60000103246423
 30
0.0
 11
266.9496489743171
 21
53.60000103246423
 31
0.0
  0
LINE
  5
360
330
1F
100
AcDbEntity
  8
0
100
AcDbLine
 10
354.7496488372264
 20
0.0000000000000284
 30
0.0
 11
354.7496488372264
 21
1.599999959580629
 31
0.0
  0
LINE
  5
361
330
1F
100
AcDbEntity
  8
0
100
AcDbLine
 10
351.4499543289123
 20
0.0000000000000142
 30
0.0
 11
351.4499543289123
 21
1.599999959580614
 31
0.0
  0
LINE
  5
362
330
1F
100
AcDbEntity
  8
0
100
AcDbLine
 10
351.449952719737
 20
-0.0000000404193798
 30
0.0
 11
354.7496481100497
 21
-0.0000000404193656
 31
0.0
  0
LINE
  5
363
330
1F
100
AcDbEntity
  8
0
100
AcDbLine
 10
251.4493418911872
 20
0.0000000000000142
 30
0.0
 11
251.4493418911872
 21
1.599999959580614
 31
0.0
  0
LINE
  5
364
330
1F
100
AcDbEntity
  8
0
100
AcDbLine
 10
253.9496487060962
 20
0.0000000000000142
 30
0.0
 11
251.4493418911872
 21
0.0000000000000142
 31
0.0
  0
LINE
  5
365
330
1F
100
AcDbEntity
  8
0
100
AcDbLine
 10
348.9496475140033
 20
0.0000000000000142
 30
0.0
 11
351.4499543289123
 21
0.0000000000000142
 31
0.0
  0
LINE
  5
366
330
1F
100
AcDbEntity
  8
0
100
AcDbLine
 10
248.1496473828731
 20
0.0000000000000284
 30
0.0
 11
248.1496473828731
 21
1.599999959580629
 31
0.0
  0
LINE
  5
367
330
1F
100
AcDbEntity
  8
0
100
AcDbLine
 10
248.1496481100497
 20
-0.0000000404193656
 30
0.0
 11
251.4493435003625
 21
-0.0000000404193798
 31
0.0
  0
LINE
  5
368
330
1F
100
AcDbEntity
  8
0
100
AcDbLine
 10
328.4496488104043
 20
53.60000103246423
 30
0.0
 11
330.4996481219707
 21
53.60000103246423
 31
0.0
  0
LINE
  5
369
330
1F
100
AcDbEntity
  8
0
100
AcDbLine
 10
326.3996476361928
 20
53.60000103246423
 30
0.0
 11
328.4496488104043
 21
53.60000103246423
 31
0.0
  0
LINE
  5
36A
330
1F
100
AcDbEntity
  8
0
100
AcDbLine
 10
318.4496490339217
 20
53.60000103246423
 30
0.0
 11
320.4996483454881
 21
53.60000103246423
 31
0.0
  0
LINE
  5
36B
330
1F
100
AcDbEntity
  8
0
100
AcDbLine
 10
316.3996478597102
 20
53.60000103246423
 30
0.0
 11
318.4496490339217
 21
53.60000103246423
 31
0.0
  0
LINE
  5
36C
330
1F
100
AcDbEntity
  8
0
100
AcDbLine
 10
335.9496472457824
 20
53.60000103246435
 30
0.0
 11
330.4996481219707
 21
53.60000103246435
 31
0.0
  0
LINE
  5
36D
330
1F
100
AcDbEntity
  8
0
100
AcDbLine
 10
326.3996476361928
 20
53.60000103246435
 30
0.0
 11
324.4496481547532
 21
53.60000103246438
 31
0.0
  0
LINE
  5
36E
330
1F
100
AcDbEntity
  8
0
100
AcDbLine
 10
266.9496489743171
 20
53.60000103246435
 30
0.0
 11
278.4496480653463
 21
53.60000103246438
 31
0.0
  0
LINE
  5
36F
330
1F
100
AcDbEntity
  8
0
100
AcDbLine
 10
315.4496485421834
 20
52.59999900590643
 30
0.0
 11
311.9496479684887
 21
52.59999900590645
 31
0.0
  0
LINE
  5
370
330
1F
100
AcDbEntity
  8
0
100
AcDbLine
 10
316.3996478597102
 20
52.59999900590643
 30
0.0
 11
315.4496485421834
 21
52.59999900590643
 31
0.0
  0
LINE
  5
371
330
1F
100
AcDbEntity
  8
0
100
AcDbLine
 10
290.9496482516108
 20
52.59999900590645
 30
0.0
 11
283.9496480355439
 21
52.59999900590645
 31
0.0
  0
LINE
  5
372
330
1F
100
AcDbEntity
  8
0
100
AcDbLine
 10
282.3996478746114
 20
53.60000103246449
 30
0.0
 11
286.4996483603892
 21
53.60000103246449
 31
0.0
  0
LINE
  5
373
330
1F
100
AcDbEntity
  8
0
100
AcDbLine
 10
279.449648229259
 20
51.60000070463897
 30
0.0
 11
278.4496480653463
 21
51.60000070463897
 31
0.0
  0
LINE
  5
374
330
1F
100
AcDbEntity
  8
0
100
AcDbLine
 10
282.3996478746114
 20
51.60000070463897
 30
0.0
 11
279.449648229259
 21
51.60000070463897
 31
0.0
  0
LINE
  5
375
330
1F
100
AcDbEntity
  8
0
100
AcDbLine
 10
246.449648408073
 20
6.59999984782219
 30
0.0
 11
246.449648408073
 21
11.59999973606349
 31
0.0
  0
LINE
  5
376
330
1F
100
AcDbEntity
  8
0
100
AcDbLine
 10
356.4496478120265
 20
6.59999984782219
 30
0.0
 11
356.4496478120265
 21
11.59999973606349
 31
0.0
  0
LINE
  5
377
330
1F
100
AcDbEntity
  8
0
100
AcDbLine
 10
278.4496480653463
 20
53.20000171195747
 30
0.0
 11
282.3996478746114
 21
53.20000171195747
 31
0.0
  0
LINE
  5
378
330
1F
100
AcDbEntity
  8
0
100
AcDbLine
 10
356.4496478120265
 20
53.60000103246452
 30
0.0
 11
356.4496478120265
 21
11.59999973606349
 31
0.0
  0
LINE
  5
379
330
1F
100
AcDbEntity
  8
0
100
AcDbLine
 10
246.449648408073
 20
53.60000103246452
 30
0.0
 11
246.449648408073
 21
11.59999973606349
 31
0.0
  0
LINE
  5
37A
330
1F
100
AcDbEntity
  8
0
100
AcDbLine
 10
284.4496471861777
 20
241.9919202267889
 30
0.0
 11
284.4496471861777
 21
242.9919222533468
 31
0.0
  0
LINE
  5
37B
330
1F
100
AcDbEntity
  8
0
100
AcDbLine
 10
274.4496474096952
 20
242.9919222533468
 30
0.0
 11
274.4496474096952
 21
241.9919202267889
 31
0.0
  0
LINE
  5
37C
330
1F
100
AcDbEntity
  8
0
100
AcDbLine
 10
282.6996473649917
 20
240.3919192194704
 30
0.0
 11
282.6996473649917
 21
241.9919202267889
 31
0.0
  0
LINE
  5
37D
330
1F
100
AcDbEntity
  8
0
100
AcDbLine
 10
276.1996472308812
 20
241.9919202267889
 30
0.0
 11
276.1996472308812
 21
240.3919192194704
 31
0.0
  0
LINE
  5
37E
330
1F
100
AcDbEntity
  8
0
100
AcDbLine
 10
291.9496484155235
 20
242.9919222533468
 30
0.0
 11
291.9496484155235
 21
239.9919198989634
 31
0.0
  0
LINE
  5
37F
330
1F
100
AcDbEntity
  8
0
100
AcDbLine
 10
310.9496478045759
 20
239.9919198989634
 30
0.0
 11
310.9496478045759
 21
242.9919222533468
 31
0.0
  0
LINE
  5
380
330
1F
100
AcDbEntity
  8
0
100
AcDbLine
 10
335.9496472457824
 20
242.9919222533468
 30
0.0
 11
335.9496472457824
 21
239.9919198989634
 31
0.0
  0
LINE
  5
381
330
1F
100
AcDbEntity
  8
0
100
AcDbLine
 10
266.9496489743171
 20
239.9919198989634
 30
0.0
 11
266.9496489743171
 21
242.9919222533468
 31
0.0
  0
LINE
  5
382
330
1F
100
AcDbEntity
  8
0
100
AcDbLine
 10
276.4996485839067
 20
239.9919198989634
 30
0.0
 11
276.4996485839067
 21
240.3919192194704
 31
0.0
  0
LINE
  5
383
330
1F
100
AcDbEntity
  8
0
100
AcDbLine
 10
272.3996480981288
 20
242.9919222533468
 30
0.0
 11
272.3996480981288
 21
239.9919198989634
 31
0.0
  0
LINE
  5
384
330
1F
100
AcDbEntity
  8
0
100
AcDbLine
 10
286.4996483603892
 20
239.9919198989634
 30
0.0
 11
286.4996483603892
 21
242.9919222533468
 31
0.0
  0
LINE
  5
385
330
1F
100
AcDbEntity
  8
0
100
AcDbLine
 10
282.3996478746114
 20
240.3919192194704
 30
0.0
 11
282.3996478746114
 21
239.9919198989634
 31
0.0
  0
LINE
  5
386
330
1F
100
AcDbEntity
  8
0
100
AcDbLine
 10
278.4496480653463
 20
239.9919198989634
 30
0.0
 11
278.4496480653463
 21
240.3919192194704
 31
0.0
  0
LINE
  5
387
330
1F
100
AcDbEntity
  8
0
100
AcDbLine
 10
324.4496481547532
 20
242.9919222533468
 30
0.0
 11
324.4496481547532
 21
239.9919198989634
 31
0.0
  0
LINE
  5
388
330
1F
100
AcDbEntity
  8
0
100
AcDbLine
 10
290.9496482516108
 20
240.9919219255213
 30
0.0
 11
290.9496482516108
 21
242.9919222533468
 31
0.0
  0
LINE
  5
389
330
1F
100
AcDbEntity
  8
0
100
AcDbLine
 10
311.9496479684887
 20
242.9919222533468
 30
0.0
 11
311.9496479684887
 21
240.9919219255213
 31
0.0
  0
LINE
  5
38A
330
1F
100
AcDbEntity
  8
0
100
AcDbLine
 10
318.9496481845555
 20
240.9919219255213
 30
0.0
 11
318.9496481845555
 21
242.9919222533468
 31
0.0
  0
LINE
  5
38B
330
1F
100
AcDbEntity
  8
0
100
AcDbLine
 10
320.4996483454881
 20
239.9919198989634
 30
0.0
 11
320.4996483454881
 21
242.9919222533468
 31
0.0
  0
LINE
  5
38C
330
1F
100
AcDbEntity
  8
0
100
AcDbLine
 10
316.3996478597102
 20
240.9919219255213
 30
0.0
 11
316.3996478597102
 21
239.9919198989634
 31
0.0
  0
LINE
  5
38D
330
1F
100
AcDbEntity
  8
0
100
AcDbLine
 10
343.1827602962432
 20
281.9919211953644
 30
0.0
 11
344.4496495703635
 21
281.9919211953644
 31
0.0
  0
LINE
  5
38E
330
1F
100
AcDbEntity
  8
0
100
AcDbLine
 10
344.4496495703635
 20
281.9919211953644
 30
0.0
 11
344.4496495703635
 21
239.9919198989634
 31
0.0
  0
LINE
  5
38F
330
1F
100
AcDbEntity
  8
0
100
AcDbLine
 10
342.449649242538
 20
239.9919198989634
 30
0.0
 11
344.4496495703635
 21
239.9919198989634
 31
0.0
  0
LINE
  5
390
330
1F
100
AcDbEntity
  8
0
100
AcDbLine
 10
343.1827602962432
 20
281.9919211953644
 30
0.0
 11
342.449649242538
 21
239.9919198989634
 31
0.0
  0
LINE
  5
391
330
1F
100
AcDbEntity
  8
0
100
AcDbLine
 10
339.4496468881545
 20
286.9919210836057
 30
0.0
 11
339.4496468881545
 21
285.7913531526689
 31
0.0
  0
LINE
  5
392
330
1F
100
AcDbEntity
  8
0
100
AcDbLine
 10
263.449649331945
 20
285.7913531526689
 30
0.0
 11
339.4496468881545
 21
285.7913531526689
 31
0.0
  0
LINE
  5
393
330
1F
100
AcDbEntity
  8
0
100
AcDbLine
 10
263.449649331945
 20
286.9919210836057
 30
0.0
 11
263.449649331945
 21
285.7913531526689
 31
0.0
  0
LINE
  5
394
330
1F
100
AcDbEntity
  8
0
100
AcDbLine
 10
263.449649331945
 20
286.9919210836057
 30
0.0
 11
339.4496468881545
 21
286.9919210836057
 31
0.0
  0
ARC
  5
395
330
1F
100
AcDbEntity
  8
0
100
AcDbCircle
 10
339.4496481100497
 20
281.991920971847
 30
0.0
 40
5.0
100
AcDbArc
 50
0.0
 51
90.0
  0
LWPOLYLINE
  5
396
330
1F
100
AcDbEntity
  8
0
100
AcDbPolyline
 90
        3
 70
     0
 43
0.0
 10
343.1827608370348
 20
281.9919209718471
 42
0.0043252621881901
 10
343.1833296680921
 20
282.0571025563598
 42
0.4142135589734384
 10
339.4496481100497
 20
285.7913530321349
  0
LINE
  5
39B
330
1F
100
AcDbEntity
  8
0
100
AcDbLine
 10
258.4496466497359
 20
281.9919211953644
 30
0.0
 11
258.4496466497359
 21
239.9919198989634
 31
0.0
  0
LINE
  5
39C
330
1F
100
AcDbEntity
  8
0
100
AcDbLine
 10
259.7165359238563
 20
281.9919211953644
 30
0.0
 11
258.4496466497359
 21
281.9919211953644
 31
0.0
  0
LINE
  5
39D
330
1F
100
AcDbEntity
  8
0
100
AcDbLine
 10
259.7165359238563
 20
281.9919211953644
 30
0.0
 11
260.4496469775615
 21
239.9919198989634
 31
0.0
  0
LINE
  5
39E
330
1F
100
AcDbEntity
  8
0
100
AcDbLine
 10
260.4496469775615
 20
239.9919198989634
 30
0.0
 11
258.4496466497359
 21
239.9919198989634
 31
0.0
  0
ARC
  5
39F
330
1F
100
AcDbEntity
  8
0
100
AcDbCircle
 10
263.4496481100497
 20
281.991920971847
 30
0.0
 40
5.0
100
AcDbArc
 50
90.0
 51
180.0
  0
LWPOLYLINE
  5
3A0
330
1F
100
AcDbEntity
  8
0
100
AcDbPolyline
 90
        3
 70
     0
 43
0.0
 10
263.4496481100497
 20
285.7913530321349
 42
0.4141689369392125
 10
259.7159665520074
 20
282.0571025563598
 42
0.0043633507965921
 10
259.7165353830646
 20
281.991920971847
  0
LINE
  5
3A5
330
1F
100
AcDbEntity
  8
0
100
AcDbLine
 10
252.4496493915496
 20
290.9919209243495
 30
0.0
 11
252.4496493915496
 21
239.9919198989634
 31
0.0
  0
LINE
  5
3A6
330
1F
100
AcDbEntity
  8
0
100
AcDbLine
 10
350.4496468285499
 20
290.9919209243495
 30
0.0
 11
252.4496493915496
 21
290.9919209243495
 31
0.0
  0
LINE
  5
3A7
330
1F
100
AcDbEntity
  8
0
100
AcDbLine
 10
350.4496468285499
 20
290.9919209243495
 30
0.0
 11
350.4496468285499
 21
239.9919198989634
 31
0.0
  0
LINE
  5
3A8
330
1F
100
AcDbEntity
  8
0
100
AcDbLine
 10
258.4496466497359
 20
239.9919198989634
 30
0.0
 11
252.4496493915496
 21
239.9919198989634
 31
0.0
  0
LINE
  5
3A9
330
1F
100
AcDbEntity
  8
0
100
AcDbLine
 10
344.4496495703635
 20
239.9919198989634
 30
0.0
 11
350.4496468285499
 21
239.9919198989634
 31
0.0
  0
LINE
  5
3AA
330
1F
100
AcDbEntity
  8
0
100
AcDbLine
 10
356.4496478120265
 20
290.9919209243495
 30
0.0
 11
350.4496468285499
 21
290.9919209243495
 31
0.0
  0
LINE
  5
3AB
330
1F
100
AcDbEntity
  8
0
100
AcDbLine
 10
356.4496478120265
 20
239.9919198989634
 30
0.0
 11
356.4496478120265
 21
290.9919209243495
 31
0.0
  0
LINE
  5
3AC
330
1F
100
AcDbEntity
  8
0
100
AcDbLine
 10
350.4496468285499
 20
239.9919198989634
 30
0.0
 11
356.4496478120265
 21
239.9919198989634
 31
0.0
  0
LINE
  5
3AD
330
1F
100
AcDbEntity
  8
0
100
AcDbLine
 10
246.449648408073
 20
239.9919198989634
 30
0.0
 11
246.449648408073
 21
290.9919209243495
 31
0.0
  0
LINE
  5
3AE
330
1F
100
AcDbEntity
  8
0
100
AcDbLine
 10
246.449648408073
 20
290.9919209243495
 30
0.0
 11
252.4496493915496
 21
290.9919209243495
 31
0.0
  0
LINE
  5
3AF
330
1F
100
AcDbEntity
  8
0
100
AcDbLine
 10
252.4496493915496
 20
239.9919198989634
 30
0.0
 11
246.449648408073
 21
239.9919198989634
 31
0.0
  0
LINE
  5
3B0
330
1F
100
AcDbEntity
  8
0
100
AcDbLine
 10
252.4496493915496
 20
290.9919209243495
 30
0.0
 11
252.4496493915496
 21
291.991920971847
 31
0.0
  0
LINE
  5
3B1
330
1F
100
AcDbEntity
  8
0
100
AcDbLine
 10
246.9496494213519
 20
290.9919209243495
 30
0.0
 11
246.9496494213519
 21
291.991920971847
 31
0.0
  0
LINE
  5
3B2
330
1F
100
AcDbEntity
  8
0
100
AcDbLine
 10
246.9496494213519
 20
291.991920971847
 30
0.0
 11
252.4496493915496
 21
291.991920971847
 31
0.0
  0
LINE
  5
3B3
330
1F
100
AcDbEntity
  8
0
100
AcDbLine
 10
350.4496468285499
 20
290.9919209243495
 30
0.0
 11
350.4496468285499
 21
291.991920971847
 31
0.0
  0
LINE
  5
3B4
330
1F
100
AcDbEntity
  8
0
100
AcDbLine
 10
350.4496468285499
 20
291.991920971847
 30
0.0
 11
252.4496493915496
 21
291.991920971847
 31
0.0
  0
LINE
  5
3B5
330
1F
100
AcDbEntity
  8
0
100
AcDbLine
 10
355.9496467987476
 20
290.9919209243495
 30
0.0
 11
355.9496467987476
 21
291.991920971847
 31
0.0
  0
LINE
  5
3B6
330
1F
100
AcDbEntity
  8
0
100
AcDbLine
 10
355.9496467987476
 20
291.991920971847
 30
0.0
 11
350.4496468285499
 21
291.991920971847
 31
0.0
  0
CIRCLE
  5
3B7
330
1F
100
AcDbEntity
  8
0
100
AcDbCircle
 10
282.9494967843223
 20
267.9863040341914
 30
0.0
 40
12.99937248027545
  0
LINE
  5
3B8
330
1F
100
AcDbEntity
  8
0
100
AcDbLine
 10
342.449649242538
 20
239.9919198989634
 30
0.0
 11
342.449649242538
 21
242.9919222533468
 31
0.0
  0
LINE
  5
3B9
330
1F
100
AcDbEntity
  8
0
100
AcDbLine
 10
260.4496469775615
 20
242.9919222533468
 30
0.0
 11
342.449649242538
 21
242.9919222533468
 31
0.0
  0
LINE
  5
3BA
330
1F
100
AcDbEntity
  8
0
100
AcDbLine
 10
260.4496469775615
 20
239.9919198989634
 30
0.0
 11
260.4496469775615
 21
242.9919222533468
 31
0.0
  0
CIRCLE
  5
3BB
330
1F
100
AcDbEntity
  8
0
100
AcDbCircle
 10
319.9497994357772
 20
267.9863040341914
 30
0.0
 40
12.99937248027545
  0
CIRCLE
  5
3BC
330
1F
100
AcDbEntity
  8
0
100
AcDbCircle
 10
319.9495137021832
 20
267.9900181485693
 30
0.0
 40
10.49952946404365
  0
CIRCLE
  5
3BD
330
1F
100
AcDbEntity
  8
0
100
AcDbCircle
 10
282.9497825179163
 20
267.9900181485693
 30
0.0
 40
10.49952946404365
  0
LINE
  5
3BE
330
1F
100
AcDbEntity
  8
0
100
AcDbLine
 10
261.149647651094
 20
293.5919209314276
 30
0.0
 11
261.149647651094
 21
291.991920971847
 31
0.0
  0
LINE
  5
3BF
330
1F
100
AcDbEntity
  8
0
100
AcDbLine
 10
264.4493435003625
 20
293.5919209718469
 30
0.0
 11
261.1496481100497
 21
293.5919209718469
 31
0.0
  0
LINE
  5
3C0
330
1F
100
AcDbEntity
  8
0
100
AcDbLine
 10
264.4493421594081
 20
293.5919209314276
 30
0.0
 11
264.4493421594081
 21
291.991920971847
 31
0.0
  0
LINE
  5
3C1
330
1F
100
AcDbEntity
  8
0
100
AcDbLine
 10
264.4493421594081
 20
293.5919209314276
 30
0.0
 11
338.4499540606914
 21
293.5919209314276
 31
0.0
  0
LINE
  5
3C2
330
1F
100
AcDbEntity
  8
0
100
AcDbLine
 10
338.4499540606914
 20
293.5919209314276
 30
0.0
 11
338.4499540606914
 21
291.991920971847
 31
0.0
  0
LINE
  5
3C3
330
1F
100
AcDbEntity
  8
0
100
AcDbLine
 10
341.7496485690055
 20
293.5919209314276
 30
0.0
 11
341.7496485690055
 21
291.991920971847
 31
0.0
  0
LINE
  5
3C4
330
1F
100
AcDbEntity
  8
0
100
AcDbLine
 10
341.7496481100497
 20
293.5919209718469
 30
0.0
 11
338.4499527197369
 21
293.5919209718469
 31
0.0
  0
LINE
  5
3C5
330
1F
100
AcDbEntity
  8
0
100
AcDbLine
 10
274.4496474096952
 20
241.9919202267889
 30
0.0
 11
284.4496471861777
 21
241.9919202267889
 31
0.0
  0
LINE
  5
3C6
330
1F
100
AcDbEntity
  8
0
100
AcDbLine
 10
348.9496475140033
 20
293.5919209314276
 30
0.0
 11
348.9496475140033
 21
291.991920971847
 31
0.0
  0
LINE
  5
3C7
330
1F
100
AcDbEntity
  8
0
100
AcDbLine
 10
341.7496485690055
 20
293.5919209314276
 30
0.0
 11
348.9496475140033
 21
293.5919209314276
 31
0.0
  0
LINE
  5
3C8
330
1F
100
AcDbEntity
  8
0
100
AcDbLine
 10
253.9496487060962
 20
293.5919209314276
 30
0.0
 11
253.9496487060962
 21
291.991920971847
 31
0.0
  0
LINE
  5
3C9
330
1F
100
AcDbEntity
  8
0
100
AcDbLine
 10
261.149647651094
 20
293.5919209314276
 30
0.0
 11
253.9496487060962
 21
293.5919209314276
 31
0.0
  0
LINE
  5
3CA
330
1F
100
AcDbEntity
  8
0
100
AcDbLine
 10
279.449648229259
 20
240.3919192194704
 30
0.0
 11
276.1996472308812
 21
240.3919192194704
 31
0.0
  0
LINE
  5
3CB
330
1F
100
AcDbEntity
  8
0
100
AcDbLine
 10
282.6996473649917
 20
240.3919192194704
 30
0.0
 11
279.449648229259
 21
240.3919192194704
 31
0.0
  0
LINE
  5
3CC
330
1F
100
AcDbEntity
  8
0
100
AcDbLine
 10
310.9496478045759
 20
239.9919198989634
 30
0.0
 11
291.9496484155235
 21
239.9919198989634
 31
0.0
  0
LINE
  5
3CD
330
1F
100
AcDbEntity
  8
0
100
AcDbLine
 10
342.449649242538
 20
239.9919198989634
 30
0.0
 11
335.9496472457824
 21
239.9919198989634
 31
0.0
  0
LINE
  5
3CE
330
1F
100
AcDbEntity
  8
0
100
AcDbLine
 10
260.4496469775615
 20
239.9919198989634
 30
0.0
 11
266.9496489743171
 21
239.9919198989634
 31
0.0
  0
LINE
  5
3CF
330
1F
100
AcDbEntity
  8
0
100
AcDbLine
 10
351.4499543289123
 20
293.5919209314276
 30
0.0
 11
351.4499543289123
 21
291.991920971847
 31
0.0
  0
LINE
  5
3D0
330
1F
100
AcDbEntity
  8
0
100
AcDbLine
 10
348.9496475140033
 20
293.5919209314276
 30
0.0
 11
351.4499543289123
 21
293.5919209314276
 31
0.0
  0
LINE
  5
3D1
330
1F
100
AcDbEntity
  8
0
100
AcDbLine
 10
248.1496473828731
 20
293.5919209314276
 30
0.0
 11
248.1496473828731
 21
291.991920971847
 31
0.0
  0
LINE
  5
3D2
330
1F
100
AcDbEntity
  8
0
100
AcDbLine
 10
251.4493418911872
 20
293.5919209314276
 30
0.0
 11
251.4493418911872
 21
291.991920971847
 31
0.0
  0
LINE
  5
3D3
330
1F
100
AcDbEntity
  8
0
100
AcDbLine
 10
251.4493435003625
 20
293.5919209718469
 30
0.0
 11
248.1496481100497
 21
293.5919209718469
 31
0.0
  0
LINE
  5
3D4
330
1F
100
AcDbEntity
  8
0
100
AcDbLine
 10
354.7496488372264
 20
293.5919209314276
 30
0.0
 11
354.7496488372264
 21
291.991920971847
 31
0.0
  0
LINE
  5
3D5
330
1F
100
AcDbEntity
  8
0
100
AcDbLine
 10
354.7496481100497
 20
293.5919209718469
 30
0.0
 11
351.449952719737
 21
293.5919209718469
 31
0.0
  0
LINE
  5
3D6
330
1F
100
AcDbEntity
  8
0
100
AcDbLine
 10
253.9496487060962
 20
293.5919209314276
 30
0.0
 11
251.4493418911872
 21
293.5919209314276
 31
0.0
  0
LINE
  5
3D7
330
1F
100
AcDbEntity
  8
0
100
AcDbLine
 10
274.4496474096952
 20
239.9919198989634
 30
0.0
 11
272.3996480981288
 21
239.9919198989634
 31
0.0
  0
LINE
  5
3D8
330
1F
100
AcDbEntity
  8
0
100
AcDbLine
 10
276.4996485839067
 20
239.9919198989634
 30
0.0
 11
274.4496474096952
 21
239.9919198989634
 31
0.0
  0
LINE
  5
3D9
330
1F
100
AcDbEntity
  8
0
100
AcDbLine
 10
284.4496471861777
 20
239.9919198989634
 30
0.0
 11
282.3996478746114
 21
239.9919198989634
 31
0.0
  0
LINE
  5
3DA
330
1F
100
AcDbEntity
  8
0
100
AcDbLine
 10
286.4996483603892
 20
239.9919198989634
 30
0.0
 11
284.4496471861777
 21
239.9919198989634
 31
0.0
  0
LINE
  5
3DB
330
1F
100
AcDbEntity
  8
0
100
AcDbLine
 10
268.9496493021426
 20
239.9919198989634
 30
0.0
 11
266.9496489743171
 21
239.9919198989634
 31
0.0
  0
LINE
  5
3DC
330
1F
100
AcDbEntity
  8
0
100
AcDbLine
 10
278.4496480653463
 20
239.9919198989634
 30
0.0
 11
276.4996485839067
 21
239.9919198989634
 31
0.0
  0
LINE
  5
3DD
330
1F
100
AcDbEntity
  8
0
100
AcDbLine
 10
272.3996480981288
 20
239.9919198989634
 30
0.0
 11
268.9496493021426
 21
239.9919198989634
 31
0.0
  0
LINE
  5
3DE
330
1F
100
AcDbEntity
  8
0
100
AcDbLine
 10
333.9496469179568
 20
239.9919198989634
 30
0.0
 11
335.9496472457824
 21
239.9919198989634
 31
0.0
  0
LINE
  5
3DF
330
1F
100
AcDbEntity
  8
0
100
AcDbLine
 10
324.4496481547532
 20
239.9919198989634
 30
0.0
 11
333.9496469179568
 21
239.9919198989634
 31
0.0
  0
LINE
  5
3E0
330
1F
100
AcDbEntity
  8
0
100
AcDbLine
 10
287.4496476779161
 20
240.9919219255213
 30
0.0
 11
290.9496482516108
 21
240.9919219255213
 31
0.0
  0
LINE
  5
3E1
330
1F
100
AcDbEntity
  8
0
100
AcDbLine
 10
286.4996483603892
 20
240.9919219255213
 30
0.0
 11
287.4496476779161
 21
240.9919219255213
 31
0.0
  0
LINE
  5
3E2
330
1F
100
AcDbEntity
  8
0
100
AcDbLine
 10
311.9496479684887
 20
240.9919219255213
 30
0.0
 11
318.9496481845555
 21
240.9919219255213
 31
0.0
  0
LINE
  5
3E3
330
1F
100
AcDbEntity
  8
0
100
AcDbLine
 10
320.4996483454881
 20
239.9919198989634
 30
0.0
 11
316.3996478597102
 21
239.9919198989634
 31
0.0
  0
LINE
  5
3E4
330
1F
100
AcDbEntity
  8
0
100
AcDbLine
 10
320.4996483454881
 20
241.9919202267889
 30
0.0
 11
324.4496481547532
 21
241.9919202267889
 31
0.0
  0
LINE
  5
3E5
330
1F
100
AcDbEntity
  8
0
100
AcDbLine
 10
356.4496478120265
 20
286.9919210836057
 30
0.0
 11
356.4496478120265
 21
281.9919211953644
 31
0.0
  0
LINE
  5
3E6
330
1F
100
AcDbEntity
  8
0
100
AcDbLine
 10
246.449648408073
 20
286.9919210836057
 30
0.0
 11
246.449648408073
 21
281.9919211953644
 31
0.0
  0
LINE
  5
3E7
330
1F
100
AcDbEntity
  8
0
100
AcDbLine
 10
324.4496481547532
 20
240.3919192194704
 30
0.0
 11
320.4996483454881
 21
240.3919192194704
 31
0.0
  0
LINE
  5
3E8
330
1F
100
AcDbEntity
  8
0
100
AcDbLine
 10
246.449648408073
 20
239.9919198989634
 30
0.0
 11
246.449648408073
 21
281.9919211953644
 31
0.0
  0
LINE
  5
3E9
330
1F
100
AcDbEntity
  8
0
100
AcDbLine
 10
356.4496478120265
 20
239.9919198989634
 30
0.0
 11
356.4496478120265
 21
281.9919211953644
 31
0.0
  0
LINE
  5
3EA
330
1F
100
AcDbEntity
  8
0
100
AcDbLine
 10
4.000000655651384
 20
106.6266770729838
 30
0.0
 11
2.000000327825838
 21
106.6266770729838
 31
0.0
  0
LINE
  5
3EB
330
1F
100
AcDbEntity
  8
0
100
AcDbLine
 10
4.000000655651384
 20
105.0911459395705
 30
0.0
 11
4.000000655651384
 21
106.6266770729838
 31
0.0
  0
LINE
  5
3EC
330
1F
100
AcDbEntity
  8
0
100
AcDbLine
 10
2.500001341104799
 20
103.5911428997336
 30
0.0
 11
4.000000655651384
 21
105.0911459395705
 31
0.0
  0
LINE
  5
3ED
330
1F
100
AcDbEntity
  8
0
100
AcDbLine
 10
2.500001341104799
 20
98.62667948697188
 30
0.0
 11
2.500001341104799
 21
103.5911428997336
 31
0.0
  0
ARC
  5
3EE
330
1F
100
AcDbEntity
  8
0
100
AcDbCircle
 10
5.999999701977089
 20
98.62667820547202
 30
0.0
 40
3.500000000000014
100
AcDbArc
 50
180.0
 51
270.0000000000012
  0
LINE
  5
3EF
330
1F
100
AcDbEntity
  8
0
100
AcDbLine
 10
10.96446439623863
 20
95.12667984459975
 30
0.0
 11
6.000000983476937
 21
95.12667984459975
 31
0.0
  0
LINE
  5
3F0
330
1F
100
AcDbEntity
  8
0
100
AcDbLine
 10
12.46446743607552
 20
96.62667915914633
 30
0.0
 11
10.96446439623863
 21
95.12667984459975
 31
0.0
  0
LINE
  5
3F1
330
1F
100
AcDbEntity
  8
0
100
AcDbLine
 10
13.99999856948883
 20
96.62667915914633
 30
0.0
 11
12.46446743607552
 21
96.62667915914633
 31
0.0
  0
LINE
  5
3F2
330
1F
100
AcDbEntity
  8
0
100
AcDbLine
 10
13.99999856948883
 20
94.62667883132079
 30
0.0
 11
13.99999856948883
 21
96.62667915914633
 31
0.0
  0
LINE
  5
3F3
330
1F
100
AcDbEntity
  8
0
100
AcDbLine
 10
13.99999856948883
 20
94.62667883132079
 30
0.0
 11
11.99999824166328
 21
92.62667850349524
 31
0.0
  0
LINE
  5
3F4
330
1F
100
AcDbEntity
  8
0
100
AcDbLine
 10
11.99999824166328
 20
92.62667850349524
 30
0.0
 11
6.000000983476937
 21
92.62667850349524
 31
0.0
  0
ARC
  5
3F5
330
1F
100
AcDbEntity
  8
0
100
AcDbCircle
 10
5.999999701977075
 20
98.62667820547202
 30
0.0
 40
6.0
100
AcDbArc
 50
180.0
 51
270.0000000000012
  0
LINE
  5
3F6
330
1F
100
AcDbEntity
  8
0
100
AcDbLine
 10
0.0000000000002913
 20
98.62667948697188
 30
0.0
 11
0.0000000000002913
 21
104.6266767451582
 31
0.0
  0
LINE
  5
3F7
330
1F
100
AcDbEntity
  8
0
100
AcDbLine
 10
2.000000327825838
 20
106.6266770729838
 30
0.0
 11
0.0000000000002913
 21
104.6266767451582
 31
0.0
  0
LINE
  5
3F8
330
1F
100
AcDbEntity
  8
0
100
AcDbLine
 10
0.0000000000002913
 20
196.6266769239721
 30
0.0
 11
0.0000000000002913
 21
190.6266796657858
 31
0.0
  0
ARC
  5
3F9
330
1F
100
AcDbEntity
  8
0
100
AcDbCircle
 10
5.999999701977075
 20
196.626678205472
 30
0.0
 40
6.0
100
AcDbArc
 50
90.0
 51
179.9999999999997
  0
LINE
  5
3FA
330
1F
100
AcDbEntity
  8
0
100
AcDbLine
 10
11.99999824166328
 20
202.6266779074488
 30
0.0
 11
6.000000983476937
 21
202.6266779074488
 31
0.0
  0
LINE
  5
3FB
330
1F
100
AcDbEntity
  8
0
100
AcDbLine
 10
13.99999856948883
 20
200.6266775796232
 30
0.0
 11
11.99999824166328
 21
202.6266779074488
 31
0.0
  0
LINE
  5
3FC
330
1F
100
AcDbEntity
  8
0
100
AcDbLine
 10
13.99999856948883
 20
200.6266775796232
 30
0.0
 11
13.99999856948883
 21
198.6266772517977
 31
0.0
  0
LINE
  5
3FD
330
1F
100
AcDbEntity
  8
0
100
AcDbLine
 10
13.99999856948883
 20
198.6266772517977
 30
0.0
 11
12.46446743607552
 21
198.6266772517977
 31
0.0
  0
LINE
  5
3FE
330
1F
100
AcDbEntity
  8
0
100
AcDbLine
 10
12.46446743607552
 20
198.6266772517977
 30
0.0
 11
10.96446439623863
 21
200.1266765663443
 31
0.0
  0
LINE
  5
3FF
330
1F
100
AcDbEntity
  8
0
100
AcDbLine
 10
10.96446439623863
 20
200.1266765663443
 30
0.0
 11
6.000000983476937
 21
200.1266765663443
 31
0.0
  0
ARC
  5
400
330
1F
100
AcDbEntity
  8
0
100
AcDbCircle
 10
5.999999701977089
 20
196.626678205472
 30
0.0
 40
3.500000000000014
100
AcDbArc
 50
90.0
 51
179.9999999999995
  0
LINE
  5
401
330
1F
100
AcDbEntity
  8
0
100
AcDbLine
 10
2.500001341104799
 20
196.6266769239721
 30
0.0
 11
2.500001341104799
 21
191.6622135112104
 31
0.0
  0
LINE
  5
402
330
1F
100
AcDbEntity
  8
0
100
AcDbLine
 10
2.500001341104799
 20
191.6622135112104
 30
0.0
 11
4.000000655651384
 21
190.1622104713736
 31
0.0
  0
LINE
  5
403
330
1F
100
AcDbEntity
  8
0
100
AcDbLine
 10
4.000000655651384
 20
190.1622104713736
 30
0.0
 11
4.000000655651384
 21
188.6266793379602
 31
0.0
  0
LINE
  5
404
330
1F
100
AcDbEntity
  8
0
100
AcDbLine
 10
4.000000655651384
 20
188.6266793379602
 30
0.0
 11
2.000000327825838
 21
188.6266793379602
 31
0.0
  0
LINE
  5
405
330
1F
100
AcDbEntity
  8
0
100
AcDbLine
 10
2.000000327825838
 20
188.6266793379602
 30
0.0
 11
0.0000000000002913
 21
190.6266796657858
 31
0.0
  0
LWPOLYLINE
  5
406
330
1F
100
AcDbEntity
  8
0
100
AcDbPolyline
 90
       56
 70
     0
 43
0.0
 10
1.283843070268638
 20
166.1266784438906
 10
1.285322010517127
 20
167.6085672596512
 10
1.289736479520805
 20
169.071136719924
 10
1.297038048505797
 20
170.4953207889614
 10
1.307118684053435
 20
171.862552619916
 10
1.319859176874182
 20
173.1550085613547
 10
1.335084438324003
 20
174.3558409879027
 10
1.352600753307378
 20
175.4493925044356
 10
1.372177153825803
 20
176.4214082876263
 10
1.393564045429279
 20
177.2592148998795
 10
1.416474580764834
 20
177.9518935153303
 10
1.440614461898875
 20
178.4904121676502
 10
1.465667039156045
 20
178.8677524099169
 10
1.491308212280366
 20
179.0789912710009
 10
1.517202705144982
 20
179.1213776240168
 10
1.54301151633274
 20
178.9943564007101
 10
1.568399369716765
 20
178.6995872179089
 10
1.593038439750806
 20
178.2409108499108
 10
1.616600900888585
 20
177.6243063876448
 10
1.63878500461594
 20
176.8578130075751
 10
1.659300178289577
 20
175.951421938282
 10
1.677874475717715
 20
174.9169516632376
 10
1.694273203611552
 20
173.767885870677
 10
1.708280295133775
 20
172.5192058155356
 10
1.719709485769457
 20
171.1871891537724
 10
1.728415489196969
 20
169.7892013261137
 10
1.734282821417047
 20
168.3434664526997
 10
1.737233251333429
 20
166.8688326397953
 10
1.737233251333429
 20
165.3845242479859
 10
1.734282821417047
 20
163.9098904350815
 10
1.728415489196969
 20
162.4641546303449
 10
1.719709485769457
 20
161.0661668026862
 10
1.708280295133775
 20
159.734150140923
 10
1.694273203611552
 20
158.4854700857816
 10
1.677874475717715
 20
157.336404293221
 10
1.659300178289577
 20
156.3019340181766
 10
1.63878500461594
 20
155.3955434145448
 10
1.616600900888585
 20
154.6290500344751
 10
1.593038439750806
 20
154.0124460378704
 10
1.568399369716765
 20
153.553769204211
 10
1.54301151633274
 20
153.2589995557485
 10
1.517202705144982
 20
153.1319797294257
 10
1.491308212280366
 20
153.1743656167803
 10
1.465667039156045
 20
153.3856049435256
 10
1.440614461898875
 20
153.7629433231471
 10
1.416474580764834
 20
154.3014624411283
 10
1.393564045429279
 20
154.9941405909179
 10
1.372177153825803
 20
155.8319486001549
 10
1.352600753307378
 20
156.8039643833456
 10
1.335084438324003
 20
157.8975158998785
 10
1.319859176874182
 20
159.098347395104
 10
1.307118684053435
 20
160.3908042678652
 10
1.297038048505797
 20
161.7580360988198
 10
1.289736479520805
 20
163.1822201678572
 10
1.285322010517127
 20
164.64478962813
 10
1.283843070268638
 20
166.1266784438906
  0
LWPOLYLINE
  5
440
330
1F
100
AcDbEntity
  8
0
100
AcDbPolyline
 90
       56
 70
     0
 43
0.0
 10
1.283843070268638
 20
129.1266779670534
 10
1.285322010517127
 20
127.6447891512928
 10
1.289736479520805
 20
126.18221969102
 10
1.297038048505797
 20
124.7580356219826
 10
1.307118684053435
 20
123.390803791028
 10
1.319859176874182
 20
122.0983478495894
 10
1.335084438324003
 20
120.8975154230414
 10
1.352600753307378
 20
119.8039639065085
 10
1.372177153825803
 20
118.8319481233177
 10
1.393564045429279
 20
117.9941415110646
 10
1.416474580764834
 20
117.3014628956137
 10
1.440614461898875
 20
116.7629442432938
 10
1.465667039156045
 20
116.3856040010271
 10
1.491308212280366
 20
116.1743651399431
 10
1.517202705144982
 20
116.1319787869272
 10
1.54301151633274
 20
116.2590000102339
 10
1.568399369716765
 20
116.5537691930352
 10
1.593038439750806
 20
117.0124455610333
 10
1.616600900888585
 20
117.6290500232992
 10
1.63878500461594
 20
118.395543403369
 10
1.659300178289577
 20
119.301934472662
 10
1.677874475717715
 20
120.3364047477064
 10
1.694273203611552
 20
121.485470540267
 10
1.708280295133775
 20
122.7341505954085
 10
1.719709485769457
 20
124.0661672571717
 10
1.728415489196969
 20
125.4641550848303
 10
1.734282821417047
 20
126.9098899582443
 10
1.737233251333429
 20
128.3845237711487
 10
1.737233251333429
 20
129.8688321629582
 10
1.734282821417047
 20
131.3434659758625
 10
1.728415489196969
 20
132.7892017805991
 10
1.719709485769457
 20
134.1871896082578
 10
1.708280295133775
 20
135.519206270021
 10
1.694273203611552
 20
136.7678863251624
 10
1.677874475717715
 20
137.916952117723
 10
1.659300178289577
 20
138.9514223927675
 10
1.63878500461594
 20
139.8578129963992
 10
1.616600900888585
 20
140.6243063764689
 10
1.593038439750806
 20
141.2409103730736
 10
1.568399369716765
 20
141.699587206733
 10
1.54301151633274
 20
141.9943568551955
 10
1.517202705144982
 20
142.1213766815183
 10
1.491308212280366
 20
142.0789907941637
 10
1.465667039156045
 20
141.8677514674185
 10
1.440614461898875
 20
141.490413087797
 10
1.416474580764834
 20
140.9518939698158
 10
1.393564045429279
 20
140.2592158200262
 10
1.372177153825803
 20
139.4214078107891
 10
1.352600753307378
 20
138.4493920275984
 10
1.335084438324003
 20
137.3558405110655
 10
1.319859176874182
 20
136.1550090158401
 10
1.307118684053435
 20
134.8625521430788
 10
1.297038048505797
 20
133.4953203121243
 10
1.289736479520805
 20
132.0711362430868
 10
1.285322010517127
 20
130.6085667828141
 10
1.283843070268638
 20
129.1266779670534
  0
LINE
  5
47A
330
1F
100
AcDbEntity
  8
0
100
AcDbLine
 10
1.947633922100337
 20
106.6266770729838
 30
0.0
 11
2.000000327825838
 21
106.6266770729838
 31
0.0
  0
LWPOLYLINE
  5
47B
330
1F
100
AcDbEntity
  8
0
100
AcDbPolyline
 90
       12
 70
     0
 43
0.0
 10
1.200567641688949
 20
109.626678205472
 10
1.219658885784293
 20
106.9865666569892
 10
1.241756229781793
 20
106.1551447729118
 10
1.253888586122826
 20
105.955329085491
 10
1.259892371564166
 20
105.9080997305424
 10
1.261373049377047
 20
105.9014210168912
 10
1.262843415250273
 20
105.8967086485979
 10
1.263574413550357
 20
105.8950754922593
 10
1.264302459417714
 20
105.8939164783625
 10
1.265027435087833
 20
105.8932255727489
 10
1.265749226201855
 20
105.8929966474297
 42
0.2020114913090737
 10
1.2668869749917
 20
105.893565478487
  0
LINE
  5
489
330
1F
100
AcDbEntity
  8
0
100
AcDbLine
 10
1.200567930936785
 20
185.6266769835768
 30
0.0
 11
1.200567930936785
 21
109.6266794273672
 31
0.0
  0
LWPOLYLINE
  5
48A
330
1F
100
AcDbEntity
  8
0
100
AcDbPolyline
 90
       12
 70
     0
 43
0.0
 10
1.266886974991601
 20
189.3597909324573
 42
0.2020114913084749
 10
1.265749226201855
 20
189.3603597635144
 10
1.265027435087833
 20
189.3601308381952
 10
1.264302459417714
 20
189.3594399325817
 10
1.263574413550357
 20
189.3582809186849
 10
1.262843415250273
 20
189.3566477623462
 10
1.261373049377047
 20
189.351935394053
 10
1.259892371564166
 20
189.3452566804017
 10
1.253888586122826
 20
189.2980273254531
 10
1.241756229781793
 20
189.0982116380324
 10
1.219658885784293
 20
188.2667897539549
 10
1.200567641688949
 20
185.626678205472
  0
LINE
  5
498
330
1F
100
AcDbEntity
  8
0
100
AcDbLine
 10
1.947633922100337
 20
188.6266793379602
 30
0.0
 11
2.000000327825838
 21
188.6266793379602
 31
0.0
  0
LINE
  5
499
330
1F
100
AcDbEntity
  8
0
100
AcDbLine
 10
1.947633922100337
 20
188.6266793379602
 30
0.0
 11
1.947633922100337
 21
106.6266770729838
 31
0.0
  0
CIRCLE
  5
49A
330
1F
100
AcDbEntity
  8
0
100
AcDbCircle
 10
22.49999970197708
 20
147.626678205472
 30
0.0
 40
9.5
  0
ARC
  5
49B
330
1F
100
AcDbEntity
  8
0
100
AcDbCircle
 10
22.49999970197708
 20
149.376678205472
 30
0.0
 40
2.750000000000014
100
AcDbArc
 50
0.0
 51
179.9999999999994
  0
LINE
  5
49C
330
1F
100
AcDbEntity
  8
0
100
AcDbLine
 10
19.74999904632599
 20
149.3766782594887
 30
0.0
 11
19.74999904632599
 21
145.8766781514553
 31
0.0
  0
ARC
  5
49D
330
1F
100
AcDbEntity
  8
0
100
AcDbCircle
 10
22.49999970197708
 20
145.876678205472
 30
0.0
 40
2.750000000000014
100
AcDbArc
 50
180.0
 51
0.0000000000005922
  0
LINE
  5
49E
330
1F
100
AcDbEntity
  8
0
100
AcDbLine
 10
25.24999901652367
 20
145.8766781514553
 30
0.0
 11
25.24999901652367
 21
149.3766782594887
 31
0.0
  0
LWPOLYLINE
  5
49F
330
1F
100
AcDbEntity
  8
0
100
AcDbPolyline
 90
       56
 70
     0
 43
0.0
 10
73.49999994039536
 20
93.91112879608252
 10
72.01811112463474
 20
93.91260773633101
 10
70.55554166436198
 20
93.91702593062499
 10
69.13135759532454
 20
93.92432377431967
 10
67.76412576437
 20
93.93440813515761
 10
66.47166889160874
 20
93.94714490268805
 10
65.27083739638331
 20
93.96237388942816
 10
64.17728587985042
 20
93.97989020441153
 10
63.20527009665971
 20
93.99946660492995
 10
62.36746208742266
 20
94.02084977124312
 10
61.6747839376331
 20
94.04376030657866
 10
61.13626481965191
 20
94.0679001877127
 10
60.75892644003041
 20
94.09295276496985
 10
60.54768711328516
 20
94.11859393809416
 10
60.50530122593056
 20
94.14448843095877
 10
60.63232105225335
 20
94.17030096743682
 10
60.9270907007159
 20
94.19568882082083
 10
61.38576753437533
 20
94.22032416556456
 10
62.00237153098001
 20
94.24389035199263
 10
62.76886491104975
 20
94.26607073042967
 10
63.6752555146815
 20
94.2865859041033
 10
64.70972578972595
 20
94.30516392682173
 10
65.85879158228653
 20
94.32156265471556
 10
67.10747163742798
 20
94.33556602094748
 10
68.4394882991912
 20
94.34699521158316
 10
69.83747612684985
 20
94.35570121501067
 10
71.28321193158644
 20
94.36156854723075
 10
72.7578457444908
 20
94.36452270243743
 10
74.24215413630026
 20
94.36452270243743
 10
75.71678794920462
 20
94.36156854723075
 10
77.16252282261866
 20
94.35570121501067
 10
78.56051065027731
 20
94.34699521158316
 10
79.8925273120405
 20
94.33556602094748
 10
81.14120736718192
 20
94.32156265471556
 10
82.2902731597425
 20
94.30516392682173
 10
83.32474343478694
 20
94.2865859041033
 10
84.23113450407993
 20
94.26607073042967
 10
84.99762788414967
 20
94.24389035199263
 10
85.61423234641563
 20
94.22032416556456
 10
86.07290871441376
 20
94.19568882082083
 10
86.36767789721497
 20
94.17030096743682
 10
86.49469912052163
 20
94.14448843095877
 10
86.4523127675057
 20
94.11859393809416
 10
86.24107390642172
 20
94.09295276496985
 10
85.86373366415506
 20
94.0679001877127
 10
85.32521501183516
 20
94.04376030657866
 10
84.6325363963843
 20
94.02084977124312
 10
83.7947297841311
 20
93.99946660492995
 10
82.82271400094035
 20
93.97989020441153
 10
81.72916248440745
 20
93.96237388942816
 10
80.52833005785945
 20
93.94714490268805
 10
79.23587411642077
 20
93.93440813515761
 10
77.86864228546622
 20
93.92432377431967
 10
76.44445821642879
 20
93.91702593062499
 10
74.98188875615597
 20
93.91260773633101
 10
73.49999994039536
 20
93.91112879608252
  0
LINE
  5
4D9
330
1F
100
AcDbEntity
  8
0
100
AcDbLine
 10
13.99999856948883
 20
94.62667883132079
 30
0.0
 11
13.9999985694888
 21
94.57431242559531
 31
0.0
  0
LINE
  5
4DA
330
1F
100
AcDbEntity
  8
0
100
AcDbLine
 10
96.00000083446528
 20
94.57431242559531
 30
0.0
 11
13.99999856948881
 21
94.57431242559531
 31
0.0
  0
LINE
  5
4DB
330
1F
100
AcDbEntity
  8
0
100
AcDbLine
 10
96.00000083446531
 20
94.62667883132079
 30
0.0
 11
96.00000083446528
 21
94.57431242559531
 31
0.0
  0
LWPOLYLINE
  5
4DC
330
1F
100
AcDbEntity
  8
0
100
AcDbPolyline
 90
       12
 70
     0
 43
0.0
 10
92.99999970197678
 20
93.8272461451842
 10
95.64011125045971
 20
93.84633738927955
 10
96.47153313453715
 20
93.86843473327706
 10
96.6713488219578
 20
93.88056708961807
 10
96.71857817690645
 20
93.88657087505939
 10
96.72525689055767
 20
93.88805155287228
 10
96.72996925885097
 20
93.8895219187455
 10
96.7316024151896
 20
93.8902529170456
 10
96.73276142908638
 20
93.89098096291296
 10
96.73345233469998
 20
93.89170593858306
 10
96.73368126001915
 20
93.89242772969709
 42
0.2020114913055137
 10
96.73311242896199
 20
93.89356547848686
  0
LINE
  5
4EA
330
1F
100
AcDbEntity
  8
0
100
AcDbLine
 10
92.99999848008153
 20
93.82724643443206
 30
0.0
 11
17.00000092387197
 21
93.82724643443206
 31
0.0
  0
LWPOLYLINE
  5
4EB
330
1F
100
AcDbEntity
  8
0
100
AcDbPolyline
 90
       12
 70
     0
 43
0.0
 10
13.26688697499166
 20
93.89356547848688
 42
0.2020114913015893
 10
13.26631814393443
 20
93.89242772969709
 10
13.26654706925359
 20
93.89170593858306
 10
13.2672379748672
 20
93.89098096291296
 10
13.268396988764
 20
93.8902529170456
 10
13.2700301451026
 20
93.8895219187455
 10
13.27474251339591
 20
93.88805155287228
 10
13.28142122704712
 20
93.88657087505939
 10
13.32865058199578
 20
93.88056708961807
 10
13.52846626941646
 20
93.86843473327706
 10
14.35988815349389
 20
93.84633738927955
 10
16.9999997019768
 20
93.8272461451842
  0
LWPOLYLINE
  5
4F9
330
1F
100
AcDbEntity
  8
0
100
AcDbPolyline
 90
       56
 70
     0
 43
0.0
 10
36.4999994635582
 20
93.91112879608252
 10
37.98188827931882
 20
93.91260773633101
 10
39.44445773959161
 20
93.91702593062499
 10
40.86864180862904
 20
93.92432377431967
 10
42.23587363958361
 20
93.93440813515761
 10
43.52833051234486
 20
93.94714490268805
 10
44.72916200757029
 20
93.96237388942816
 10
45.8227135241032
 20
93.97989020441153
 10
46.79472930729394
 20
93.99946660492995
 10
47.63253731653099
 20
94.02084977124312
 10
48.32521546632058
 20
94.04376030657866
 10
48.86373458430177
 20
94.0679001877127
 10
49.24107296392329
 20
94.09295276496985
 10
49.45231229066858
 20
94.11859393809416
 10
49.49469817802321
 20
94.14448843095877
 10
49.36767835170041
 20
94.17030096743682
 10
49.07290870323789
 20
94.19568882082083
 10
48.6142318695785
 20
94.22032416556456
 10
47.99762787297382
 20
94.24389035199263
 10
47.2311344929041
 20
94.26607073042967
 10
46.32474388927238
 20
94.2865859041033
 10
45.29027361422794
 20
94.30516392682173
 10
44.14120782166737
 20
94.32156265471556
 10
42.89252776652592
 20
94.33556602094748
 10
41.56051110476275
 20
94.34699521158316
 10
40.16252327710409
 20
94.35570121501067
 10
38.71678747236748
 20
94.36156854723075
 10
37.24215365946312
 20
94.36452270243743
 10
35.75784526765366
 20
94.36452270243743
 10
34.2832114547493
 20
94.36156854723075
 10
32.83747658133526
 20
94.35570121501067
 10
31.43948875367659
 20
94.34699521158316
 10
30.1074720919134
 20
94.33556602094748
 10
28.85879203677194
 20
94.32156265471556
 10
27.70972624421136
 20
94.30516392682173
 10
26.67525596916692
 20
94.2865859041033
 10
25.76886489987388
 20
94.26607073042967
 10
25.00237151980414
 20
94.24389035199263
 10
24.38576705753817
 20
94.22032416556456
 10
23.92709068954003
 20
94.19568882082083
 10
23.63232150673877
 20
94.17030096743682
 10
23.50530028343211
 20
94.14448843095877
 10
23.547686636448
 20
94.11859393809416
 10
23.75892549753197
 20
94.09295276496985
 10
24.13626573979861
 20
94.0679001877127
 10
24.6747843921185
 20
94.04376030657866
 10
25.36746300756936
 20
94.02084977124312
 10
26.20526961982254
 20
93.99946660492995
 10
27.17728540301326
 20
93.97989020441153
 10
28.27083691954615
 20
93.96237388942816
 10
29.47166934609415
 20
93.94714490268805
 10
30.76412528753283
 20
93.93440813515761
 10
32.13135711848737
 20
93.92432377431967
 10
33.5555411875248
 20
93.91702593062499
 10
35.01811064779759
 20
93.91260773633101
 10
36.4999994635582
 20
93.91112879608252
  0
LWPOLYLINE
  5
533
330
1F
100
AcDbEntity
  8
0
100
AcDbPolyline
 90
       12
 70
     0
 43
0.0
 10
16.99999970197678
 20
201.4261102657598
 10
14.35988815349388
 20
201.4070190216644
 10
13.52846626941646
 20
201.3849216776669
 10
13.32865058199578
 20
201.3727893213259
 10
13.28142122704712
 20
201.3667855358846
 10
13.27474251339591
 20
201.3653048580717
 10
13.2700301451026
 20
201.3638344921985
 10
13.268396988764
 20
201.3631034938984
 10
13.2672379748672
 20
201.362375448031
 10
13.26654706925359
 20
201.3616504723609
 10
13.26631814393443
 20
201.3609286812469
 42
0.2020114912939182
 10
13.26688697499163
 20
201.3597909324571
  0
LINE
  5
541
330
1F
100
AcDbEntity
  8
0
100
AcDbLine
 10
92.99999848008153
 20
201.426109976512
 30
0.0
 11
17.00000092387197
 21
201.426109976512
 31
0.0
  0
LWPOLYLINE
  5
542
330
1F
100
AcDbEntity
  8
0
100
AcDbPolyline
 90
       12
 70
     0
 43
0.0
 10
96.73311242896207
 20
201.3597909324573
 42
0.2020114913172531
 10
96.73368126001915
 20
201.3609286812469
 10
96.73345233469998
 20
201.3616504723609
 10
96.73276142908638
 20
201.362375448031
 10
96.7316024151896
 20
201.3631034938984
 10
96.72996925885097
 20
201.3638344921984
 10
96.72525689055767
 20
201.3653048580717
 10
96.71857817690645
 20
201.3667855358845
 10
96.6713488219578
 20
201.3727893213259
 10
96.47153313453715
 20
201.384921677667
 10
95.64011125045971
 20
201.4070190216644
 10
92.99999970197678
 20
201.4261102657597
  0
LINE
  5
550
330
1F
100
AcDbEntity
  8
0
100
AcDbLine
 10
96.00000083446531
 20
200.6266775796232
 30
0.0
 11
96.00000083446528
 21
200.6790439853487
 31
0.0
  0
LINE
  5
551
330
1F
100
AcDbEntity
  8
0
100
AcDbLine
 10
96.00000083446528
 20
200.6790439853487
 30
0.0
 11
13.99999856948881
 21
200.6790439853487
 31
0.0
  0
LINE
  5
552
330
1F
100
AcDbEntity
  8
0
100
AcDbLine
 10
13.99999856948883
 20
200.6266775796232
 30
0.0
 11
13.9999985694888
 21
200.6790439853487
 31
0.0
  0
LWPOLYLINE
  5
553
330
1F
100
AcDbEntity
  8
0
100
AcDbPolyline
 90
       56
 70
     0
 43
0.0
 10
54.99999970197678
 20
201.3428348371801
 10
53.51811135187746
 20
201.3413558969316
 10
52.05554165877403
 20
201.336941427928
 10
50.63135782256723
 20
201.329639858943
 10
49.26412552595141
 20
201.3195592233953
 10
47.97166911885144
 20
201.3068187305746
 10
46.7708380892873
 20
201.2915934691248
 10
45.67728657275442
 20
201.2740771541414
 10
44.70527078956371
 20
201.254500753623
 10
43.86746231466537
 20
201.2331138620195
 10
43.17478369921452
 20
201.210203326684
 10
42.63626504689461
 20
201.18606344555
 10
42.25892666727312
 20
201.1610108682928
 10
42.04768687486658
 20
201.1353696951685
 10
42.00530145317327
 20
201.1094752023039
 10
42.13232081383477
 20
201.0836663911161
 10
42.42709092795861
 20
201.0582785377321
 10
42.88576729595675
 20
201.0336394676981
 10
43.50237175822271
 20
201.0100770065603
 10
44.26886513829246
 20
200.987892902833
 10
45.17525527626292
 20
200.9673777291594
 10
46.20972555130736
 20
200.9488034317312
 10
47.35879134386796
 20
200.9324047038374
 10
48.60747186467069
 20
200.9183976123152
 10
49.93948852643388
 20
200.9069684216795
 10
51.33747635409255
 20
200.898262418252
 10
52.78321122750659
 20
200.8923950860319
 10
54.25784515682627
 20
200.8894446561155
 10
55.74215424712767
 20
200.8894446561155
 10
57.21678817644734
 20
200.8923950860319
 10
58.66252304986138
 20
200.898262418252
 10
60.06051087752002
 20
200.9069684216795
 10
61.39252753928321
 20
200.9183976123152
 10
62.64120806008595
 20
200.9324047038374
 10
63.79027385264651
 20
200.9488034317312
 10
64.82474412769096
 20
200.9673777291594
 10
65.73113426566138
 20
200.987892902833
 10
66.49762764573111
 20
201.0100770065603
 10
67.11423210799708
 20
201.0336394676981
 10
67.5729084759952
 20
201.0582785377321
 10
67.867678590119
 20
201.0836663911161
 10
67.9946979507805
 20
201.1094752023039
 10
67.95231252908715
 20
201.1353696951685
 10
67.7410727366806
 20
201.1610108682928
 10
67.36373435705909
 20
201.18606344555
 10
66.82521570473915
 20
201.210203326684
 10
66.13253708928829
 20
201.2331138620195
 10
65.29472861438995
 20
201.254500753623
 10
64.3227128311992
 20
201.2740771541414
 10
63.22916131466629
 20
201.2915934691248
 10
62.02833028510215
 20
201.3068187305746
 10
60.73587387800219
 20
201.3195592233953
 10
59.36864158138633
 20
201.329639858943
 10
57.94445774517954
 20
201.336941427928
 10
56.48188805207611
 20
201.3413558969316
 10
54.99999970197678
 20
201.3428348371801
  0
CIRCLE
  5
58D
330
1F
100
AcDbEntity
  8
0
100
AcDbCircle
 10
16.99999970197707
 20
185.626678205472
 30
0.0
 40
3.5
  0
CIRCLE
  5
58E
330
1F
100
AcDbEntity
  8
0
100
AcDbCircle
 10
16.99999970197707
 20
109.626678205472
 30
0.0
 40
3.5
  0
CIRCLE
  5
58F
330
1F
100
AcDbEntity
  8
0
100
AcDbCircle
 10
27.99999970197707
 20
181.426678205472
 30
0.0
 40
2.050000000000011
  0
CIRCLE
  5
590
330
1F
100
AcDbEntity
  8
0
100
AcDbCircle
 10
37.99999970197707
 20
181.426678205472
 30
0.0
 40
2.050000000000011
  0
CIRCLE
  5
591
330
1F
100
AcDbEntity
  8
0
100
AcDbCircle
 10
54.99999970197707
 20
115.126678205472
 30
0.0
 40
9.5
  0
ARC
  5
592
330
1F
100
AcDbEntity
  8
0
100
AcDbCircle
 10
54.99999970197707
 20
116.876678205472
 30
0.0
 40
2.75
100
AcDbArc
 50
0.0
 51
179.9999999999991
  0
LINE
  5
593
330
1F
100
AcDbEntity
  8
0
100
AcDbLine
 10
52.24999971687823
 20
116.8766773561058
 30
0.0
 11
52.24999971687823
 21
113.3766795763788
 31
0.0
  0
ARC
  5
594
330
1F
100
AcDbEntity
  8
0
100
AcDbCircle
 10
54.99999970197707
 20
113.376678205472
 30
0.0
 40
2.75
100
AcDbArc
 50
180.0
 51
0.0000000000008882
  0
LINE
  5
595
330
1F
100
AcDbEntity
  8
0
100
AcDbLine
 10
57.74999968707591
 20
113.3766795763788
 30
0.0
 11
57.74999968707591
 21
116.8766773561058
 31
0.0
  0
CIRCLE
  5
596
330
1F
100
AcDbEntity
  8
0
100
AcDbCircle
 10
54.99999970197707
 20
180.126678205472
 30
0.0
 40
9.500000000000028
  0
ARC
  5
597
330
1F
100
AcDbEntity
  8
0
100
AcDbCircle
 10
53.24999970197707
 20
180.126678205472
 30
0.0
 40
2.750000000000028
100
AcDbArc
 50
90.0
 51
270.0000000000007
  0
LINE
  5
598
330
1F
100
AcDbEntity
  8
0
100
AcDbLine
 10
53.24999964796037
 20
177.3766788909254
 30
0.0
 11
56.74999975599379
 21
177.3766788909254
 31
0.0
  0
ARC
  5
599
330
1F
100
AcDbEntity
  8
0
100
AcDbCircle
 10
56.74999970197707
 20
180.126678205472
 30
0.0
 40
2.750000000000028
100
AcDbArc
 50
270.0000000000009
 51
90.0
  0
LINE
  5
59A
330
1F
100
AcDbEntity
  8
0
100
AcDbLine
 10
56.74999975599379
 20
182.8766788611231
 30
0.0
 11
53.24999964796037
 21
182.8766788611231
 31
0.0
  0
CIRCLE
  5
59B
330
1F
100
AcDbEntity
  8
0
100
AcDbCircle
 10
71.99999970197683
 20
113.8266782054719
 30
0.0
 40
2.049999999999983
  0
CIRCLE
  5
59C
330
1F
100
AcDbEntity
  8
0
100
AcDbCircle
 10
87.49999970197706
 20
147.626678205472
 30
0.0
 40
9.5
  0
ARC
  5
59D
330
1F
100
AcDbEntity
  8
0
100
AcDbCircle
 10
85.74999970197706
 20
147.626678205472
 30
0.0
 40
2.75
100
AcDbArc
 50
90.0
 51
270.0000000000009
  0
LINE
  5
59E
330
1F
100
AcDbEntity
  8
0
100
AcDbLine
 10
85.75000055134325
 20
144.8766782203732
 30
0.0
 11
89.24999833107023
 21
144.8766782203732
 31
0.0
  0
ARC
  5
59F
330
1F
100
AcDbEntity
  8
0
100
AcDbCircle
 10
89.24999970197706
 20
147.626678205472
 30
0.0
 40
2.75
100
AcDbArc
 50
270.0
 51
89.9999999999991
  0
LINE
  5
5A0
330
1F
100
AcDbEntity
  8
0
100
AcDbLine
 10
89.24999833107023
 20
150.3766781905709
 30
0.0
 11
85.75000055134325
 21
150.3766781905709
 31
0.0
  0
CIRCLE
  5
5A1
330
1F
100
AcDbEntity
  8
0
100
AcDbCircle
 10
81.9999997019768
 20
113.8266782054718
 30
0.0
 40
2.050000000000011
  0
CIRCLE
  5
5A2
330
1F
100
AcDbEntity
  8
0
100
AcDbCircle
 10
92.99999970197709
 20
109.626678205472
 30
0.0
 40
3.5
  0
CIRCLE
  5
5A3
330
1F
100
AcDbEntity
  8
0
100
AcDbCircle
 10
92.99999970197709
 20
185.626678205472
 30
0.0
 40
3.5
  0
LINE
  5
5A4
330
1F
100
AcDbEntity
  8
0
100
AcDbLine
 10
105.9999987483027
 20
188.6266793379602
 30
0.0
 11
107.9999990761283
 21
188.6266793379602
 31
0.0
  0
LINE
  5
5A5
330
1F
100
AcDbEntity
  8
0
100
AcDbLine
 10
105.9999987483027
 20
190.1622104713736
 30
0.0
 11
105.9999987483027
 21
188.6266793379602
 31
0.0
  0
LINE
  5
5A6
330
1F
100
AcDbEntity
  8
0
100
AcDbLine
 10
107.4999980628493
 20
191.6622135112104
 30
0.0
 11
105.9999987483027
 21
190.1622104713736
 31
0.0
  0
LINE
  5
5A7
330
1F
100
AcDbEntity
  8
0
100
AcDbLine
 10
107.4999980628493
 20
196.6266769239721
 30
0.0
 11
107.4999980628493
 21
191.6622135112104
 31
0.0
  0
ARC
  5
5A8
330
1F
100
AcDbEntity
  8
0
100
AcDbCircle
 10
103.9999997019771
 20
196.626678205472
 30
0.0
 40
3.5
100
AcDbArc
 50
0.0
 51
89.99999999999955
  0
LINE
  5
5A9
330
1F
100
AcDbEntity
  8
0
100
AcDbLine
 10
99.03553500771551
 20
200.1266765663443
 30
0.0
 11
103.9999984204772
 21
200.1266765663443
 31
0.0
  0
LINE
  5
5AA
330
1F
100
AcDbEntity
  8
0
100
AcDbLine
 10
97.53553196787863
 20
198.6266772517977
 30
0.0
 11
99.03553500771551
 21
200.1266765663443
 31
0.0
  0
LINE
  5
5AB
330
1F
100
AcDbEntity
  8
0
100
AcDbLine
 10
96.00000083446531
 20
198.6266772517977
 30
0.0
 11
97.53553196787863
 21
198.6266772517977
 31
0.0
  0
ARC
  5
5AC
330
1F
100
AcDbEntity
  8
0
100
AcDbCircle
 10
103.9999997019771
 20
196.626678205472
 30
0.0
 40
6.0
100
AcDbArc
 50
0.0
 51
89.99999999999959
  0
LINE
  5
5AD
330
1F
100
AcDbEntity
  8
0
100
AcDbLine
 10
109.9999994039538
 20
196.6266769239721
 30
0.0
 11
109.9999994039538
 21
190.6266796657858
 31
0.0
  0
LINE
  5
5AE
330
1F
100
AcDbEntity
  8
0
100
AcDbLine
 10
107.9999990761283
 20
188.6266793379602
 30
0.0
 11
109.9999994039538
 21
190.6266796657858
 31
0.0
  0
LINE
  5
5AF
330
1F
100
AcDbEntity
  8
0
100
AcDbLine
 10
96.00000083446531
 20
200.6266775796232
 30
0.0
 11
96.00000083446531
 21
198.6266772517977
 31
0.0
  0
LINE
  5
5B0
330
1F
100
AcDbEntity
  8
0
100
AcDbLine
 10
96.00000083446531
 20
200.6266775796232
 30
0.0
 11
98.00000116229086
 21
202.6266779074488
 31
0.0
  0
LINE
  5
5B1
330
1F
100
AcDbEntity
  8
0
100
AcDbLine
 10
98.00000116229086
 20
202.6266779074488
 30
0.0
 11
103.9999984204772
 21
202.6266779074488
 31
0.0
  0
LINE
  5
5B2
330
1F
100
AcDbEntity
  8
0
100
AcDbLine
 10
109.9999994039538
 20
98.62667948697188
 30
0.0
 11
109.9999994039538
 21
104.6266767451582
 31
0.0
  0
ARC
  5
5B3
330
1F
100
AcDbEntity
  8
0
100
AcDbCircle
 10
103.9999997019771
 20
98.62667820547202
 30
0.0
 40
6.0
100
AcDbArc
 50
270.0
 51
359.9999999999996
  0
LINE
  5
5B4
330
1F
100
AcDbEntity
  8
0
100
AcDbLine
 10
96.00000083446531
 20
94.62667883132079
 30
0.0
 11
96.00000083446531
 21
96.62667915914633
 31
0.0
  0
LINE
  5
5B5
330
1F
100
AcDbEntity
  8
0
100
AcDbLine
 10
96.00000083446531
 20
96.62667915914633
 30
0.0
 11
97.53553196787863
 21
96.62667915914633
 31
0.0
  0
LINE
  5
5B6
330
1F
100
AcDbEntity
  8
0
100
AcDbLine
 10
97.53553196787863
 20
96.62667915914633
 30
0.0
 11
99.03553500771551
 21
95.12667984459975
 31
0.0
  0
LINE
  5
5B7
330
1F
100
AcDbEntity
  8
0
100
AcDbLine
 10
99.03553500771551
 20
95.12667984459975
 30
0.0
 11
103.9999984204772
 21
95.12667984459975
 31
0.0
  0
ARC
  5
5B8
330
1F
100
AcDbEntity
  8
0
100
AcDbCircle
 10
103.9999997019771
 20
98.62667820547202
 30
0.0
 40
3.5
100
AcDbArc
 50
270.0000000000016
 51
0.0000000000013958
  0
LINE
  5
5B9
330
1F
100
AcDbEntity
  8
0
100
AcDbLine
 10
107.4999980628493
 20
98.62667948697188
 30
0.0
 11
107.4999980628493
 21
103.5911428997336
 31
0.0
  0
LINE
  5
5BA
330
1F
100
AcDbEntity
  8
0
100
AcDbLine
 10
107.4999980628493
 20
103.5911428997336
 30
0.0
 11
105.9999987483027
 21
105.0911459395705
 31
0.0
  0
LINE
  5
5BB
330
1F
100
AcDbEntity
  8
0
100
AcDbLine
 10
105.9999987483027
 20
105.0911459395705
 30
0.0
 11
105.9999987483027
 21
106.6266770729838
 31
0.0
  0
LINE
  5
5BC
330
1F
100
AcDbEntity
  8
0
100
AcDbLine
 10
105.9999987483027
 20
106.6266770729838
 30
0.0
 11
107.9999990761283
 21
106.6266770729838
 31
0.0
  0
LINE
  5
5BD
330
1F
100
AcDbEntity
  8
0
100
AcDbLine
 10
107.9999990761283
 20
106.6266770729838
 30
0.0
 11
109.9999994039538
 21
104.6266767451582
 31
0.0
  0
LINE
  5
5BE
330
1F
100
AcDbEntity
  8
0
100
AcDbLine
 10
96.00000083446531
 20
94.62667883132079
 30
0.0
 11
98.00000116229086
 21
92.62667850349524
 31
0.0
  0
LINE
  5
5BF
330
1F
100
AcDbEntity
  8
0
100
AcDbLine
 10
98.00000116229086
 20
92.62667850349524
 30
0.0
 11
103.9999984204772
 21
92.62667850349524
 31
0.0
  0
LWPOLYLINE
  5
5C0
330
1F
100
AcDbEntity
  8
0
100
AcDbPolyline
 90
       56
 70
     0
 43
0.0
 10
108.261786401272
 20
129.1266779670534
 10
108.2632653415205
 20
130.6085667828141
 10
108.2676835358145
 20
132.0711362430868
 10
108.2749813795091
 20
133.4953203121243
 10
108.2850657403471
 20
134.8625521430788
 10
108.2978025078775
 20
136.1550090158401
 10
108.3130277693273
 20
137.3558405110655
 10
108.3305440843107
 20
138.4493920275984
 10
108.3501242101194
 20
139.4214078107891
 10
108.3715073764325
 20
140.2592158200262
 10
108.3944179117681
 20
140.9518939698158
 10
108.4185577929021
 20
141.490413087797
 10
108.4436103701593
 20
141.8677514674185
 10
108.4692515432835
 20
142.0789907941637
 10
108.4951460361482
 20
142.1213766815183
 10
108.5209548473359
 20
141.9943568551955
 10
108.5463427007199
 20
141.699587206733
 10
108.5709817707539
 20
141.2409103730736
 10
108.5945442318917
 20
140.6243063764689
 10
108.616728335619
 20
139.8578129963992
 10
108.6372435092927
 20
138.9514223927675
 10
108.6558215320111
 20
137.916952117723
 10
108.6722165346146
 20
136.7678863251624
 10
108.6862236261368
 20
135.519206270021
 10
108.6976528167725
 20
134.1871896082578
 10
108.7063588202
 20
132.7892017805991
 10
108.7122261524201
 20
131.3434659758625
 10
108.7151765823365
 20
129.8688321629582
 10
108.7151765823365
 20
128.3845237711487
 10
108.7122261524201
 20
126.9098899582443
 10
108.7063588202
 20
125.4641550848303
 10
108.6976528167725
 20
124.0661672571717
 10
108.6862236261368
 20
122.7341505954085
 10
108.6722165346146
 20
121.485470540267
 10
108.6558215320111
 20
120.3364047477064
 10
108.6372435092927
 20
119.301934472662
 10
108.616728335619
 20
118.395543403369
 10
108.5945442318917
 20
117.6290500232992
 10
108.5709817707539
 20
117.0124455610333
 10
108.5463427007199
 20
116.5537691930352
 10
108.5209548473359
 20
116.2590000102339
 10
108.4951460361482
 20
116.1319787869272
 10
108.4692515432835
 20
116.1743651399431
 10
108.4436103701593
 20
116.3856040010271
 10
108.4185577929021
 20
116.7629442432938
 10
108.3944179117681
 20
117.3014628956137
 10
108.3715073764325
 20
117.9941415110646
 10
108.3501242101194
 20
118.8319481233177
 10
108.3305440843107
 20
119.8039639065085
 10
108.3130277693273
 20
120.8975154230414
 10
108.2978025078775
 20
122.0983478495894
 10
108.2850657403471
 20
123.390803791028
 10
108.2749813795091
 20
124.7580356219826
 10
108.2676835358145
 20
126.18221969102
 10
108.2632653415205
 20
127.6447891512928
 10
108.261786401272
 20
129.1266779670534
  0
LWPOLYLINE
  5
5FA
330
1F
100
AcDbEntity
  8
0
100
AcDbPolyline
 90
       56
 70
     0
 43
0.0
 10
108.261786401272
 20
166.1266784438906
 10
108.2632653415205
 20
164.64478962813
 10
108.2676835358145
 20
163.1822201678572
 10
108.2749813795091
 20
161.7580360988198
 10
108.2850657403471
 20
160.3908042678652
 10
108.2978025078775
 20
159.098347395104
 10
108.3130277693273
 20
157.8975158998785
 10
108.3305440843107
 20
156.8039643833456
 10
108.3501242101194
 20
155.8319486001549
 10
108.3715073764325
 20
154.9941405909179
 10
108.3944179117681
 20
154.3014624411283
 10
108.4185577929021
 20
153.7629433231471
 10
108.4436103701593
 20
153.3856049435256
 10
108.4692515432835
 20
153.1743656167803
 10
108.4951460361482
 20
153.1319797294257
 10
108.5209548473359
 20
153.2589995557485
 10
108.5463427007199
 20
153.553769204211
 10
108.5709817707539
 20
154.0124460378704
 10
108.5945442318917
 20
154.6290500344751
 10
108.616728335619
 20
155.3955434145448
 10
108.6372435092927
 20
156.3019340181766
 10
108.6558215320111
 20
157.336404293221
 10
108.6722165346146
 20
158.4854700857816
 10
108.6862236261368
 20
159.734150140923
 10
108.6976528167725
 20
161.0661668026862
 10
108.7063588202
 20
162.4641546303449
 10
108.7122261524201
 20
163.9098904350815
 10
108.7151765823365
 20
165.3845242479859
 10
108.7151765823365
 20
166.8688326397953
 10
108.7122261524201
 20
168.3434664526997
 10
108.7063588202
 20
169.7892013261137
 10
108.6976528167725
 20
171.1871891537724
 10
108.6862236261368
 20
172.5192058155356
 10
108.6722165346146
 20
173.767885870677
 10
108.6558215320111
 20
174.9169516632376
 10
108.6372435092927
 20
175.951421938282
 10
108.616728335619
 20
176.8578130075751
 10
108.5945442318917
 20
177.6243063876448
 10
108.5709817707539
 20
178.2409108499108
 10
108.5463427007199
 20
178.6995872179089
 10
108.5209548473359
 20
178.9943564007101
 10
108.4951460361482
 20
179.1213776240168
 10
108.4692515432835
 20
179.0789912710009
 10
108.4436103701593
 20
178.8677524099169
 10
108.4185577929021
 20
178.4904121676502
 10
108.3944179117681
 20
177.9518935153303
 10
108.3715073764325
 20
177.2592148998795
 10
108.3501242101194
 20
176.4214082876263
 10
108.3305440843107
 20
175.4493925044356
 10
108.3130277693273
 20
174.3558409879027
 10
108.2978025078775
 20
173.1550085613547
 10
108.2850657403471
 20
171.862552619916
 10
108.2749813795091
 20
170.4953207889614
 10
108.2676835358145
 20
169.071136719924
 10
108.2632653415205
 20
167.6085672596512
 10
108.261786401272
 20
166.1266784438906
  0
LWPOLYLINE
  5
634
330
1F
100
AcDbEntity
  8
0
100
AcDbPolyline
 90
       12
 70
     0
 43
0.0
 10
108.7994317622645
 20
185.626678205472
 10
108.7803405181692
 20
188.2667897539549
 10
108.7582431741718
 20
189.0982116380324
 10
108.7461108178307
 20
189.2980273254531
 10
108.7401070323894
 20
189.3452566804017
 10
108.7386263545765
 20
189.351935394053
 10
108.7371559887033
 20
189.3566477623462
 10
108.7364249904032
 20
189.3582809186849
 10
108.7356969445358
 20
189.3594399325817
 10
108.7349719688657
 20
189.3601308381952
 10
108.7342501777517
 20
189.3603597635144
 42
0.2020114912926376
 10
108.7331124289619
 20
189.3597909324572
  0
LINE
  5
642
330
1F
100
AcDbEntity
  8
0
100
AcDbLine
 10
108.7994314730167
 20
185.6266769835768
 30
0.0
 11
108.7994314730167
 21
109.6266794273672
 31
0.0
  0
LWPOLYLINE
  5
643
330
1F
100
AcDbEntity
  8
0
100
AcDbPolyline
 90
       12
 70
     0
 43
0.0
 10
108.733112428962
 20
105.8935654784869
 42
0.2020114912986087
 10
108.7342501777517
 20
105.8929966474297
 10
108.7349719688657
 20
105.8932255727489
 10
108.7356969445358
 20
105.8939164783625
 10
108.7364249904032
 20
105.8950754922593
 10
108.7371559887033
 20
105.8967086485979
 10
108.7386263545765
 20
105.9014210168912
 10
108.7401070323894
 20
105.9080997305424
 10
108.7461108178307
 20
105.955329085491
 10
108.7582431741718
 20
106.1551447729118
 10
108.7803405181692
 20
106.9865666569892
 10
108.7994317622646
 20
109.626678205472
  0
LINE
  5
651
330
1F
100
AcDbEntity
  8
0
100
AcDbLine
 10
108.0523654818537
 20
188.6266793379602
 30
0.0
 11
108.0523654818537
 21
106.6266770729838
 31
0.0
  0
LINE
  5
652
330
1F
100
AcDbEntity
  8
0
100
AcDbLine
 10
108.0523654818537
 20
106.6266770729838
 30
0.0
 11
107.9999990761283
 21
106.6266770729838
 31
0.0
  0
LINE
  5
653
330
1F
100
AcDbEntity
  8
0
100
AcDbLine
 10
108.0523654818537
 20
188.6266793379602
 30
0.0
 11
107.9999990761283
 21
188.6266793379602
 31
0.0
  0
CIRCLE
  5
654
330
1F
100
AcDbEntity
  8
0
100
AcDbCircle
 10
32.99999970197705
 20
190.426678205472
 30
0.0
 40
1.600000000000023
  0
CIRCLE
  5
655
330
1F
100
AcDbEntity
  8
0
100
AcDbCircle
 10
32.99999970197705
 20
190.426678205472
 30
0.0
 40
3.25
  0
CIRCLE
  5
656
330
1F
100
AcDbEntity
  8
0
100
AcDbCircle
 10
76.99999970197675
 20
104.8266782054719
 30
0.0
 40
3.25
  0
CIRCLE
  5
657
330
1F
100
AcDbEntity
  8
0
100
AcDbCircle
 10
76.99999970197675
 20
104.8266782054719
 30
0.0
 40
1.600000000000023
  0
CIRCLE
  5
658
330
1F
100
AcDbEntity
  8
0
100
AcDbCircle
 10
40.99999970197707
 20
147.6266782054721
 30
0.0
 40
3.499999999999972
  0
CIRCLE
  5
659
330
1F
100
AcDbEntity
  8
0
100
AcDbCircle
 10
54.99999970197721
 20
161.626678205472
 30
0.0
 40
3.5
  0
CIRCLE
  5
65A
330
1F
100
AcDbEntity
  8
0
100
AcDbCircle
 10
54.99999970197701
 20
133.626678205472
 30
0.0
 40
3.5
  0
CIRCLE
  5
65B
330
1F
100
AcDbEntity
  8
0
100
AcDbCircle
 10
68.99999970197706
 20
147.626678205472
 30
0.0
 40
3.5
  0
CIRCLE
  5
65C
330
1F
100
AcDbEntity
  8
0
100
AcDbCircle
 10
32.99999970197705
 20
190.426678205472
 30
0.0
 40
5.0
  0
CIRCLE
  5
65D
330
1F
100
AcDbEntity
  8
0
100
AcDbCircle
 10
76.99999970197675
 20
104.8266782054719
 30
0.0
 40
4.999999999999972
  0
LINE
  5
65E
330
1F
100
AcDbEntity
  8
0
100
AcDbLine
 10
4.000000655651363
 20
188.6266793379602
 30
0.0
 11
4.000000655651363
 21
187.2575829992113
 31
0.0
  0
LINE
  5
65F
330
1F
100
AcDbEntity
  8
0
100
AcDbLine
 10
4.000000655651363
 20
187.2575829992113
 30
0.0
 11
9.5601826906207
 21
187.2575829992113
 31
0.0
  0
LINE
  5
660
330
1F
100
AcDbEntity
  8
0
100
AcDbLine
 10
9.5601826906207
 20
107.9957734117327
 30
0.0
 11
9.5601826906207
 21
187.2575829992113
 31
0.0
  0
LINE
  5
661
330
1F
100
AcDbEntity
  8
0
100
AcDbLine
 10
4.000000655651363
 20
107.9957734117327
 30
0.0
 11
9.5601826906207
 21
107.9957734117327
 31
0.0
  0
LINE
  5
662
330
1F
100
AcDbEntity
  8
0
100
AcDbLine
 10
4.000000655651363
 20
106.6266770729838
 30
0.0
 11
4.000000655651363
 21
107.9957734117327
 31
0.0
  0
CIRCLE
  5
663
330
1F
100
AcDbEntity
  8
0
100
AcDbCircle
 10
7.369096681977048
 20
195.257581225472
 30
0.0
 40
2.5
  0
LINE
  5
664
330
1F
100
AcDbEntity
  8
0
100
AcDbLine
 10
12.86909729242353
 20
198.6266772517977
 30
0.0
 11
12.86909729242353
 21
195.2575805852232
 31
0.0
  0
ARC
  5
665
330
1F
100
AcDbEntity
  8
0
100
AcDbCircle
 10
7.369096681977048
 20
195.257581225472
 30
0.0
 40
5.5
100
AcDbArc
 50
270.0000000000008
 51
0.0000000000005922
  0
LINE
  5
666
330
1F
100
AcDbEntity
  8
0
100
AcDbLine
 10
7.369097322225848
 20
189.7575806150255
 30
0.0
 11
4.000000655651363
 21
189.7575806150255
 31
0.0
  0
CIRCLE
  5
667
330
1F
100
AcDbEntity
  8
0
100
AcDbCircle
 10
7.369096681977048
 20
99.99577518547201
 30
0.0
 40
2.5
  0
ARC
  5
668
330
1F
100
AcDbEntity
  8
0
100
AcDbCircle
 10
7.369096681977048
 20
99.99577518547201
 30
0.0
 40
5.5
100
AcDbArc
 50
0.0
 51
89.99999999999956
  0
LINE
  5
669
330
1F
100
AcDbEntity
  8
0
100
AcDbLine
 10
12.86909729242353
 20
96.62667915914633
 30
0.0
 11
12.86909729242353
 21
99.99577582572081
 31
0.0
  0
LINE
  5
66A
330
1F
100
AcDbEntity
  8
0
100
AcDbLine
 10
7.369097322225848
 20
105.4957757959185
 30
0.0
 11
4.000000655651363
 21
105.4957757959185
 31
0.0
  0
LINE
  5
66B
330
1F
100
AcDbEntity
  8
0
100
AcDbLine
 10
4.331644624471807
 20
187.5892269680319
 30
0.0
 11
4.000000655651363
 21
187.2575829992113
 31
0.0
  0
LINE
  5
66C
330
1F
100
AcDbEntity
  8
0
100
AcDbLine
 10
4.331644624471807
 20
189.4259366462049
 30
0.0
 11
4.000000655651363
 21
189.7575806150255
 31
0.0
  0
LINE
  5
66D
330
1F
100
AcDbEntity
  8
0
100
AcDbLine
 10
4.331644624471807
 20
187.5892269680319
 30
0.0
 11
4.331644624471807
 21
189.4259366462049
 31
0.0
  0
LINE
  5
66E
330
1F
100
AcDbEntity
  8
0
100
AcDbLine
 10
7.369097322225706
 20
189.4259366462049
 30
0.0
 11
7.369097322225848
 21
189.7575806150255
 31
0.0
  0
LINE
  5
66F
330
1F
100
AcDbEntity
  8
0
100
AcDbLine
 10
4.331644624471807
 20
189.4259366462049
 30
0.0
 11
7.369097322225706
 21
189.4259366462049
 31
0.0
  0
LWPOLYLINE
  5
670
330
1F
100
AcDbEntity
  8
0
100
AcDbPolyline
 90
        2
 70
     0
 43
0.0
 10
11.85983374729688
 20
107.9563291917784
 10
9.560184048437158
 20
107.995775185472
  0
LINE
  5
674
330
1F
100
AcDbEntity
  8
0
100
AcDbLine
 10
11.90766319632555
 20
107.9085010359106
 30
0.0
 11
11.85983419418361
 21
107.9563300380526
 31
0.0
  0
LINE
  5
675
330
1F
100
AcDbEntity
  8
0
100
AcDbLine
 10
7.369097322225819
 20
107.9085010359106
 30
0.0
 11
11.90766319632555
 21
107.9085010359106
 31
0.0
  0
LINE
  5
676
330
1F
100
AcDbEntity
  8
0
100
AcDbLine
 10
7.369097322225706
 20
107.6641294429121
 30
0.0
 11
7.369097322225819
 21
107.9085010359106
 31
0.0
  0
LINE
  5
677
330
1F
100
AcDbEntity
  8
0
100
AcDbLine
 10
7.369097322225706
 20
107.6641294429121
 30
0.0
 11
4.331644624471807
 21
107.6641294429121
 31
0.0
  0
LINE
  5
678
330
1F
100
AcDbEntity
  8
0
100
AcDbLine
 10
4.331644624471807
 20
107.6641294429121
 30
0.0
 11
4.000000655651363
 21
107.9957734117327
 31
0.0
  0
LINE
  5
679
330
1F
100
AcDbEntity
  8
0
100
AcDbLine
 10
7.369097322225706
 20
105.8274197647391
 30
0.0
 11
7.369097322225848
 21
105.4957757959185
 31
0.0
  0
LINE
  5
67A
330
1F
100
AcDbEntity
  8
0
100
AcDbLine
 10
4.331644624471807
 20
105.8274197647391
 30
0.0
 11
4.000000655651363
 21
105.4957757959185
 31
0.0
  0
LINE
  5
67B
330
1F
100
AcDbEntity
  8
0
100
AcDbLine
 10
4.331644624471807
 20
105.8274197647391
 30
0.0
 11
7.369097322225706
 21
105.8274197647391
 31
0.0
  0
LINE
  5
67C
330
1F
100
AcDbEntity
  8
0
100
AcDbLine
 10
7.369097322225706
 20
187.5892269680319
 30
0.0
 11
4.331644624471807
 21
187.5892269680319
 31
0.0
  0
LINE
  5
67D
330
1F
100
AcDbEntity
  8
0
100
AcDbLine
 10
7.369097322225706
 20
187.5892269680319
 30
0.0
 11
7.369097322225819
 21
187.3448553750334
 31
0.0
  0
LINE
  5
67E
330
1F
100
AcDbEntity
  8
0
100
AcDbLine
 10
7.369097322225819
 20
187.3448553750334
 30
0.0
 11
11.90766319632555
 21
187.3448553750334
 31
0.0
  0
LINE
  5
67F
330
1F
100
AcDbEntity
  8
0
100
AcDbLine
 10
11.90766319632555
 20
187.3448553750334
 30
0.0
 11
11.85983419418361
 21
187.2970263728914
 31
0.0
  0
LWPOLYLINE
  5
680
330
1F
100
AcDbEntity
  8
0
100
AcDbPolyline
 90
        2
 70
     0
 43
0.0
 10
9.560184048437158
 20
187.2575812254719
 10
11.85983374729689
 20
187.2970272191657
  0
LINE
  5
684
330
1F
100
AcDbEntity
  8
0
100
AcDbLine
 10
4.331644624471807
 20
107.6641294429121
 30
0.0
 11
4.331644624471807
 21
105.8274197647391
 31
0.0
  0
LINE
  5
685
330
1F
100
AcDbEntity
  8
0
100
AcDbLine
 10
13.20074126124396
 20
195.2575805852232
 30
0.0
 11
12.86909729242353
 21
195.2575805852232
 31
0.0
  0
ARC
  5
686
330
1F
100
AcDbEntity
  8
0
100
AcDbCircle
 10
7.36909668197692
 20
195.257581225472
 30
0.0
 40
5.831646233636135
100
AcDbArc
 50
270.0000000000008
 51
0.0000000000005585
  0
LINE
  5
687
330
1F
100
AcDbEntity
  8
0
100
AcDbLine
 10
13.20074126124396
 20
99.99577582572081
 30
0.0
 11
12.86909729242353
 21
99.99577582572081
 31
0.0
  0
ARC
  5
688
330
1F
100
AcDbEntity
  8
0
100
AcDbCircle
 10
7.36909668197692
 20
99.99577518547201
 30
0.0
 40
5.831646233636135
100
AcDbArc
 50
0.0
 51
89.99999999999959
  0
LINE
  5
689
330
1F
100
AcDbEntity
  8
0
100
AcDbLine
 10
11.85983419418361
 20
187.2970263728914
 30
0.0
 11
11.85983419418361
 21
107.9563300380526
 31
0.0
  0
LINE
  5
68A
330
1F
100
AcDbEntity
  8
0
100
AcDbLine
 10
13.20074126124396
 20
96.9583231279669
 30
0.0
 11
12.86909729242353
 21
96.62667915914633
 31
0.0
  0
LINE
  5
68B
330
1F
100
AcDbEntity
  8
0
100
AcDbLine
 10
13.20074126124396
 20
99.99577582572081
 30
0.0
 11
13.20074126124396
 21
96.9583231279669
 31
0.0
  0
LINE
  5
68C
330
1F
100
AcDbEntity
  8
0
100
AcDbLine
 10
13.20074126124396
 20
198.2950332829771
 30
0.0
 11
12.86909729242353
 21
198.6266772517977
 31
0.0
  0
LINE
  5
68D
330
1F
100
AcDbEntity
  8
0
100
AcDbLine
 10
13.20074126124396
 20
195.2575805852232
 30
0.0
 11
13.20074126124396
 21
198.2950332829771
 31
0.0
  0
LINE
  5
68E
330
1F
100
AcDbEntity
  8
0
100
AcDbLine
 10
15.03745093941702
 20
96.9583231279669
 30
0.0
 11
15.36909490823773
 21
96.62667915914633
 31
0.0
  0
LINE
  5
68F
330
1F
100
AcDbEntity
  8
0
100
AcDbLine
 10
15.36909490823773
 20
96.62667915914633
 30
0.0
 11
13.9999985694888
 21
96.62667915914633
 31
0.0
  0
LINE
  5
690
330
1F
100
AcDbEntity
  8
0
100
AcDbLine
 10
13.20074126124396
 20
96.9583231279669
 30
0.0
 11
15.03745093941702
 21
96.9583231279669
 31
0.0
  0
LINE
  5
691
330
1F
100
AcDbEntity
  8
0
100
AcDbLine
 10
15.36909490823773
 20
198.6266772517977
 30
0.0
 11
13.9999985694888
 21
198.6266772517977
 31
0.0
  0
LINE
  5
692
330
1F
100
AcDbEntity
  8
0
100
AcDbLine
 10
15.03745093941702
 20
198.2950332829771
 30
0.0
 11
15.36909490823773
 21
198.6266772517977
 31
0.0
  0
LINE
  5
693
330
1F
100
AcDbEntity
  8
0
100
AcDbLine
 10
13.20074126124396
 20
198.2950332829771
 30
0.0
 11
15.03745093941702
 21
198.2950332829771
 31
0.0
  0
LINE
  5
694
330
1F
100
AcDbEntity
  8
0
100
AcDbLine
 10
81.24633692204978
 20
102.1868611941157
 30
0.0
 11
94.63090449571635
 21
102.1868611941157
 31
0.0
  0
LINE
  5
695
330
1F
100
AcDbEntity
  8
0
100
AcDbLine
 10
94.63090449571635
 20
102.1868611941157
 30
0.0
 11
94.63090449571635
 21
96.62667915914633
 31
0.0
  0
LINE
  5
696
330
1F
100
AcDbEntity
  8
0
100
AcDbLine
 10
94.63090449571635
 20
96.62667915914633
 30
0.0
 11
96.00000083446528
 21
96.62667915914633
 31
0.0
  0
LINE
  5
697
330
1F
100
AcDbEntity
  8
0
100
AcDbLine
 10
15.36909490823773
 20
102.1868611941157
 30
0.0
 11
15.36909490823773
 21
96.62667915914633
 31
0.0
  0
LINE
  5
698
330
1F
100
AcDbEntity
  8
0
100
AcDbLine
 10
15.36909490823773
 20
102.1868611941157
 30
0.0
 11
72.75366410613086
 21
102.1868611941157
 31
0.0
  0
LINE
  5
699
330
1F
100
AcDbEntity
  8
0
100
AcDbLine
 10
15.36909490823773
 20
193.0664952168283
 30
0.0
 11
28.75366248190431
 21
193.0664952168283
 31
0.0
  0
LINE
  5
69A
330
1F
100
AcDbEntity
  8
0
100
AcDbLine
 10
15.36909490823773
 20
193.0664952168283
 30
0.0
 11
15.36909490823773
 21
198.6266772517977
 31
0.0
  0
LINE
  5
69B
330
1F
100
AcDbEntity
  8
0
100
AcDbLine
 10
94.63090449571635
 20
198.6266772517977
 30
0.0
 11
96.00000083446528
 21
198.6266772517977
 31
0.0
  0
LINE
  5
69C
330
1F
100
AcDbEntity
  8
0
100
AcDbLine
 10
94.63090449571635
 20
193.0664952168283
 30
0.0
 11
94.63090449571635
 21
198.6266772517977
 31
0.0
  0
LINE
  5
69D
330
1F
100
AcDbEntity
  8
0
100
AcDbLine
 10
37.24633529782323
 20
193.0664952168283
 30
0.0
 11
94.63090449571635
 21
193.0664952168283
 31
0.0
  0
LINE
  5
69E
330
1F
100
AcDbEntity
  8
0
100
AcDbLine
 10
15.28182253241564
 20
190.7190147111235
 30
0.0
 11
15.28182253241564
 21
195.2575805852232
 31
0.0
  0
LINE
  5
69F
330
1F
100
AcDbEntity
  8
0
100
AcDbLine
 10
15.03745093941702
 20
195.2575805852232
 30
0.0
 11
15.28182253241564
 21
195.2575805852232
 31
0.0
  0
LINE
  5
6A0
330
1F
100
AcDbEntity
  8
0
100
AcDbLine
 10
15.03745093941702
 20
198.2950332829771
 30
0.0
 11
15.03745093941702
 21
195.2575805852232
 31
0.0
  0
LWPOLYLINE
  5
6A1
330
1F
100
AcDbEntity
  8
0
100
AcDbPolyline
 90
        2
 70
     0
 43
0.0
 10
15.32965068828343
 20
190.766844160152
 10
15.36909668197706
 20
193.0664938590118
  0
LINE
  5
6A5
330
1F
100
AcDbEntity
  8
0
100
AcDbLine
 10
15.28182253241564
 20
190.7190147111235
 30
0.0
 11
15.32965153455761
 21
190.7668437132654
 31
0.0
  0
LWPOLYLINE
  5
6A6
330
1F
100
AcDbEntity
  8
0
100
AcDbPolyline
 90
        2
 70
     0
 43
0.0
 10
15.36909668197705
 20
102.1868625519322
 10
15.32965068828341
 20
104.4865122507919
  0
LINE
  5
6AA
330
1F
100
AcDbEntity
  8
0
100
AcDbLine
 10
15.03745093941702
 20
96.9583231279669
 30
0.0
 11
15.03745093941702
 21
99.99577582572081
 31
0.0
  0
LINE
  5
6AB
330
1F
100
AcDbEntity
  8
0
100
AcDbLine
 10
15.03745093941702
 20
99.99577582572081
 30
0.0
 11
15.28182253241564
 21
99.99577582572081
 31
0.0
  0
LINE
  5
6AC
330
1F
100
AcDbEntity
  8
0
100
AcDbLine
 10
15.28182253241564
 20
104.5343416998205
 30
0.0
 11
15.28182253241564
 21
99.99577582572081
 31
0.0
  0
LINE
  5
6AD
330
1F
100
AcDbEntity
  8
0
100
AcDbLine
 10
15.28182253241564
 20
104.5343416998205
 30
0.0
 11
15.32965153455761
 21
104.4865126976786
 31
0.0
  0
LINE
  5
6AE
330
1F
100
AcDbEntity
  8
0
100
AcDbLine
 10
72.01158441603206
 20
104.4865126976786
 30
0.0
 11
15.32965153455761
 21
104.4865126976786
 31
0.0
  0
LINE
  5
6AF
330
1F
100
AcDbEntity
  8
0
100
AcDbLine
 10
28.01158465445068
 20
190.7668437132654
 30
0.0
 11
15.32965153455761
 21
190.7668437132654
 31
0.0
  0
LWPOLYLINE
  5
6B0
330
1F
100
AcDbEntity
  8
0
100
AcDbPolyline
 90
        2
 70
     0
 43
0.0
 10
94.63090272197701
 20
193.0664938590118
 10
94.67034871567057
 20
190.766844160152
  0
LINE
  5
6B4
330
1F
100
AcDbEntity
  8
0
100
AcDbLine
 10
94.67034786939644
 20
190.7668437132654
 30
0.0
 11
37.98841498792198
 21
190.7668437132654
 31
0.0
  0
LINE
  5
6B5
330
1F
100
AcDbEntity
  8
0
100
AcDbLine
 10
94.67034786939644
 20
104.4865126976786
 30
0.0
 11
81.98841474950336
 21
104.4865126976786
 31
0.0
  0
LWPOLYLINE
  5
6B6
330
1F
100
AcDbEntity
  8
0
100
AcDbPolyline
 90
        2
 70
     0
 43
0.0
 10
94.67034871567064
 20
104.4865122507918
 10
94.63090272197704
 20
102.1868625519322
  0
LINE
  5
6BA
330
1F
100
AcDbEntity
  8
0
100
AcDbLine
 10
94.71817687153839
 20
104.5343416998205
 30
0.0
 11
94.71817687153839
 21
99.99577582572081
 31
0.0
  0
LINE
  5
6BB
330
1F
100
AcDbEntity
  8
0
100
AcDbLine
 10
94.96254846453678
 20
99.99577582572081
 30
0.0
 11
94.71817687153839
 21
99.99577582572081
 31
0.0
  0
LINE
  5
6BC
330
1F
100
AcDbEntity
  8
0
100
AcDbLine
 10
94.96254846453678
 20
96.9583231279669
 30
0.0
 11
94.96254846453678
 21
99.99577582572081
 31
0.0
  0
LINE
  5
6BD
330
1F
100
AcDbEntity
  8
0
100
AcDbLine
 10
94.96254846453678
 20
96.9583231279669
 30
0.0
 11
94.63090449571635
 21
96.62667915914633
 31
0.0
  0
LINE
  5
6BE
330
1F
100
AcDbEntity
  8
0
100
AcDbLine
 10
94.71817687153839
 20
104.5343416998205
 30
0.0
 11
94.67034786939644
 21
104.4865126976786
 31
0.0
  0
LINE
  5
6BF
330
1F
100
AcDbEntity
  8
0
100
AcDbLine
 10
94.96254846453678
 20
198.2950332829771
 30
0.0
 11
94.63090449571635
 21
198.6266772517977
 31
0.0
  0
LINE
  5
6C0
330
1F
100
AcDbEntity
  8
0
100
AcDbLine
 10
96.79925814270985
 20
198.2950332829771
 30
0.0
 11
97.13090211153056
 21
198.6266772517977
 31
0.0
  0
LINE
  5
6C1
330
1F
100
AcDbEntity
  8
0
100
AcDbLine
 10
96.79925814270985
 20
198.2950332829771
 30
0.0
 11
94.96254846453678
 21
198.2950332829771
 31
0.0
  0
LINE
  5
6C2
330
1F
100
AcDbEntity
  8
0
100
AcDbLine
 10
94.96254846453678
 20
198.2950332829771
 30
0.0
 11
94.96254846453678
 21
195.2575805852232
 31
0.0
  0
LINE
  5
6C3
330
1F
100
AcDbEntity
  8
0
100
AcDbLine
 10
94.96254846453678
 20
195.2575805852232
 30
0.0
 11
94.71817687153839
 21
195.2575805852232
 31
0.0
  0
LINE
  5
6C4
330
1F
100
AcDbEntity
  8
0
100
AcDbLine
 10
94.71817687153839
 20
190.7190147111235
 30
0.0
 11
94.71817687153839
 21
195.2575805852232
 31
0.0
  0
LINE
  5
6C5
330
1F
100
AcDbEntity
  8
0
100
AcDbLine
 10
94.71817687153839
 20
190.7190147111235
 30
0.0
 11
94.67034786939644
 21
190.7668437132654
 31
0.0
  0
LINE
  5
6C6
330
1F
100
AcDbEntity
  8
0
100
AcDbLine
 10
96.79925814270985
 20
96.9583231279669
 30
0.0
 11
97.13090211153056
 21
96.62667915914633
 31
0.0
  0
LINE
  5
6C7
330
1F
100
AcDbEntity
  8
0
100
AcDbLine
 10
96.79925814270985
 20
96.9583231279669
 30
0.0
 11
94.96254846453678
 21
96.9583231279669
 31
0.0
  0
CIRCLE
  5
6C8
330
1F
100
AcDbEntity
  8
0
100
AcDbCircle
 10
102.630902721977
 20
99.99577518547201
 30
0.0
 40
2.5
  0
LINE
  5
6C9
330
1F
100
AcDbEntity
  8
0
100
AcDbLine
 10
97.13090211153056
 20
96.62667915914633
 30
0.0
 11
97.13090211153056
 21
99.99577582572081
 31
0.0
  0
ARC
  5
6CA
330
1F
100
AcDbEntity
  8
0
100
AcDbCircle
 10
102.630902721977
 20
99.99577518547201
 30
0.0
 40
5.5
100
AcDbArc
 50
90.0
 51
179.9999999999996
  0
LINE
  5
6CB
330
1F
100
AcDbEntity
  8
0
100
AcDbLine
 10
102.6309020817282
 20
105.4957757959185
 30
0.0
 11
105.9999987483027
 21
105.4957757959185
 31
0.0
  0
LINE
  5
6CC
330
1F
100
AcDbEntity
  8
0
100
AcDbLine
 10
96.79925814270985
 20
195.2575805852232
 30
0.0
 11
97.13090211153056
 21
195.2575805852232
 31
0.0
  0
ARC
  5
6CD
330
1F
100
AcDbEntity
  8
0
100
AcDbCircle
 10
102.630902721977
 20
195.257581225472
 30
0.0
 40
5.5
100
AcDbArc
 50
180.0
 51
270.0000000000012
  0
LINE
  5
6CE
330
1F
100
AcDbEntity
  8
0
100
AcDbLine
 10
102.6309020817281
 20
189.4259366462049
 30
0.0
 11
102.6309020817282
 21
189.7575806150255
 31
0.0
  0
ARC
  5
6CF
330
1F
100
AcDbEntity
  8
0
100
AcDbCircle
 10
102.6309027219769
 20
195.257581225472
 30
0.0
 40
5.831646233636121
100
AcDbArc
 50
180.0
 51
270.0000000000012
  0
LINE
  5
6D0
330
1F
100
AcDbEntity
  8
0
100
AcDbLine
 10
97.13090211153056
 20
198.6266772517977
 30
0.0
 11
97.13090211153056
 21
195.2575805852232
 31
0.0
  0
LINE
  5
6D1
330
1F
100
AcDbEntity
  8
0
100
AcDbLine
 10
96.79925814270985
 20
195.2575805852232
 30
0.0
 11
96.79925814270985
 21
198.2950332829771
 31
0.0
  0
LINE
  5
6D2
330
1F
100
AcDbEntity
  8
0
100
AcDbLine
 10
96.79925814270985
 20
99.99577582572081
 30
0.0
 11
97.13090211153056
 21
99.99577582572081
 31
0.0
  0
LINE
  5
6D3
330
1F
100
AcDbEntity
  8
0
100
AcDbLine
 10
96.79925814270985
 20
99.99577582572081
 30
0.0
 11
96.79925814270985
 21
96.9583231279669
 31
0.0
  0
LINE
  5
6D4
330
1F
100
AcDbEntity
  8
0
100
AcDbLine
 10
102.6309020817281
 20
105.8274197647391
 30
0.0
 11
102.6309020817282
 21
105.4957757959185
 31
0.0
  0
ARC
  5
6D5
330
1F
100
AcDbEntity
  8
0
100
AcDbCircle
 10
102.6309027219769
 20
99.99577518547201
 30
0.0
 40
5.831646233636121
100
AcDbArc
 50
90.0
 51
179.9999999999996
  0
CIRCLE
  5
6D6
330
1F
100
AcDbEntity
  8
0
100
AcDbCircle
 10
102.630902721977
 20
195.257581225472
 30
0.0
 40
2.5
  0
LINE
  5
6D7
330
1F
100
AcDbEntity
  8
0
100
AcDbLine
 10
102.6309020817282
 20
189.7575806150255
 30
0.0
 11
105.9999987483027
 21
189.7575806150255
 31
0.0
  0
LINE
  5
6D8
330
1F
100
AcDbEntity
  8
0
100
AcDbLine
 10
100.4398167133334
 20
107.9957734117327
 30
0.0
 11
100.4398167133334
 21
187.2575829992113
 31
0.0
  0
LWPOLYLINE
  5
6D9
330
1F
100
AcDbEntity
  8
0
100
AcDbPolyline
 90
        2
 70
     0
 43
0.0
 10
100.4398153555169
 20
107.995775185472
 10
98.14016565665723
 20
107.9563291917784
  0
LINE
  5
6DD
330
1F
100
AcDbEntity
  8
0
100
AcDbLine
 10
98.14016520977043
 20
187.2970263728914
 30
0.0
 11
98.14016520977043
 21
107.9563300380526
 31
0.0
  0
LWPOLYLINE
  5
6DE
330
1F
100
AcDbEntity
  8
0
100
AcDbPolyline
 90
        2
 70
     0
 43
0.0
 10
98.14016565665717
 20
187.2970272191656
 10
100.4398153555169
 20
187.257581225472
  0
LINE
  5
6E2
330
1F
100
AcDbEntity
  8
0
100
AcDbLine
 10
105.668354779482
 20
107.6641294429121
 30
0.0
 11
105.9999987483027
 21
107.9957734117327
 31
0.0
  0
LINE
  5
6E3
330
1F
100
AcDbEntity
  8
0
100
AcDbLine
 10
102.6309020817281
 20
107.6641294429121
 30
0.0
 11
105.668354779482
 21
107.6641294429121
 31
0.0
  0
LINE
  5
6E4
330
1F
100
AcDbEntity
  8
0
100
AcDbLine
 10
102.6309020817281
 20
107.6641294429121
 30
0.0
 11
102.6309020817282
 21
107.9085010359106
 31
0.0
  0
LINE
  5
6E5
330
1F
100
AcDbEntity
  8
0
100
AcDbLine
 10
102.6309020817282
 20
107.9085010359106
 30
0.0
 11
98.09233620762848
 21
107.9085010359106
 31
0.0
  0
LINE
  5
6E6
330
1F
100
AcDbEntity
  8
0
100
AcDbLine
 10
98.09233620762848
 20
107.9085010359106
 30
0.0
 11
98.14016520977043
 21
107.9563300380526
 31
0.0
  0
LINE
  5
6E7
330
1F
100
AcDbEntity
  8
0
100
AcDbLine
 10
105.9999987483027
 20
107.9957734117327
 30
0.0
 11
100.4398167133334
 21
107.9957734117327
 31
0.0
  0
LINE
  5
6E8
330
1F
100
AcDbEntity
  8
0
100
AcDbLine
 10
98.09233620762848
 20
187.3448553750334
 30
0.0
 11
98.14016520977043
 21
187.2970263728914
 31
0.0
  0
LINE
  5
6E9
330
1F
100
AcDbEntity
  8
0
100
AcDbLine
 10
102.6309020817282
 20
187.3448553750334
 30
0.0
 11
98.09233620762848
 21
187.3448553750334
 31
0.0
  0
LINE
  5
6EA
330
1F
100
AcDbEntity
  8
0
100
AcDbLine
 10
102.6309020817281
 20
187.5892269680319
 30
0.0
 11
102.6309020817282
 21
187.3448553750334
 31
0.0
  0
LINE
  5
6EB
330
1F
100
AcDbEntity
  8
0
100
AcDbLine
 10
102.6309020817281
 20
187.5892269680319
 30
0.0
 11
105.668354779482
 21
187.5892269680319
 31
0.0
  0
LINE
  5
6EC
330
1F
100
AcDbEntity
  8
0
100
AcDbLine
 10
105.668354779482
 20
187.5892269680319
 30
0.0
 11
105.9999987483027
 21
187.2575829992113
 31
0.0
  0
LINE
  5
6ED
330
1F
100
AcDbEntity
  8
0
100
AcDbLine
 10
105.9999987483027
 20
187.2575829992113
 30
0.0
 11
100.4398167133334
 21
187.2575829992113
 31
0.0
  0
LINE
  5
6EE
330
1F
100
AcDbEntity
  8
0
100
AcDbLine
 10
105.9999987483027
 20
188.6266793379602
 30
0.0
 11
105.9999987483027
 21
187.2575829992113
 31
0.0
  0
LINE
  5
6EF
330
1F
100
AcDbEntity
  8
0
100
AcDbLine
 10
105.9999987483027
 20
106.6266770729838
 30
0.0
 11
105.9999987483027
 21
107.9957734117327
 31
0.0
  0
LINE
  5
6F0
330
1F
100
AcDbEntity
  8
0
100
AcDbLine
 10
105.668354779482
 20
105.8274197647391
 30
0.0
 11
105.9999987483027
 21
105.4957757959185
 31
0.0
  0
LINE
  5
6F1
330
1F
100
AcDbEntity
  8
0
100
AcDbLine
 10
105.668354779482
 20
105.8274197647391
 30
0.0
 11
102.6309020817281
 21
105.8274197647391
 31
0.0
  0
LINE
  5
6F2
330
1F
100
AcDbEntity
  8
0
100
AcDbLine
 10
105.668354779482
 20
189.4259366462049
 30
0.0
 11
105.9999987483027
 21
189.7575806150255
 31
0.0
  0
LINE
  5
6F3
330
1F
100
AcDbEntity
  8
0
100
AcDbLine
 10
105.668354779482
 20
189.4259366462049
 30
0.0
 11
102.6309020817281
 21
189.4259366462049
 31
0.0
  0
LINE
  5
6F4
330
1F
100
AcDbEntity
  8
0
100
AcDbLine
 10
105.668354779482
 20
107.6641294429121
 30
0.0
 11
105.668354779482
 21
105.8274197647391
 31
0.0
  0
LINE
  5
6F5
330
1F
100
AcDbEntity
  8
0
100
AcDbLine
 10
105.668354779482
 20
187.5892269680319
 30
0.0
 11
105.668354779482
 21
189.4259366462049
 31
0.0
  0
LINE
  5
6F6
330
1F
100
AcDbEntity
  8
0
100
AcDbLine
 10
11.90766319632555
 20
187.3448553750334
 30
0.0
 11
11.90766319632555
 21
107.9085010359106
 31
0.0
  0
LINE
  5
6F7
330
1F
100
AcDbEntity
  8
0
100
AcDbLine
 10
28.00855226814772
 20
190.7190147111235
 30
0.0
 11
15.28182253241564
 21
190.7190147111235
 31
0.0
  0
LINE
  5
6F8
330
1F
100
AcDbEntity
  8
0
100
AcDbLine
 10
72.00855389237427
 20
104.5343416998205
 30
0.0
 11
15.28182253241564
 21
104.5343416998205
 31
0.0
  0
LINE
  5
6F9
330
1F
100
AcDbEntity
  8
0
100
AcDbLine
 10
94.71817687153839
 20
190.7190147111235
 30
0.0
 11
37.99144551157976
 21
190.7190147111235
 31
0.0
  0
LINE
  5
6FA
330
1F
100
AcDbEntity
  8
0
100
AcDbLine
 10
94.71817687153839
 20
104.5343416998205
 30
0.0
 11
81.99144713580631
 21
104.5343416998205
 31
0.0
  0
LINE
  5
6FB
330
1F
100
AcDbEntity
  8
0
100
AcDbLine
 10
98.09233620762848
 20
187.3448553750334
 30
0.0
 11
98.09233620762848
 21
107.9085010359106
 31
0.0
  0
ARC
  5
6FC
330
1F
100
AcDbEntity
  8
0
100
AcDbCircle
 10
7.36909668197702
 20
99.99577518547201
 30
0.0
 40
7.912724675358916
100
AcDbArc
 50
0.0
 51
89.99999999999959
  0
ARC
  5
6FD
330
1F
100
AcDbEntity
  8
0
100
AcDbCircle
 10
7.36909668197702
 20
195.257581225472
 30
0.0
 40
7.912724675358916
100
AcDbArc
 50
270.0000000000008
 51
0.0000000000004116
  0
ARC
  5
6FE
330
1F
100
AcDbEntity
  8
0
100
AcDbCircle
 10
102.630902721977
 20
195.257581225472
 30
0.0
 40
7.912724675358902
100
AcDbArc
 50
180.0
 51
270.0000000000012
  0
ARC
  5
6FF
330
1F
100
AcDbEntity
  8
0
100
AcDbCircle
 10
102.630902721977
 20
99.99577518547201
 30
0.0
 40
7.912724675358902
100
AcDbArc
 50
90.0
 51
179.9999999999996
  0
ARC
  5
700
330
1F
100
AcDbEntity
  8
0
100
AcDbCircle
 10
7.36909668197692
 20
195.257581225472
 30
0.0
 40
7.668353766363865
100
AcDbArc
 50
270.0000000000008
 51
0.0000000000004247
  0
ARC
  5
701
330
1F
100
AcDbEntity
  8
0
100
AcDbCircle
 10
7.36909668197692
 20
99.99577518547201
 30
0.0
 40
7.668353766363879
100
AcDbArc
 50
0.0
 51
89.99999999999957
  0
ARC
  5
702
330
1F
100
AcDbEntity
  8
0
100
AcDbCircle
 10
102.6309027219769
 20
99.99577518547201
 30
0.0
 40
7.668353766363879
100
AcDbArc
 50
90.0
 51
179.9999999999996
  0
ARC
  5
703
330
1F
100
AcDbEntity
  8
0
100
AcDbCircle
 10
102.6309027219769
 20
195.257581225472
 30
0.0
 40
7.668353766363879
100
AcDbArc
 50
180.0
 51
270.0000000000012
  0
ARC
  5
704
330
1F
100
AcDbEntity
  8
0
100
AcDbCircle
 10
38.00245441601061
 20
492.5748477367089
 30
0.0
 40
398.4665816651645
100
AcDbArc
 50
269.7839604734043
 51
271.4620934418973
  0
ARC
  5
705
330
1F
100
AcDbEntity
  8
0
100
AcDbCircle
 10
34.99754558487196
 20
492.5749837890081
 30
0.0
 40
398.4667177124479
100
AcDbArc
 50
268.5379068359834
 51
270.2160392984364
  0
ARC
  5
706
330
1F
100
AcDbEntity
  8
0
100
AcDbCircle
 10
71.997544987943
 20
492.5748477367028
 30
0.0
 40
398.4665816651585
100
AcDbArc
 50
268.5379065581041
 51
270.216039526597
  0
ARC
  5
707
330
1F
100
AcDbEntity
  8
0
100
AcDbCircle
 10
75.00245381908158
 20
492.5749837890186
 30
0.0
 40
398.4667177124584
100
AcDbArc
 50
269.7839607015648
 51
271.4620931640177
  0
ARC
  5
708
330
1F
100
AcDbEntity
  8
0
100
AcDbCircle
 10
-380.5104495840348
 20
166.1266786767212
 30
0.0
 40
489.0383813797976
100
AcDbArc
 50
358.6326636445322
 51
1.367336355468966
  0
ARC
  5
709
330
1F
100
AcDbEntity
  8
0
100
AcDbCircle
 10
-380.5104495840348
 20
129.1266777342228
 30
0.0
 40
489.0383813797976
100
AcDbArc
 50
358.6326636445322
 51
1.367336355468966
  0
ARC
  5
70A
330
1F
100
AcDbEntity
  8
0
100
AcDbCircle
 10
34.54049842695456
 20
332.467617195295
 30
0.0
 40
238.320943694082
100
AcDbArc
 50
268.0638050136537
 51
270.4710975150851
  0
ARC
  5
70B
330
1F
100
AcDbEntity
  8
0
100
AcDbCircle
 10
38.09952188440428
 20
360.6215550002514
 30
0.0
 40
266.4716264356557
100
AcDbArc
 50
269.6560743237943
 51
271.8090231474709
  0
ARC
  5
70C
330
1F
100
AcDbEntity
  8
0
100
AcDbCircle
 10
75.45950097699901
 20
332.4676171953033
 30
0.0
 40
238.3209436940903
100
AcDbArc
 50
269.5289024849171
 51
271.9361949863484
  0
ARC
  5
70D
330
1F
100
AcDbEntity
  8
0
100
AcDbCircle
 10
71.9004775195493
 20
360.6215550002416
 30
0.0
 40
266.4716264356459
100
AcDbArc
 50
268.1909768525302
 51
270.3439256762068
  0
ARC
  5
70E
330
1F
100
AcDbEntity
  8
0
100
AcDbCircle
 10
-228.753412783476
 20
166.1266784438906
 30
0.0
 40
337.245987956114
100
AcDbArc
 50
358.2988576802566
 51
1.701142319745622
  0
ARC
  5
70F
330
1F
100
AcDbEntity
  8
0
100
AcDbCircle
 10
-228.753412783476
 20
129.1266779670534
 30
0.0
 40
337.245987956114
100
AcDbArc
 50
358.2988576802566
 51
1.701142319745622
  0
ARC
  5
710
330
1F
100
AcDbEntity
  8
0
100
AcDbCircle
 10
399.9358276383421
 20
167.6293885630374
 30
0.0
 40
398.4548483382699
100
AcDbArc
 50
178.5379001310314
 51
180.2160825802908
  0
ARC
  5
711
330
1F
100
AcDbEntity
  8
0
100
AcDbCircle
 10
399.9356915859565
 20
164.62396725101
 30
0.0
 40
398.4547122909013
100
AcDbArc
 50
179.7839171915328
 51
181.4621001468647
  0
ARC
  5
712
330
1F
100
AcDbEntity
  8
0
100
AcDbCircle
 10
399.9358276383422
 20
127.6239678479066
 30
0.0
 40
398.45484833827
100
AcDbArc
 50
179.7839174197104
 51
181.4620998689699
  0
ARC
  5
713
330
1F
100
AcDbEntity
  8
0
100
AcDbCircle
 10
399.9356915859565
 20
130.6293891599341
 30
0.0
 40
398.4547122909013
100
AcDbArc
 50
178.5378998531365
 51
180.2160828084683
  0
ARC
  5
714
330
1F
100
AcDbEntity
  8
0
100
AcDbCircle
 10
53.49728931805148
 20
-197.3090507633619
 30
0.0
 40
398.4547493724409
100
AcDbArc
 50
89.78391732796644
 51
91.46210006014604
  0
ARC
  5
715
330
1F
100
AcDbEntity
  8
0
100
AcDbCircle
 10
56.50271008590216
 20
-197.3090507633673
 30
0.0
 40
398.4547493724463
100
AcDbArc
 50
88.53789993985407
 51
90.21608267203366
  0
ARC
  5
716
330
1F
100
AcDbEntity
  8
0
100
AcDbCircle
 10
239.8178752660093
 20
127.1668898035454
 30
0.0
 40
238.2984906109334
100
AcDbArc
 50
179.5287890576502
 51
181.936308413614
  0
ARC
  5
717
330
1F
100
AcDbEntity
  8
0
100
AcDbCircle
 10
267.9709188383085
 20
130.7264989485374
 30
0.0
 40
266.4482782127037
100
AcDbArc
 50
178.1908825125599
 51
180.3440200161783
  0
ARC
  5
718
330
1F
100
AcDbEntity
  8
0
100
AcDbCircle
 10
239.8178752660093
 20
168.0864666073986
 30
0.0
 40
238.2984906109334
100
AcDbArc
 50
178.0636915863867
 51
180.4712109423506
  0
ARC
  5
719
330
1F
100
AcDbEntity
  8
0
100
AcDbCircle
 10
267.9709188383085
 20
164.5268574624066
 30
0.0
 40
266.4482782127037
100
AcDbArc
 50
179.6559799838224
 51
181.8091174874407
  0
ARC
  5
71A
330
1F
100
AcDbEntity
  8
0
100
AcDbCircle
 10
53.04021129296076
 20
-37.19117815746468
 30
0.0
 40
238.298471412506
100
AcDbArc
 50
89.52878896065515
 51
91.93630851060763
  0
ARC
  5
71B
330
1F
100
AcDbEntity
  8
0
100
AcDbCircle
 10
56.5998206088886
 20
-65.34424676327275
 30
0.0
 40
266.4482840445638
100
AcDbArc
 50
88.19088253612544
 51
90.34401999261088
  0
LWPOLYLINE
  5
71C
330
1F
100
AcDbEntity
  8
0
100
AcDbPolyline
 90
        2
 70
     0
 43
0.0
 10
36.49999946355822
 20
94.35469911192038
 10
39.08771276474001
 20
94.36035037730315
  0
LWPOLYLINE
  5
720
330
1F
100
AcDbEntity
  8
0
100
AcDbPolyline
 90
        2
 70
     0
 43
0.0
 10
33.91228802502157
 20
94.36035037730315
 10
36.49999946355822
 20
94.35469911192038
  0
LWPOLYLINE
  5
724
330
1F
100
AcDbEntity
  8
0
100
AcDbPolyline
 90
        2
 70
     0
 43
0.0
 10
73.49999994039538
 20
94.35469911192038
 10
70.91228663921359
 20
94.36035037730315
  0
LWPOLYLINE
  5
728
330
1F
100
AcDbEntity
  8
0
100
AcDbPolyline
 90
        2
 70
     0
 43
0.0
 10
76.08771137893203
 20
94.36035037730315
 10
73.49999994039538
 20
94.35469911192038
  0
LWPOLYLINE
  5
72C
330
1F
100
AcDbEntity
  8
0
100
AcDbPolyline
 90
        2
 70
     0
 43
0.0
 10
108.2663275301457
 20
131.7143912682352
 10
108.2663275301457
 20
126.5389665285168
  0
LWPOLYLINE
  5
730
330
1F
100
AcDbEntity
  8
0
100
AcDbPolyline
 90
        2
 70
     0
 43
0.0
 10
108.2663275301457
 20
163.5389651427088
 10
108.2663275301457
 20
168.7143898824272
  0
LWPOLYLINE
  5
734
330
1F
100
AcDbEntity
  8
0
100
AcDbPolyline
 90
        2
 70
     0
 43
0.0
 10
1.72741338610652
 20
129.1266779670534
 10
1.733064651489286
 20
126.5389665285168
  0
LWPOLYLINE
  5
738
330
1F
100
AcDbEntity
  8
0
100
AcDbPolyline
 90
        2
 70
     0
 43
0.0
 10
1.733064651489286
 20
131.7143912682352
 10
1.72741338610652
 20
129.1266779670534
  0
LWPOLYLINE
  5
73C
330
1F
100
AcDbEntity
  8
0
100
AcDbPolyline
 90
        2
 70
     0
 43
0.0
 10
1.72741338610652
 20
166.1266784438906
 10
1.733064651489286
 20
168.7143898824272
  0
LWPOLYLINE
  5
740
330
1F
100
AcDbEntity
  8
0
100
AcDbPolyline
 90
        2
 70
     0
 43
0.0
 10
1.733064651489286
 20
163.5389651427088
 10
1.72741338610652
 20
166.1266784438906
  0
LWPOLYLINE
  5
744
330
1F
100
AcDbEntity
  8
0
100
AcDbPolyline
 90
        2
 70
     0
 43
0.0
 10
54.9999997019768
 20
200.8992645213423
 10
52.41228709928694
 20
200.8936132559595
  0
LWPOLYLINE
  5
748
330
1F
100
AcDbEntity
  8
0
100
AcDbPolyline
 90
        2
 70
     0
 43
0.0
 10
57.58771230466666
 20
200.8936132559595
 10
54.9999997019768
 20
200.8992645213423
  0
LINE
  5
74C
330
1F
100
AcDbEntity
  8
0
100
AcDbLine
 10
1.200567930936785
 20
109.6266794273672
 30
0.0
 11
-0.0000000000000355
 21
109.6266794273672
 31
0.0
  0
LINE
  5
74D
330
1F
100
AcDbEntity
  8
0
100
AcDbLine
 10
-0.0000000000000355
 20
109.6266794273672
 30
0.0
 11
0.0
 21
104.6266767451582
 31
0.0
  0
LINE
  5
74E
330
1F
100
AcDbEntity
  8
0
100
AcDbLine
 10
1.200567930936785
 20
185.6266769835768
 30
0.0
 11
-0.0000000000000355
 21
185.6266769835768
 31
0.0
  0
LINE
  5
74F
330
1F
100
AcDbEntity
  8
0
100
AcDbLine
 10
-0.0000000000000355
 20
185.6266769835768
 30
0.0
 11
0.0
 21
190.6266796657858
 31
0.0
  0
LINE
  5
750
330
1F
100
AcDbEntity
  8
0
100
AcDbLine
 10
17.00000092387196
 20
202.6266779074488
 30
0.0
 11
17.00000092387196
 21
201.426109976512
 31
0.0
  0
LINE
  5
751
330
1F
100
AcDbEntity
  8
0
100
AcDbLine
 10
11.99999824166297
 20
202.6266779074488
 30
0.0
 11
17.00000092387196
 21
202.6266779074488
 31
0.0
  0
LINE
  5
752
330
1F
100
AcDbEntity
  8
0
100
AcDbLine
 10
17.00000092387196
 20
92.62667850349524
 30
0.0
 11
17.00000092387196
 21
93.82724643443206
 31
0.0
  0
LINE
  5
753
330
1F
100
AcDbEntity
  8
0
100
AcDbLine
 10
11.99999824166297
 20
92.62667850349524
 30
0.0
 11
17.00000092387196
 21
92.62667850349524
 31
0.0
  0
LINE
  5
754
330
1F
100
AcDbEntity
  8
0
100
AcDbLine
 10
92.99999848008153
 20
92.62667850349524
 30
0.0
 11
92.99999848008153
 21
93.82724643443206
 31
0.0
  0
LINE
  5
755
330
1F
100
AcDbEntity
  8
0
100
AcDbLine
 10
98.00000116229057
 20
92.62667850349524
 30
0.0
 11
92.99999848008153
 21
92.62667850349524
 31
0.0
  0
LINE
  5
756
330
1F
100
AcDbEntity
  8
0
100
AcDbLine
 10
92.99999848008153
 20
202.6266779074488
 30
0.0
 11
92.99999848008153
 21
201.426109976512
 31
0.0
  0
LINE
  5
757
330
1F
100
AcDbEntity
  8
0
100
AcDbLine
 10
98.00000116229057
 20
202.6266779074488
 30
0.0
 11
92.99999848008153
 21
202.6266779074488
 31
0.0
  0
LINE
  5
758
330
1F
100
AcDbEntity
  8
0
100
AcDbLine
 10
108.7994314730167
 20
109.6266794273672
 30
0.0
 11
109.9999994039535
 21
109.6266794273672
 31
0.0
  0
LINE
  5
759
330
1F
100
AcDbEntity
  8
0
100
AcDbLine
 10
109.9999994039535
 20
109.6266794273672
 30
0.0
 11
109.9999994039536
 21
104.6266767451582
 31
0.0
  0
LINE
  5
75A
330
1F
100
AcDbEntity
  8
0
100
AcDbLine
 10
108.7994314730167
 20
185.6266769835768
 30
0.0
 11
109.9999994039535
 21
185.6266769835768
 31
0.0
  0
LINE
  5
75B
330
1F
100
AcDbEntity
  8
0
100
AcDbLine
 10
109.9999994039535
 20
185.6266769835768
 30
0.0
 11
109.9999994039536
 21
190.6266796657858
 31
0.0
  0
LINE
  5
75C
330
1F
100
AcDbEntity
  8
0
100
AcDbLine
 10
-0.0000000000000355
 20
185.6266769835768
 30
0.0
 11
-0.0000000000000355
 21
109.6266794273672
 31
0.0
  0
LINE
  5
75D
330
1F
100
AcDbEntity
  8
0
100
AcDbLine
 10
92.99999848008153
 20
92.62667850349524
 30
0.0
 11
17.00000092387197
 21
92.62667850349524
 31
0.0
  0
LINE
  5
75E
330
1F
100
AcDbEntity
  8
0
100
AcDbLine
 10
92.99999848008153
 20
202.6266779074488
 30
0.0
 11
17.00000092387197
 21
202.6266779074488
 31
0.0
  0
LINE
  5
75F
330
1F
100
AcDbEntity
  8
0
100
AcDbLine
 10
109.9999994039535
 20
185.6266769835768
 30
0.0
 11
109.9999994039535
 21
109.6266794273672
 31
0.0
  0
ARC
  5
761
330
1F
100
AcDbEntity
  8
LAYER_01
100
AcDbCircle
 10
403.9141588849851
 20
102.1868625519322
 30
0.0
 40
2.299999999999995
100
AcDbArc
 50
90.99999999999555
 51
179.9999999999968
  0
ARC
  5
762
330
1F
100
AcDbEntity
  8
LAYER_01
100
AcDbCircle
 10
403.9141588849851
 20
193.0664938590118
 30
0.0
 40
2.299999999999995
100
AcDbArc
 50
180.0
 51
269.000000000003
  0
LINE
  5
763
330
1F
100
AcDbEntity
  8
LAYER_01
100
AcDbLine
 10
408.6141594512292
 20
102.4470652708826
 30
0.0
 11
408.6141588849852
 21
192.8062901538458
 31
0.0
  0
LINE
  5
764
330
1F
100
AcDbEntity
  8
LAYER_01
100
AcDbLine
 10
408.6141594512292
 20
102.4470652708826
 30
0.0
 11
403.6141588849852
 21
102.4470662570982
 31
0.0
  0
LINE
  5
765
330
1F
100
AcDbEntity
  8
LAYER_01
100
AcDbLine
 10
408.6141588849852
 20
192.8062901538458
 30
0.0
 11
403.6141588849852
 21
192.8062901538458
 31
0.0
  0
LINE
  5
766
330
1F
100
AcDbEntity
  8
LAYER_01
100
AcDbLine
 10
403.6141588849852
 20
192.8062901538458
 30
0.0
 11
403.6141604943105
 21
198.8062883982477
 31
0.0
  0
LINE
  5
767
330
1F
100
AcDbEntity
  8
LAYER_01
100
AcDbLine
 10
403.6141604943105
 20
198.8062883982477
 30
0.0
 11
450.614158884985
 21
199.6266792783556
 31
0.0
  0
LINE
  5
768
330
1F
100
AcDbEntity
  8
LAYER_01
100
AcDbLine
 10
450.614158884985
 20
199.8266789386091
 30
0.0
 11
452.2141588445656
 21
199.8266789386091
 31
0.0
  0
LINE
  5
769
330
1F
100
AcDbEntity
  8
LAYER_01
100
AcDbLine
 10
403.6141604943105
 20
96.44706801269629
 30
0.0
 11
450.614158884985
 21
95.62667713258841
 31
0.0
  0
LINE
  5
76A
330
1F
100
AcDbEntity
  8
LAYER_01
100
AcDbLine
 10
450.614158884985
 20
95.42667747233489
 30
0.0
 11
452.2141588445656
 21
95.42667747233489
 31
0.0
  0
LINE
  5
76B
330
1F
100
AcDbEntity
  8
LAYER_01
100
AcDbLine
 10
403.6141604943105
 20
96.44706801269629
 30
0.0
 11
403.6141588849852
 21
102.4470662570982
 31
0.0
  0
LINE
  5
76C
330
1F
100
AcDbEntity
  8
LAYER_01
100
AcDbLine
 10
401.614160166485
 20
95.12667984459975
 30
0.0
 11
401.6141588849851
 21
102.1868625519323
 31
0.0
  0
LINE
  5
76D
330
1F
100
AcDbEntity
  8
LAYER_01
100
AcDbLine
 10
398.6141578121016
 20
95.12667984459975
 30
0.0
 11
401.614160166485
 21
95.12667984459975
 31
0.0
  0
LINE
  5
76E
330
1F
100
AcDbEntity
  8
LAYER_01
100
AcDbLine
 10
398.6141578121016
 20
200.1266765663443
 30
0.0
 11
401.614160166485
 21
200.1266765663443
 31
0.0
  0
LINE
  5
76F
330
1F
100
AcDbEntity
  8
LAYER_01
100
AcDbLine
 10
401.614160166485
 20
200.1266765663443
 30
0.0
 11
401.6141588849851
 21
193.0664938590118
 31
0.0
  0
LINE
  5
770
330
1F
100
AcDbEntity
  8
LAYER_01
100
AcDbLine
 10
406.6141591234037
 20
104.5343416998205
 30
0.0
 11
406.6141591234037
 21
190.7190147111235
 31
0.0
  0
LINE
  5
771
330
1F
100
AcDbEntity
  8
LAYER_01
100
AcDbLine
 10
406.6141591234037
 20
190.7190147111235
 30
0.0
 11
403.8740183501795
 21
190.7668441601521
 31
0.0
  0
LINE
  5
772
330
1F
100
AcDbEntity
  8
LAYER_01
100
AcDbLine
 10
406.6141591234037
 20
104.5343416998205
 30
0.0
 11
403.8740183501795
 21
104.4865122507919
 31
0.0
  0
ENDSEC
  0
SECTION
  2
OBJECTS
  0
DICTIONARY
  5
C
330
0
100
AcDbDictionary
  3
ACAD_COLOR
350
6C
  3
ACAD_GROUP
350
D
  3
ACAD_LAYOUT
350
1A
  3
ACAD_MATERIAL
350
6B
  3
ACAD_MLINESTYLE
350
17
  3
ACAD_PLOTSETTINGS
350
19
  3
ACAD_TABLESTYLE
350
92
  3
ACDBHEADERROUNDTRIPXREC
350
7BD
  3
ACDBVARIABLEDICTIONARY
350
59
  3
DWGPROPS
350
7DF
  0
DICTIONARY
  5
6C
102
{ACAD_REACTORS
330
C
102
}
330
C
100
AcDbDictionary
  0
DICTIONARY
  5
D
102
{ACAD_REACTORS
330
C
102
}
330
C
100
AcDbDictionary
  0
DICTIONARY
  5
1A
102
{ACAD_REACTORS
330
C
102
}
330
C
100
AcDbDictionary
  0
DICTIONARY
  5
6B
102
{ACAD_REACTORS
330
C
102
}
330
C
100
AcDbDictionary
  0
DICTIONARY
  5
17
102
{ACAD_REACTORS
330
C
102
}
330
C
100
AcDbDictionary
  3
STANDARD
350
18
  0
DICTIONARY
  5
19
102
{ACAD_REACTORS
330
C
102
}
330
C
100
AcDbDictionary
  0
DICTIONARY
  5
92
102
{ACAD_REACTORS
330
C
102
}
330
C
100
AcDbDictionary
  3
STANDARD
350
93
  0
DICTIONARY
  5
7BD
102
{ACAD_REACTORS
330
C
102
}
330
C
100
AcDbDictionary
  3
CEPSNTYPE
350
7C6
  3
COLORDICT
350
7DD
  3
DIMSTYLEDATA
350
7DC
  3
FINGERPRINTGUID
350
7C7
  3
HYPERLINKBASE
350
7C0
  3
INSUNITS
350
7C5
  3
LAYOUTDICT
350
7C2
  3
LWETCUNION
350
7C4
  3
MATERIALDICT
350
7DE
  3
PLOTSETDICT
350
7C3
  3
PSVPSCALE
350
7C9
  3
PUCSBASE
350
7CC
  3
PUCSORGBACK
350
7D2
  3
PUCSORGBOTTOM
350
7CE
  3
PUCSORGFRONT
350
7D1
  3
PUCSORGLEFT
350
7CF
  3
PUCSORGRIGHT
350
7D0
  3
PUCSORGTOP
350
7CD
  3
PUCSORTHOREF
350
7CA
  3
PUCSORTHOVIEW
350
7CB
  3
STYLESHEET
350
7C1
  3
TSTACKALIGN
350
7BE
  3
TSTACKSIZE
350
7BF
  3
UCSBASE
350
7D5
  3
UCSORGBACK
350
7DB
  3
UCSORGBOTTOM
350
7D7
  3
UCSORGFRONT
350
7DA
  3
UCSORGLEFT
350
7D8
  3
UCSORGRIGHT
350
7D9
  3
UCSORGTOP
350
7D6
  3
UCSORTHOREF
350
7D3
  3
UCSORTHOVIEW
350
7D4
  3
VERSIONGUID
350
7C8
  0
DICTIONARY
  5
59
102
{ACAD_REACTORS
330
C
102
}
330
C
100
AcDbDictionary
  3
CTABLESTYLE
350
98
  3
HIDETEXT
350
7B5
  0
XRECORD
  5
7DF
102
{ACAD_REACTORS
330
C
102
}
330
C
100
AcDbXrecord
  1
DWGPROPS COOKIE
  2

  3

  4

  6

  7

  8
fottrem
  9

300
=
301
=
302
=
303
=
304
=
305
=
306
=
307
=
308
=
309
=
 40
0.0
 41
2453353.717125822
 42
2454692.506208762
  1

 90
        0
  0
MLINESTYLE
  5
18
102
{ACAD_REACTORS
330
17
102
}
330
17
100
AcDbMlineStyle
  2
Standard
 70
     0
  3

 62
   256
 51
90.0
 52
90.0
 71
     2
 49
0.5
 62
   256
  6
BYLAYER
 49
-0.5
 62
   256
  6
BYLAYER
  0
TABLESTYLE
  5
93
102
{ACAD_REACTORS
330
92
102
}
330
92
100
AcDbTableStyle
  3
Standard
 70
     0
 71
     0
 40
0.06
 41
0.06
280
     0
281
     0
  7
STANDARD
140
0.18
170
     2
 62
     0
 63
     7
283
     0
274
    -2
284
     1
 64
     0
275
    -2
285
     1
 65
     0
276
    -2
286
     1
 66
     0
277
    -2
287
     1
 67
     0
278
    -2
288
     1
 68
     0
279
    -2
289
     1
 69
     0
  7
STANDARD
140
0.25
170
     5
 62
     0
 63
     7
283
     0
274
    -2
284
     1
 64
     0
275
    -2
285
     1
 65
     0
276
    -2
286
     1
 66
     0
277
    -2
287
     1
 67
     0
278
    -2
288
     1
 68
     0
279
    -2
289
     1
 69
     0
  7
STANDARD
140
0.18
170
     5
 62
     0
 63
     7
283
     0
274
    -2
284
     1
 64
     0
275
    -2
285
     1
 65
     0
276
    -2
286
     1
 66
     0
277
    -2
287
     1
 67
     0
278
    -2
288
     1
 68
     0
279
    -2
289
     1
 69
     0
  0
XRECORD
  5
7C6
102
{ACAD_REACTORS
330
7BD
102
}
330
7BD
100
AcDbXrecord
 90
        0
  0
XRECORD
  5
7DD
102
{ACAD_REACTORS
330
7BD
102
}
330
7BD
100
AcDbXrecord
340
6C
  0
XRECORD
  5
7DC
102
{ACAD_REACTORS
330
7BD
102
}
330
7BD
100
AcDbXrecord
1000
DSTYLE
1002
{
1070
   340
340
11
1002
}
  0
XRECORD
  5
7C7
102
{ACAD_REACTORS
330
7BD
102
}
330
7BD
100
AcDbXrecord
  1
{FAEB1C30-E019-11D5-929B-00C0DF256EC4}
  0
XRECORD
  5
7C0
102
{ACAD_REACTORS
330
7BD
102
}
330
7BD
100
AcDbXrecord
  1

  0
XRECORD
  5
7C5
102
{ACAD_REACTORS
330
7BD
102
}
330
7BD
100
AcDbXrecord
 90
        4
  0
XRECORD
  5
7C2
102
{ACAD_REACTORS
330
7BD
102
}
330
7BD
100
AcDbXrecord
340
1A
  0
XRECORD
  5
7C4
102
{ACAD_REACTORS
330
7BD
102
}
330
7BD
100
AcDbXrecord
 90
     3584
  0
XRECORD
  5
7DE
102
{ACAD_REACTORS
330
7BD
102
}
330
7BD
100
AcDbXrecord
340
6B
  0
XRECORD
  5
7C3
102
{ACAD_REACTORS
330
7BD
102
}
330
7BD
100
AcDbXrecord
340
19
  0
XRECORD
  5
7C9
102
{ACAD_REACTORS
330
7BD
102
}
330
7BD
100
AcDbXrecord
 40
0.0
  0
XRECORD
  5
7CC
102
{ACAD_REACTORS
330
7BD
102
}
330
7BD
100
AcDbXrecord
340
0
  0
XRECORD
  5
7D2
102
{ACAD_REACTORS
330
7BD
102
}
330
7BD
100
AcDbXrecord
 10
0.0
 20
0.0
 30
0.0
  0
XRECORD
  5
7CE
102
{ACAD_REACTORS
330
7BD
102
}
330
7BD
100
AcDbXrecord
 10
0.0
 20
0.0
 30
0.0
  0
XRECORD
  5
7D1
102
{ACAD_REACTORS
330
7BD
102
}
330
7BD
100
AcDbXrecord
 10
0.0
 20
0.0
 30
0.0
  0
XRECORD
  5
7CF
102
{ACAD_REACTORS
330
7BD
102
}
330
7BD
100
AcDbXrecord
 10
0.0
 20
0.0
 30
0.0
  0
XRECORD
  5
7D0
102
{ACAD_REACTORS
330
7BD
102
}
330
7BD
100
AcDbXrecord
 10
0.0
 20
0.0
 30
0.0
  0
XRECORD
  5
7CD
102
{ACAD_REACTORS
330
7BD
102
}
330
7BD
100
AcDbXrecord
 10
0.0
 20
0.0
 30
0.0
  0
XRECORD
  5
7CA
102
{ACAD_REACTORS
330
7BD
102
}
330
7BD
100
AcDbXrecord
340
0
  0
XRECORD
  5
7CB
102
{ACAD_REACTORS
330
7BD
102
}
330
7BD
100
AcDbXrecord
 70
     0
  0
XRECORD
  5
7C1
102
{ACAD_REACTORS
330
7BD
102
}
330
7BD
100
AcDbXrecord
  1

  0
XRECORD
  5
7BE
102
{ACAD_REACTORS
330
7BD
102
}
330
7BD
100
AcDbXrecord
 90
        1
  0
XRECORD
  5
7BF
102
{ACAD_REACTORS
330
7BD
102
}
330
7BD
100
AcDbXrecord
 90
       70
  0
XRECORD
  5
7D5
102
{ACAD_REACTORS
330
7BD
102
}
330
7BD
100
AcDbXrecord
340
0
  0
XRECORD
  5
7DB
102
{ACAD_REACTORS
330
7BD
102
}
330
7BD
100
AcDbXrecord
 10
0.0
 20
0.0
 30
0.0
  0
XRECORD
  5
7D7
102
{ACAD_REACTORS
330
7BD
102
}
330
7BD
100
AcDbXrecord
 10
0.0
 20
0.0
 30
0.0
  0
XRECORD
  5
7DA
102
{ACAD_REACTORS
330
7BD
102
}
330
7BD
100
AcDbXrecord
 10
0.0
 20
0.0
 30
0.0
  0
XRECORD
  5
7D8
102
{ACAD_REACTORS
330
7BD
102
}
330
7BD
100
AcDbXrecord
 10
0.0
 20
0.0
 30
0.0
  0
XRECORD
  5
7D9
102
{ACAD_REACTORS
330
7BD
102
}
330
7BD
100
AcDbXrecord
 10
0.0
 20
0.0
 30
0.0
  0
XRECORD
  5
7D6
102
{ACAD_REACTORS
330
7BD
102
}
330
7BD
100
AcDbXrecord
 10
0.0
 20
0.0
 30
0.0
  0
XRECORD
  5
7D3
102
{ACAD_REACTORS
330
7BD
102
}
330
7BD
100
AcDbXrecord
340
0
  0
XRECORD
  5
7D4
102
{ACAD_REACTORS
330
7BD
102
}
330
7BD
100
AcDbXrecord
 70
     0
  0
XRECORD
  5
7C8
102
{ACAD_REACTORS
330
7BD
102
}
330
7BD
100
AcDbXrecord
  1
{FAEB1C32-E019-11D5-929B-00C0DF256EC4}
  0
DICTIONARYVAR
  5
98
102
{ACAD_REACTORS
330
59
102
}
330
59
100
DictionaryVariables
280
     0
  1
STANDARD
  0
DICTIONARYVAR
  5
7B5
102
{ACAD_REACTORS
330
59
102
}
330
59
100
DictionaryVariables
280
     0
  1
1
  0
ENDSEC
  0
EOF
