  0
SECTION
  2
HEADER
  9
$ACADVER
  1
AC1014
  9
$ACADMAINTVER
 70
     0
  9
$DWGCODEPAGE
  3
ANSI_1252
  9
$INSBASE
 10
0.0
 20
0.0
 30
0.0
  9
$EXTMIN
 10
22.048635
 20
84.993104
 30
0.0
  9
$EXTMAX
 10
955.071569
 20
658.580983
 30
0.0
  9
$LIMMIN
 10
0.0
 20
0.0
  9
$LIMMAX
 10
0.0
 20
0.0
  9
$ORTHOMODE
 70
     0
  9
$REGENMODE
 70
     1
  9
$FILLMODE
 70
     1
  9
$QTEXTMODE
 70
     0
  9
$MIRRTEXT
 70
     1
  9
$DRAGMODE
 70
     2
  9
$LTSCALE
 40
3.0
  9
$OSMODE
 70
    37
  9
$ATTMODE
 70
     1
  9
$TEXTSIZE
 40
10.0
  9
$TRACEWID
 40
1.0
  9
$TEXTSTYLE
  7
STANDARD
  9
$CLAYER
  8
0
  9
$CELTYPE
  6
BYLAYER
  9
$CECOLOR
 62
   256
  9
$CELTSCALE
 40
1.0
  9
$DELOBJ
 70
     1
  9
$DISPSILH
 70
     0
  9
$DIMSCALE
 40
1.0
  9
$DIMASZ
 40
6.0
  9
$DIMEXO
 40
1.0
  9
$DIMDLI
 40
3.75
  9
$DIMRND
 40
0.0
  9
$DIMDLE
 40
0.0
  9
$DIMEXE
 40
1.0
  9
$DIMTP
 40
0.0
  9
$DIMTM
 40
0.0
  9
$DIMTXT
 40
3.5
  9
$DIMCEN
 40
2.5
  9
$DIMTSZ
 40
0.0
  9
$DIMTOL
 70
     0
  9
$DIMLIM
 70
     0
  9
$DIMTIH
 70
     1
  9
$DIMTOH
 70
     1
  9
$DIMSE1
 70
     0
  9
$DIMSE2
 70
     0
  9
$DIMTAD
 70
     1
  9
$DIMZIN
 70
     0
  9
$DIMBLK
  1

  9
$DIMASO
 70
     1
  9
$DIMSHO
 70
     1
  9
$DIMPOST
  1

  9
$DIMAPOST
  1

  9
$DIMALT
 70
     0
  9
$DIMALTD
 70
     3
  9
$DIMALTF
 40
0.03937
  9
$DIMLFAC
 40
1.0
  9
$DIMTOFL
 70
     1
  9
$DIMTVP
 40
0.0
  9
$DIMTIX
 70
     0
  9
$DIMSOXD
 70
     0
  9
$DIMSAH
 70
     0
  9
$DIMBLK1
  1

  9
$DIMBLK2
  1

  9
$DIMSTYLE
  2
ISO-25
  9
$DIMCLRD
 70
     0
  9
$DIMCLRE
 70
     0
  9
$DIMCLRT
 70
     0
  9
$DIMTFAC
 40
1.0
  9
$DIMGAP
 40
1.524
  9
$DIMJUST
 70
     0
  9
$DIMSD1
 70
     0
  9
$DIMSD2
 70
     0
  9
$DIMTOLJ
 70
     0
  9
$DIMTZIN
 70
     0
  9
$DIMALTZ
 70
     0
  9
$DIMALTTZ
 70
     0
  9
$DIMFIT
 70
     3
  9
$DIMUPT
 70
     0
  9
$DIMUNIT
 70
     2
  9
$DIMDEC
 70
     2
  9
$DIMTDEC
 70
     2
  9
$DIMALTU
 70
     2
  9
$DIMALTTD
 70
     3
  9
$DIMTXSTY
  7
STANDARD
  9
$DIMAUNIT
 70
     0
  9
$LUNITS
 70
     2
  9
$LUPREC
 70
     2
  9
$SKETCHINC
 40
1.0
  9
$FILLETRAD
 40
10.0
  9
$AUNITS
 70
     0
  9
$AUPREC
 70
     0
  9
$MENU
  1
.
  9
$ELEVATION
 40
0.0
  9
$PELEVATION
 40
0.0
  9
$THICKNESS
 40
0.0
  9
$LIMCHECK
 70
     0
  9
$BLIPMODE
 70
     0
  9
$CHAMFERA
 40
10.0
  9
$CHAMFERB
 40
10.0
  9
$CHAMFERC
 40
20.0
  9
$CHAMFERD
 40
0.0
  9
$SKPOLY
 70
     0
  9
$TDCREATE
 40
2454075.525485451
  9
$TDUPDATE
 40
2454075.654035231
  9
$TDINDWG
 40
0.0024490394
  9
$TDUSRTIMER
 40
0.0024490394
  9
$USRTIMER
 70
     1
  9
$ANGBASE
 50
0.0
  9
$ANGDIR
 70
     0
  9
$PDMODE
 70
     0
  9
$PDSIZE
 40
-1.0
  9
$PLINEWID
 40
0.0
  9
$COORDS
 70
     1
  9
$SPLFRAME
 70
     0
  9
$SPLINETYPE
 70
     6
  9
$SPLINESEGS
 70
     8
  9
$ATTDIA
 70
     0
  9
$ATTREQ
 70
     1
  9
$HANDLING
 70
     1
  9
$HANDSEED
  5
270
  9
$SURFTAB1
 70
     6
  9
$SURFTAB2
 70
     6
  9
$SURFTYPE
 70
     6
  9
$SURFU
 70
     6
  9
$SURFV
 70
     6
  9
$UCSNAME
  2

  9
$UCSORG
 10
0.0
 20
0.0
 30
0.0
  9
$UCSXDIR
 10
1.0
 20
0.0
 30
0.0
  9
$UCSYDIR
 10
0.0
 20
1.0
 30
0.0
  9
$PUCSNAME
  2

  9
$PUCSORG
 10
0.0
 20
0.0
 30
0.0
  9
$PUCSXDIR
 10
1.0
 20
0.0
 30
0.0
  9
$PUCSYDIR
 10
0.0
 20
1.0
 30
0.0
  9
$USERI1
 70
     0
  9
$USERI2
 70
     0
  9
$USERI3
 70
     0
  9
$USERI4
 70
     0
  9
$USERI5
 70
     0
  9
$USERR1
 40
0.0
  9
$USERR2
 40
0.0
  9
$USERR3
 40
0.0
  9
$USERR4
 40
0.0
  9
$USERR5
 40
0.0
  9
$WORLDVIEW
 70
     1
  9
$SHADEDGE
 70
     3
  9
$SHADEDIF
 70
    70
  9
$TILEMODE
 70
     1
  9
$MAXACTVP
 70
    64
  9
$PINSBASE
 10
0.0
 20
0.0
 30
0.0
  9
$PLIMCHECK
 70
     0
  9
$PEXTMIN
 10
1.000000E+20
 20
1.000000E+20
 30
1.000000E+20
  9
$PEXTMAX
 10
-1.000000E+20
 20
-1.000000E+20
 30
-1.000000E+20
  9
$PLIMMIN
 10
0.0
 20
0.0
  9
$PLIMMAX
 10
420.0
 20
297.0
  9
$UNITMODE
 70
     0
  9
$VISRETAIN
 70
     1
  9
$PLINEGEN
 70
     0
  9
$PSLTSCALE
 70
     1
  9
$TREEDEPTH
 70
  3020
  9
$PICKSTYLE
 70
     1
  9
$CMLSTYLE
  2
STANDARD
  9
$CMLJUST
 70
     0
  9
$CMLSCALE
 40
20.0
  9
$PROXYGRAPHICS
 70
     1
  9
$MEASUREMENT
 70
     1
  0
ENDSEC
  0
SECTION
  2
CLASSES
  0
CLASS
  1
ACDBDICTIONARYWDFLT
  2
AcDbDictionaryWithDefault
  3
ObjectDBX Classes
 90
        0
280
     0
281
     0
  0
CLASS
  1
XRECORD
  2
AcDbXrecord
  3
"<Built In>"
 90
        0
280
     0
281
     0
  0
CLASS
  1
LWPOLYLINE
  2
AcDbPolyline
  3
"AutoCAD"
 90
        0
280
     0
281
     1
  0
CLASS
  1
HATCH
  2
AcDbHatch
  3
"ACAD_SEDONA"
 90
        0
280
     0
281
     1
  0
CLASS
  1
ACDBPLACEHOLDER
  2
AcDbPlaceHolder
  3
ObjectDBX Classes
 90
        0
280
     0
281
     0
  0
CLASS
  1
LAYOUT
  2
AcDbLayout
  3
ObjectDBX Classes
 90
        0
280
     0
281
     0
  0
ENDSEC
  0
SECTION
  2
TABLES
  0
TABLE
  2
VPORT
  5
8
100
AcDbSymbolTable
 70
     2
  0
VPORT
  5
26F
100
AcDbSymbolTableRecord
100
AcDbViewportTableRecord
  2
*ACTIVE
 70
     0
 10
0.0
 20
0.0
 11
1.0
 21
1.0
 12
477.535784
 22
329.290491
 13
0.0
 23
0.0
 14
10.0
 24
10.0
 15
10.0
 25
10.0
 16
0.0
 26
0.0
 36
1.0
 17
0.0
 27
0.0
 37
0.0
 40
666.250908
 41
1.440781
 42
50.0
 43
0.0
 44
0.0
 50
0.0
 51
0.0
 71
     0
 72
  2000
 73
     1
 74
     3
 75
     0
 76
     0
 77
     0
 78
     0
  0
ENDTAB
  0
TABLE
  2
LTYPE
  5
5
100
AcDbSymbolTable
 70
     6
  0
LTYPE
  5
14
102
{ACAD_XDICTIONARY
360
261
102
}
100
AcDbSymbolTableRecord
100
AcDbLinetypeTableRecord
  2
BYBLOCK
 70
     0
  3

 72
    65
 73
     0
 40
0.0
  0
LTYPE
  5
15
102
{ACAD_XDICTIONARY
360
263
102
}
100
AcDbSymbolTableRecord
100
AcDbLinetypeTableRecord
  2
BYLAYER
 70
     0
  3

 72
    65
 73
     0
 40
0.0
  0
LTYPE
  5
16
102
{ACAD_XDICTIONARY
360
265
102
}
100
AcDbSymbolTableRecord
100
AcDbLinetypeTableRecord
  2
CONTINUOUS
 70
     0
  3
Solid line
 72
    65
 73
     0
 40
0.0
  0
LTYPE
  5
2A
100
AcDbSymbolTableRecord
100
AcDbLinetypeTableRecord
  2
HIDDEN
 70
     0
  3
Hidden __ __ __ __ __ __ __ __ __ __ __ __ __ __
 72
    65
 73
     2
 40
1.905
 49
1.27
 74
     0
 49
-0.635
 74
     0
  0
LTYPE
  5
2B
100
AcDbSymbolTableRecord
100
AcDbLinetypeTableRecord
  2
PHANTOM
 70
     0
  3
Phantom ______  __  __  ______  __  __  ______
 72
    65
 73
     6
 40
12.7
 49
6.35
 74
     0
 49
-1.27
 74
     0
 49
1.27
 74
     0
 49
-1.27
 74
     0
 49
1.27
 74
     0
 49
-1.27
 74
     0
  0
LTYPE
  5
2C
100
AcDbSymbolTableRecord
100
AcDbLinetypeTableRecord
  2
CENTER
 70
     0
  3
Center ____ _ ____ _ ____ _ ____ _ ____ _ ____
 72
    65
 73
     4
 40
10.16
 49
6.35
 74
     0
 49
-1.27
 74
     0
 49
1.27
 74
     0
 49
-1.27
 74
     0
  0
LTYPE
  5
2D
100
AcDbSymbolTableRecord
100
AcDbLinetypeTableRecord
  2
CENTERX2
 70
     0
  3
Center (2x) ________  __  ________  __  _____
 72
    65
 73
     4
 40
20.32
 49
12.7
 74
     0
 49
-2.54
 74
     0
 49
2.54
 74
     0
 49
-2.54
 74
     0
  0
LTYPE
  5
2E
100
AcDbSymbolTableRecord
100
AcDbLinetypeTableRecord
  2
DOT2
 70
     0
  3
Dot (.5x) ........................................
 72
    65
 73
     2
 40
0.635
 49
0.0
 74
     0
 49
-0.635
 74
     0
  0
ENDTAB
  0
TABLE
  2
LAYER
  5
2
100
AcDbSymbolTable
 70
     1
  0
LAYER
  5
10
100
AcDbSymbolTableRecord
100
AcDbLayerTableRecord
  2
0
 70
     0
 62
     7
  6
CONTINUOUS
  0
ENDTAB
  0
TABLE
  2
STYLE
  5
3
100
AcDbSymbolTable
 70
     1
  0
STYLE
  5
11
102
{ACAD_XDICTIONARY
360
25F
102
}
100
AcDbSymbolTableRecord
100
AcDbTextStyleTableRecord
  2
STANDARD
 70
     0
 40
0.0
 41
1.0
 50
0.0
 71
     0
 42
10.0
  3
txt
  4

  0
ENDTAB
  0
TABLE
  2
VIEW
  5
6
100
AcDbSymbolTable
 70
     0
  0
ENDTAB
  0
TABLE
  2
UCS
  5
7
100
AcDbSymbolTable
 70
     0
  0
ENDTAB
  0
TABLE
  2
APPID
  5
9
100
AcDbSymbolTable
 70
     1
  0
APPID
  5
12
100
AcDbSymbolTableRecord
100
AcDbRegAppTableRecord
  2
ACAD
 70
     0
  0
ENDTAB
  0
TABLE
  2
DIMSTYLE
  5
A
100
AcDbSymbolTable
 70
     1
  0
DIMSTYLE
105
27
102
{ACAD_XDICTIONARY
360
269
102
}
100
AcDbSymbolTableRecord
100
AcDbDimStyleTableRecord
  2
ISO-25
 70
     0
  3

  4

  5

  6

  7

 40
1.0
 41
2.5
 42
0.625
 43
3.75
 44
1.25
 45
0.0
 46
0.0
 47
0.0
 48
0.0
140
2.5
141
2.5
142
0.0
143
0.03937
144
1.0
145
0.0
146
1.0
147
0.625
 71
     0
 72
     0
 73
     0
 74
     0
 75
     0
 76
     0
 77
     1
 78
     8
170
     0
171
     3
172
     1
173
     0
174
     0
175
     0
176
     0
177
     0
178
     0
270
     2
271
     2
272
     2
273
     2
274
     3
340
11
275
     0
280
     0
281
     0
282
     0
283
     0
284
     8
285
     0
286
     0
287
     3
288
     0
  0
ENDTAB
  0
TABLE
  2
BLOCK_RECORD
  5
1
100
AcDbSymbolTable
 70
    17
  0
BLOCK_RECORD
  5
1F
102
{ACAD_XDICTIONARY
360
256
102
}
100
AcDbSymbolTableRecord
100
AcDbBlockTableRecord
  2
*MODEL_SPACE
  0
BLOCK_RECORD
  5
1B
102
{ACAD_XDICTIONARY
360
254
102
}
100
AcDbSymbolTableRecord
100
AcDbBlockTableRecord
  2
*PAPER_SPACE
  0
BLOCK_RECORD
  5
23
102
{ACAD_XDICTIONARY
360
258
102
}
100
AcDbSymbolTableRecord
100
AcDbBlockTableRecord
  2
*PAPER_SPACE0
  0
BLOCK_RECORD
  5
B7
100
AcDbSymbolTableRecord
100
AcDbBlockTableRecord
  2
SW_CENTERMARKSYMBOL_0
  0
BLOCK_RECORD
  5
BF
100
AcDbSymbolTableRecord
100
AcDbBlockTableRecord
  2
SW_CENTERMARKSYMBOL_1
  0
BLOCK_RECORD
  5
C7
100
AcDbSymbolTableRecord
100
AcDbBlockTableRecord
  2
SW_CENTERMARKSYMBOL_2
  0
BLOCK_RECORD
  5
CF
100
AcDbSymbolTableRecord
100
AcDbBlockTableRecord
  2
SW_CENTERMARKSYMBOL_3
  0
BLOCK_RECORD
  5
D7
100
AcDbSymbolTableRecord
100
AcDbBlockTableRecord
  2
SW_CENTERMARKSYMBOL_4
  0
BLOCK_RECORD
  5
DF
100
AcDbSymbolTableRecord
100
AcDbBlockTableRecord
  2
SW_CENTERMARKSYMBOL_5
  0
BLOCK_RECORD
  5
E7
100
AcDbSymbolTableRecord
100
AcDbBlockTableRecord
  2
SW_CENTERMARKSYMBOL_6
  0
BLOCK_RECORD
  5
EF
100
AcDbSymbolTableRecord
100
AcDbBlockTableRecord
  2
SW_CENTERMARKSYMBOL_7
  0
BLOCK_RECORD
  5
F7
100
AcDbSymbolTableRecord
100
AcDbBlockTableRecord
  2
SW_CENTERMARKSYMBOL_8
  0
BLOCK_RECORD
  5
FF
100
AcDbSymbolTableRecord
100
AcDbBlockTableRecord
  2
SW_CENTERMARKSYMBOL_9
  0
BLOCK_RECORD
  5
107
100
AcDbSymbolTableRecord
100
AcDbBlockTableRecord
  2
SW_CENTERMARKSYMBOL_10
  0
BLOCK_RECORD
  5
10F
100
AcDbSymbolTableRecord
100
AcDbBlockTableRecord
  2
SW_CENTERMARKSYMBOL_11
  0
BLOCK_RECORD
  5
15F
100
AcDbSymbolTableRecord
100
AcDbBlockTableRecord
  2
SW_CENTERMARKSYMBOL_12
  0
BLOCK_RECORD
  5
16B
100
AcDbSymbolTableRecord
100
AcDbBlockTableRecord
  2
SW_CENTERMARKSYMBOL_13
  0
BLOCK_RECORD
  5
177
100
AcDbSymbolTableRecord
100
AcDbBlockTableRecord
  2
SW_CENTERMARKSYMBOL_14
  0
BLOCK_RECORD
  5
183
100
AcDbSymbolTableRecord
100
AcDbBlockTableRecord
  2
SW_CENTERMARKSYMBOL_15
  0
ENDTAB
  0
ENDSEC
  0
SECTION
  2
BLOCKS
  0
BLOCK
  5
20
100
AcDbEntity
  8
0
100
AcDbBlockBegin
  2
*MODEL_SPACE
 70
     0
 10
0.0
 20
0.0
 30
0.0
  3
*MODEL_SPACE
  1

  0
ENDBLK
  5
21
100
AcDbEntity
  8
0
100
AcDbBlockEnd
  0
BLOCK
  5
1C
100
AcDbEntity
 67
     1
  8
0
100
AcDbBlockBegin
  2
*PAPER_SPACE
 70
     0
 10
0.0
 20
0.0
 30
0.0
  3
*PAPER_SPACE
  1

  0
ENDBLK
  5
1D
100
AcDbEntity
 67
     1
  8
0
100
AcDbBlockEnd
  0
BLOCK
  5
24
100
AcDbEntity
  8
0
100
AcDbBlockBegin
  2
*PAPER_SPACE0
 70
     0
 10
0.0
 20
0.0
 30
0.0
  3
*PAPER_SPACE0
  1

  0
ENDBLK
  5
25
100
AcDbEntity
  8
0
100
AcDbBlockEnd
  0
BLOCK
  5
B8
100
AcDbEntity
  8
0
100
AcDbBlockBegin
  2
SW_CENTERMARKSYMBOL_0
 70
     0
 10
0.0
 20
0.0
 30
0.0
  3
SW_CENTERMARKSYMBOL_0
  1

  0
LINE
  5
BA
100
AcDbEntity
  8
0
  6
CONTINUOUS
 62
     7
100
AcDbLine
 10
0.0
 20
0.0
 30
0.0
 11
0.0
 21
0.5
 31
0.0
  0
LINE
  5
BB
100
AcDbEntity
  8
0
  6
CONTINUOUS
 62
     7
100
AcDbLine
 10
0.0
 20
0.0
 30
0.0
 11
-0.5
 21
0.0
 31
0.0
  0
LINE
  5
BC
100
AcDbEntity
  8
0
  6
CONTINUOUS
 62
     7
100
AcDbLine
 10
0.0
 20
0.0
 30
0.0
 11
0.0
 21
-0.5
 31
0.0
  0
LINE
  5
BD
100
AcDbEntity
  8
0
  6
CONTINUOUS
 62
     7
100
AcDbLine
 10
0.0
 20
0.0
 30
0.0
 11
0.5
 21
0.0
 31
0.0
  0
ENDBLK
  5
B9
100
AcDbEntity
  8
0
100
AcDbBlockEnd
  0
BLOCK
  5
C0
100
AcDbEntity
  8
0
100
AcDbBlockBegin
  2
SW_CENTERMARKSYMBOL_1
 70
     0
 10
0.0
 20
0.0
 30
0.0
  3
SW_CENTERMARKSYMBOL_1
  1

  0
LINE
  5
C2
100
AcDbEntity
  8
0
  6
CONTINUOUS
 62
     7
100
AcDbLine
 10
0.0
 20
0.0
 30
0.0
 11
0.0
 21
0.5
 31
0.0
  0
LINE
  5
C3
100
AcDbEntity
  8
0
  6
CONTINUOUS
 62
     7
100
AcDbLine
 10
0.0
 20
0.0
 30
0.0
 11
-0.5
 21
0.0
 31
0.0
  0
LINE
  5
C4
100
AcDbEntity
  8
0
  6
CONTINUOUS
 62
     7
100
AcDbLine
 10
0.0
 20
0.0
 30
0.0
 11
0.0
 21
-0.5
 31
0.0
  0
LINE
  5
C5
100
AcDbEntity
  8
0
  6
CONTINUOUS
 62
     7
100
AcDbLine
 10
0.0
 20
0.0
 30
0.0
 11
0.5
 21
0.0
 31
0.0
  0
ENDBLK
  5
C1
100
AcDbEntity
  8
0
100
AcDbBlockEnd
  0
BLOCK
  5
C8
100
AcDbEntity
  8
0
100
AcDbBlockBegin
  2
SW_CENTERMARKSYMBOL_2
 70
     0
 10
0.0
 20
0.0
 30
0.0
  3
SW_CENTERMARKSYMBOL_2
  1

  0
LINE
  5
CA
100
AcDbEntity
  8
0
  6
CONTINUOUS
 62
     7
100
AcDbLine
 10
0.0
 20
0.0
 30
0.0
 11
0.0
 21
0.5
 31
0.0
  0
LINE
  5
CB
100
AcDbEntity
  8
0
  6
CONTINUOUS
 62
     7
100
AcDbLine
 10
0.0
 20
0.0
 30
0.0
 11
-0.5
 21
0.0
 31
0.0
  0
LINE
  5
CC
100
AcDbEntity
  8
0
  6
CONTINUOUS
 62
     7
100
AcDbLine
 10
0.0
 20
0.0
 30
0.0
 11
0.0
 21
-0.5
 31
0.0
  0
LINE
  5
CD
100
AcDbEntity
  8
0
  6
CONTINUOUS
 62
     7
100
AcDbLine
 10
0.0
 20
0.0
 30
0.0
 11
0.5
 21
0.0
 31
0.0
  0
ENDBLK
  5
C9
100
AcDbEntity
  8
0
100
AcDbBlockEnd
  0
BLOCK
  5
D0
100
AcDbEntity
  8
0
100
AcDbBlockBegin
  2
SW_CENTERMARKSYMBOL_3
 70
     0
 10
0.0
 20
0.0
 30
0.0
  3
SW_CENTERMARKSYMBOL_3
  1

  0
LINE
  5
D2
100
AcDbEntity
  8
0
  6
CONTINUOUS
 62
     7
100
AcDbLine
 10
0.0
 20
0.0
 30
0.0
 11
0.0
 21
0.5
 31
0.0
  0
LINE
  5
D3
100
AcDbEntity
  8
0
  6
CONTINUOUS
 62
     7
100
AcDbLine
 10
0.0
 20
0.0
 30
0.0
 11
-0.5
 21
0.0
 31
0.0
  0
LINE
  5
D4
100
AcDbEntity
  8
0
  6
CONTINUOUS
 62
     7
100
AcDbLine
 10
0.0
 20
0.0
 30
0.0
 11
0.0
 21
-0.5
 31
0.0
  0
LINE
  5
D5
100
AcDbEntity
  8
0
  6
CONTINUOUS
 62
     7
100
AcDbLine
 10
0.0
 20
0.0
 30
0.0
 11
0.5
 21
0.0
 31
0.0
  0
ENDBLK
  5
D1
100
AcDbEntity
  8
0
100
AcDbBlockEnd
  0
BLOCK
  5
D8
100
AcDbEntity
  8
0
100
AcDbBlockBegin
  2
SW_CENTERMARKSYMBOL_4
 70
     0
 10
0.0
 20
0.0
 30
0.0
  3
SW_CENTERMARKSYMBOL_4
  1

  0
LINE
  5
DA
100
AcDbEntity
  8
0
  6
CONTINUOUS
 62
     7
100
AcDbLine
 10
0.0
 20
0.0
 30
0.0
 11
0.0
 21
0.5
 31
0.0
  0
LINE
  5
DB
100
AcDbEntity
  8
0
  6
CONTINUOUS
 62
     7
100
AcDbLine
 10
0.0
 20
0.0
 30
0.0
 11
-0.5
 21
0.0
 31
0.0
  0
LINE
  5
DC
100
AcDbEntity
  8
0
  6
CONTINUOUS
 62
     7
100
AcDbLine
 10
0.0
 20
0.0
 30
0.0
 11
0.0
 21
-0.5
 31
0.0
  0
LINE
  5
DD
100
AcDbEntity
  8
0
  6
CONTINUOUS
 62
     7
100
AcDbLine
 10
0.0
 20
0.0
 30
0.0
 11
0.5
 21
0.0
 31
0.0
  0
ENDBLK
  5
D9
100
AcDbEntity
  8
0
100
AcDbBlockEnd
  0
BLOCK
  5
E0
100
AcDbEntity
  8
0
100
AcDbBlockBegin
  2
SW_CENTERMARKSYMBOL_5
 70
     0
 10
0.0
 20
0.0
 30
0.0
  3
SW_CENTERMARKSYMBOL_5
  1

  0
LINE
  5
E2
100
AcDbEntity
  8
0
  6
CONTINUOUS
 62
     7
100
AcDbLine
 10
0.0
 20
0.0
 30
0.0
 11
0.0
 21
0.5
 31
0.0
  0
LINE
  5
E3
100
AcDbEntity
  8
0
  6
CONTINUOUS
 62
     7
100
AcDbLine
 10
0.0
 20
0.0
 30
0.0
 11
-0.5
 21
0.0
 31
0.0
  0
LINE
  5
E4
100
AcDbEntity
  8
0
  6
CONTINUOUS
 62
     7
100
AcDbLine
 10
0.0
 20
0.0
 30
0.0
 11
0.0
 21
-0.5
 31
0.0
  0
LINE
  5
E5
100
AcDbEntity
  8
0
  6
CONTINUOUS
 62
     7
100
AcDbLine
 10
0.0
 20
0.0
 30
0.0
 11
0.5
 21
0.0
 31
0.0
  0
ENDBLK
  5
E1
100
AcDbEntity
  8
0
100
AcDbBlockEnd
  0
BLOCK
  5
E8
100
AcDbEntity
  8
0
100
AcDbBlockBegin
  2
SW_CENTERMARKSYMBOL_6
 70
     0
 10
0.0
 20
0.0
 30
0.0
  3
SW_CENTERMARKSYMBOL_6
  1

  0
LINE
  5
EA
100
AcDbEntity
  8
0
  6
CONTINUOUS
 62
     7
100
AcDbLine
 10
0.0
 20
0.0
 30
0.0
 11
0.0
 21
0.5
 31
0.0
  0
LINE
  5
EB
100
AcDbEntity
  8
0
  6
CONTINUOUS
 62
     7
100
AcDbLine
 10
0.0
 20
0.0
 30
0.0
 11
-0.5
 21
0.0
 31
0.0
  0
LINE
  5
EC
100
AcDbEntity
  8
0
  6
CONTINUOUS
 62
     7
100
AcDbLine
 10
0.0
 20
0.0
 30
0.0
 11
0.0
 21
-0.5
 31
0.0
  0
LINE
  5
ED
100
AcDbEntity
  8
0
  6
CONTINUOUS
 62
     7
100
AcDbLine
 10
0.0
 20
0.0
 30
0.0
 11
0.5
 21
0.0
 31
0.0
  0
ENDBLK
  5
E9
100
AcDbEntity
  8
0
100
AcDbBlockEnd
  0
BLOCK
  5
F0
100
AcDbEntity
  8
0
100
AcDbBlockBegin
  2
SW_CENTERMARKSYMBOL_7
 70
     0
 10
0.0
 20
0.0
 30
0.0
  3
SW_CENTERMARKSYMBOL_7
  1

  0
LINE
  5
F2
100
AcDbEntity
  8
0
  6
CONTINUOUS
 62
     7
100
AcDbLine
 10
0.0
 20
0.0
 30
0.0
 11
0.0
 21
0.5
 31
0.0
  0
LINE
  5
F3
100
AcDbEntity
  8
0
  6
CONTINUOUS
 62
     7
100
AcDbLine
 10
0.0
 20
0.0
 30
0.0
 11
-0.5
 21
0.0
 31
0.0
  0
LINE
  5
F4
100
AcDbEntity
  8
0
  6
CONTINUOUS
 62
     7
100
AcDbLine
 10
0.0
 20
0.0
 30
0.0
 11
0.0
 21
-0.5
 31
0.0
  0
LINE
  5
F5
100
AcDbEntity
  8
0
  6
CONTINUOUS
 62
     7
100
AcDbLine
 10
0.0
 20
0.0
 30
0.0
 11
0.5
 21
0.0
 31
0.0
  0
ENDBLK
  5
F1
100
AcDbEntity
  8
0
100
AcDbBlockEnd
  0
BLOCK
  5
F8
100
AcDbEntity
  8
0
100
AcDbBlockBegin
  2
SW_CENTERMARKSYMBOL_8
 70
     0
 10
0.0
 20
0.0
 30
0.0
  3
SW_CENTERMARKSYMBOL_8
  1

  0
LINE
  5
FA
100
AcDbEntity
  8
0
  6
CONTINUOUS
 62
     7
100
AcDbLine
 10
0.0
 20
0.0
 30
0.0
 11
0.0
 21
0.5
 31
0.0
  0
LINE
  5
FB
100
AcDbEntity
  8
0
  6
CONTINUOUS
 62
     7
100
AcDbLine
 10
0.0
 20
0.0
 30
0.0
 11
-0.5
 21
0.0
 31
0.0
  0
LINE
  5
FC
100
AcDbEntity
  8
0
  6
CONTINUOUS
 62
     7
100
AcDbLine
 10
0.0
 20
0.0
 30
0.0
 11
0.0
 21
-0.5
 31
0.0
  0
LINE
  5
FD
100
AcDbEntity
  8
0
  6
CONTINUOUS
 62
     7
100
AcDbLine
 10
0.0
 20
0.0
 30
0.0
 11
0.5
 21
0.0
 31
0.0
  0
ENDBLK
  5
F9
100
AcDbEntity
  8
0
100
AcDbBlockEnd
  0
BLOCK
  5
100
100
AcDbEntity
  8
0
100
AcDbBlockBegin
  2
SW_CENTERMARKSYMBOL_9
 70
     0
 10
0.0
 20
0.0
 30
0.0
  3
SW_CENTERMARKSYMBOL_9
  1

  0
LINE
  5
102
100
AcDbEntity
  8
0
  6
CONTINUOUS
 62
     7
100
AcDbLine
 10
0.0
 20
0.0
 30
0.0
 11
0.0
 21
0.5
 31
0.0
  0
LINE
  5
103
100
AcDbEntity
  8
0
  6
CONTINUOUS
 62
     7
100
AcDbLine
 10
0.0
 20
0.0
 30
0.0
 11
-0.5
 21
0.0
 31
0.0
  0
LINE
  5
104
100
AcDbEntity
  8
0
  6
CONTINUOUS
 62
     7
100
AcDbLine
 10
0.0
 20
0.0
 30
0.0
 11
0.0
 21
-0.5
 31
0.0
  0
LINE
  5
105
100
AcDbEntity
  8
0
  6
CONTINUOUS
 62
     7
100
AcDbLine
 10
0.0
 20
0.0
 30
0.0
 11
0.5
 21
0.0
 31
0.0
  0
ENDBLK
  5
101
100
AcDbEntity
  8
0
100
AcDbBlockEnd
  0
BLOCK
  5
108
100
AcDbEntity
  8
0
100
AcDbBlockBegin
  2
SW_CENTERMARKSYMBOL_10
 70
     0
 10
0.0
 20
0.0
 30
0.0
  3
SW_CENTERMARKSYMBOL_10
  1

  0
LINE
  5
10A
100
AcDbEntity
  8
0
  6
CONTINUOUS
 62
     7
100
AcDbLine
 10
0.0
 20
0.0
 30
0.0
 11
0.0
 21
0.5
 31
0.0
  0
LINE
  5
10B
100
AcDbEntity
  8
0
  6
CONTINUOUS
 62
     7
100
AcDbLine
 10
0.0
 20
0.0
 30
0.0
 11
-0.5
 21
0.0
 31
0.0
  0
LINE
  5
10C
100
AcDbEntity
  8
0
  6
CONTINUOUS
 62
     7
100
AcDbLine
 10
0.0
 20
0.0
 30
0.0
 11
0.0
 21
-0.5
 31
0.0
  0
LINE
  5
10D
100
AcDbEntity
  8
0
  6
CONTINUOUS
 62
     7
100
AcDbLine
 10
0.0
 20
0.0
 30
0.0
 11
0.5
 21
0.0
 31
0.0
  0
ENDBLK
  5
109
100
AcDbEntity
  8
0
100
AcDbBlockEnd
  0
BLOCK
  5
110
100
AcDbEntity
  8
0
100
AcDbBlockBegin
  2
SW_CENTERMARKSYMBOL_11
 70
     0
 10
0.0
 20
0.0
 30
0.0
  3
SW_CENTERMARKSYMBOL_11
  1

  0
LINE
  5
112
100
AcDbEntity
  8
0
  6
CONTINUOUS
 62
     7
100
AcDbLine
 10
0.0
 20
0.0
 30
0.0
 11
0.0
 21
0.5
 31
0.0
  0
LINE
  5
113
100
AcDbEntity
  8
0
  6
CONTINUOUS
 62
     7
100
AcDbLine
 10
0.0
 20
0.0
 30
0.0
 11
-0.5
 21
0.0
 31
0.0
  0
LINE
  5
114
100
AcDbEntity
  8
0
  6
CONTINUOUS
 62
     7
100
AcDbLine
 10
0.0
 20
0.0
 30
0.0
 11
0.0
 21
-0.5
 31
0.0
  0
LINE
  5
115
100
AcDbEntity
  8
0
  6
CONTINUOUS
 62
     7
100
AcDbLine
 10
0.0
 20
0.0
 30
0.0
 11
0.5
 21
0.0
 31
0.0
  0
ENDBLK
  5
111
100
AcDbEntity
  8
0
100
AcDbBlockEnd
  0
BLOCK
  5
160
100
AcDbEntity
  8
0
100
AcDbBlockBegin
  2
SW_CENTERMARKSYMBOL_12
 70
     0
 10
0.0
 20
0.0
 30
0.0
  3
SW_CENTERMARKSYMBOL_12
  1

  0
LINE
  5
162
100
AcDbEntity
  8
0
  6
CONTINUOUS
 62
     7
100
AcDbLine
 10
0.0
 20
0.0
 30
0.0
 11
0.0
 21
0.5
 31
0.0
  0
LINE
  5
163
100
AcDbEntity
  8
0
  6
CONTINUOUS
 62
     7
100
AcDbLine
 10
0.0
 20
0.0
 30
0.0
 11
-0.5
 21
0.0
 31
0.0
  0
LINE
  5
164
100
AcDbEntity
  8
0
  6
CONTINUOUS
 62
     7
100
AcDbLine
 10
0.0
 20
0.0
 30
0.0
 11
0.0
 21
-0.5
 31
0.0
  0
LINE
  5
165
100
AcDbEntity
  8
0
  6
CONTINUOUS
 62
     7
100
AcDbLine
 10
0.0
 20
0.0
 30
0.0
 11
0.5
 21
0.0
 31
0.0
  0
LINE
  5
166
100
AcDbEntity
  8
0
  6
CONTINUOUS
 62
     7
100
AcDbLine
 10
0.0
 20
1.0
 30
0.0
 11
0.0
 21
1.8
 31
0.0
  0
LINE
  5
167
100
AcDbEntity
  8
0
  6
CONTINUOUS
 62
     7
100
AcDbLine
 10
-1.0
 20
0.0
 30
0.0
 11
-1.8
 21
0.0
 31
0.0
  0
LINE
  5
168
100
AcDbEntity
  8
0
  6
CONTINUOUS
 62
     7
100
AcDbLine
 10
0.0
 20
-1.0
 30
0.0
 11
0.0
 21
-1.8
 31
0.0
  0
LINE
  5
169
100
AcDbEntity
  8
0
  6
CONTINUOUS
 62
     7
100
AcDbLine
 10
1.0
 20
0.0
 30
0.0
 11
1.8
 21
0.0
 31
0.0
  0
ENDBLK
  5
161
100
AcDbEntity
  8
0
100
AcDbBlockEnd
  0
BLOCK
  5
16C
100
AcDbEntity
  8
0
100
AcDbBlockBegin
  2
SW_CENTERMARKSYMBOL_13
 70
     0
 10
0.0
 20
0.0
 30
0.0
  3
SW_CENTERMARKSYMBOL_13
  1

  0
LINE
  5
16E
100
AcDbEntity
  8
0
  6
CONTINUOUS
 62
     7
100
AcDbLine
 10
0.0
 20
0.0
 30
0.0
 11
0.0
 21
0.5
 31
0.0
  0
LINE
  5
16F
100
AcDbEntity
  8
0
  6
CONTINUOUS
 62
     7
100
AcDbLine
 10
0.0
 20
0.0
 30
0.0
 11
-0.5
 21
0.0
 31
0.0
  0
LINE
  5
170
100
AcDbEntity
  8
0
  6
CONTINUOUS
 62
     7
100
AcDbLine
 10
0.0
 20
0.0
 30
0.0
 11
0.0
 21
-0.5
 31
0.0
  0
LINE
  5
171
100
AcDbEntity
  8
0
  6
CONTINUOUS
 62
     7
100
AcDbLine
 10
0.0
 20
0.0
 30
0.0
 11
0.5
 21
0.0
 31
0.0
  0
LINE
  5
172
100
AcDbEntity
  8
0
  6
CONTINUOUS
 62
     7
100
AcDbLine
 10
0.0
 20
1.0
 30
0.0
 11
0.0
 21
1.8
 31
0.0
  0
LINE
  5
173
100
AcDbEntity
  8
0
  6
CONTINUOUS
 62
     7
100
AcDbLine
 10
-1.0
 20
0.0
 30
0.0
 11
-1.8
 21
0.0
 31
0.0
  0
LINE
  5
174
100
AcDbEntity
  8
0
  6
CONTINUOUS
 62
     7
100
AcDbLine
 10
0.0
 20
-1.0
 30
0.0
 11
0.0
 21
-1.8
 31
0.0
  0
LINE
  5
175
100
AcDbEntity
  8
0
  6
CONTINUOUS
 62
     7
100
AcDbLine
 10
1.0
 20
0.0
 30
0.0
 11
1.8
 21
0.0
 31
0.0
  0
ENDBLK
  5
16D
100
AcDbEntity
  8
0
100
AcDbBlockEnd
  0
BLOCK
  5
178
100
AcDbEntity
  8
0
100
AcDbBlockBegin
  2
SW_CENTERMARKSYMBOL_14
 70
     0
 10
0.0
 20
0.0
 30
0.0
  3
SW_CENTERMARKSYMBOL_14
  1

  0
LINE
  5
17A
100
AcDbEntity
  8
0
  6
CONTINUOUS
 62
     7
100
AcDbLine
 10
0.0
 20
0.0
 30
0.0
 11
0.0
 21
0.5
 31
0.0
  0
LINE
  5
17B
100
AcDbEntity
  8
0
  6
CONTINUOUS
 62
     7
100
AcDbLine
 10
0.0
 20
0.0
 30
0.0
 11
-0.5
 21
0.0
 31
0.0
  0
LINE
  5
17C
100
AcDbEntity
  8
0
  6
CONTINUOUS
 62
     7
100
AcDbLine
 10
0.0
 20
0.0
 30
0.0
 11
0.0
 21
-0.5
 31
0.0
  0
LINE
  5
17D
100
AcDbEntity
  8
0
  6
CONTINUOUS
 62
     7
100
AcDbLine
 10
0.0
 20
0.0
 30
0.0
 11
0.5
 21
0.0
 31
0.0
  0
LINE
  5
17E
100
AcDbEntity
  8
0
  6
CONTINUOUS
 62
     7
100
AcDbLine
 10
0.0
 20
1.0
 30
0.0
 11
0.0
 21
1.8
 31
0.0
  0
LINE
  5
17F
100
AcDbEntity
  8
0
  6
CONTINUOUS
 62
     7
100
AcDbLine
 10
-1.0
 20
0.0
 30
0.0
 11
-1.8
 21
0.0
 31
0.0
  0
LINE
  5
180
100
AcDbEntity
  8
0
  6
CONTINUOUS
 62
     7
100
AcDbLine
 10
0.0
 20
-1.0
 30
0.0
 11
0.0
 21
-1.8
 31
0.0
  0
LINE
  5
181
100
AcDbEntity
  8
0
  6
CONTINUOUS
 62
     7
100
AcDbLine
 10
1.0
 20
0.0
 30
0.0
 11
1.8
 21
0.0
 31
0.0
  0
ENDBLK
  5
179
100
AcDbEntity
  8
0
100
AcDbBlockEnd
  0
BLOCK
  5
184
100
AcDbEntity
  8
0
100
AcDbBlockBegin
  2
SW_CENTERMARKSYMBOL_15
 70
     0
 10
0.0
 20
0.0
 30
0.0
  3
SW_CENTERMARKSYMBOL_15
  1

  0
LINE
  5
186
100
AcDbEntity
  8
0
  6
CONTINUOUS
 62
     7
100
AcDbLine
 10
0.0
 20
0.0
 30
0.0
 11
0.0
 21
0.5
 31
0.0
  0
LINE
  5
187
100
AcDbEntity
  8
0
  6
CONTINUOUS
 62
     7
100
AcDbLine
 10
0.0
 20
0.0
 30
0.0
 11
-0.5
 21
0.0
 31
0.0
  0
LINE
  5
188
100
AcDbEntity
  8
0
  6
CONTINUOUS
 62
     7
100
AcDbLine
 10
0.0
 20
0.0
 30
0.0
 11
0.0
 21
-0.5
 31
0.0
  0
LINE
  5
189
100
AcDbEntity
  8
0
  6
CONTINUOUS
 62
     7
100
AcDbLine
 10
0.0
 20
0.0
 30
0.0
 11
0.5
 21
0.0
 31
0.0
  0
LINE
  5
18A
100
AcDbEntity
  8
0
  6
CONTINUOUS
 62
     7
100
AcDbLine
 10
0.0
 20
1.0
 30
0.0
 11
0.0
 21
1.8
 31
0.0
  0
LINE
  5
18B
100
AcDbEntity
  8
0
  6
CONTINUOUS
 62
     7
100
AcDbLine
 10
-1.0
 20
0.0
 30
0.0
 11
-1.8
 21
0.0
 31
0.0
  0
LINE
  5
18C
100
AcDbEntity
  8
0
  6
CONTINUOUS
 62
     7
100
AcDbLine
 10
0.0
 20
-1.0
 30
0.0
 11
0.0
 21
-1.8
 31
0.0
  0
LINE
  5
18D
100
AcDbEntity
  8
0
  6
CONTINUOUS
 62
     7
100
AcDbLine
 10
1.0
 20
0.0
 30
0.0
 11
1.8
 21
0.0
 31
0.0
  0
ENDBLK
  5
185
100
AcDbEntity
  8
0
100
AcDbBlockEnd
  0
ENDSEC
  0
SECTION
  2
ENTITIES
  0
LINE
  5
2F
100
AcDbEntity
  8
0
  6
CONTINUOUS
 62
     7
100
AcDbLine
 10
305.487047
 20
551.516485
 30
0.0
 11
28.470601
 21
551.516485
 31
0.0
  0
ARC
  5
30
100
AcDbEntity
  8
0
  6
CONTINUOUS
 62
     7
100
AcDbCircle
 10
305.489852
 20
546.227513
 30
0.0
 40
5.288973
100
AcDbArc
 50
359.969611
 51
90.030389
  0
ARC
  5
31
100
AcDbEntity
  8
0
  6
CONTINUOUS
 62
     7
100
AcDbCircle
 10
28.467796
 20
546.227513
 30
0.0
 40
5.288973
100
AcDbArc
 50
89.969611
 51
180.030389
  0
LINE
  5
32
100
AcDbEntity
  8
0
  6
CONTINUOUS
 62
     7
100
AcDbLine
 10
270.626416
 20
548.864077
 30
0.0
 11
63.331232
 21
548.864077
 31
0.0
  0
ARC
  5
33
100
AcDbEntity
  8
0
  6
CONTINUOUS
 62
     7
100
AcDbCircle
 10
63.331232
 20
542.364077
 30
0.0
 40
6.5
100
AcDbArc
 50
90.0
 51
180.0
  0
LINE
  5
34
100
AcDbEntity
  8
0
  6
CONTINUOUS
 62
     7
100
AcDbLine
 10
56.831232
 20
542.364077
 30
0.0
 11
56.831232
 21
538.756843
 31
0.0
  0
ARC
  5
35
100
AcDbEntity
  8
0
  6
CONTINUOUS
 62
     7
100
AcDbCircle
 10
49.231232
 20
538.756843
 30
0.0
 40
7.6
100
AcDbArc
 50
272.5
 51
0.0
  0
LINE
  5
36
100
AcDbEntity
  8
0
  6
CONTINUOUS
 62
     7
100
AcDbLine
 10
49.562739
 20
531.164077
 30
0.0
 11
32.060792
 21
530.399925
 31
0.0
  0
ARC
  5
37
100
AcDbEntity
  8
0
  6
CONTINUOUS
 62
     7
100
AcDbCircle
 10
32.331232
 20
524.205826
 30
0.0
 40
6.2
100
AcDbArc
 50
92.5
 51
180.0
  0
LINE
  5
38
100
AcDbEntity
  8
0
  6
CONTINUOUS
 62
     7
100
AcDbLine
 10
26.131232
 20
524.205826
 30
0.0
 11
26.131232
 21
236.227143
 31
0.0
  0
ARC
  5
39
100
AcDbEntity
  8
0
  6
CONTINUOUS
 62
     7
100
AcDbCircle
 10
32.331232
 20
236.227143
 30
0.0
 40
6.2
100
AcDbArc
 50
180.0
 51
267.5
  0
LINE
  5
3A
100
AcDbEntity
  8
0
  6
CONTINUOUS
 62
     7
100
AcDbLine
 10
32.060792
 20
230.033044
 30
0.0
 11
49.562739
 21
229.268892
 31
0.0
  0
ARC
  5
3B
100
AcDbEntity
  8
0
  6
CONTINUOUS
 62
     7
100
AcDbCircle
 10
49.231232
 20
221.676126
 30
0.0
 40
7.6
100
AcDbArc
 50
0.0
 51
87.5
  0
LINE
  5
3C
100
AcDbEntity
  8
0
  6
CONTINUOUS
 62
     7
100
AcDbLine
 10
56.831232
 20
221.676126
 30
0.0
 11
56.831232
 21
218.068892
 31
0.0
  0
ARC
  5
3D
100
AcDbEntity
  8
0
  6
CONTINUOUS
 62
     7
100
AcDbCircle
 10
63.331232
 20
218.068892
 30
0.0
 40
6.5
100
AcDbArc
 50
180.0
 51
270.0
  0
LINE
  5
3E
100
AcDbEntity
  8
0
  6
CONTINUOUS
 62
     7
100
AcDbLine
 10
63.331232
 20
211.568892
 30
0.0
 11
270.626416
 21
211.568892
 31
0.0
  0
ARC
  5
3F
100
AcDbEntity
  8
0
  6
CONTINUOUS
 62
     7
100
AcDbCircle
 10
270.626416
 20
218.068892
 30
0.0
 40
6.5
100
AcDbArc
 50
270.0
 51
0.0
  0
LINE
  5
40
100
AcDbEntity
  8
0
  6
CONTINUOUS
 62
     7
100
AcDbLine
 10
277.126416
 20
218.068892
 30
0.0
 11
277.126416
 21
221.676126
 31
0.0
  0
ARC
  5
41
100
AcDbEntity
  8
0
  6
CONTINUOUS
 62
     7
100
AcDbCircle
 10
284.726416
 20
221.676126
 30
0.0
 40
7.6
100
AcDbArc
 50
92.5
 51
180.0
  0
LINE
  5
42
100
AcDbEntity
  8
0
  6
CONTINUOUS
 62
     7
100
AcDbLine
 10
284.394909
 20
229.268892
 30
0.0
 11
301.896856
 21
230.033044
 31
0.0
  0
ARC
  5
43
100
AcDbEntity
  8
0
  6
CONTINUOUS
 62
     7
100
AcDbCircle
 10
301.626416
 20
236.227143
 30
0.0
 40
6.2
100
AcDbArc
 50
272.5
 51
0.0
  0
LINE
  5
44
100
AcDbEntity
  8
0
  6
CONTINUOUS
 62
     7
100
AcDbLine
 10
307.826416
 20
236.227143
 30
0.0
 11
307.826416
 21
524.205826
 31
0.0
  0
ARC
  5
45
100
AcDbEntity
  8
0
  6
CONTINUOUS
 62
     7
100
AcDbCircle
 10
301.626416
 20
524.205826
 30
0.0
 40
6.2
100
AcDbArc
 50
0.0
 51
87.5
  0
LINE
  5
46
100
AcDbEntity
  8
0
  6
CONTINUOUS
 62
     7
100
AcDbLine
 10
301.896856
 20
530.399925
 30
0.0
 11
284.394909
 21
531.164077
 31
0.0
  0
ARC
  5
47
100
AcDbEntity
  8
0
  6
CONTINUOUS
 62
     7
100
AcDbCircle
 10
284.726416
 20
538.756843
 30
0.0
 40
7.6
100
AcDbArc
 50
180.0
 51
267.5
  0
LINE
  5
48
100
AcDbEntity
  8
0
  6
CONTINUOUS
 62
     7
100
AcDbLine
 10
277.126416
 20
538.756843
 30
0.0
 11
277.126416
 21
542.364077
 31
0.0
  0
ARC
  5
49
100
AcDbEntity
  8
0
  6
CONTINUOUS
 62
     7
100
AcDbCircle
 10
270.626416
 20
542.364077
 30
0.0
 40
6.5
100
AcDbArc
 50
0.0
 51
90.0
  0
LINE
  5
4A
100
AcDbEntity
  8
0
  6
CONTINUOUS
 62
     7
100
AcDbLine
 10
23.178824
 20
546.224707
 30
0.0
 11
23.178824
 21
214.208262
 31
0.0
  0
ARC
  5
4B
100
AcDbEntity
  8
0
  6
CONTINUOUS
 62
     7
100
AcDbCircle
 10
28.467796
 20
214.205457
 30
0.0
 40
5.288973
100
AcDbArc
 50
179.969611
 51
270.030389
  0
LINE
  5
4C
100
AcDbEntity
  8
0
  6
CONTINUOUS
 62
     7
100
AcDbLine
 10
28.470601
 20
208.916485
 30
0.0
 11
305.487047
 21
208.916485
 31
0.0
  0
ARC
  5
4D
100
AcDbEntity
  8
0
  6
CONTINUOUS
 62
     7
100
AcDbCircle
 10
305.489852
 20
214.205457
 30
0.0
 40
5.288973
100
AcDbArc
 50
269.969611
 51
0.030389
  0
LINE
  5
4E
100
AcDbEntity
  8
0
  6
CONTINUOUS
 62
     7
100
AcDbLine
 10
310.778824
 20
214.208262
 30
0.0
 11
310.778824
 21
546.224707
 31
0.0
  0
LINE
  5
4F
100
AcDbEntity
  8
0
  6
CONTINUOUS
 62
     7
100
AcDbLine
 10
306.619666
 20
524.205826
 30
0.0
 11
307.826416
 21
524.205826
 31
0.0
  0
ARC
  5
50
100
AcDbEntity
  8
0
  6
CONTINUOUS
 62
     7
100
AcDbCircle
 10
301.626416
 20
524.205826
 30
0.0
 40
4.99325
100
AcDbArc
 50
0.0
 51
87.5
  0
LINE
  5
51
100
AcDbEntity
  8
0
  6
CONTINUOUS
 62
     7
100
AcDbLine
 10
301.844219
 20
529.194324
 30
0.0
 11
301.896856
 21
530.399925
 31
0.0
  0
LINE
  5
52
100
AcDbEntity
  8
0
  6
CONTINUOUS
 62
     7
100
AcDbLine
 10
306.619666
 20
236.227143
 30
0.0
 11
307.826416
 21
236.227143
 31
0.0
  0
LINE
  5
53
100
AcDbEntity
  8
0
  6
CONTINUOUS
 62
     7
100
AcDbLine
 10
306.619666
 20
524.205826
 30
0.0
 11
306.619666
 21
236.227143
 31
0.0
  0
LINE
  5
54
100
AcDbEntity
  8
0
  6
CONTINUOUS
 62
     7
100
AcDbLine
 10
58.037982
 20
542.364077
 30
0.0
 11
56.831232
 21
542.364077
 31
0.0
  0
LINE
  5
55
100
AcDbEntity
  8
0
  6
CONTINUOUS
 62
     7
100
AcDbLine
 10
58.037982
 20
538.756843
 30
0.0
 11
58.037982
 21
542.364077
 31
0.0
  0
LINE
  5
56
100
AcDbEntity
  8
0
  6
CONTINUOUS
 62
     7
100
AcDbLine
 10
58.037982
 20
538.756843
 30
0.0
 11
56.831232
 21
538.756843
 31
0.0
  0
ARC
  5
57
100
AcDbEntity
  8
0
  6
CONTINUOUS
 62
     7
100
AcDbCircle
 10
49.231232
 20
538.756843
 30
0.0
 40
8.80675
100
AcDbArc
 50
272.5
 51
0.0
  0
LINE
  5
58
100
AcDbEntity
  8
0
  6
CONTINUOUS
 62
     7
100
AcDbLine
 10
49.615377
 20
529.958475
 30
0.0
 11
49.562739
 21
531.164077
 31
0.0
  0
LINE
  5
59
100
AcDbEntity
  8
0
  6
CONTINUOUS
 62
     7
100
AcDbLine
 10
32.113429
 20
529.194324
 30
0.0
 11
49.615377
 21
529.958475
 31
0.0
  0
LINE
  5
5A
100
AcDbEntity
  8
0
  6
CONTINUOUS
 62
     7
100
AcDbLine
 10
32.113429
 20
529.194324
 30
0.0
 11
32.060792
 21
530.399925
 31
0.0
  0
ARC
  5
5B
100
AcDbEntity
  8
0
  6
CONTINUOUS
 62
     7
100
AcDbCircle
 10
32.331232
 20
524.205826
 30
0.0
 40
4.99325
100
AcDbArc
 50
92.5
 51
180.0
  0
LINE
  5
5C
100
AcDbEntity
  8
0
  6
CONTINUOUS
 62
     7
100
AcDbLine
 10
27.337982
 20
524.205826
 30
0.0
 11
26.131232
 21
524.205826
 31
0.0
  0
LINE
  5
5D
100
AcDbEntity
  8
0
  6
CONTINUOUS
 62
     7
100
AcDbLine
 10
27.337982
 20
236.227143
 30
0.0
 11
27.337982
 21
524.205826
 31
0.0
  0
LINE
  5
5E
100
AcDbEntity
  8
0
  6
CONTINUOUS
 62
     7
100
AcDbLine
 10
27.337982
 20
236.227143
 30
0.0
 11
26.131232
 21
236.227143
 31
0.0
  0
ARC
  5
5F
100
AcDbEntity
  8
0
  6
CONTINUOUS
 62
     7
100
AcDbCircle
 10
32.331232
 20
236.227143
 30
0.0
 40
4.99325
100
AcDbArc
 50
180.0
 51
267.5
  0
LINE
  5
60
100
AcDbEntity
  8
0
  6
CONTINUOUS
 62
     7
100
AcDbLine
 10
32.113429
 20
231.238646
 30
0.0
 11
32.060792
 21
230.033044
 31
0.0
  0
LINE
  5
61
100
AcDbEntity
  8
0
  6
CONTINUOUS
 62
     7
100
AcDbLine
 10
49.615377
 20
230.474494
 30
0.0
 11
32.113429
 21
231.238646
 31
0.0
  0
LINE
  5
62
100
AcDbEntity
  8
0
  6
CONTINUOUS
 62
     7
100
AcDbLine
 10
49.615377
 20
230.474494
 30
0.0
 11
49.562739
 21
229.268892
 31
0.0
  0
LINE
  5
63
100
AcDbEntity
  8
0
  6
CONTINUOUS
 62
     7
100
AcDbLine
 10
284.342271
 20
529.958475
 30
0.0
 11
301.844219
 21
529.194324
 31
0.0
  0
LINE
  5
64
100
AcDbEntity
  8
0
  6
CONTINUOUS
 62
     7
100
AcDbLine
 10
284.342271
 20
529.958475
 30
0.0
 11
284.394909
 21
531.164077
 31
0.0
  0
ARC
  5
65
100
AcDbEntity
  8
0
  6
CONTINUOUS
 62
     7
100
AcDbCircle
 10
284.726416
 20
538.756843
 30
0.0
 40
8.80675
100
AcDbArc
 50
180.0
 51
267.5
  0
LINE
  5
66
100
AcDbEntity
  8
0
  6
CONTINUOUS
 62
     7
100
AcDbLine
 10
275.919666
 20
538.756843
 30
0.0
 11
277.126416
 21
538.756843
 31
0.0
  0
LINE
  5
67
100
AcDbEntity
  8
0
  6
CONTINUOUS
 62
     7
100
AcDbLine
 10
63.331232
 20
547.657327
 30
0.0
 11
63.331232
 21
548.864077
 31
0.0
  0
ARC
  5
68
100
AcDbEntity
  8
0
  6
CONTINUOUS
 62
     7
100
AcDbCircle
 10
63.331232
 20
542.364077
 30
0.0
 40
5.29325
100
AcDbArc
 50
90.0
 51
180.0
  0
LINE
  5
69
100
AcDbEntity
  8
0
  6
CONTINUOUS
 62
     7
100
AcDbLine
 10
63.331232
 20
212.775643
 30
0.0
 11
63.331232
 21
211.568892
 31
0.0
  0
LINE
  5
6A
100
AcDbEntity
  8
0
  6
CONTINUOUS
 62
     7
100
AcDbLine
 10
270.626416
 20
212.775643
 30
0.0
 11
63.331232
 21
212.775643
 31
0.0
  0
LINE
  5
6B
100
AcDbEntity
  8
0
  6
CONTINUOUS
 62
     7
100
AcDbLine
 10
270.626416
 20
212.775643
 30
0.0
 11
270.626416
 21
211.568892
 31
0.0
  0
ARC
  5
6C
100
AcDbEntity
  8
0
  6
CONTINUOUS
 62
     7
100
AcDbCircle
 10
270.626416
 20
218.068892
 30
0.0
 40
5.29325
100
AcDbArc
 50
270.0
 51
0.0
  0
LINE
  5
6D
100
AcDbEntity
  8
0
  6
CONTINUOUS
 62
     7
100
AcDbLine
 10
275.919666
 20
218.068892
 30
0.0
 11
277.126416
 21
218.068892
 31
0.0
  0
LINE
  5
6E
100
AcDbEntity
  8
0
  6
CONTINUOUS
 62
     7
100
AcDbLine
 10
275.919666
 20
221.676126
 30
0.0
 11
275.919666
 21
218.068892
 31
0.0
  0
LINE
  5
6F
100
AcDbEntity
  8
0
  6
CONTINUOUS
 62
     7
100
AcDbLine
 10
275.919666
 20
221.676126
 30
0.0
 11
277.126416
 21
221.676126
 31
0.0
  0
ARC
  5
70
100
AcDbEntity
  8
0
  6
CONTINUOUS
 62
     7
100
AcDbCircle
 10
284.726416
 20
221.676126
 30
0.0
 40
8.80675
100
AcDbArc
 50
92.5
 51
180.0
  0
LINE
  5
71
100
AcDbEntity
  8
0
  6
CONTINUOUS
 62
     7
100
AcDbLine
 10
284.342271
 20
230.474494
 30
0.0
 11
284.394909
 21
229.268892
 31
0.0
  0
LINE
  5
72
100
AcDbEntity
  8
0
  6
CONTINUOUS
 62
     7
100
AcDbLine
 10
301.844219
 20
231.238646
 30
0.0
 11
284.342271
 21
230.474494
 31
0.0
  0
LINE
  5
73
100
AcDbEntity
  8
0
  6
CONTINUOUS
 62
     7
100
AcDbLine
 10
301.844219
 20
231.238646
 30
0.0
 11
301.896856
 21
230.033044
 31
0.0
  0
ARC
  5
74
100
AcDbEntity
  8
0
  6
CONTINUOUS
 62
     7
100
AcDbCircle
 10
301.626416
 20
236.227143
 30
0.0
 40
4.99325
100
AcDbArc
 50
272.5
 51
0.0
  0
LINE
  5
75
100
AcDbEntity
  8
0
  6
CONTINUOUS
 62
     7
100
AcDbLine
 10
275.919666
 20
542.364077
 30
0.0
 11
277.126416
 21
542.364077
 31
0.0
  0
ARC
  5
76
100
AcDbEntity
  8
0
  6
CONTINUOUS
 62
     7
100
AcDbCircle
 10
270.626416
 20
542.364077
 30
0.0
 40
5.29325
100
AcDbArc
 50
0.0
 51
90.0
  0
LINE
  5
77
100
AcDbEntity
  8
0
  6
CONTINUOUS
 62
     7
100
AcDbLine
 10
270.626416
 20
547.657327
 30
0.0
 11
270.626416
 21
548.864077
 31
0.0
  0
LINE
  5
78
100
AcDbEntity
  8
0
  6
CONTINUOUS
 62
     7
100
AcDbLine
 10
275.919666
 20
542.364077
 30
0.0
 11
275.919666
 21
538.756843
 31
0.0
  0
LINE
  5
79
100
AcDbEntity
  8
0
  6
CONTINUOUS
 62
     7
100
AcDbLine
 10
58.037982
 20
218.068892
 30
0.0
 11
56.831232
 21
218.068892
 31
0.0
  0
ARC
  5
7A
100
AcDbEntity
  8
0
  6
CONTINUOUS
 62
     7
100
AcDbCircle
 10
63.331232
 20
218.068892
 30
0.0
 40
5.29325
100
AcDbArc
 50
180.0
 51
270.0
  0
LINE
  5
7B
100
AcDbEntity
  8
0
  6
CONTINUOUS
 62
     7
100
AcDbLine
 10
63.331232
 20
547.657327
 30
0.0
 11
270.626416
 21
547.657327
 31
0.0
  0
LINE
  5
7C
100
AcDbEntity
  8
0
  6
CONTINUOUS
 62
     7
100
AcDbLine
 10
58.037982
 20
221.676126
 30
0.0
 11
56.831232
 21
221.676126
 31
0.0
  0
LINE
  5
7D
100
AcDbEntity
  8
0
  6
CONTINUOUS
 62
     7
100
AcDbLine
 10
58.037982
 20
218.068892
 30
0.0
 11
58.037982
 21
221.676126
 31
0.0
  0
ARC
  5
7E
100
AcDbEntity
  8
0
  6
CONTINUOUS
 62
     7
100
AcDbCircle
 10
49.231232
 20
221.676126
 30
0.0
 40
8.80675
100
AcDbArc
 50
0.0
 51
87.5
  0
ELLIPSE
  5
7F
100
AcDbEntity
  8
0
  6
CONTINUOUS
 62
     7
100
AcDbEllipse
 10
28.539466
 20
214.277126
 30
0.0
 11
4.254277460610538
 21
4.254277460610254
 31
0.0
210
0.0
220
0.0
230
1.0
 40
0.997265
 41
2.357564018062793
 42
3.925621289116885
  0
LINE
  5
80
100
AcDbEntity
  8
0
  6
CONTINUOUS
 62
     7
100
AcDbLine
 10
22.531232
 20
546.1723
 30
0.0
 11
22.531232
 21
214.26067
 31
0.0
  0
ELLIPSE
  5
81
100
AcDbEntity
  8
0
  6
CONTINUOUS
 62
     7
100
AcDbEllipse
 10
28.539466
 20
546.155843
 30
0.0
 11
4.254277460610539
 21
-4.254277460610325
 31
0.0
210
0.0
220
0.0
230
1.0
 40
0.997265
 41
2.357564018062709
 42
3.925621289116828
  0
LINE
  5
82
100
AcDbEntity
  8
0
  6
CONTINUOUS
 62
     7
100
AcDbLine
 10
305.434639
 20
552.164077
 30
0.0
 11
28.523009
 21
552.164077
 31
0.0
  0
ELLIPSE
  5
83
100
AcDbEntity
  8
0
  6
CONTINUOUS
 62
     7
100
AcDbEllipse
 10
305.418182
 20
546.155843
 30
0.0
 11
4.254277460610539
 21
4.254277460610183
 31
0.0
210
0.0
220
0.0
230
0.9999999999999998
 40
0.997265
 41
5.49915667165259
 42
7.067213942706693
  0
LINE
  5
84
100
AcDbEntity
  8
0
  6
CONTINUOUS
 62
     7
100
AcDbLine
 10
311.426416
 20
214.26067
 30
0.0
 11
311.426416
 21
546.1723
 31
0.0
  0
ELLIPSE
  5
85
100
AcDbEntity
  8
0
  6
CONTINUOUS
 62
     7
100
AcDbEllipse
 10
305.418182
 20
214.277126
 30
0.0
 11
4.254277460610538
 21
-4.254277460610254
 31
0.0
210
0.0
220
0.0
230
1.0
 40
0.997265
 41
5.499156671652523
 42
7.067213942706599
  0
LINE
  5
86
100
AcDbEntity
  8
0
  6
CONTINUOUS
 62
     7
100
AcDbLine
 10
28.523009
 20
208.268892
 30
0.0
 11
305.434639
 21
208.268892
 31
0.0
  0
LINE
  5
87
100
AcDbEntity
  8
0
  6
CONTINUOUS
 62
     7
100
AcDbLine
 10
63.331232
 20
547.657327
 30
0.0
 11
63.331232
 21
547.158012
 31
0.0
  0
ARC
  5
88
100
AcDbEntity
  8
0
  6
CONTINUOUS
 62
     7
100
AcDbCircle
 10
63.331232
 20
542.364077
 30
0.0
 40
4.793935
100
AcDbArc
 50
90.0
 51
180.0
  0
LINE
  5
89
100
AcDbEntity
  8
0
  6
CONTINUOUS
 62
     7
100
AcDbLine
 10
58.037982
 20
542.364077
 30
0.0
 11
58.537297
 21
542.364077
 31
0.0
  0
LINE
  5
8A
100
AcDbEntity
  8
0
  6
CONTINUOUS
 62
     7
100
AcDbLine
 10
270.626416
 20
547.657327
 30
0.0
 11
270.626416
 21
547.158012
 31
0.0
  0
LINE
  5
8B
100
AcDbEntity
  8
0
  6
CONTINUOUS
 62
     7
100
AcDbLine
 10
270.626416
 20
547.158012
 30
0.0
 11
63.331232
 21
547.158012
 31
0.0
  0
LINE
  5
8C
100
AcDbEntity
  8
0
  6
CONTINUOUS
 62
     7
100
AcDbLine
 10
27.337982
 20
236.227143
 30
0.0
 11
27.837297
 21
236.227143
 31
0.0
  0
ARC
  5
8D
100
AcDbEntity
  8
0
  6
CONTINUOUS
 62
     7
100
AcDbCircle
 10
32.331232
 20
236.227143
 30
0.0
 40
4.493935
100
AcDbArc
 50
180.0
 51
267.5
  0
LINE
  5
8E
100
AcDbEntity
  8
0
  6
CONTINUOUS
 62
     7
100
AcDbLine
 10
32.113429
 20
231.238646
 30
0.0
 11
32.135209
 21
231.737485
 31
0.0
  0
LINE
  5
8F
100
AcDbEntity
  8
0
  6
CONTINUOUS
 62
     7
100
AcDbLine
 10
27.337982
 20
524.205826
 30
0.0
 11
27.837297
 21
524.205826
 31
0.0
  0
LINE
  5
90
100
AcDbEntity
  8
0
  6
CONTINUOUS
 62
     7
100
AcDbLine
 10
27.837297
 20
524.205826
 30
0.0
 11
27.837297
 21
236.227143
 31
0.0
  0
ARC
  5
91
100
AcDbEntity
  8
0
  6
CONTINUOUS
 62
     7
100
AcDbCircle
 10
270.626416
 20
218.068892
 30
0.0
 40
4.793935
100
AcDbArc
 50
270.0
 51
0.0
  0
LINE
  5
92
100
AcDbEntity
  8
0
  6
CONTINUOUS
 62
     7
100
AcDbLine
 10
275.420351
 20
218.068892
 30
0.0
 11
275.919666
 21
218.068892
 31
0.0
  0
LINE
  5
93
100
AcDbEntity
  8
0
  6
CONTINUOUS
 62
     7
100
AcDbLine
 10
270.626416
 20
213.274957
 30
0.0
 11
270.626416
 21
212.775643
 31
0.0
  0
LINE
  5
94
100
AcDbEntity
  8
0
  6
CONTINUOUS
 62
     7
100
AcDbLine
 10
275.420351
 20
218.068892
 30
0.0
 11
275.420351
 21
221.676126
 31
0.0
  0
LINE
  5
95
100
AcDbEntity
  8
0
  6
CONTINUOUS
 62
     7
100
AcDbLine
 10
275.420351
 20
221.676126
 30
0.0
 11
275.919666
 21
221.676126
 31
0.0
  0
ARC
  5
96
100
AcDbEntity
  8
0
  6
CONTINUOUS
 62
     7
100
AcDbCircle
 10
301.626416
 20
236.227143
 30
0.0
 40
4.493935
100
AcDbArc
 50
272.5
 51
0.0
  0
LINE
  5
97
100
AcDbEntity
  8
0
  6
CONTINUOUS
 62
     7
100
AcDbLine
 10
306.120351
 20
236.227143
 30
0.0
 11
306.619666
 21
236.227143
 31
0.0
  0
LINE
  5
98
100
AcDbEntity
  8
0
  6
CONTINUOUS
 62
     7
100
AcDbLine
 10
301.822439
 20
231.737485
 30
0.0
 11
301.844219
 21
231.238646
 31
0.0
  0
LINE
  5
99
100
AcDbEntity
  8
0
  6
CONTINUOUS
 62
     7
100
AcDbLine
 10
275.919666
 20
542.364077
 30
0.0
 11
275.420351
 21
542.364077
 31
0.0
  0
ARC
  5
9A
100
AcDbEntity
  8
0
  6
CONTINUOUS
 62
     7
100
AcDbCircle
 10
270.626416
 20
542.364077
 30
0.0
 40
4.793935
100
AcDbArc
 50
0.0
 51
90.0
  0
LINE
  5
9B
100
AcDbEntity
  8
0
  6
CONTINUOUS
 62
     7
100
AcDbLine
 10
306.120351
 20
236.227143
 30
0.0
 11
306.120351
 21
524.205826
 31
0.0
  0
LINE
  5
9C
100
AcDbEntity
  8
0
  6
CONTINUOUS
 62
     7
100
AcDbLine
 10
306.120351
 20
524.205826
 30
0.0
 11
306.619666
 21
524.205826
 31
0.0
  0
LINE
  5
9D
100
AcDbEntity
  8
0
  6
CONTINUOUS
 62
     7
100
AcDbLine
 10
275.919666
 20
538.756843
 30
0.0
 11
275.420351
 21
538.756843
 31
0.0
  0
LINE
  5
9E
100
AcDbEntity
  8
0
  6
CONTINUOUS
 62
     7
100
AcDbLine
 10
275.420351
 20
538.756843
 30
0.0
 11
275.420351
 21
542.364077
 31
0.0
  0
LINE
  5
9F
100
AcDbEntity
  8
0
  6
CONTINUOUS
 62
     7
100
AcDbLine
 10
58.037982
 20
538.756843
 30
0.0
 11
58.537297
 21
538.756843
 31
0.0
  0
ARC
  5
A0
100
AcDbEntity
  8
0
  6
CONTINUOUS
 62
     7
100
AcDbCircle
 10
49.231232
 20
538.756843
 30
0.0
 40
9.306065
100
AcDbArc
 50
272.5
 51
0.0
  0
LINE
  5
A1
100
AcDbEntity
  8
0
  6
CONTINUOUS
 62
     7
100
AcDbLine
 10
49.615377
 20
529.958475
 30
0.0
 11
49.637157
 21
529.459636
 31
0.0
  0
ARC
  5
A2
100
AcDbEntity
  8
0
  6
CONTINUOUS
 62
     7
100
AcDbCircle
 10
49.231232
 20
221.676126
 30
0.0
 40
9.306065
100
AcDbArc
 50
0.0
 51
87.5
  0
LINE
  5
A3
100
AcDbEntity
  8
0
  6
CONTINUOUS
 62
     7
100
AcDbLine
 10
58.537297
 20
221.676126
 30
0.0
 11
58.037982
 21
221.676126
 31
0.0
  0
LINE
  5
A4
100
AcDbEntity
  8
0
  6
CONTINUOUS
 62
     7
100
AcDbLine
 10
49.637157
 20
230.973334
 30
0.0
 11
49.615377
 21
230.474494
 31
0.0
  0
LINE
  5
A5
100
AcDbEntity
  8
0
  6
CONTINUOUS
 62
     7
100
AcDbLine
 10
58.537297
 20
542.364077
 30
0.0
 11
58.537297
 21
538.756843
 31
0.0
  0
LINE
  5
A6
100
AcDbEntity
  8
0
  6
CONTINUOUS
 62
     7
100
AcDbLine
 10
58.537297
 20
221.676126
 30
0.0
 11
58.537297
 21
218.068892
 31
0.0
  0
LINE
  5
A7
100
AcDbEntity
  8
0
  6
CONTINUOUS
 62
     7
100
AcDbLine
 10
58.537297
 20
218.068892
 30
0.0
 11
58.037982
 21
218.068892
 31
0.0
  0
LINE
  5
A8
100
AcDbEntity
  8
0
  6
CONTINUOUS
 62
     7
100
AcDbLine
 10
32.113429
 20
529.194324
 30
0.0
 11
32.135209
 21
528.695484
 31
0.0
  0
ARC
  5
A9
100
AcDbEntity
  8
0
  6
CONTINUOUS
 62
     7
100
AcDbCircle
 10
32.331232
 20
524.205826
 30
0.0
 40
4.493935
100
AcDbArc
 50
92.5
 51
180.0
  0
ARC
  5
AA
100
AcDbEntity
  8
0
  6
CONTINUOUS
 62
     7
100
AcDbCircle
 10
63.331232
 20
218.068892
 30
0.0
 40
4.793935
100
AcDbArc
 50
180.0
 51
270.0
  0
LINE
  5
AB
100
AcDbEntity
  8
0
  6
CONTINUOUS
 62
     7
100
AcDbLine
 10
63.331232
 20
213.274957
 30
0.0
 11
63.331232
 21
212.775643
 31
0.0
  0
LINE
  5
AC
100
AcDbEntity
  8
0
  6
CONTINUOUS
 62
     7
100
AcDbLine
 10
284.342271
 20
529.958475
 30
0.0
 11
284.320491
 21
529.459636
 31
0.0
  0
ARC
  5
AD
100
AcDbEntity
  8
0
  6
CONTINUOUS
 62
     7
100
AcDbCircle
 10
284.726416
 20
538.756843
 30
0.0
 40
9.306065
100
AcDbArc
 50
180.0
 51
267.5
  0
LINE
  5
AE
100
AcDbEntity
  8
0
  6
CONTINUOUS
 62
     7
100
AcDbLine
 10
63.331232
 20
213.274957
 30
0.0
 11
270.626416
 21
213.274957
 31
0.0
  0
ARC
  5
AF
100
AcDbEntity
  8
0
  6
CONTINUOUS
 62
     7
100
AcDbCircle
 10
301.626416
 20
524.205826
 30
0.0
 40
4.493935
100
AcDbArc
 50
0.0
 51
87.5
  0
LINE
  5
B0
100
AcDbEntity
  8
0
  6
CONTINUOUS
 62
     7
100
AcDbLine
 10
301.822439
 20
528.695484
 30
0.0
 11
301.844219
 21
529.194324
 31
0.0
  0
ARC
  5
B1
100
AcDbEntity
  8
0
  6
CONTINUOUS
 62
     7
100
AcDbCircle
 10
284.726416
 20
221.676126
 30
0.0
 40
9.306065
100
AcDbArc
 50
92.5
 51
180.0
  0
LINE
  5
B2
100
AcDbEntity
  8
0
  6
CONTINUOUS
 62
     7
100
AcDbLine
 10
284.320491
 20
230.973334
 30
0.0
 11
284.342271
 21
230.474494
 31
0.0
  0
LINE
  5
B3
100
AcDbEntity
  8
0
  6
CONTINUOUS
 62
     7
100
AcDbLine
 10
301.822439
 20
528.695484
 30
0.0
 11
284.320491
 21
529.459636
 31
0.0
  0
LINE
  5
B4
100
AcDbEntity
  8
0
  6
CONTINUOUS
 62
     7
100
AcDbLine
 10
32.135209
 20
231.737485
 30
0.0
 11
49.637157
 21
230.973334
 31
0.0
  0
LINE
  5
B5
100
AcDbEntity
  8
0
  6
CONTINUOUS
 62
     7
100
AcDbLine
 10
284.320491
 20
230.973334
 30
0.0
 11
301.822439
 21
231.737485
 31
0.0
  0
LINE
  5
B6
100
AcDbEntity
  8
0
  6
CONTINUOUS
 62
     7
100
AcDbLine
 10
49.637157
 20
529.459636
 30
0.0
 11
32.135209
 21
528.695484
 31
0.0
  0
INSERT
  5
BE
100
AcDbEntity
  8
0
  6
CONTINUOUS
 62
     7
100
AcDbBlockReference
  2
SW_CENTERMARKSYMBOL_0
 10
270.626416
 20
542.364077
 30
0.0
 41
5.0
 42
5.0
 43
5.0
  0
INSERT
  5
C6
100
AcDbEntity
  8
0
  6
CONTINUOUS
 62
     7
100
AcDbBlockReference
  2
SW_CENTERMARKSYMBOL_1
 10
63.331232
 20
542.364077
 30
0.0
 41
5.0
 42
5.0
 43
5.0
  0
INSERT
  5
CE
100
AcDbEntity
  8
0
  6
CONTINUOUS
 62
     7
100
AcDbBlockReference
  2
SW_CENTERMARKSYMBOL_2
 10
49.231232
 20
538.756843
 30
0.0
 41
5.0
 42
5.0
 43
5.0
  0
INSERT
  5
D6
100
AcDbEntity
  8
0
  6
CONTINUOUS
 62
     7
100
AcDbBlockReference
  2
SW_CENTERMARKSYMBOL_3
 10
32.331232
 20
524.205826
 30
0.0
 41
5.0
 42
5.0
 43
5.0
  0
INSERT
  5
DE
100
AcDbEntity
  8
0
  6
CONTINUOUS
 62
     7
100
AcDbBlockReference
  2
SW_CENTERMARKSYMBOL_4
 10
32.331232
 20
236.227143
 30
0.0
 41
5.0
 42
5.0
 43
5.0
  0
INSERT
  5
E6
100
AcDbEntity
  8
0
  6
CONTINUOUS
 62
     7
100
AcDbBlockReference
  2
SW_CENTERMARKSYMBOL_5
 10
49.231232
 20
221.676126
 30
0.0
 41
5.0
 42
5.0
 43
5.0
  0
INSERT
  5
EE
100
AcDbEntity
  8
0
  6
CONTINUOUS
 62
     7
100
AcDbBlockReference
  2
SW_CENTERMARKSYMBOL_6
 10
63.331232
 20
218.068892
 30
0.0
 41
5.0
 42
5.0
 43
5.0
  0
INSERT
  5
F6
100
AcDbEntity
  8
0
  6
CONTINUOUS
 62
     7
100
AcDbBlockReference
  2
SW_CENTERMARKSYMBOL_7
 10
270.626416
 20
218.068892
 30
0.0
 41
5.0
 42
5.0
 43
5.0
  0
INSERT
  5
FE
100
AcDbEntity
  8
0
  6
CONTINUOUS
 62
     7
100
AcDbBlockReference
  2
SW_CENTERMARKSYMBOL_8
 10
284.726416
 20
221.676126
 30
0.0
 41
5.0
 42
5.0
 43
5.0
  0
INSERT
  5
106
100
AcDbEntity
  8
0
  6
CONTINUOUS
 62
     7
100
AcDbBlockReference
  2
SW_CENTERMARKSYMBOL_9
 10
301.626416
 20
236.227143
 30
0.0
 41
5.0
 42
5.0
 43
5.0
  0
INSERT
  5
10E
100
AcDbEntity
  8
0
  6
CONTINUOUS
 62
     7
100
AcDbBlockReference
  2
SW_CENTERMARKSYMBOL_10
 10
301.626416
 20
524.205826
 30
0.0
 41
5.0
 42
5.0
 43
5.0
  0
INSERT
  5
116
100
AcDbEntity
  8
0
  6
CONTINUOUS
 62
     7
100
AcDbBlockReference
  2
SW_CENTERMARKSYMBOL_11
 10
284.726416
 20
538.756843
 30
0.0
 41
5.0
 42
5.0
 43
5.0
  0
LINE
  5
117
100
AcDbEntity
  8
0
  6
CONTINUOUS
 62
     7
100
AcDbLine
 10
446.51055
 20
546.1723
 30
0.0
 11
446.51055
 21
214.26067
 31
0.0
  0
LINE
  5
118
100
AcDbEntity
  8
0
  6
CONTINUOUS
 62
     7
100
AcDbLine
 10
423.20822
 20
215.481893
 30
0.0
 11
446.51055
 21
214.26067
 31
0.0
  0
LINE
  5
119
100
AcDbEntity
  8
0
  6
CONTINUOUS
 62
     7
100
AcDbLine
 10
423.20822
 20
544.951076
 30
0.0
 11
423.20822
 21
215.481893
 31
0.0
  0
LINE
  5
11A
100
AcDbEntity
  8
0
  6
CONTINUOUS
 62
     7
100
AcDbLine
 10
446.51055
 20
546.1723
 30
0.0
 11
423.20822
 21
544.951076
 31
0.0
  0
LINE
  5
11B
100
AcDbEntity
  8
0
  6
CONTINUOUS
 62
     7
100
AcDbLine
 10
446.51055
 20
546.1723
 30
0.0
 11
446.51055
 21
552.164077
 31
0.0
  0
ARC
  5
11C
100
AcDbEntity
  8
0
  6
CONTINUOUS
 62
     7
100
AcDbCircle
 10
507.26508
 20
547.946965
 30
0.0
 40
84.110232
100
AcDbArc
 50
177.958773
 51
182.041227
  0
LINE
  5
11D
100
AcDbEntity
  8
0
  6
CONTINUOUS
 62
     7
100
AcDbLine
 10
423.20822
 20
550.942853
 30
0.0
 11
446.51055
 21
552.164077
 31
0.0
  0
LINE
  5
11E
100
AcDbEntity
  8
0
  6
CONTINUOUS
 62
     7
100
AcDbLine
 10
446.51055
 20
208.268892
 30
0.0
 11
446.51055
 21
214.26067
 31
0.0
  0
LINE
  5
11F
100
AcDbEntity
  8
0
  6
CONTINUOUS
 62
     7
100
AcDbLine
 10
446.51055
 20
208.268892
 30
0.0
 11
423.20822
 21
209.490116
 31
0.0
  0
ARC
  5
120
100
AcDbEntity
  8
0
  6
CONTINUOUS
 62
     7
100
AcDbCircle
 10
507.268923
 20
212.486004
 30
0.0
 40
84.114072
100
AcDbArc
 50
177.958866
 51
182.041134
  0
LINE
  5
121
100
AcDbEntity
  8
0
  6
CONTINUOUS
 62
     7
100
AcDbLine
 10
446.51055
 20
546.224707
 30
0.0
 11
447.51055
 21
546.224707
 31
0.0
  0
LINE
  5
122
100
AcDbEntity
  8
0
  6
CONTINUOUS
 62
     7
100
AcDbLine
 10
446.51055
 20
551.516485
 30
0.0
 11
447.51055
 21
551.516485
 31
0.0
  0
LINE
  5
123
100
AcDbEntity
  8
0
  6
CONTINUOUS
 62
     7
100
AcDbLine
 10
447.51055
 20
551.516485
 30
0.0
 11
447.51055
 21
546.224707
 31
0.0
  0
LINE
  5
124
100
AcDbEntity
  8
0
  6
CONTINUOUS
 62
     7
100
AcDbLine
 10
446.51055
 20
208.916485
 30
0.0
 11
447.51055
 21
208.916485
 31
0.0
  0
LINE
  5
125
100
AcDbEntity
  8
0
  6
CONTINUOUS
 62
     7
100
AcDbLine
 10
446.51055
 20
214.208262
 30
0.0
 11
447.51055
 21
214.208262
 31
0.0
  0
LINE
  5
126
100
AcDbEntity
  8
0
  6
CONTINUOUS
 62
     7
100
AcDbLine
 10
447.51055
 20
214.208262
 30
0.0
 11
447.51055
 21
208.916485
 31
0.0
  0
LINE
  5
127
100
AcDbEntity
  8
0
  6
CONTINUOUS
 62
     7
100
AcDbLine
 10
447.51055
 20
546.224707
 30
0.0
 11
447.51055
 21
214.208262
 31
0.0
  0
LINE
  5
128
100
AcDbEntity
  8
0
  6
CONTINUOUS
 62
     7
100
AcDbLine
 10
421.51055
 20
211.37557
 30
0.0
 11
421.51055
 21
215.481893
 31
0.0
  0
LINE
  5
129
100
AcDbEntity
  8
0
  6
CONTINUOUS
 62
     7
100
AcDbLine
 10
421.51055
 20
215.481893
 30
0.0
 11
423.20822
 21
215.481893
 31
0.0
  0
LINE
  5
12A
100
AcDbEntity
  8
0
  6
CONTINUOUS
 62
     7
100
AcDbLine
 10
421.51055
 20
211.37557
 30
0.0
 11
423.20822
 21
209.490116
 31
0.0
  0
LINE
  5
12B
100
AcDbEntity
  8
0
  6
CONTINUOUS
 62
     7
100
AcDbLine
 10
423.20822
 20
544.951076
 30
0.0
 11
421.51055
 21
544.951076
 31
0.0
  0
LINE
  5
12C
100
AcDbEntity
  8
0
  6
CONTINUOUS
 62
     7
100
AcDbLine
 10
421.51055
 20
544.951076
 30
0.0
 11
421.51055
 21
549.0574
 31
0.0
  0
LINE
  5
12D
100
AcDbEntity
  8
0
  6
CONTINUOUS
 62
     7
100
AcDbLine
 10
423.20822
 20
550.942853
 30
0.0
 11
421.51055
 21
549.0574
 31
0.0
  0
LINE
  5
12E
100
AcDbEntity
  8
0
  6
CONTINUOUS
 62
     7
100
AcDbLine
 10
421.51055
 20
215.481893
 30
0.0
 11
421.51055
 21
544.951076
 31
0.0
  0
LINE
  5
12F
100
AcDbEntity
  8
0
  6
CONTINUOUS
 62
     7
100
AcDbLine
 10
543.761803
 20
544.951076
 30
0.0
 11
543.761803
 21
215.481893
 31
0.0
  0
LINE
  5
130
100
AcDbEntity
  8
0
  6
CONTINUOUS
 62
     7
100
AcDbLine
 10
543.761803
 20
215.481893
 30
0.0
 11
541.876349
 21
215.481893
 31
0.0
  0
LINE
  5
131
100
AcDbEntity
  8
0
  6
CONTINUOUS
 62
     7
100
AcDbLine
 10
541.876349
 20
215.481893
 30
0.0
 11
541.876349
 21
544.951076
 31
0.0
  0
LINE
  5
132
100
AcDbEntity
  8
0
  6
CONTINUOUS
 62
     7
100
AcDbLine
 10
541.876349
 20
544.951076
 30
0.0
 11
543.761803
 21
544.951076
 31
0.0
  0
ARC
  5
133
100
AcDbEntity
  8
0
  6
CONTINUOUS
 62
     7
100
AcDbCircle
 10
547.870728
 20
215.484495
 30
0.0
 40
4.108926
100
AcDbArc
 50
180.036285
 51
269.963715
  0
LINE
  5
134
100
AcDbEntity
  8
0
  6
CONTINUOUS
 62
     7
100
AcDbLine
 10
547.868126
 20
211.37557
 30
0.0
 11
547.868126
 21
209.490116
 31
0.0
  0
ARC
  5
135
100
AcDbEntity
  8
0
  6
CONTINUOUS
 62
     7
100
AcDbCircle
 10
547.872842
 20
215.486609
 30
0.0
 40
5.996495
100
AcDbArc
 50
180.045062
 51
269.954938
  0
ARC
  5
136
100
AcDbEntity
  8
0
  6
CONTINUOUS
 62
     7
100
AcDbCircle
 10
547.872843
 20
544.94636
 30
0.0
 40
5.996496
100
AcDbArc
 50
90.045068
 51
179.954932
  0
LINE
  5
137
100
AcDbEntity
  8
0
  6
CONTINUOUS
 62
     7
100
AcDbLine
 10
547.868126
 20
550.942853
 30
0.0
 11
547.868126
 21
549.0574
 31
0.0
  0
ARC
  5
138
100
AcDbEntity
  8
0
  6
CONTINUOUS
 62
     7
100
AcDbCircle
 10
547.870728
 20
544.948474
 30
0.0
 40
4.108926
100
AcDbArc
 50
90.036285
 51
179.963715
  0
CIRCLE
  5
139
100
AcDbEntity
  8
0
  6
CONTINUOUS
 62
     7
100
AcDbCircle
 10
553.102718
 20
220.716485
 30
0.0
 40
6.5
  0
CIRCLE
  5
13A
100
AcDbEntity
  8
0
  6
CONTINUOUS
 62
     7
100
AcDbCircle
 10
553.102718
 20
539.716485
 30
0.0
 40
6.5
  0
CIRCLE
  5
13B
100
AcDbEntity
  8
0
  6
CONTINUOUS
 62
     7
100
AcDbCircle
 10
817.102718
 20
539.716485
 30
0.0
 40
6.5
  0
CIRCLE
  5
13C
100
AcDbEntity
  8
0
  6
CONTINUOUS
 62
     7
100
AcDbCircle
 10
817.102718
 20
220.716485
 30
0.0
 40
6.5
  0
LINE
  5
13D
100
AcDbEntity
  8
0
  6
CONTINUOUS
 62
     7
100
AcDbLine
 10
547.868126
 20
211.37557
 30
0.0
 11
822.337309
 21
211.37557
 31
0.0
  0
LINE
  5
13E
100
AcDbEntity
  8
0
  6
CONTINUOUS
 62
     7
100
AcDbLine
 10
822.337309
 20
549.0574
 30
0.0
 11
547.868126
 21
549.0574
 31
0.0
  0
ARC
  5
13F
100
AcDbEntity
  8
0
  6
CONTINUOUS
 62
     7
100
AcDbCircle
 10
822.334707
 20
544.948474
 30
0.0
 40
4.108926
100
AcDbArc
 50
0.036285
 51
89.963715
  0
LINE
  5
140
100
AcDbEntity
  8
0
  6
CONTINUOUS
 62
     7
100
AcDbLine
 10
826.443633
 20
215.481893
 30
0.0
 11
826.443633
 21
544.951076
 31
0.0
  0
ARC
  5
141
100
AcDbEntity
  8
0
  6
CONTINUOUS
 62
     7
100
AcDbCircle
 10
822.334707
 20
215.484495
 30
0.0
 40
4.108926
100
AcDbArc
 50
270.036285
 51
359.963715
  0
LINE
  5
142
100
AcDbEntity
  8
0
  6
CONTINUOUS
 62
     7
100
AcDbLine
 10
547.868126
 20
550.942853
 30
0.0
 11
822.337309
 21
550.942853
 31
0.0
  0
LINE
  5
143
100
AcDbEntity
  8
0
  6
CONTINUOUS
 62
     7
100
AcDbLine
 10
822.337309
 20
550.942853
 30
0.0
 11
822.337309
 21
549.0574
 31
0.0
  0
LINE
  5
144
100
AcDbEntity
  8
0
  6
CONTINUOUS
 62
     7
100
AcDbLine
 10
822.337309
 20
211.37557
 30
0.0
 11
822.337309
 21
209.490116
 31
0.0
  0
LINE
  5
145
100
AcDbEntity
  8
0
  6
CONTINUOUS
 62
     7
100
AcDbLine
 10
822.337309
 20
209.490116
 30
0.0
 11
547.868126
 21
209.490116
 31
0.0
  0
LINE
  5
146
100
AcDbEntity
  8
0
  6
CONTINUOUS
 62
     7
100
AcDbLine
 10
826.443633
 20
215.481893
 30
0.0
 11
828.329087
 21
215.481893
 31
0.0
  0
ARC
  5
147
100
AcDbEntity
  8
0
  6
CONTINUOUS
 62
     7
100
AcDbCircle
 10
822.332593
 20
215.486609
 30
0.0
 40
5.996495
100
AcDbArc
 50
270.045062
 51
359.954938
  0
ARC
  5
148
100
AcDbEntity
  8
0
  6
CONTINUOUS
 62
     7
100
AcDbCircle
 10
822.332593
 20
544.94636
 30
0.0
 40
5.996496
100
AcDbArc
 50
0.045068
 51
89.954932
  0
LINE
  5
149
100
AcDbEntity
  8
0
  6
CONTINUOUS
 62
     7
100
AcDbLine
 10
828.329087
 20
544.951076
 30
0.0
 11
826.443633
 21
544.951076
 31
0.0
  0
LINE
  5
14A
100
AcDbEntity
  8
0
  6
CONTINUOUS
 62
     7
100
AcDbLine
 10
828.329087
 20
544.951076
 30
0.0
 11
828.329087
 21
215.481893
 31
0.0
  0
CIRCLE
  5
14B
100
AcDbEntity
  8
0
  6
CONTINUOUS
 62
     7
100
AcDbCircle
 10
553.102718
 20
220.716485
 30
0.0
 40
6.410986
  0
CIRCLE
  5
14C
100
AcDbEntity
  8
0
  6
CONTINUOUS
 62
     7
100
AcDbCircle
 10
553.102718
 20
539.716485
 30
0.0
 40
6.410986
  0
CIRCLE
  5
14D
100
AcDbEntity
  8
0
  6
CONTINUOUS
 62
     7
100
AcDbCircle
 10
817.102718
 20
220.716485
 30
0.0
 40
6.410986
  0
CIRCLE
  5
14E
100
AcDbEntity
  8
0
  6
CONTINUOUS
 62
     7
100
AcDbCircle
 10
817.102718
 20
539.716485
 30
0.0
 40
6.410986
  0
ELLIPSE
  5
14F
100
AcDbEntity
  8
0
  6
CONTINUOUS
 62
     7
100
AcDbEllipse
 10
546.66336
 20
546.155843
 30
0.0
 11
4.254277460610467
 21
-4.254277460610325
 31
0.0
210
0.0
220
0.0
230
1.0
 40
0.997265
 41
2.357564018062731
 42
3.925621289116858
  0
LINE
  5
150
100
AcDbEntity
  8
0
  6
CONTINUOUS
 62
     7
100
AcDbLine
 10
546.646903
 20
552.164077
 30
0.0
 11
547.868126
 21
550.942853
 31
0.0
  0
LINE
  5
151
100
AcDbEntity
  8
0
  6
CONTINUOUS
 62
     7
100
AcDbLine
 10
541.876349
 20
544.951076
 30
0.0
 11
540.655126
 21
546.1723
 31
0.0
  0
ELLIPSE
  5
152
100
AcDbEntity
  8
0
  6
CONTINUOUS
 62
     7
100
AcDbEllipse
 10
546.66336
 20
214.277126
 30
0.0
 11
4.254277460610467
 21
4.254277460610254
 31
0.0
210
0.0
220
0.0
230
1.0
 40
0.997265
 41
2.357564018062781
 42
3.925621289116868
  0
LINE
  5
153
100
AcDbEntity
  8
0
  6
CONTINUOUS
 62
     7
100
AcDbLine
 10
540.655126
 20
214.26067
 30
0.0
 11
541.876349
 21
215.481893
 31
0.0
  0
LINE
  5
154
100
AcDbEntity
  8
0
  6
CONTINUOUS
 62
     7
100
AcDbLine
 10
547.868126
 20
209.490116
 30
0.0
 11
546.646903
 21
208.268892
 31
0.0
  0
ELLIPSE
  5
155
100
AcDbEntity
  8
0
  6
CONTINUOUS
 62
     7
100
AcDbEllipse
 10
823.542076
 20
214.277126
 30
0.0
 11
4.254277460610467
 21
-4.254277460610254
 31
0.0
210
0.0
220
0.0
230
1.0
 40
0.997265
 41
5.499156671652538
 42
7.067213942706611
  0
LINE
  5
156
100
AcDbEntity
  8
0
  6
CONTINUOUS
 62
     7
100
AcDbLine
 10
823.558533
 20
208.268892
 30
0.0
 11
822.337309
 21
209.490116
 31
0.0
  0
LINE
  5
157
100
AcDbEntity
  8
0
  6
CONTINUOUS
 62
     7
100
AcDbLine
 10
828.329087
 20
215.481893
 30
0.0
 11
829.55031
 21
214.26067
 31
0.0
  0
ELLIPSE
  5
158
100
AcDbEntity
  8
0
  6
CONTINUOUS
 62
     7
100
AcDbEllipse
 10
823.542076
 20
546.155843
 30
0.0
 11
4.254277460610466
 21
4.254277460610182
 31
0.0
210
0.0
220
0.0
230
1.0
 40
0.997265
 41
5.499156671652609
 42
7.067213942706657
  0
LINE
  5
159
100
AcDbEntity
  8
0
  6
CONTINUOUS
 62
     7
100
AcDbLine
 10
829.55031
 20
546.1723
 30
0.0
 11
828.329087
 21
544.951076
 31
0.0
  0
LINE
  5
15A
100
AcDbEntity
  8
0
  6
CONTINUOUS
 62
     7
100
AcDbLine
 10
822.337309
 20
550.942853
 30
0.0
 11
823.558533
 21
552.164077
 31
0.0
  0
LINE
  5
15B
100
AcDbEntity
  8
0
  6
CONTINUOUS
 62
     7
100
AcDbLine
 10
540.655126
 20
214.26067
 30
0.0
 11
540.655126
 21
546.1723
 31
0.0
  0
LINE
  5
15C
100
AcDbEntity
  8
0
  6
CONTINUOUS
 62
     7
100
AcDbLine
 10
546.646903
 20
552.164077
 30
0.0
 11
823.558533
 21
552.164077
 31
0.0
  0
LINE
  5
15D
100
AcDbEntity
  8
0
  6
CONTINUOUS
 62
     7
100
AcDbLine
 10
823.558533
 20
208.268892
 30
0.0
 11
546.646903
 21
208.268892
 31
0.0
  0
LINE
  5
15E
100
AcDbEntity
  8
0
  6
CONTINUOUS
 62
     7
100
AcDbLine
 10
829.55031
 20
546.1723
 30
0.0
 11
829.55031
 21
214.26067
 31
0.0
  0
INSERT
  5
16A
100
AcDbEntity
  8
0
  6
CONTINUOUS
 62
     7
100
AcDbBlockReference
  2
SW_CENTERMARKSYMBOL_12
 10
553.102718
 20
220.716485
 30
0.0
 41
5.0
 42
5.0
 43
5.0
  0
INSERT
  5
176
100
AcDbEntity
  8
0
  6
CONTINUOUS
 62
     7
100
AcDbBlockReference
  2
SW_CENTERMARKSYMBOL_13
 10
553.102718
 20
539.716485
 30
0.0
 41
5.0
 42
5.0
 43
5.0
  0
INSERT
  5
182
100
AcDbEntity
  8
0
  6
CONTINUOUS
 62
     7
100
AcDbBlockReference
  2
SW_CENTERMARKSYMBOL_14
 10
817.102718
 20
539.716485
 30
0.0
 41
5.0
 42
5.0
 43
5.0
  0
INSERT
  5
18E
100
AcDbEntity
  8
0
  6
CONTINUOUS
 62
     7
100
AcDbBlockReference
  2
SW_CENTERMARKSYMBOL_15
 10
817.102718
 20
220.716485
 30
0.0
 41
5.0
 42
5.0
 43
5.0
  0
LINE
  5
18F
100
AcDbEntity
  8
0
  6
CONTINUOUS
 62
     7
100
AcDbLine
 10
540.655126
 20
633.552016
 30
0.0
 11
546.646903
 21
633.552016
 31
0.0
  0
LINE
  5
190
100
AcDbEntity
  8
0
  6
CONTINUOUS
 62
     7
100
AcDbLine
 10
540.655126
 20
633.552016
 30
0.0
 11
541.876349
 21
656.854345
 31
0.0
  0
ARC
  5
191
100
AcDbEntity
  8
0
  6
CONTINUOUS
 62
     7
100
AcDbCircle
 10
544.872238
 20
572.788076
 30
0.0
 40
84.119635
100
AcDbArc
 50
87.959001
 51
92.040999
  0
LINE
  5
192
100
AcDbEntity
  8
0
  6
CONTINUOUS
 62
     7
100
AcDbLine
 10
547.868126
 20
656.854345
 30
0.0
 11
546.646903
 21
633.552016
 31
0.0
  0
LINE
  5
193
100
AcDbEntity
  8
0
  6
CONTINUOUS
 62
     7
100
AcDbLine
 10
823.558533
 20
633.552016
 30
0.0
 11
546.646903
 21
633.552016
 31
0.0
  0
LINE
  5
194
100
AcDbEntity
  8
0
  6
CONTINUOUS
 62
     7
100
AcDbLine
 10
822.337309
 20
656.854345
 30
0.0
 11
547.868126
 21
656.854345
 31
0.0
  0
LINE
  5
195
100
AcDbEntity
  8
0
  6
CONTINUOUS
 62
     7
100
AcDbLine
 10
823.558533
 20
633.552016
 30
0.0
 11
822.337309
 21
656.854345
 31
0.0
  0
LINE
  5
196
100
AcDbEntity
  8
0
  6
CONTINUOUS
 62
     7
100
AcDbLine
 10
823.558533
 20
633.552016
 30
0.0
 11
829.55031
 21
633.552016
 31
0.0
  0
ARC
  5
197
100
AcDbEntity
  8
0
  6
CONTINUOUS
 62
     7
100
AcDbCircle
 10
825.333198
 20
572.788076
 30
0.0
 40
84.119635
100
AcDbArc
 50
87.959001
 51
92.040999
  0
LINE
  5
198
100
AcDbEntity
  8
0
  6
CONTINUOUS
 62
     7
100
AcDbLine
 10
828.329087
 20
656.854345
 30
0.0
 11
829.55031
 21
633.552016
 31
0.0
  0
LINE
  5
199
100
AcDbEntity
  8
0
  6
CONTINUOUS
 62
     7
100
AcDbLine
 10
541.302718
 20
633.552016
 30
0.0
 11
541.302718
 21
632.552016
 31
0.0
  0
LINE
  5
19A
100
AcDbEntity
  8
0
  6
CONTINUOUS
 62
     7
100
AcDbLine
 10
546.594495
 20
633.552016
 30
0.0
 11
546.594495
 21
632.552016
 31
0.0
  0
LINE
  5
19B
100
AcDbEntity
  8
0
  6
CONTINUOUS
 62
     7
100
AcDbLine
 10
546.594495
 20
632.552016
 30
0.0
 11
541.302718
 21
632.552016
 31
0.0
  0
LINE
  5
19C
100
AcDbEntity
  8
0
  6
CONTINUOUS
 62
     7
100
AcDbLine
 10
823.610941
 20
633.552016
 30
0.0
 11
823.610941
 21
632.552016
 31
0.0
  0
LINE
  5
19D
100
AcDbEntity
  8
0
  6
CONTINUOUS
 62
     7
100
AcDbLine
 10
823.610941
 20
632.552016
 30
0.0
 11
546.594495
 21
632.552016
 31
0.0
  0
LINE
  5
19E
100
AcDbEntity
  8
0
  6
CONTINUOUS
 62
     7
100
AcDbLine
 10
828.902718
 20
633.552016
 30
0.0
 11
828.902718
 21
632.552016
 31
0.0
  0
LINE
  5
19F
100
AcDbEntity
  8
0
  6
CONTINUOUS
 62
     7
100
AcDbLine
 10
828.902718
 20
632.552016
 30
0.0
 11
823.610941
 21
632.552016
 31
0.0
  0
LINE
  5
1A0
100
AcDbEntity
  8
0
  6
CONTINUOUS
 62
     7
100
AcDbLine
 10
543.761803
 20
658.552016
 30
0.0
 11
547.868126
 21
658.552016
 31
0.0
  0
LINE
  5
1A1
100
AcDbEntity
  8
0
  6
CONTINUOUS
 62
     7
100
AcDbLine
 10
547.868126
 20
658.552016
 30
0.0
 11
547.868126
 21
656.854345
 31
0.0
  0
LINE
  5
1A2
100
AcDbEntity
  8
0
  6
CONTINUOUS
 62
     7
100
AcDbLine
 10
543.761803
 20
658.552016
 30
0.0
 11
541.876349
 21
656.854345
 31
0.0
  0
LINE
  5
1A3
100
AcDbEntity
  8
0
  6
CONTINUOUS
 62
     7
100
AcDbLine
 10
822.337309
 20
658.552016
 30
0.0
 11
826.443633
 21
658.552016
 31
0.0
  0
LINE
  5
1A4
100
AcDbEntity
  8
0
  6
CONTINUOUS
 62
     7
100
AcDbLine
 10
826.443633
 20
658.552016
 30
0.0
 11
828.329087
 21
656.854345
 31
0.0
  0
LINE
  5
1A5
100
AcDbEntity
  8
0
  6
CONTINUOUS
 62
     7
100
AcDbLine
 10
822.337309
 20
658.552016
 30
0.0
 11
822.337309
 21
656.854345
 31
0.0
  0
LINE
  5
1A6
100
AcDbEntity
  8
0
  6
CONTINUOUS
 62
     7
100
AcDbLine
 10
547.868126
 20
658.552016
 30
0.0
 11
822.337309
 21
658.552016
 31
0.0
  0
LINE
  5
1A7
100
AcDbEntity
  8
0
  6
CONTINUOUS
 62
     7
100
AcDbLine
 10
546.646903
 20
110.031396
 30
0.0
 11
540.655126
 21
110.031396
 31
0.0
  0
LINE
  5
1A8
100
AcDbEntity
  8
0
  6
CONTINUOUS
 62
     7
100
AcDbLine
 10
546.646903
 20
110.031396
 30
0.0
 11
547.868126
 21
86.729066
 31
0.0
  0
ARC
  5
1A9
100
AcDbEntity
  8
0
  6
CONTINUOUS
 62
     7
100
AcDbCircle
 10
544.872238
 20
170.785927
 30
0.0
 40
84.110232
100
AcDbArc
 50
267.958773
 51
272.041227
  0
LINE
  5
1AA
100
AcDbEntity
  8
0
  6
CONTINUOUS
 62
     7
100
AcDbLine
 10
541.876349
 20
86.729066
 30
0.0
 11
540.655126
 21
110.031396
 31
0.0
  0
LINE
  5
1AB
100
AcDbEntity
  8
0
  6
CONTINUOUS
 62
     7
100
AcDbLine
 10
546.646903
 20
110.031396
 30
0.0
 11
823.558533
 21
110.031396
 31
0.0
  0
LINE
  5
1AC
100
AcDbEntity
  8
0
  6
CONTINUOUS
 62
     7
100
AcDbLine
 10
822.337309
 20
86.729066
 30
0.0
 11
823.558533
 21
110.031396
 31
0.0
  0
LINE
  5
1AD
100
AcDbEntity
  8
0
  6
CONTINUOUS
 62
     7
100
AcDbLine
 10
547.868126
 20
86.729066
 30
0.0
 11
822.337309
 21
86.729066
 31
0.0
  0
LINE
  5
1AE
100
AcDbEntity
  8
0
  6
CONTINUOUS
 62
     7
100
AcDbLine
 10
829.55031
 20
110.031396
 30
0.0
 11
823.558533
 21
110.031396
 31
0.0
  0
LINE
  5
1AF
100
AcDbEntity
  8
0
  6
CONTINUOUS
 62
     7
100
AcDbLine
 10
829.55031
 20
110.031396
 30
0.0
 11
828.329087
 21
86.729066
 31
0.0
  0
ARC
  5
1B0
100
AcDbEntity
  8
0
  6
CONTINUOUS
 62
     7
100
AcDbCircle
 10
825.333198
 20
170.785927
 30
0.0
 40
84.110232
100
AcDbArc
 50
267.958773
 51
272.041227
  0
LINE
  5
1B1
100
AcDbEntity
  8
0
  6
CONTINUOUS
 62
     7
100
AcDbLine
 10
546.594495
 20
110.031396
 30
0.0
 11
546.594495
 21
111.031396
 31
0.0
  0
LINE
  5
1B2
100
AcDbEntity
  8
0
  6
CONTINUOUS
 62
     7
100
AcDbLine
 10
541.302718
 20
110.031396
 30
0.0
 11
541.302718
 21
111.031396
 31
0.0
  0
LINE
  5
1B3
100
AcDbEntity
  8
0
  6
CONTINUOUS
 62
     7
100
AcDbLine
 10
541.302718
 20
111.031396
 30
0.0
 11
546.594495
 21
111.031396
 31
0.0
  0
LINE
  5
1B4
100
AcDbEntity
  8
0
  6
CONTINUOUS
 62
     7
100
AcDbLine
 10
823.610941
 20
110.031396
 30
0.0
 11
823.610941
 21
111.031396
 31
0.0
  0
LINE
  5
1B5
100
AcDbEntity
  8
0
  6
CONTINUOUS
 62
     7
100
AcDbLine
 10
546.594495
 20
111.031396
 30
0.0
 11
823.610941
 21
111.031396
 31
0.0
  0
LINE
  5
1B6
100
AcDbEntity
  8
0
  6
CONTINUOUS
 62
     7
100
AcDbLine
 10
828.902718
 20
110.031396
 30
0.0
 11
828.902718
 21
111.031396
 31
0.0
  0
LINE
  5
1B7
100
AcDbEntity
  8
0
  6
CONTINUOUS
 62
     7
100
AcDbLine
 10
823.610941
 20
111.031396
 30
0.0
 11
828.902718
 21
111.031396
 31
0.0
  0
LINE
  5
1B8
100
AcDbEntity
  8
0
  6
CONTINUOUS
 62
     7
100
AcDbLine
 10
547.868126
 20
86.729066
 30
0.0
 11
547.868126
 21
85.031396
 31
0.0
  0
LINE
  5
1B9
100
AcDbEntity
  8
0
  6
CONTINUOUS
 62
     7
100
AcDbLine
 10
547.868126
 20
85.031396
 30
0.0
 11
543.761803
 21
85.031396
 31
0.0
  0
LINE
  5
1BA
100
AcDbEntity
  8
0
  6
CONTINUOUS
 62
     7
100
AcDbLine
 10
541.876349
 20
86.729066
 30
0.0
 11
543.761803
 21
85.031396
 31
0.0
  0
LINE
  5
1BB
100
AcDbEntity
  8
0
  6
CONTINUOUS
 62
     7
100
AcDbLine
 10
828.329087
 20
86.729066
 30
0.0
 11
826.443633
 21
85.031396
 31
0.0
  0
LINE
  5
1BC
100
AcDbEntity
  8
0
  6
CONTINUOUS
 62
     7
100
AcDbLine
 10
826.443633
 20
85.031396
 30
0.0
 11
822.337309
 21
85.031396
 31
0.0
  0
LINE
  5
1BD
100
AcDbEntity
  8
0
  6
CONTINUOUS
 62
     7
100
AcDbLine
 10
822.337309
 20
86.729066
 30
0.0
 11
822.337309
 21
85.031396
 31
0.0
  0
LINE
  5
1BE
100
AcDbEntity
  8
0
  6
CONTINUOUS
 62
     7
100
AcDbLine
 10
822.337309
 20
85.031396
 30
0.0
 11
547.868126
 21
85.031396
 31
0.0
  0
LINE
  5
1BF
100
AcDbEntity
  8
0
  6
CONTINUOUS
 62
     7
100
AcDbLine
 10
930.01347
 20
214.26067
 30
0.0
 11
930.01347
 21
208.268892
 31
0.0
  0
LINE
  5
1C0
100
AcDbEntity
  8
0
  6
CONTINUOUS
 62
     7
100
AcDbLine
 10
930.01347
 20
214.26067
 30
0.0
 11
953.3158
 21
215.481893
 31
0.0
  0
ARC
  5
1C1
100
AcDbEntity
  8
0
  6
CONTINUOUS
 62
     7
100
AcDbCircle
 10
869.255097
 20
212.486004
 30
0.0
 40
84.114072
100
AcDbArc
 50
357.958866
 51
2.041134
  0
LINE
  5
1C2
100
AcDbEntity
  8
0
  6
CONTINUOUS
 62
     7
100
AcDbLine
 10
953.3158
 20
209.490116
 30
0.0
 11
930.01347
 21
208.268892
 31
0.0
  0
LINE
  5
1C3
100
AcDbEntity
  8
0
  6
CONTINUOUS
 62
     7
100
AcDbLine
 10
930.01347
 20
552.164077
 30
0.0
 11
930.01347
 21
546.1723
 31
0.0
  0
LINE
  5
1C4
100
AcDbEntity
  8
0
  6
CONTINUOUS
 62
     7
100
AcDbLine
 10
930.01347
 20
552.164077
 30
0.0
 11
953.3158
 21
550.942853
 31
0.0
  0
ARC
  5
1C5
100
AcDbEntity
  8
0
  6
CONTINUOUS
 62
     7
100
AcDbCircle
 10
869.25894
 20
547.946965
 30
0.0
 40
84.110232
100
AcDbArc
 50
357.958773
 51
2.041227
  0
LINE
  5
1C6
100
AcDbEntity
  8
0
  6
CONTINUOUS
 62
     7
100
AcDbLine
 10
953.3158
 20
544.951076
 30
0.0
 11
930.01347
 21
546.1723
 31
0.0
  0
LINE
  5
1C7
100
AcDbEntity
  8
0
  6
CONTINUOUS
 62
     7
100
AcDbLine
 10
930.01347
 20
214.26067
 30
0.0
 11
930.01347
 21
546.1723
 31
0.0
  0
LINE
  5
1C8
100
AcDbEntity
  8
0
  6
CONTINUOUS
 62
     7
100
AcDbLine
 10
953.3158
 20
215.481893
 30
0.0
 11
953.3158
 21
544.951076
 31
0.0
  0
LINE
  5
1C9
100
AcDbEntity
  8
0
  6
CONTINUOUS
 62
     7
100
AcDbLine
 10
930.01347
 20
214.208262
 30
0.0
 11
929.01347
 21
214.208262
 31
0.0
  0
LINE
  5
1CA
100
AcDbEntity
  8
0
  6
CONTINUOUS
 62
     7
100
AcDbLine
 10
930.01347
 20
208.916485
 30
0.0
 11
929.01347
 21
208.916485
 31
0.0
  0
LINE
  5
1CB
100
AcDbEntity
  8
0
  6
CONTINUOUS
 62
     7
100
AcDbLine
 10
929.01347
 20
208.916485
 30
0.0
 11
929.01347
 21
214.208262
 31
0.0
  0
LINE
  5
1CC
100
AcDbEntity
  8
0
  6
CONTINUOUS
 62
     7
100
AcDbLine
 10
930.01347
 20
546.224707
 30
0.0
 11
929.01347
 21
546.224707
 31
0.0
  0
LINE
  5
1CD
100
AcDbEntity
  8
0
  6
CONTINUOUS
 62
     7
100
AcDbLine
 10
929.01347
 20
214.208262
 30
0.0
 11
929.01347
 21
546.224707
 31
0.0
  0
LINE
  5
1CE
100
AcDbEntity
  8
0
  6
CONTINUOUS
 62
     7
100
AcDbLine
 10
930.01347
 20
551.516485
 30
0.0
 11
929.01347
 21
551.516485
 31
0.0
  0
LINE
  5
1CF
100
AcDbEntity
  8
0
  6
CONTINUOUS
 62
     7
100
AcDbLine
 10
929.01347
 20
546.224707
 30
0.0
 11
929.01347
 21
551.516485
 31
0.0
  0
LINE
  5
1D0
100
AcDbEntity
  8
0
  6
CONTINUOUS
 62
     7
100
AcDbLine
 10
955.01347
 20
215.481893
 30
0.0
 11
955.01347
 21
211.37557
 31
0.0
  0
LINE
  5
1D1
100
AcDbEntity
  8
0
  6
CONTINUOUS
 62
     7
100
AcDbLine
 10
955.01347
 20
211.37557
 30
0.0
 11
953.3158
 21
209.490116
 31
0.0
  0
LINE
  5
1D2
100
AcDbEntity
  8
0
  6
CONTINUOUS
 62
     7
100
AcDbLine
 10
955.01347
 20
215.481893
 30
0.0
 11
953.3158
 21
215.481893
 31
0.0
  0
LINE
  5
1D3
100
AcDbEntity
  8
0
  6
CONTINUOUS
 62
     7
100
AcDbLine
 10
953.3158
 20
550.942853
 30
0.0
 11
955.01347
 21
549.0574
 31
0.0
  0
LINE
  5
1D4
100
AcDbEntity
  8
0
  6
CONTINUOUS
 62
     7
100
AcDbLine
 10
955.01347
 20
549.0574
 30
0.0
 11
955.01347
 21
544.951076
 31
0.0
  0
LINE
  5
1D5
100
AcDbEntity
  8
0
  6
CONTINUOUS
 62
     7
100
AcDbLine
 10
953.3158
 20
544.951076
 30
0.0
 11
955.01347
 21
544.951076
 31
0.0
  0
LINE
  5
1D6
100
AcDbEntity
  8
0
  6
CONTINUOUS
 62
     7
100
AcDbLine
 10
955.01347
 20
544.951076
 30
0.0
 11
955.01347
 21
215.481893
 31
0.0
  0
LINE
  5
1D9
100
AcDbEntity
  8
0
  6
HIDDEN
 62
     1
100
AcDbLine
 10
952.51347
 20
524.205826
 30
0.0
 11
952.51347
 21
528.695484
 31
0.0
  0
LINE
  5
1DD
100
AcDbEntity
  8
0
  6
HIDDEN
 62
     1
100
AcDbLine
 10
952.51347
 20
236.227143
 30
0.0
 11
952.51347
 21
524.205826
 31
0.0
  0
LINE
  5
1E0
100
AcDbEntity
  8
0
  6
HIDDEN
 62
     1
100
AcDbLine
 10
952.51347
 20
231.737485
 30
0.0
 11
952.51347
 21
236.227143
 31
0.0
  0
ARC
  5
1E7
100
AcDbEntity
  8
0
  6
HIDDEN
 62
     1
100
AcDbCircle
 10
952.013737
 20
230.973555
 30
0.0
 40
0.499733
100
AcDbArc
 50
272.970898
 51
359.974617
  0
LINE
  5
1ED
100
AcDbEntity
  8
0
  6
HIDDEN
 62
     1
100
AcDbLine
 10
952.039638
 20
230.474494
 30
0.0
 11
929.01347
 21
229.268892
 31
0.0
  0
LINE
  5
1EE
100
AcDbEntity
  8
0
  6
HIDDEN
 62
     1
100
AcDbLine
 10
952.039638
 20
529.958475
 30
0.0
 11
929.01347
 21
531.164077
 31
0.0
  0
LINE
  5
1F1
100
AcDbEntity
  8
0
  6
HIDDEN
 62
     1
100
AcDbLine
 10
952.51347
 20
529.459636
 30
0.0
 11
952.51347
 21
538.756843
 31
0.0
  0
LINE
  5
1F4
100
AcDbEntity
  8
0
  6
HIDDEN
 62
     1
100
AcDbLine
 10
952.51347
 20
221.676126
 30
0.0
 11
952.51347
 21
230.973334
 31
0.0
  0
LINE
  5
1F7
100
AcDbEntity
  8
0
  6
HIDDEN
 62
     1
100
AcDbLine
 10
952.039638
 20
547.657327
 30
0.0
 11
929.01347
 21
548.864077
 31
0.0
  0
LINE
  5
1F8
100
AcDbEntity
  8
0
  6
HIDDEN
 62
     1
100
AcDbLine
 10
952.039638
 20
212.775643
 30
0.0
 11
929.01347
 21
211.568892
 31
0.0
  0
ARC
  5
1FE
100
AcDbEntity
  8
0
  6
HIDDEN
 62
     1
100
AcDbCircle
 10
952.01347
 20
213.274957
 30
0.0
 40
0.5
100
AcDbArc
 50
273.0
 51
0.0
  0
LINE
  5
1FF
100
AcDbEntity
  8
0
  6
HIDDEN
 62
     1
100
AcDbLine
 10
952.51347
 20
213.274957
 30
0.0
 11
952.51347
 21
218.068892
 31
0.0
  0
LINE
  5
201
100
AcDbEntity
  8
0
  6
HIDDEN
 62
     1
100
AcDbLine
 10
952.51347
 20
218.068892
 30
0.0
 11
952.51347
 21
221.676126
 31
0.0
  0
ARC
  5
203
100
AcDbEntity
  8
0
  6
HIDDEN
 62
     1
100
AcDbCircle
 10
952.01347
 20
547.158012
 30
0.0
 40
0.5
100
AcDbArc
 50
0.0
 51
87.0
  0
LINE
  5
204
100
AcDbEntity
  8
0
  6
HIDDEN
 62
     1
100
AcDbLine
 10
952.51347
 20
542.364077
 30
0.0
 11
952.51347
 21
547.158012
 31
0.0
  0
LINE
  5
206
100
AcDbEntity
  8
0
  6
HIDDEN
 62
     1
100
AcDbLine
 10
952.51347
 20
538.756843
 30
0.0
 11
952.51347
 21
542.364077
 31
0.0
  0
LINE
  5
215
100
AcDbEntity
  8
0
  6
HIDDEN
 62
     1
100
AcDbLine
 10
952.039638
 20
230.474494
 30
0.0
 11
929.01347
 21
229.268892
 31
0.0
  0
LINE
  5
218
100
AcDbEntity
  8
0
  6
HIDDEN
 62
     1
100
AcDbLine
 10
952.039638
 20
529.958475
 30
0.0
 11
929.01347
 21
531.164077
 31
0.0
  0
LINE
  5
225
100
AcDbEntity
  8
0
  6
HIDDEN
 62
     7
100
AcDbLine
 10
930.01347
 20
546.1723
 30
0.0
 11
953.3158
 21
544.951076
 31
0.0
  0
LINE
  5
226
100
AcDbEntity
  8
0
  6
HIDDEN
 62
     7
100
AcDbLine
 10
953.3158
 20
215.481893
 30
0.0
 11
930.01347
 21
214.26067
 31
0.0
  0
LINE
  5
227
100
AcDbEntity
  8
0
  6
HIDDEN
 62
     7
100
AcDbLine
 10
930.01347
 20
546.224707
 30
0.0
 11
929.01347
 21
546.224707
 31
0.0
  0
LINE
  5
229
100
AcDbEntity
  8
0
  6
HIDDEN
 62
     7
100
AcDbLine
 10
930.01347
 20
214.208262
 30
0.0
 11
929.01347
 21
214.208262
 31
0.0
  0
TEXT
  5
26E
100
AcDbEntity
  8
0
100
AcDbText
 10
23.17815
 20
640.072166
 30
0.0
 40
10.0
  1
FIBOX Tempo 3429 Cover
100
AcDbText
  0
ENDSEC
  0
SECTION
  2
OBJECTS
  0
DICTIONARY
  5
C
100
AcDbDictionary
  3
ACAD_GROUP
350
D
  3
ACAD_PLOTSTYLENAME
350
E
  3
ACAD_MLINESTYLE
350
17
  3
ACAD_PLOTSETTINGS
350
19
  3
ACAD_LAYOUT
350
1A
  3
ACDBHEADERROUNDTRIPXREC
350
22F
  0
DICTIONARY
  5
261
100
AcDbDictionary
280
     1
  3
ACAD_XREC_ROUNDTRIP
360
262
  0
DICTIONARY
  5
263
100
AcDbDictionary
280
     1
  3
ACAD_XREC_ROUNDTRIP
360
264
  0
DICTIONARY
  5
265
100
AcDbDictionary
280
     1
  3
ACAD_XREC_ROUNDTRIP
360
266
  0
DICTIONARY
  5
25F
100
AcDbDictionary
280
     1
  3
ACAD_XREC_ROUNDTRIP
360
260
  0
DICTIONARY
  5
269
100
AcDbDictionary
280
     1
  3
ACAD_XREC_ROUNDTRIP
360
26A
  0
DICTIONARY
  5
256
100
AcDbDictionary
280
     1
  3
ACAD_LAYOUTSELFREF
360
257
  3
ACAD_XREC_ROUNDTRIP
360
25C
  0
DICTIONARY
  5
254
100
AcDbDictionary
280
     1
  3
ACAD_LAYOUTSELFREF
360
255
  3
ACAD_XREC_ROUNDTRIP
360
25D
  0
DICTIONARY
  5
258
100
AcDbDictionary
280
     1
  3
ACAD_LAYOUTSELFREF
360
259
  3
ACAD_XREC_ROUNDTRIP
360
25E
  0
DICTIONARY
  5
D
102
{ACAD_REACTORS
330
C
102
}
100
AcDbDictionary
  0
ACAD_PROXY_OBJECT
  5
E
102
{ACAD_XDICTIONARY
360
250
102
}
102
{ACAD_REACTORS
330
C
102
}
100
AcDbProxyObject
 90
      499
 91
      500
 93
       86
310
4050100419393D49350532
350
F
340
F
 94
        0
  0
DICTIONARY
  5
17
102
{ACAD_XDICTIONARY
360
252
102
}
102
{ACAD_REACTORS
330
C
102
}
100
AcDbDictionary
  3
STANDARD
350
18
  0
DICTIONARY
  5
19
102
{ACAD_REACTORS
330
C
102
}
100
AcDbDictionary
  0
DICTIONARY
  5
1A
102
{ACAD_XDICTIONARY
360
25A
102
}
102
{ACAD_REACTORS
330
C
102
}
100
AcDbDictionary
  3
LAYOUT1
350
1E
  3
MODEL
350
22
  3
LAYOUT2
350
26
  0
DICTIONARY
  5
22F
102
{ACAD_REACTORS
330
C
102
}
100
AcDbDictionary
  3
TSTACKALIGN
350
230
  3
TSTACKSIZE
350
231
  3
HYPERLINKBASE
350
232
  3
STYLESHEET
350
233
  3
LAYOUTDICT
350
234
  3
PLOTSETDICT
350
235
  3
PLOTSTYLNAMDICT
350
236
  3
LWETCUNION
350
237
  3
INSUNITS
350
238
  3
CEPSNTYPE
350
239
  3
FINGERPRINTGUID
350
23A
  3
VERSIONGUID
350
23B
  3
PSVPSCALE
350
23C
  3
PUCSORTHOREF
350
23D
  3
PUCSORTHOVIEW
350
23E
  3
PUCSBASE
350
23F
  3
PUCSORGTOP
350
240
  3
PUCSORGBOTTOM
350
241
  3
PUCSORGLEFT
350
242
  3
PUCSORGRIGHT
350
243
  3
PUCSORGFRONT
350
244
  3
PUCSORGBACK
350
245
  3
UCSORTHOREF
350
246
  3
UCSORTHOVIEW
350
247
  3
UCSBASE
350
248
  3
UCSORGTOP
350
249
  3
UCSORGBOTTOM
350
24A
  3
UCSORGLEFT
350
24B
  3
UCSORGRIGHT
350
24C
  3
UCSORGFRONT
350
24D
  3
UCSORGBACK
350
24E
  3
DIMSTYLEDATA
350
24F
  0
XRECORD
  5
262
102
{ACAD_REACTORS
330
261
102
}
100
AcDbXrecord
102
EXTNAMES
  1
BYBLOCK
  2
ByBlock
  0
XRECORD
  5
264
102
{ACAD_REACTORS
330
263
102
}
100
AcDbXrecord
102
EXTNAMES
  1
BYLAYER
  2
ByLayer
  0
XRECORD
  5
266
102
{ACAD_REACTORS
330
265
102
}
100
AcDbXrecord
102
EXTNAMES
  1
CONTINUOUS
  2
Continuous
  0
XRECORD
  5
260
102
{ACAD_REACTORS
330
25F
102
}
100
AcDbXrecord
102
EXTNAMES
  1
STANDARD
  2
Standard
  0
XRECORD
  5
26A
102
{ACAD_REACTORS
330
269
102
}
100
AcDbXrecord
102
ACADR14ROUNDTRIP
1000
DSTYLE
1002
{
1070
   278
 70
    44
1002
}
  0
XRECORD
  5
257
102
{ACAD_REACTORS
330
256
102
}
100
AcDbXrecord
340
1F
  0
XRECORD
  5
25C
102
{ACAD_REACTORS
330
256
102
}
100
AcDbXrecord
102
EXTNAMES
  1
*MODEL_SPACE
  2
*Model_Space
  0
XRECORD
  5
255
102
{ACAD_REACTORS
330
254
102
}
100
AcDbXrecord
340
1B
  0
XRECORD
  5
25D
102
{ACAD_REACTORS
330
254
102
}
100
AcDbXrecord
102
EXTNAMES
  1
*PAPER_SPACE
  2
*Paper_Space
  0
XRECORD
  5
259
102
{ACAD_REACTORS
330
258
102
}
100
AcDbXrecord
340
23
  0
XRECORD
  5
25E
102
{ACAD_REACTORS
330
258
102
}
100
AcDbXrecord
102
EXTNAMES
  1
*PAPER_SPACE
  2
*Paper_Space0
  0
DICTIONARY
  5
250
100
AcDbDictionary
280
     1
  3
ACAD_XREC_ROUNDTRIP
360
251
  0
ACAD_PROXY_OBJECT
  5
F
102
{ACAD_REACTORS
330
E
102
}
100
AcDbProxyObject
 90
      499
 91
      504
 93
        0
 94
        0
  0
DICTIONARY
  5
252
100
AcDbDictionary
280
     1
  3
ACAD_XREC_ROUNDTRIP
360
253
  0
MLINESTYLE
  5
18
102
{ACAD_REACTORS
330
17
102
}
100
AcDbMlineStyle
  2
STANDARD
 70
     0
  3

 62
   256
 51
90.0
 52
90.0
 71
     2
 49
0.5
 62
   256
  6
BYLAYER
 49
-0.5
 62
   256
  6
BYLAYER
  0
DICTIONARY
  5
25A
100
AcDbDictionary
280
     1
  3
ACAD_XREC_ROUNDTRIP
360
25B
  0
ACAD_PROXY_OBJECT
  5
1E
102
{ACAD_REACTORS
330
1A
102
}
100
AcDbProxyObject
 90
      499
 91
      505
 93
      468
310
A2C00AAAAAA416AA591069074C61796F75743140501A80000000000000000000000000000000000000000000000000000000000000002A6A6AAAA3
330
1B
330
0
340
0
340
0
 94
        0
  0
ACAD_PROXY_OBJECT
  5
22
102
{ACAD_REACTORS
330
1A
102
}
100
AcDbProxyObject
 90
      499
 91
      505
 93
      556
310
A2C01AAAAAAAAA5A69054D6F64656C901A80000000000000000000000000000000000000000000000000000000000000002A6A6AA80000000000407A400000000000241C9020
330
1F
330
0
340
0
340
0
 94
        0
  0
ACAD_PROXY_OBJECT
  5
26
102
{ACAD_REACTORS
330
1A
102
}
100
AcDbProxyObject
 90
      499
 91
      505
 93
      468
310
A2C00AAAAAA416AA591069074C61796F75743240901A80000000000000000000000000000000000000000000000000000000000000002A6A6AAAA0
330
23
330
0
340
0
340
0
 94
        0
  0
XRECORD
  5
230
102
{ACAD_REACTORS
330
22F
102
}
100
AcDbXrecord
 90
        1
  0
XRECORD
  5
231
102
{ACAD_REACTORS
330
22F
102
}
100
AcDbXrecord
 90
       70
  0
XRECORD
  5
232
102
{ACAD_REACTORS
330
22F
102
}
100
AcDbXrecord
  1

  0
XRECORD
  5
233
102
{ACAD_REACTORS
330
22F
102
}
100
AcDbXrecord
  1

  0
XRECORD
  5
234
102
{ACAD_REACTORS
330
22F
102
}
100
AcDbXrecord
340
1A
  0
XRECORD
  5
235
102
{ACAD_REACTORS
330
22F
102
}
100
AcDbXrecord
340
19
  0
XRECORD
  5
236
102
{ACAD_REACTORS
330
22F
102
}
100
AcDbXrecord
340
E
  0
XRECORD
  5
237
102
{ACAD_REACTORS
330
22F
102
}
100
AcDbXrecord
 90
    10269
  0
XRECORD
  5
238
102
{ACAD_REACTORS
330
22F
102
}
100
AcDbXrecord
 90
        4
  0
XRECORD
  5
239
102
{ACAD_REACTORS
330
22F
102
}
100
AcDbXrecord
 90
        0
  0
XRECORD
  5
23A
102
{ACAD_REACTORS
330
22F
102
}
100
AcDbXrecord
  1
{F730C416-E0D0-4E62-8D79-94D5AF5E222D}
  0
XRECORD
  5
23B
102
{ACAD_REACTORS
330
22F
102
}
100
AcDbXrecord
  1
{FAEB1C32-E019-11D5-929B-00C0DF256EC4}
  0
XRECORD
  5
23C
102
{ACAD_REACTORS
330
22F
102
}
100
AcDbXrecord
 40
0.0
  0
XRECORD
  5
23D
102
{ACAD_REACTORS
330
22F
102
}
100
AcDbXrecord
340
0
  0
XRECORD
  5
23E
102
{ACAD_REACTORS
330
22F
102
}
100
AcDbXrecord
 70
     0
  0
XRECORD
  5
23F
102
{ACAD_REACTORS
330
22F
102
}
100
AcDbXrecord
340
0
  0
XRECORD
  5
240
102
{ACAD_REACTORS
330
22F
102
}
100
AcDbXrecord
 10
0.0
 20
0.0
 30
0.0
  0
XRECORD
  5
241
102
{ACAD_REACTORS
330
22F
102
}
100
AcDbXrecord
 10
0.0
 20
0.0
 30
0.0
  0
XRECORD
  5
242
102
{ACAD_REACTORS
330
22F
102
}
100
AcDbXrecord
 10
0.0
 20
0.0
 30
0.0
  0
XRECORD
  5
243
102
{ACAD_REACTORS
330
22F
102
}
100
AcDbXrecord
 10
0.0
 20
0.0
 30
0.0
  0
XRECORD
  5
244
102
{ACAD_REACTORS
330
22F
102
}
100
AcDbXrecord
 10
0.0
 20
0.0
 30
0.0
  0
XRECORD
  5
245
102
{ACAD_REACTORS
330
22F
102
}
100
AcDbXrecord
 10
0.0
 20
0.0
 30
0.0
  0
XRECORD
  5
246
102
{ACAD_REACTORS
330
22F
102
}
100
AcDbXrecord
340
0
  0
XRECORD
  5
247
102
{ACAD_REACTORS
330
22F
102
}
100
AcDbXrecord
 70
     0
  0
XRECORD
  5
248
102
{ACAD_REACTORS
330
22F
102
}
100
AcDbXrecord
340
0
  0
XRECORD
  5
249
102
{ACAD_REACTORS
330
22F
102
}
100
AcDbXrecord
 10
0.0
 20
0.0
 30
0.0
  0
XRECORD
  5
24A
102
{ACAD_REACTORS
330
22F
102
}
100
AcDbXrecord
 10
0.0
 20
0.0
 30
0.0
  0
XRECORD
  5
24B
102
{ACAD_REACTORS
330
22F
102
}
100
AcDbXrecord
 10
0.0
 20
0.0
 30
0.0
  0
XRECORD
  5
24C
102
{ACAD_REACTORS
330
22F
102
}
100
AcDbXrecord
 10
0.0
 20
0.0
 30
0.0
  0
XRECORD
  5
24D
102
{ACAD_REACTORS
330
22F
102
}
100
AcDbXrecord
 10
0.0
 20
0.0
 30
0.0
  0
XRECORD
  5
24E
102
{ACAD_REACTORS
330
22F
102
}
100
AcDbXrecord
 10
0.0
 20
0.0
 30
0.0
  0
XRECORD
  5
24F
102
{ACAD_REACTORS
330
22F
102
}
100
AcDbXrecord
1000
DSTYLE
1002
{
1070
   143
 40
0.03937
1070
    41
 40
6.0
1070
    44
 40
1.0
1070
    42
 40
1.0
1070
   147
 40
1.524
1070
   144
 40
5.0
1070
    73
 70
     1
1070
    74
 70
     1
1070
   340
340
11
1070
   140
 40
3.5
1070
   284
 70
     0
1070
    78
 70
     0
1002
}
  0
XRECORD
  5
251
102
{ACAD_REACTORS
330
250
102
}
100
AcDbXrecord
102
EXTNAMES
  1
NORMAL
  2
Normal
  0
XRECORD
  5
253
102
{ACAD_REACTORS
330
252
102
}
100
AcDbXrecord
102
EXTNAMES
  1
STANDARD
  2
Standard
  0
XRECORD
  5
25B
102
{ACAD_REACTORS
330
25A
102
}
100
AcDbXrecord
102
EXTNAMES
  1
LAYOUT1
  2
Layout1
  1
LAYOUT2
  2
Layout2
  1
MODEL
  2
Model
  0
ENDSEC
  0
EOF
