  0
SECTION
  2
HEADER
  9
$ACADVER
  1
AC1014
  9
$ACADMAINTVER
 70
     0
  9
$DWGCODEPAGE
  3
ANSI_1252
  9
$INSBASE
 10
0.0
 20
0.0
 30
0.0
  9
$EXTMIN
 10
19.469605
 20
65.974824
 30
-0.001526
  9
$EXTMAX
 10
1234.557497
 20
854.541185
 30
0.0
  9
$LIMMIN
 10
0.0
 20
0.0
  9
$LIMMAX
 10
0.0
 20
0.0
  9
$ORTHOMODE
 70
     0
  9
$REGENMODE
 70
     1
  9
$FILLMODE
 70
     1
  9
$QTEXTMODE
 70
     0
  9
$MIRRTEXT
 70
     1
  9
$DRAGMODE
 70
     2
  9
$LTSCALE
 40
1.0
  9
$OSMODE
 70
    37
  9
$ATTMODE
 70
     1
  9
$TEXTSIZE
 40
10.0
  9
$TRACEWID
 40
1.0
  9
$TEXTSTYLE
  7
STANDARD
  9
$CLAYER
  8
0
  9
$CELTYPE
  6
BYLAYER
  9
$CECOLOR
 62
   256
  9
$CELTSCALE
 40
1.0
  9
$DELOBJ
 70
     1
  9
$DISPSILH
 70
     0
  9
$DIMSCALE
 40
1.0
  9
$DIMASZ
 40
6.0
  9
$DIMEXO
 40
1.0
  9
$DIMDLI
 40
3.75
  9
$DIMRND
 40
0.0
  9
$DIMDLE
 40
0.0
  9
$DIMEXE
 40
1.0
  9
$DIMTP
 40
0.0
  9
$DIMTM
 40
0.0
  9
$DIMTXT
 40
3.5
  9
$DIMCEN
 40
2.5
  9
$DIMTSZ
 40
0.0
  9
$DIMTOL
 70
     0
  9
$DIMLIM
 70
     0
  9
$DIMTIH
 70
     1
  9
$DIMTOH
 70
     1
  9
$DIMSE1
 70
     0
  9
$DIMSE2
 70
     0
  9
$DIMTAD
 70
     1
  9
$DIMZIN
 70
     0
  9
$DIMBLK
  1

  9
$DIMASO
 70
     1
  9
$DIMSHO
 70
     1
  9
$DIMPOST
  1

  9
$DIMAPOST
  1

  9
$DIMALT
 70
     0
  9
$DIMALTD
 70
     3
  9
$DIMALTF
 40
0.03937
  9
$DIMLFAC
 40
1.0
  9
$DIMTOFL
 70
     1
  9
$DIMTVP
 40
0.0
  9
$DIMTIX
 70
     0
  9
$DIMSOXD
 70
     0
  9
$DIMSAH
 70
     0
  9
$DIMBLK1
  1

  9
$DIMBLK2
  1

  9
$DIMSTYLE
  2
ISO-25
  9
$DIMCLRD
 70
     0
  9
$DIMCLRE
 70
     0
  9
$DIMCLRT
 70
     0
  9
$DIMTFAC
 40
1.0
  9
$DIMGAP
 40
1.524
  9
$DIMJUST
 70
     0
  9
$DIMSD1
 70
     0
  9
$DIMSD2
 70
     0
  9
$DIMTOLJ
 70
     0
  9
$DIMTZIN
 70
     0
  9
$DIMALTZ
 70
     0
  9
$DIMALTTZ
 70
     0
  9
$DIMFIT
 70
     3
  9
$DIMUPT
 70
     0
  9
$DIMUNIT
 70
     2
  9
$DIMDEC
 70
     2
  9
$DIMTDEC
 70
     2
  9
$DIMALTU
 70
     2
  9
$DIMALTTD
 70
     3
  9
$DIMTXSTY
  7
STANDARD
  9
$DIMAUNIT
 70
     0
  9
$LUNITS
 70
     2
  9
$LUPREC
 70
     2
  9
$SKETCHINC
 40
1.0
  9
$FILLETRAD
 40
10.0
  9
$AUNITS
 70
     0
  9
$AUPREC
 70
     0
  9
$MENU
  1
.
  9
$ELEVATION
 40
0.0
  9
$PELEVATION
 40
0.0
  9
$THICKNESS
 40
0.0
  9
$LIMCHECK
 70
     0
  9
$BLIPMODE
 70
     0
  9
$CHAMFERA
 40
10.0
  9
$CHAMFERB
 40
10.0
  9
$CHAMFERC
 40
20.0
  9
$CHAMFERD
 40
0.0
  9
$SKPOLY
 70
     0
  9
$TDCREATE
 40
2454075.508117488
  9
$TDUPDATE
 40
2454075.651382071
  9
$TDINDWG
 40
0.0043451736
  9
$TDUSRTIMER
 40
0.0043451736
  9
$USRTIMER
 70
     1
  9
$ANGBASE
 50
0.0
  9
$ANGDIR
 70
     0
  9
$PDMODE
 70
     0
  9
$PDSIZE
 40
-1.0
  9
$PLINEWID
 40
0.0
  9
$COORDS
 70
     1
  9
$SPLFRAME
 70
     0
  9
$SPLINETYPE
 70
     6
  9
$SPLINESEGS
 70
     8
  9
$ATTDIA
 70
     0
  9
$ATTREQ
 70
     1
  9
$HANDLING
 70
     1
  9
$HANDSEED
  5
8B0
  9
$SURFTAB1
 70
     6
  9
$SURFTAB2
 70
     6
  9
$SURFTYPE
 70
     6
  9
$SURFU
 70
     6
  9
$SURFV
 70
     6
  9
$UCSNAME
  2

  9
$UCSORG
 10
0.0
 20
0.0
 30
0.0
  9
$UCSXDIR
 10
1.0
 20
0.0
 30
0.0
  9
$UCSYDIR
 10
0.0
 20
1.0
 30
0.0
  9
$PUCSNAME
  2

  9
$PUCSORG
 10
0.0
 20
0.0
 30
0.0
  9
$PUCSXDIR
 10
1.0
 20
0.0
 30
0.0
  9
$PUCSYDIR
 10
0.0
 20
1.0
 30
0.0
  9
$USERI1
 70
     0
  9
$USERI2
 70
     0
  9
$USERI3
 70
     0
  9
$USERI4
 70
     0
  9
$USERI5
 70
     0
  9
$USERR1
 40
0.0
  9
$USERR2
 40
0.0
  9
$USERR3
 40
0.0
  9
$USERR4
 40
0.0
  9
$USERR5
 40
0.0
  9
$WORLDVIEW
 70
     1
  9
$SHADEDGE
 70
     3
  9
$SHADEDIF
 70
    70
  9
$TILEMODE
 70
     1
  9
$MAXACTVP
 70
    64
  9
$PINSBASE
 10
0.0
 20
0.0
 30
0.0
  9
$PLIMCHECK
 70
     0
  9
$PEXTMIN
 10
1.000000E+20
 20
1.000000E+20
 30
1.000000E+20
  9
$PEXTMAX
 10
-1.000000E+20
 20
-1.000000E+20
 30
-1.000000E+20
  9
$PLIMMIN
 10
0.0
 20
0.0
  9
$PLIMMAX
 10
420.0
 20
297.0
  9
$UNITMODE
 70
     0
  9
$VISRETAIN
 70
     1
  9
$PLINEGEN
 70
     0
  9
$PSLTSCALE
 70
     1
  9
$TREEDEPTH
 70
  3020
  9
$PICKSTYLE
 70
     1
  9
$CMLSTYLE
  2
STANDARD
  9
$CMLJUST
 70
     0
  9
$CMLSCALE
 40
20.0
  9
$PROXYGRAPHICS
 70
     1
  9
$MEASUREMENT
 70
     1
  0
ENDSEC
  0
SECTION
  2
CLASSES
  0
CLASS
  1
ACDBDICTIONARYWDFLT
  2
AcDbDictionaryWithDefault
  3
ObjectDBX Classes
 90
        0
280
     0
281
     0
  0
CLASS
  1
XRECORD
  2
AcDbXrecord
  3
"<Built In>"
 90
        0
280
     0
281
     0
  0
CLASS
  1
LWPOLYLINE
  2
AcDbPolyline
  3
"AutoCAD"
 90
        0
280
     0
281
     1
  0
CLASS
  1
HATCH
  2
AcDbHatch
  3
"ACAD_SEDONA"
 90
        0
280
     0
281
     1
  0
CLASS
  1
ACDBPLACEHOLDER
  2
AcDbPlaceHolder
  3
ObjectDBX Classes
 90
        0
280
     0
281
     0
  0
CLASS
  1
LAYOUT
  2
AcDbLayout
  3
ObjectDBX Classes
 90
        0
280
     0
281
     0
  0
ENDSEC
  0
SECTION
  2
TABLES
  0
TABLE
  2
VPORT
  5
8
100
AcDbSymbolTable
 70
     2
  0
VPORT
  5
8AF
100
AcDbSymbolTableRecord
100
AcDbViewportTableRecord
  2
*ACTIVE
 70
     0
 10
0.0
 20
0.0
 11
1.0
 21
1.0
 12
617.278749
 22
427.270592
 13
0.0
 23
0.0
 14
10.0
 24
10.0
 15
10.0
 25
10.0
 16
0.0
 26
0.0
 36
1.0
 17
0.0
 27
0.0
 37
0.0
 40
861.218237
 41
1.440781
 42
50.0
 43
0.0
 44
0.0
 50
0.0
 51
0.0
 71
     0
 72
  2000
 73
     1
 74
     3
 75
     0
 76
     0
 77
     0
 78
     0
  0
ENDTAB
  0
TABLE
  2
LTYPE
  5
5
100
AcDbSymbolTable
 70
     6
  0
LTYPE
  5
14
102
{ACAD_XDICTIONARY
360
8A1
102
}
100
AcDbSymbolTableRecord
100
AcDbLinetypeTableRecord
  2
BYBLOCK
 70
     0
  3

 72
    65
 73
     0
 40
0.0
  0
LTYPE
  5
15
102
{ACAD_XDICTIONARY
360
8A3
102
}
100
AcDbSymbolTableRecord
100
AcDbLinetypeTableRecord
  2
BYLAYER
 70
     0
  3

 72
    65
 73
     0
 40
0.0
  0
LTYPE
  5
16
102
{ACAD_XDICTIONARY
360
8A5
102
}
100
AcDbSymbolTableRecord
100
AcDbLinetypeTableRecord
  2
CONTINUOUS
 70
     0
  3
Solid line
 72
    65
 73
     0
 40
0.0
  0
LTYPE
  5
2A
100
AcDbSymbolTableRecord
100
AcDbLinetypeTableRecord
  2
HIDDEN
 70
     0
  3
Hidden __ __ __ __ __ __ __ __ __ __ __ __ __ __
 72
    65
 73
     2
 40
1.905
 49
1.27
 74
     0
 49
-0.635
 74
     0
  0
LTYPE
  5
2B
100
AcDbSymbolTableRecord
100
AcDbLinetypeTableRecord
  2
PHANTOM
 70
     0
  3
Phantom ______  __  __  ______  __  __  ______
 72
    65
 73
     6
 40
12.7
 49
6.35
 74
     0
 49
-1.27
 74
     0
 49
1.27
 74
     0
 49
-1.27
 74
     0
 49
1.27
 74
     0
 49
-1.27
 74
     0
  0
LTYPE
  5
2C
100
AcDbSymbolTableRecord
100
AcDbLinetypeTableRecord
  2
CENTER
 70
     0
  3
Center ____ _ ____ _ ____ _ ____ _ ____ _ ____
 72
    65
 73
     4
 40
10.16
 49
6.35
 74
     0
 49
-1.27
 74
     0
 49
1.27
 74
     0
 49
-1.27
 74
     0
  0
LTYPE
  5
2D
100
AcDbSymbolTableRecord
100
AcDbLinetypeTableRecord
  2
CENTERX2
 70
     0
  3
Center (2x) ________  __  ________  __  _____
 72
    65
 73
     4
 40
20.32
 49
12.7
 74
     0
 49
-2.54
 74
     0
 49
2.54
 74
     0
 49
-2.54
 74
     0
  0
LTYPE
  5
2E
100
AcDbSymbolTableRecord
100
AcDbLinetypeTableRecord
  2
DOT2
 70
     0
  3
Dot (.5x) ........................................
 72
    65
 73
     2
 40
0.635
 49
0.0
 74
     0
 49
-0.635
 74
     0
  0
ENDTAB
  0
TABLE
  2
LAYER
  5
2
100
AcDbSymbolTable
 70
     1
  0
LAYER
  5
10
100
AcDbSymbolTableRecord
100
AcDbLayerTableRecord
  2
0
 70
     0
 62
     7
  6
CONTINUOUS
  0
ENDTAB
  0
TABLE
  2
STYLE
  5
3
100
AcDbSymbolTable
 70
     1
  0
STYLE
  5
11
102
{ACAD_XDICTIONARY
360
89F
102
}
100
AcDbSymbolTableRecord
100
AcDbTextStyleTableRecord
  2
STANDARD
 70
     0
 40
0.0
 41
1.0
 50
0.0
 71
     0
 42
10.0
  3
txt
  4

  0
ENDTAB
  0
TABLE
  2
VIEW
  5
6
100
AcDbSymbolTable
 70
     0
  0
ENDTAB
  0
TABLE
  2
UCS
  5
7
100
AcDbSymbolTable
 70
     0
  0
ENDTAB
  0
TABLE
  2
APPID
  5
9
100
AcDbSymbolTable
 70
     1
  0
APPID
  5
12
100
AcDbSymbolTableRecord
100
AcDbRegAppTableRecord
  2
ACAD
 70
     0
  0
ENDTAB
  0
TABLE
  2
DIMSTYLE
  5
A
100
AcDbSymbolTable
 70
     1
  0
DIMSTYLE
105
27
102
{ACAD_XDICTIONARY
360
8A9
102
}
100
AcDbSymbolTableRecord
100
AcDbDimStyleTableRecord
  2
ISO-25
 70
     0
  3

  4

  5

  6

  7

 40
1.0
 41
2.5
 42
0.625
 43
3.75
 44
1.25
 45
0.0
 46
0.0
 47
0.0
 48
0.0
140
2.5
141
2.5
142
0.0
143
0.03937
144
1.0
145
0.0
146
1.0
147
0.625
 71
     0
 72
     0
 73
     0
 74
     0
 75
     0
 76
     0
 77
     1
 78
     8
170
     0
171
     3
172
     1
173
     0
174
     0
175
     0
176
     0
177
     0
178
     0
270
     2
271
     2
272
     2
273
     2
274
     3
340
11
275
     0
280
     0
281
     0
282
     0
283
     0
284
     8
285
     0
286
     0
287
     3
288
     0
  0
ENDTAB
  0
TABLE
  2
BLOCK_RECORD
  5
1
100
AcDbSymbolTable
 70
     9
  0
BLOCK_RECORD
  5
1F
102
{ACAD_XDICTIONARY
360
896
102
}
100
AcDbSymbolTableRecord
100
AcDbBlockTableRecord
  2
*MODEL_SPACE
  0
BLOCK_RECORD
  5
1B
102
{ACAD_XDICTIONARY
360
894
102
}
100
AcDbSymbolTableRecord
100
AcDbBlockTableRecord
  2
*PAPER_SPACE
  0
BLOCK_RECORD
  5
23
102
{ACAD_XDICTIONARY
360
898
102
}
100
AcDbSymbolTableRecord
100
AcDbBlockTableRecord
  2
*PAPER_SPACE0
  0
BLOCK_RECORD
  5
18C
100
AcDbSymbolTableRecord
100
AcDbBlockTableRecord
  2
SW_CENTERMARKSYMBOL_0
  0
BLOCK_RECORD
  5
194
100
AcDbSymbolTableRecord
100
AcDbBlockTableRecord
  2
SW_CENTERMARKSYMBOL_1
  0
BLOCK_RECORD
  5
5A6
100
AcDbSymbolTableRecord
100
AcDbBlockTableRecord
  2
SW_CENTERMARKSYMBOL_2
  0
BLOCK_RECORD
  5
5AE
100
AcDbSymbolTableRecord
100
AcDbBlockTableRecord
  2
SW_CENTERMARKSYMBOL_3
  0
BLOCK_RECORD
  5
605
100
AcDbSymbolTableRecord
100
AcDbBlockTableRecord
  2
SW_CENTERMARKSYMBOL_4
  0
BLOCK_RECORD
  5
60D
100
AcDbSymbolTableRecord
100
AcDbBlockTableRecord
  2
SW_CENTERMARKSYMBOL_5
  0
BLOCK_RECORD
  5
85E
100
AcDbSymbolTableRecord
100
AcDbBlockTableRecord
  2
SW_CENTERMARKSYMBOL_6
  0
BLOCK_RECORD
  5
866
100
AcDbSymbolTableRecord
100
AcDbBlockTableRecord
  2
SW_CENTERMARKSYMBOL_7
  0
ENDTAB
  0
ENDSEC
  0
SECTION
  2
BLOCKS
  0
BLOCK
  5
20
100
AcDbEntity
  8
0
100
AcDbBlockBegin
  2
*MODEL_SPACE
 70
     0
 10
0.0
 20
0.0
 30
0.0
  3
*MODEL_SPACE
  1

  0
ENDBLK
  5
21
100
AcDbEntity
  8
0
100
AcDbBlockEnd
  0
BLOCK
  5
1C
100
AcDbEntity
 67
     1
  8
0
100
AcDbBlockBegin
  2
*PAPER_SPACE
 70
     0
 10
0.0
 20
0.0
 30
0.0
  3
*PAPER_SPACE
  1

  0
ENDBLK
  5
1D
100
AcDbEntity
 67
     1
  8
0
100
AcDbBlockEnd
  0
BLOCK
  5
24
100
AcDbEntity
  8
0
100
AcDbBlockBegin
  2
*PAPER_SPACE0
 70
     0
 10
0.0
 20
0.0
 30
0.0
  3
*PAPER_SPACE0
  1

  0
ENDBLK
  5
25
100
AcDbEntity
  8
0
100
AcDbBlockEnd
  0
BLOCK
  5
18D
100
AcDbEntity
  8
0
100
AcDbBlockBegin
  2
SW_CENTERMARKSYMBOL_0
 70
     0
 10
0.0
 20
0.0
 30
0.0
  3
SW_CENTERMARKSYMBOL_0
  1

  0
LINE
  5
18F
100
AcDbEntity
  8
0
  6
CONTINUOUS
 62
     7
100
AcDbLine
 10
0.0
 20
0.0
 30
0.0
 11
0.0
 21
0.5
 31
0.0
  0
LINE
  5
190
100
AcDbEntity
  8
0
  6
CONTINUOUS
 62
     7
100
AcDbLine
 10
0.0
 20
0.0
 30
0.0
 11
-0.5
 21
0.0
 31
0.0
  0
LINE
  5
191
100
AcDbEntity
  8
0
  6
CONTINUOUS
 62
     7
100
AcDbLine
 10
0.0
 20
0.0
 30
0.0
 11
0.0
 21
-0.5
 31
0.0
  0
LINE
  5
192
100
AcDbEntity
  8
0
  6
CONTINUOUS
 62
     7
100
AcDbLine
 10
0.0
 20
0.0
 30
0.0
 11
0.5
 21
0.0
 31
0.0
  0
ENDBLK
  5
18E
100
AcDbEntity
  8
0
100
AcDbBlockEnd
  0
BLOCK
  5
195
100
AcDbEntity
  8
0
100
AcDbBlockBegin
  2
SW_CENTERMARKSYMBOL_1
 70
     0
 10
0.0
 20
0.0
 30
0.0
  3
SW_CENTERMARKSYMBOL_1
  1

  0
LINE
  5
197
100
AcDbEntity
  8
0
  6
CONTINUOUS
 62
     7
100
AcDbLine
 10
0.0
 20
0.0
 30
0.0
 11
0.0
 21
0.5
 31
0.0
  0
LINE
  5
198
100
AcDbEntity
  8
0
  6
CONTINUOUS
 62
     7
100
AcDbLine
 10
0.0
 20
0.0
 30
0.0
 11
-0.5
 21
0.0
 31
0.0
  0
LINE
  5
199
100
AcDbEntity
  8
0
  6
CONTINUOUS
 62
     7
100
AcDbLine
 10
0.0
 20
0.0
 30
0.0
 11
0.0
 21
-0.5
 31
0.0
  0
LINE
  5
19A
100
AcDbEntity
  8
0
  6
CONTINUOUS
 62
     7
100
AcDbLine
 10
0.0
 20
0.0
 30
0.0
 11
0.5
 21
0.0
 31
0.0
  0
ENDBLK
  5
196
100
AcDbEntity
  8
0
100
AcDbBlockEnd
  0
BLOCK
  5
5A7
100
AcDbEntity
  8
0
100
AcDbBlockBegin
  2
SW_CENTERMARKSYMBOL_2
 70
     0
 10
0.0
 20
0.0
 30
0.0
  3
SW_CENTERMARKSYMBOL_2
  1

  0
LINE
  5
5A9
100
AcDbEntity
  8
0
  6
CONTINUOUS
 62
     7
100
AcDbLine
 10
0.0
 20
0.0
 30
0.0
 11
0.0
 21
0.5
 31
0.0
  0
LINE
  5
5AA
100
AcDbEntity
  8
0
  6
CONTINUOUS
 62
     7
100
AcDbLine
 10
0.0
 20
0.0
 30
0.0
 11
-0.5
 21
0.0
 31
0.0
  0
LINE
  5
5AB
100
AcDbEntity
  8
0
  6
CONTINUOUS
 62
     7
100
AcDbLine
 10
0.0
 20
0.0
 30
0.0
 11
0.0
 21
-0.5
 31
0.0
  0
LINE
  5
5AC
100
AcDbEntity
  8
0
  6
CONTINUOUS
 62
     7
100
AcDbLine
 10
0.0
 20
0.0
 30
0.0
 11
0.5
 21
0.0
 31
0.0
  0
ENDBLK
  5
5A8
100
AcDbEntity
  8
0
100
AcDbBlockEnd
  0
BLOCK
  5
5AF
100
AcDbEntity
  8
0
100
AcDbBlockBegin
  2
SW_CENTERMARKSYMBOL_3
 70
     0
 10
0.0
 20
0.0
 30
0.0
  3
SW_CENTERMARKSYMBOL_3
  1

  0
LINE
  5
5B1
100
AcDbEntity
  8
0
  6
CONTINUOUS
 62
     7
100
AcDbLine
 10
0.0
 20
0.0
 30
0.0
 11
0.0
 21
0.5
 31
0.0
  0
LINE
  5
5B2
100
AcDbEntity
  8
0
  6
CONTINUOUS
 62
     7
100
AcDbLine
 10
0.0
 20
0.0
 30
0.0
 11
-0.5
 21
0.0
 31
0.0
  0
LINE
  5
5B3
100
AcDbEntity
  8
0
  6
CONTINUOUS
 62
     7
100
AcDbLine
 10
0.0
 20
0.0
 30
0.0
 11
0.0
 21
-0.5
 31
0.0
  0
LINE
  5
5B4
100
AcDbEntity
  8
0
  6
CONTINUOUS
 62
     7
100
AcDbLine
 10
0.0
 20
0.0
 30
0.0
 11
0.5
 21
0.0
 31
0.0
  0
ENDBLK
  5
5B0
100
AcDbEntity
  8
0
100
AcDbBlockEnd
  0
BLOCK
  5
606
100
AcDbEntity
  8
0
100
AcDbBlockBegin
  2
SW_CENTERMARKSYMBOL_4
 70
     0
 10
0.0
 20
0.0
 30
0.0
  3
SW_CENTERMARKSYMBOL_4
  1

  0
LINE
  5
608
100
AcDbEntity
  8
0
  6
CONTINUOUS
 62
     7
100
AcDbLine
 10
0.0
 20
0.0
 30
0.0
 11
0.0
 21
0.5
 31
0.0
  0
LINE
  5
609
100
AcDbEntity
  8
0
  6
CONTINUOUS
 62
     7
100
AcDbLine
 10
0.0
 20
0.0
 30
0.0
 11
-0.5
 21
0.0
 31
0.0
  0
LINE
  5
60A
100
AcDbEntity
  8
0
  6
CONTINUOUS
 62
     7
100
AcDbLine
 10
0.0
 20
0.0
 30
0.0
 11
0.0
 21
-0.5
 31
0.0
  0
LINE
  5
60B
100
AcDbEntity
  8
0
  6
CONTINUOUS
 62
     7
100
AcDbLine
 10
0.0
 20
0.0
 30
0.0
 11
0.5
 21
0.0
 31
0.0
  0
ENDBLK
  5
607
100
AcDbEntity
  8
0
100
AcDbBlockEnd
  0
BLOCK
  5
60E
100
AcDbEntity
  8
0
100
AcDbBlockBegin
  2
SW_CENTERMARKSYMBOL_5
 70
     0
 10
0.0
 20
0.0
 30
0.0
  3
SW_CENTERMARKSYMBOL_5
  1

  0
LINE
  5
610
100
AcDbEntity
  8
0
  6
CONTINUOUS
 62
     7
100
AcDbLine
 10
0.0
 20
0.0
 30
0.0
 11
0.0
 21
0.5
 31
0.0
  0
LINE
  5
611
100
AcDbEntity
  8
0
  6
CONTINUOUS
 62
     7
100
AcDbLine
 10
0.0
 20
0.0
 30
0.0
 11
-0.5
 21
0.0
 31
0.0
  0
LINE
  5
612
100
AcDbEntity
  8
0
  6
CONTINUOUS
 62
     7
100
AcDbLine
 10
0.0
 20
0.0
 30
0.0
 11
0.0
 21
-0.5
 31
0.0
  0
LINE
  5
613
100
AcDbEntity
  8
0
  6
CONTINUOUS
 62
     7
100
AcDbLine
 10
0.0
 20
0.0
 30
0.0
 11
0.5
 21
0.0
 31
0.0
  0
ENDBLK
  5
60F
100
AcDbEntity
  8
0
100
AcDbBlockEnd
  0
BLOCK
  5
85F
100
AcDbEntity
  8
0
100
AcDbBlockBegin
  2
SW_CENTERMARKSYMBOL_6
 70
     0
 10
0.0
 20
0.0
 30
0.0
  3
SW_CENTERMARKSYMBOL_6
  1

  0
LINE
  5
861
100
AcDbEntity
  8
0
  6
CONTINUOUS
 62
     7
100
AcDbLine
 10
0.0
 20
0.0
 30
0.0
 11
0.0
 21
0.5
 31
0.0
  0
LINE
  5
862
100
AcDbEntity
  8
0
  6
CONTINUOUS
 62
     7
100
AcDbLine
 10
0.0
 20
0.0
 30
0.0
 11
-0.5
 21
0.0
 31
0.0
  0
LINE
  5
863
100
AcDbEntity
  8
0
  6
CONTINUOUS
 62
     7
100
AcDbLine
 10
0.0
 20
0.0
 30
0.0
 11
0.0
 21
-0.5
 31
0.0
  0
LINE
  5
864
100
AcDbEntity
  8
0
  6
CONTINUOUS
 62
     7
100
AcDbLine
 10
0.0
 20
0.0
 30
0.0
 11
0.5
 21
0.0
 31
0.0
  0
ENDBLK
  5
860
100
AcDbEntity
  8
0
100
AcDbBlockEnd
  0
BLOCK
  5
867
100
AcDbEntity
  8
0
100
AcDbBlockBegin
  2
SW_CENTERMARKSYMBOL_7
 70
     0
 10
0.0
 20
0.0
 30
0.0
  3
SW_CENTERMARKSYMBOL_7
  1

  0
LINE
  5
869
100
AcDbEntity
  8
0
  6
CONTINUOUS
 62
     7
100
AcDbLine
 10
0.0
 20
0.0
 30
0.0
 11
0.0
 21
0.5
 31
0.0
  0
LINE
  5
86A
100
AcDbEntity
  8
0
  6
CONTINUOUS
 62
     7
100
AcDbLine
 10
0.0
 20
0.0
 30
0.0
 11
-0.5
 21
0.0
 31
0.0
  0
LINE
  5
86B
100
AcDbEntity
  8
0
  6
CONTINUOUS
 62
     7
100
AcDbLine
 10
0.0
 20
0.0
 30
0.0
 11
0.0
 21
-0.5
 31
0.0
  0
LINE
  5
86C
100
AcDbEntity
  8
0
  6
CONTINUOUS
 62
     7
100
AcDbLine
 10
0.0
 20
0.0
 30
0.0
 11
0.5
 21
0.0
 31
0.0
  0
ENDBLK
  5
868
100
AcDbEntity
  8
0
100
AcDbBlockEnd
  0
ENDSEC
  0
SECTION
  2
ENTITIES
  0
CIRCLE
  5
2F
100
AcDbEntity
  8
0
  6
CONTINUOUS
 62
     7
100
AcDbCircle
 10
46.337213
 20
318.162498
 30
0.0
 40
2.1
  0
CIRCLE
  5
30
100
AcDbEntity
  8
0
  6
CONTINUOUS
 62
     7
100
AcDbCircle
 10
46.337213
 20
318.162498
 30
0.0
 40
4.342777
  0
CIRCLE
  5
31
100
AcDbEntity
  8
0
  6
CONTINUOUS
 62
     7
100
AcDbCircle
 10
257.737213
 20
329.362498
 30
0.0
 40
2.3
  0
CIRCLE
  5
32
100
AcDbEntity
  8
0
  6
CONTINUOUS
 62
     7
100
AcDbCircle
 10
257.737213
 20
329.362498
 30
0.0
 40
2.247635
  0
CIRCLE
  5
33
100
AcDbEntity
  8
0
  6
CONTINUOUS
 62
     7
100
AcDbCircle
 10
262.737213
 20
635.962498
 30
0.0
 40
2.0
  0
CIRCLE
  5
34
100
AcDbEntity
  8
0
  6
CONTINUOUS
 62
     7
100
AcDbCircle
 10
262.737213
 20
635.962498
 30
0.0
 40
1.982545
  0
CIRCLE
  5
35
100
AcDbEntity
  8
0
  6
CONTINUOUS
 62
     7
100
AcDbCircle
 10
286.537213
 20
611.162498
 30
0.0
 40
2.3
  0
CIRCLE
  5
36
100
AcDbEntity
  8
0
  6
CONTINUOUS
 62
     7
100
AcDbCircle
 10
286.537213
 20
611.162498
 30
0.0
 40
2.247635
  0
LINE
  5
37
100
AcDbEntity
  8
0
  6
CONTINUOUS
 62
     7
100
AcDbLine
 10
40.877933
 20
308.462502
 30
0.0
 11
26.737213
 21
308.462498
 31
0.0
  0
LINE
  5
38
100
AcDbEntity
  8
0
  6
CONTINUOUS
 62
     7
100
AcDbLine
 10
41.187213
 20
306.162498
 30
0.0
 11
45.930239
 21
310.905532
 31
0.0
  0
LINE
  5
39
100
AcDbEntity
  8
0
  6
CONTINUOUS
 62
     7
100
AcDbLine
 10
26.737213
 20
306.162498
 30
0.0
 11
41.187213
 21
306.162498
 31
0.0
  0
ARC
  5
3A
100
AcDbEntity
  8
0
  6
CONTINUOUS
 62
     7
100
AcDbCircle
 10
26.737213
 20
312.162498
 30
0.0
 40
6.0
100
AcDbArc
 50
180.0
 51
270.0
  0
LINE
  5
3B
100
AcDbEntity
  8
0
  6
CONTINUOUS
 62
     7
100
AcDbLine
 10
20.737213
 20
324.612498
 30
0.0
 11
20.737213
 21
312.162498
 31
0.0
  0
LINE
  5
3C
100
AcDbEntity
  8
0
  6
CONTINUOUS
 62
     7
100
AcDbLine
 10
25.480236
 20
329.355524
 30
0.0
 11
20.737213
 21
324.612498
 31
0.0
  0
LINE
  5
3D
100
AcDbEntity
  8
0
  6
CONTINUOUS
 62
     7
100
AcDbLine
 10
23.037213
 20
312.162498
 30
0.0
 11
23.03722
 21
323.659809
 31
0.0
  0
ARC
  5
3E
100
AcDbEntity
  8
0
  6
CONTINUOUS
 62
     7
100
AcDbCircle
 10
26.737213
 20
312.162498
 30
0.0
 40
3.7
100
AcDbArc
 50
180.0
 51
270.0
  0
LINE
  5
3F
100
AcDbEntity
  8
0
  6
CONTINUOUS
 62
     7
100
AcDbLine
 10
44.625598
 20
312.210174
 30
0.0
 11
40.877933
 21
308.462502
 31
0.0
  0
LINE
  5
40
100
AcDbEntity
  8
0
  6
CONTINUOUS
 62
     7
100
AcDbLine
 10
45.930239
 20
310.905532
 30
0.0
 11
44.625598
 21
312.210174
 31
0.0
  0
LINE
  5
41
100
AcDbEntity
  8
0
  6
CONTINUOUS
 62
     7
100
AcDbLine
 10
26.980246
 20
327.602835
 30
0.0
 11
25.480236
 21
329.355524
 31
0.0
  0
LINE
  5
42
100
AcDbEntity
  8
0
  6
CONTINUOUS
 62
     7
100
AcDbLine
 10
23.03722
 20
323.659809
 30
0.0
 11
26.980246
 21
327.602835
 31
0.0
  0
LINE
  5
43
100
AcDbEntity
  8
0
  6
CONTINUOUS
 62
     7
100
AcDbLine
 10
289.287213
 20
306.162498
 30
0.0
 11
303.737213
 21
306.162498
 31
0.0
  0
LINE
  5
44
100
AcDbEntity
  8
0
  6
CONTINUOUS
 62
     7
100
AcDbLine
 10
284.544187
 20
310.905532
 30
0.0
 11
289.287213
 21
306.162498
 31
0.0
  0
LINE
  5
45
100
AcDbEntity
  8
0
  6
CONTINUOUS
 62
     7
100
AcDbLine
 10
309.737213
 20
324.612498
 30
0.0
 11
304.994191
 21
329.355524
 31
0.0
  0
LINE
  5
46
100
AcDbEntity
  8
0
  6
CONTINUOUS
 62
     7
100
AcDbLine
 10
309.737213
 20
312.162498
 30
0.0
 11
309.737213
 21
324.612498
 31
0.0
  0
ARC
  5
47
100
AcDbEntity
  8
0
  6
CONTINUOUS
 62
     7
100
AcDbCircle
 10
303.737213
 20
312.162498
 30
0.0
 40
6.0
100
AcDbArc
 50
270.0
 51
0.0
  0
LINE
  5
48
100
AcDbEntity
  8
0
  6
CONTINUOUS
 62
     7
100
AcDbLine
 10
285.848829
 20
312.210174
 30
0.0
 11
284.544187
 21
310.905532
 31
0.0
  0
LINE
  5
49
100
AcDbEntity
  8
0
  6
CONTINUOUS
 62
     7
100
AcDbLine
 10
289.596493
 20
308.462502
 30
0.0
 11
285.848829
 21
312.210174
 31
0.0
  0
LINE
  5
4A
100
AcDbEntity
  8
0
  6
CONTINUOUS
 62
     7
100
AcDbLine
 10
304.994191
 20
329.355524
 30
0.0
 11
303.49418
 21
327.602835
 31
0.0
  0
LINE
  5
4B
100
AcDbEntity
  8
0
  6
CONTINUOUS
 62
     7
100
AcDbLine
 10
303.49418
 20
327.602835
 30
0.0
 11
307.437206
 21
323.659809
 31
0.0
  0
ARC
  5
4C
100
AcDbEntity
  8
0
  6
CONTINUOUS
 62
     7
100
AcDbCircle
 10
303.737213
 20
312.162498
 30
0.0
 40
3.7
100
AcDbArc
 50
270.0
 51
0.0
  0
LINE
  5
4D
100
AcDbEntity
  8
0
  6
CONTINUOUS
 62
     7
100
AcDbLine
 10
307.437206
 20
323.659809
 30
0.0
 11
307.437213
 21
312.162498
 31
0.0
  0
LINE
  5
4E
100
AcDbEntity
  8
0
  6
CONTINUOUS
 62
     7
100
AcDbLine
 10
303.737213
 20
308.462498
 30
0.0
 11
289.596493
 21
308.462502
 31
0.0
  0
LINE
  5
4F
100
AcDbEntity
  8
0
  6
CONTINUOUS
 62
     7
100
AcDbLine
 10
289.596493
 20
647.862495
 30
0.0
 11
303.737213
 21
647.862498
 31
0.0
  0
LINE
  5
50
100
AcDbEntity
  8
0
  6
CONTINUOUS
 62
     7
100
AcDbLine
 10
289.287213
 20
650.162498
 30
0.0
 11
284.544187
 21
645.419465
 31
0.0
  0
LINE
  5
51
100
AcDbEntity
  8
0
  6
CONTINUOUS
 62
     7
100
AcDbLine
 10
303.737213
 20
650.162498
 30
0.0
 11
289.287213
 21
650.162498
 31
0.0
  0
ARC
  5
52
100
AcDbEntity
  8
0
  6
CONTINUOUS
 62
     7
100
AcDbCircle
 10
303.737213
 20
644.162498
 30
0.0
 40
6.0
100
AcDbArc
 50
0.0
 51
90.0
  0
LINE
  5
53
100
AcDbEntity
  8
0
  6
CONTINUOUS
 62
     7
100
AcDbLine
 10
309.737213
 20
631.712498
 30
0.0
 11
309.737213
 21
644.162498
 31
0.0
  0
LINE
  5
54
100
AcDbEntity
  8
0
  6
CONTINUOUS
 62
     7
100
AcDbLine
 10
304.994191
 20
626.969473
 30
0.0
 11
309.737213
 21
631.712498
 31
0.0
  0
LINE
  5
55
100
AcDbEntity
  8
0
  6
CONTINUOUS
 62
     7
100
AcDbLine
 10
307.437213
 20
644.162498
 30
0.0
 11
307.437206
 21
632.665188
 31
0.0
  0
ARC
  5
56
100
AcDbEntity
  8
0
  6
CONTINUOUS
 62
     7
100
AcDbCircle
 10
303.737213
 20
644.162498
 30
0.0
 40
3.7
100
AcDbArc
 50
0.0
 51
90.0
  0
LINE
  5
57
100
AcDbEntity
  8
0
  6
CONTINUOUS
 62
     7
100
AcDbLine
 10
285.848829
 20
644.114823
 30
0.0
 11
289.596493
 21
647.862495
 31
0.0
  0
LINE
  5
58
100
AcDbEntity
  8
0
  6
CONTINUOUS
 62
     7
100
AcDbLine
 10
284.544187
 20
645.419465
 30
0.0
 11
285.848829
 21
644.114823
 31
0.0
  0
LINE
  5
59
100
AcDbEntity
  8
0
  6
CONTINUOUS
 62
     7
100
AcDbLine
 10
303.49418
 20
628.722162
 30
0.0
 11
304.994191
 21
626.969473
 31
0.0
  0
LINE
  5
5A
100
AcDbEntity
  8
0
  6
CONTINUOUS
 62
     7
100
AcDbLine
 10
307.437206
 20
632.665188
 30
0.0
 11
303.49418
 21
628.722162
 31
0.0
  0
LINE
  5
5B
100
AcDbEntity
  8
0
  6
CONTINUOUS
 62
     7
100
AcDbLine
 10
41.187213
 20
650.162498
 30
0.0
 11
26.737213
 21
650.162498
 31
0.0
  0
LINE
  5
5C
100
AcDbEntity
  8
0
  6
CONTINUOUS
 62
     7
100
AcDbLine
 10
45.930239
 20
645.419465
 30
0.0
 11
41.187213
 21
650.162498
 31
0.0
  0
LINE
  5
5D
100
AcDbEntity
  8
0
  6
CONTINUOUS
 62
     7
100
AcDbLine
 10
20.737213
 20
631.712498
 30
0.0
 11
25.480236
 21
626.969473
 31
0.0
  0
LINE
  5
5E
100
AcDbEntity
  8
0
  6
CONTINUOUS
 62
     7
100
AcDbLine
 10
20.737213
 20
644.162498
 30
0.0
 11
20.737213
 21
631.712498
 31
0.0
  0
ARC
  5
5F
100
AcDbEntity
  8
0
  6
CONTINUOUS
 62
     7
100
AcDbCircle
 10
26.737213
 20
644.162498
 30
0.0
 40
6.0
100
AcDbArc
 50
90.0
 51
180.0
  0
LINE
  5
60
100
AcDbEntity
  8
0
  6
CONTINUOUS
 62
     7
100
AcDbLine
 10
44.625598
 20
644.114823
 30
0.0
 11
45.930239
 21
645.419465
 31
0.0
  0
LINE
  5
61
100
AcDbEntity
  8
0
  6
CONTINUOUS
 62
     7
100
AcDbLine
 10
40.877933
 20
647.862495
 30
0.0
 11
44.625598
 21
644.114823
 31
0.0
  0
LINE
  5
62
100
AcDbEntity
  8
0
  6
CONTINUOUS
 62
     7
100
AcDbLine
 10
25.480236
 20
626.969473
 30
0.0
 11
26.980246
 21
628.722162
 31
0.0
  0
LINE
  5
63
100
AcDbEntity
  8
0
  6
CONTINUOUS
 62
     7
100
AcDbLine
 10
26.980246
 20
628.722162
 30
0.0
 11
23.03722
 21
632.665188
 31
0.0
  0
ARC
  5
64
100
AcDbEntity
  8
0
  6
CONTINUOUS
 62
     7
100
AcDbCircle
 10
26.737213
 20
644.162498
 30
0.0
 40
3.7
100
AcDbArc
 50
90.0
 51
180.0
  0
LINE
  5
65
100
AcDbEntity
  8
0
  6
CONTINUOUS
 62
     7
100
AcDbLine
 10
23.03722
 20
632.665188
 30
0.0
 11
23.037213
 21
644.162498
 31
0.0
  0
LINE
  5
66
100
AcDbEntity
  8
0
  6
CONTINUOUS
 62
     7
100
AcDbLine
 10
26.737213
 20
647.862498
 30
0.0
 11
40.877933
 21
647.862495
 31
0.0
  0
CIRCLE
  5
67
100
AcDbEntity
  8
0
  6
CONTINUOUS
 62
     7
100
AcDbCircle
 10
295.537213
 20
616.162498
 30
0.0
 40
2.0
  0
CIRCLE
  5
68
100
AcDbEntity
  8
0
  6
CONTINUOUS
 62
     7
100
AcDbCircle
 10
295.537213
 20
616.162498
 30
0.0
 40
3.25
  0
CIRCLE
  5
69
100
AcDbEntity
  8
0
  6
CONTINUOUS
 62
     7
100
AcDbCircle
 10
262.737213
 20
635.962498
 30
0.0
 40
3.25
  0
CIRCLE
  5
6A
100
AcDbEntity
  8
0
  6
CONTINUOUS
 62
     7
100
AcDbCircle
 10
34.937213
 20
616.162498
 30
0.0
 40
2.0
  0
CIRCLE
  5
6B
100
AcDbEntity
  8
0
  6
CONTINUOUS
 62
     7
100
AcDbCircle
 10
34.937213
 20
616.162498
 30
0.0
 40
3.25
  0
CIRCLE
  5
6C
100
AcDbEntity
  8
0
  6
CONTINUOUS
 62
     7
100
AcDbCircle
 10
267.737213
 20
626.962498
 30
0.0
 40
2.3
  0
CIRCLE
  5
6D
100
AcDbEntity
  8
0
  6
CONTINUOUS
 62
     7
100
AcDbCircle
 10
267.737213
 20
626.962498
 30
0.0
 40
2.247635
  0
CIRCLE
  5
6E
100
AcDbEntity
  8
0
  6
CONTINUOUS
 62
     7
100
AcDbCircle
 10
257.737213
 20
626.962498
 30
0.0
 40
2.3
  0
CIRCLE
  5
6F
100
AcDbEntity
  8
0
  6
CONTINUOUS
 62
     7
100
AcDbCircle
 10
257.737213
 20
626.962498
 30
0.0
 40
2.247635
  0
CIRCLE
  5
70
100
AcDbEntity
  8
0
  6
CONTINUOUS
 62
     7
100
AcDbCircle
 10
72.737213
 20
626.962498
 30
0.0
 40
2.3
  0
CIRCLE
  5
71
100
AcDbEntity
  8
0
  6
CONTINUOUS
 62
     7
100
AcDbCircle
 10
72.737213
 20
626.962498
 30
0.0
 40
2.247635
  0
CIRCLE
  5
72
100
AcDbEntity
  8
0
  6
CONTINUOUS
 62
     7
100
AcDbCircle
 10
62.737213
 20
626.962498
 30
0.0
 40
2.3
  0
CIRCLE
  5
73
100
AcDbEntity
  8
0
  6
CONTINUOUS
 62
     7
100
AcDbCircle
 10
62.737213
 20
626.962498
 30
0.0
 40
2.247635
  0
CIRCLE
  5
74
100
AcDbEntity
  8
0
  6
CONTINUOUS
 62
     7
100
AcDbCircle
 10
62.737213
 20
329.362498
 30
0.0
 40
2.3
  0
CIRCLE
  5
75
100
AcDbEntity
  8
0
  6
CONTINUOUS
 62
     7
100
AcDbCircle
 10
62.737213
 20
329.362498
 30
0.0
 40
2.247635
  0
CIRCLE
  5
76
100
AcDbEntity
  8
0
  6
CONTINUOUS
 62
     7
100
AcDbCircle
 10
72.737213
 20
329.362498
 30
0.0
 40
2.3
  0
CIRCLE
  5
77
100
AcDbEntity
  8
0
  6
CONTINUOUS
 62
     7
100
AcDbCircle
 10
72.737213
 20
329.362498
 30
0.0
 40
2.247635
  0
CIRCLE
  5
78
100
AcDbEntity
  8
0
  6
CONTINUOUS
 62
     7
100
AcDbCircle
 10
295.537213
 20
616.162498
 30
0.0
 40
1.982545
  0
CIRCLE
  5
79
100
AcDbEntity
  8
0
  6
CONTINUOUS
 62
     7
100
AcDbCircle
 10
267.737213
 20
329.362498
 30
0.0
 40
2.247635
  0
CIRCLE
  5
7A
100
AcDbEntity
  8
0
  6
CONTINUOUS
 62
     7
100
AcDbCircle
 10
286.537213
 20
621.162498
 30
0.0
 40
2.3
  0
CIRCLE
  5
7B
100
AcDbEntity
  8
0
  6
CONTINUOUS
 62
     7
100
AcDbCircle
 10
286.537213
 20
621.162498
 30
0.0
 40
2.247635
  0
CIRCLE
  5
7C
100
AcDbEntity
  8
0
  6
CONTINUOUS
 62
     7
100
AcDbCircle
 10
34.937213
 20
616.162498
 30
0.0
 40
1.982545
  0
CIRCLE
  5
7D
100
AcDbEntity
  8
0
  6
CONTINUOUS
 62
     7
100
AcDbCircle
 10
286.537213
 20
345.162498
 30
0.0
 40
2.3
  0
CIRCLE
  5
7E
100
AcDbEntity
  8
0
  6
CONTINUOUS
 62
     7
100
AcDbCircle
 10
286.537213
 20
345.162498
 30
0.0
 40
2.247635
  0
CIRCLE
  5
7F
100
AcDbEntity
  8
0
  6
CONTINUOUS
 62
     7
100
AcDbCircle
 10
286.537213
 20
335.162498
 30
0.0
 40
2.3
  0
CIRCLE
  5
80
100
AcDbEntity
  8
0
  6
CONTINUOUS
 62
     7
100
AcDbCircle
 10
286.537213
 20
335.162498
 30
0.0
 40
2.247635
  0
CIRCLE
  5
81
100
AcDbEntity
  8
0
  6
CONTINUOUS
 62
     7
100
AcDbCircle
 10
43.937213
 20
335.162498
 30
0.0
 40
2.3
  0
CIRCLE
  5
82
100
AcDbEntity
  8
0
  6
CONTINUOUS
 62
     7
100
AcDbCircle
 10
43.937213
 20
335.162498
 30
0.0
 40
2.247635
  0
CIRCLE
  5
83
100
AcDbEntity
  8
0
  6
CONTINUOUS
 62
     7
100
AcDbCircle
 10
43.937213
 20
345.162498
 30
0.0
 40
2.3
  0
CIRCLE
  5
84
100
AcDbEntity
  8
0
  6
CONTINUOUS
 62
     7
100
AcDbCircle
 10
43.937213
 20
345.162498
 30
0.0
 40
2.247635
  0
CIRCLE
  5
85
100
AcDbEntity
  8
0
  6
CONTINUOUS
 62
     7
100
AcDbCircle
 10
43.937213
 20
611.162498
 30
0.0
 40
2.3
  0
CIRCLE
  5
86
100
AcDbEntity
  8
0
  6
CONTINUOUS
 62
     7
100
AcDbCircle
 10
43.937213
 20
611.162498
 30
0.0
 40
2.247635
  0
CIRCLE
  5
87
100
AcDbEntity
  8
0
  6
CONTINUOUS
 62
     7
100
AcDbCircle
 10
43.937213
 20
621.162498
 30
0.0
 40
2.3
  0
CIRCLE
  5
88
100
AcDbEntity
  8
0
  6
CONTINUOUS
 62
     7
100
AcDbCircle
 10
43.937213
 20
621.162498
 30
0.0
 40
2.247635
  0
CIRCLE
  5
89
100
AcDbEntity
  8
0
  6
CONTINUOUS
 62
     7
100
AcDbCircle
 10
262.737213
 20
320.362498
 30
0.0
 40
2.0
  0
CIRCLE
  5
8A
100
AcDbEntity
  8
0
  6
CONTINUOUS
 62
     7
100
AcDbCircle
 10
262.737213
 20
320.362498
 30
0.0
 40
1.982545
  0
CIRCLE
  5
8B
100
AcDbEntity
  8
0
  6
CONTINUOUS
 62
     7
100
AcDbCircle
 10
67.737213
 20
635.962498
 30
0.0
 40
2.0
  0
CIRCLE
  5
8C
100
AcDbEntity
  8
0
  6
CONTINUOUS
 62
     7
100
AcDbCircle
 10
67.737213
 20
635.962498
 30
0.0
 40
1.982545
  0
CIRCLE
  5
8D
100
AcDbEntity
  8
0
  6
CONTINUOUS
 62
     7
100
AcDbCircle
 10
284.137213
 20
638.162498
 30
0.0
 40
4.5
  0
CIRCLE
  5
8E
100
AcDbEntity
  8
0
  6
CONTINUOUS
 62
     7
100
AcDbCircle
 10
284.137213
 20
638.162498
 30
0.0
 40
4.342777
  0
CIRCLE
  5
8F
100
AcDbEntity
  8
0
  6
CONTINUOUS
 62
     7
100
AcDbCircle
 10
46.337213
 20
638.162498
 30
0.0
 40
4.5
  0
CIRCLE
  5
90
100
AcDbEntity
  8
0
  6
CONTINUOUS
 62
     7
100
AcDbCircle
 10
46.337213
 20
638.162498
 30
0.0
 40
4.342777
  0
CIRCLE
  5
91
100
AcDbEntity
  8
0
  6
CONTINUOUS
 62
     7
100
AcDbCircle
 10
67.737213
 20
635.962498
 30
0.0
 40
3.25
  0
CIRCLE
  5
92
100
AcDbEntity
  8
0
  6
CONTINUOUS
 62
     7
100
AcDbCircle
 10
284.137213
 20
318.162498
 30
0.0
 40
4.5
  0
CIRCLE
  5
93
100
AcDbEntity
  8
0
  6
CONTINUOUS
 62
     7
100
AcDbCircle
 10
284.137213
 20
318.162498
 30
0.0
 40
4.342777
  0
CIRCLE
  5
94
100
AcDbEntity
  8
0
  6
CONTINUOUS
 62
     7
100
AcDbCircle
 10
34.937213
 20
340.162498
 30
0.0
 40
2.0
  0
CIRCLE
  5
95
100
AcDbEntity
  8
0
  6
CONTINUOUS
 62
     7
100
AcDbCircle
 10
34.937213
 20
340.162498
 30
0.0
 40
3.25
  0
CIRCLE
  5
96
100
AcDbEntity
  8
0
  6
CONTINUOUS
 62
     7
100
AcDbCircle
 10
67.737213
 20
320.362498
 30
0.0
 40
2.0
  0
CIRCLE
  5
97
100
AcDbEntity
  8
0
  6
CONTINUOUS
 62
     7
100
AcDbCircle
 10
67.737213
 20
320.362498
 30
0.0
 40
3.25
  0
CIRCLE
  5
98
100
AcDbEntity
  8
0
  6
CONTINUOUS
 62
     7
100
AcDbCircle
 10
284.137213
 20
638.162498
 30
0.0
 40
2.1
  0
CIRCLE
  5
99
100
AcDbEntity
  8
0
  6
CONTINUOUS
 62
     7
100
AcDbCircle
 10
46.337213
 20
638.162498
 30
0.0
 40
2.1
  0
CIRCLE
  5
9A
100
AcDbEntity
  8
0
  6
CONTINUOUS
 62
     7
100
AcDbCircle
 10
46.337213
 20
318.162498
 30
0.0
 40
4.5
  0
CIRCLE
  5
9B
100
AcDbEntity
  8
0
  6
CONTINUOUS
 62
     7
100
AcDbCircle
 10
284.137213
 20
318.162498
 30
0.0
 40
2.1
  0
CIRCLE
  5
9C
100
AcDbEntity
  8
0
  6
CONTINUOUS
 62
     7
100
AcDbCircle
 10
295.537213
 20
340.162498
 30
0.0
 40
2.0
  0
CIRCLE
  5
9D
100
AcDbEntity
  8
0
  6
CONTINUOUS
 62
     7
100
AcDbCircle
 10
295.537213
 20
340.162498
 30
0.0
 40
1.982545
  0
CIRCLE
  5
9E
100
AcDbEntity
  8
0
  6
CONTINUOUS
 62
     7
100
AcDbCircle
 10
267.737213
 20
329.362498
 30
0.0
 40
2.3
  0
CIRCLE
  5
9F
100
AcDbEntity
  8
0
  6
CONTINUOUS
 62
     7
100
AcDbCircle
 10
67.737213
 20
320.362498
 30
0.0
 40
1.982545
  0
CIRCLE
  5
A0
100
AcDbEntity
  8
0
  6
CONTINUOUS
 62
     7
100
AcDbCircle
 10
34.937213
 20
340.162498
 30
0.0
 40
1.982545
  0
CIRCLE
  5
A1
100
AcDbEntity
  8
0
  6
CONTINUOUS
 62
     7
100
AcDbCircle
 10
262.737213
 20
320.362498
 30
0.0
 40
3.25
  0
CIRCLE
  5
A2
100
AcDbEntity
  8
0
  6
CONTINUOUS
 62
     7
100
AcDbCircle
 10
295.537213
 20
340.162498
 30
0.0
 40
3.25
  0
CIRCLE
  5
A3
100
AcDbEntity
  8
0
  6
CONTINUOUS
 62
     7
100
AcDbCircle
 10
225.237213
 20
378.162498
 30
0.0
 40
10.309853
  0
CIRCLE
  5
A4
100
AcDbEntity
  8
0
  6
CONTINUOUS
 62
     7
100
AcDbCircle
 10
225.237213
 20
378.162498
 30
0.0
 40
10.266216
  0
LINE
  5
A5
100
AcDbEntity
  8
0
  6
CONTINUOUS
 62
     7
100
AcDbLine
 10
108.237213
 20
581.042507
 30
0.0
 11
108.237213
 21
581.112498
 31
0.0
  0
LINE
  5
A6
100
AcDbEntity
  8
0
  6
CONTINUOUS
 62
     7
100
AcDbLine
 10
108.237213
 20
581.042507
 30
0.0
 11
102.237213
 21
581.042507
 31
0.0
  0
LINE
  5
A7
100
AcDbEntity
  8
0
  6
CONTINUOUS
 62
     7
100
AcDbLine
 10
102.237213
 20
581.042507
 30
0.0
 11
102.237213
 21
581.112498
 31
0.0
  0
LINE
  5
A8
100
AcDbEntity
  8
0
  6
CONTINUOUS
 62
     7
100
AcDbLine
 10
108.237213
 20
581.112498
 30
0.0
 11
102.237213
 21
581.112498
 31
0.0
  0
LINE
  5
A9
100
AcDbEntity
  8
0
  6
CONTINUOUS
 62
     7
100
AcDbLine
 10
102.357204
 20
381.162498
 30
0.0
 11
102.287213
 21
381.162498
 31
0.0
  0
LINE
  5
AA
100
AcDbEntity
  8
0
  6
CONTINUOUS
 62
     7
100
AcDbLine
 10
102.357204
 20
381.162498
 30
0.0
 11
102.357204
 21
375.162498
 31
0.0
  0
LINE
  5
AB
100
AcDbEntity
  8
0
  6
CONTINUOUS
 62
     7
100
AcDbLine
 10
102.357204
 20
375.162498
 30
0.0
 11
102.287213
 21
375.162498
 31
0.0
  0
LINE
  5
AC
100
AcDbEntity
  8
0
  6
CONTINUOUS
 62
     7
100
AcDbLine
 10
102.287213
 20
381.162498
 30
0.0
 11
102.287213
 21
375.162498
 31
0.0
  0
CIRCLE
  5
AD
100
AcDbEntity
  8
0
  6
CONTINUOUS
 62
     7
100
AcDbCircle
 10
105.237213
 20
378.162498
 30
0.0
 40
10.309853
  0
CIRCLE
  5
AE
100
AcDbEntity
  8
0
  6
CONTINUOUS
 62
     7
100
AcDbCircle
 10
105.237213
 20
378.162498
 30
0.0
 40
10.266216
  0
CIRCLE
  5
AF
100
AcDbEntity
  8
0
  6
CONTINUOUS
 62
     7
100
AcDbCircle
 10
225.237213
 20
578.162498
 30
0.0
 40
10.266216
  0
ARC
  5
B0
100
AcDbEntity
  8
0
  6
CONTINUOUS
 62
     7
100
AcDbCircle
 10
225.237213
 20
581.162498
 30
0.0
 40
2.95
100
AcDbArc
 50
0.0
 51
180.0
  0
LINE
  5
B1
100
AcDbEntity
  8
0
  6
CONTINUOUS
 62
     7
100
AcDbLine
 10
222.287213
 20
581.162498
 30
0.0
 11
222.287213
 21
575.162498
 31
0.0
  0
ARC
  5
B2
100
AcDbEntity
  8
0
  6
CONTINUOUS
 62
     7
100
AcDbCircle
 10
225.237213
 20
575.162498
 30
0.0
 40
2.95
100
AcDbArc
 50
180.0
 51
0.0
  0
LINE
  5
B3
100
AcDbEntity
  8
0
  6
CONTINUOUS
 62
     7
100
AcDbLine
 10
228.187213
 20
575.162498
 30
0.0
 11
228.187213
 21
581.162498
 31
0.0
  0
LINE
  5
B4
100
AcDbEntity
  8
0
  6
CONTINUOUS
 62
     7
100
AcDbLine
 10
222.237213
 20
381.042507
 30
0.0
 11
222.237213
 21
381.112498
 31
0.0
  0
ARC
  5
B5
100
AcDbEntity
  8
0
  6
CONTINUOUS
 62
     7
100
AcDbCircle
 10
222.237213
 20
378.162498
 30
0.0
 40
2.880009
100
AcDbArc
 50
90.0
 51
270.0
  0
LINE
  5
B6
100
AcDbEntity
  8
0
  6
CONTINUOUS
 62
     7
100
AcDbLine
 10
222.237213
 20
375.282489
 30
0.0
 11
222.237213
 21
375.212498
 31
0.0
  0
ARC
  5
B7
100
AcDbEntity
  8
0
  6
CONTINUOUS
 62
     7
100
AcDbCircle
 10
222.237213
 20
378.162498
 30
0.0
 40
2.95
100
AcDbArc
 50
90.0
 51
270.0
  0
LINE
  5
B8
100
AcDbEntity
  8
0
  6
CONTINUOUS
 62
     7
100
AcDbLine
 10
228.117222
 20
581.162498
 30
0.0
 11
228.187213
 21
581.162498
 31
0.0
  0
ARC
  5
B9
100
AcDbEntity
  8
0
  6
CONTINUOUS
 62
     7
100
AcDbCircle
 10
225.237213
 20
581.162498
 30
0.0
 40
2.880009
100
AcDbArc
 50
0.0
 51
180.0
  0
LINE
  5
BA
100
AcDbEntity
  8
0
  6
CONTINUOUS
 62
     7
100
AcDbLine
 10
222.357204
 20
581.162498
 30
0.0
 11
222.287213
 21
581.162498
 31
0.0
  0
LINE
  5
BB
100
AcDbEntity
  8
0
  6
CONTINUOUS
 62
     7
100
AcDbLine
 10
228.117222
 20
575.162498
 30
0.0
 11
228.187213
 21
575.162498
 31
0.0
  0
LINE
  5
BC
100
AcDbEntity
  8
0
  6
CONTINUOUS
 62
     7
100
AcDbLine
 10
228.117222
 20
575.162498
 30
0.0
 11
228.117222
 21
581.162498
 31
0.0
  0
CIRCLE
  5
BD
100
AcDbEntity
  8
0
  6
CONTINUOUS
 62
     7
100
AcDbCircle
 10
105.237213
 20
578.162498
 30
0.0
 40
10.266216
  0
ARC
  5
BE
100
AcDbEntity
  8
0
  6
CONTINUOUS
 62
     7
100
AcDbCircle
 10
102.237213
 20
578.162498
 30
0.0
 40
2.95
100
AcDbArc
 50
90.0
 51
270.0
  0
LINE
  5
BF
100
AcDbEntity
  8
0
  6
CONTINUOUS
 62
     7
100
AcDbLine
 10
102.237213
 20
575.212498
 30
0.0
 11
108.237213
 21
575.212498
 31
0.0
  0
ARC
  5
C0
100
AcDbEntity
  8
0
  6
CONTINUOUS
 62
     7
100
AcDbCircle
 10
108.237213
 20
578.162498
 30
0.0
 40
2.95
100
AcDbArc
 50
270.0
 51
90.0
  0
LINE
  5
C1
100
AcDbEntity
  8
0
  6
CONTINUOUS
 62
     7
100
AcDbLine
 10
108.117222
 20
381.162498
 30
0.0
 11
108.187213
 21
381.162498
 31
0.0
  0
ARC
  5
C2
100
AcDbEntity
  8
0
  6
CONTINUOUS
 62
     7
100
AcDbCircle
 10
105.237213
 20
381.162498
 30
0.0
 40
2.880009
100
AcDbArc
 50
0.0
 51
180.0
  0
ARC
  5
C3
100
AcDbEntity
  8
0
  6
CONTINUOUS
 62
     7
100
AcDbCircle
 10
105.237213
 20
381.162498
 30
0.0
 40
2.95
100
AcDbArc
 50
0.0
 51
180.0
  0
LINE
  5
C4
100
AcDbEntity
  8
0
  6
CONTINUOUS
 62
     7
100
AcDbLine
 10
108.237213
 20
575.282489
 30
0.0
 11
108.237213
 21
575.212498
 31
0.0
  0
ARC
  5
C5
100
AcDbEntity
  8
0
  6
CONTINUOUS
 62
     7
100
AcDbCircle
 10
108.237213
 20
578.162498
 30
0.0
 40
2.880009
100
AcDbArc
 50
270.0
 51
90.0
  0
LINE
  5
C6
100
AcDbEntity
  8
0
  6
CONTINUOUS
 62
     7
100
AcDbLine
 10
102.237213
 20
575.282489
 30
0.0
 11
102.237213
 21
575.212498
 31
0.0
  0
LINE
  5
C7
100
AcDbEntity
  8
0
  6
CONTINUOUS
 62
     7
100
AcDbLine
 10
102.237213
 20
575.282489
 30
0.0
 11
108.237213
 21
575.282489
 31
0.0
  0
ARC
  5
C8
100
AcDbEntity
  8
0
  6
CONTINUOUS
 62
     7
100
AcDbCircle
 10
102.237213
 20
578.162498
 30
0.0
 40
2.880009
100
AcDbArc
 50
90.0
 51
270.0
  0
ARC
  5
C9
100
AcDbEntity
  8
0
  6
CONTINUOUS
 62
     7
100
AcDbCircle
 10
105.237213
 20
375.162498
 30
0.0
 40
2.880009
100
AcDbArc
 50
180.0
 51
0.0
  0
LINE
  5
CA
100
AcDbEntity
  8
0
  6
CONTINUOUS
 62
     7
100
AcDbLine
 10
108.117222
 20
375.162498
 30
0.0
 11
108.187213
 21
375.162498
 31
0.0
  0
ARC
  5
CB
100
AcDbEntity
  8
0
  6
CONTINUOUS
 62
     7
100
AcDbCircle
 10
105.237213
 20
375.162498
 30
0.0
 40
2.95
100
AcDbArc
 50
180.0
 51
0.0
  0
LINE
  5
CC
100
AcDbEntity
  8
0
  6
CONTINUOUS
 62
     7
100
AcDbLine
 10
222.237213
 20
375.282489
 30
0.0
 11
228.237213
 21
375.282489
 31
0.0
  0
LINE
  5
CD
100
AcDbEntity
  8
0
  6
CONTINUOUS
 62
     7
100
AcDbLine
 10
228.237213
 20
375.282489
 30
0.0
 11
228.237213
 21
375.212498
 31
0.0
  0
LINE
  5
CE
100
AcDbEntity
  8
0
  6
CONTINUOUS
 62
     7
100
AcDbLine
 10
222.237213
 20
375.212498
 30
0.0
 11
228.237213
 21
375.212498
 31
0.0
  0
LINE
  5
CF
100
AcDbEntity
  8
0
  6
CONTINUOUS
 62
     7
100
AcDbLine
 10
228.237213
 20
381.042507
 30
0.0
 11
228.237213
 21
381.112498
 31
0.0
  0
LINE
  5
D0
100
AcDbEntity
  8
0
  6
CONTINUOUS
 62
     7
100
AcDbLine
 10
228.237213
 20
381.042507
 30
0.0
 11
222.237213
 21
381.042507
 31
0.0
  0
LINE
  5
D1
100
AcDbEntity
  8
0
  6
CONTINUOUS
 62
     7
100
AcDbLine
 10
228.237213
 20
381.112498
 30
0.0
 11
222.237213
 21
381.112498
 31
0.0
  0
ARC
  5
D2
100
AcDbEntity
  8
0
  6
CONTINUOUS
 62
     7
100
AcDbCircle
 10
228.237213
 20
378.162498
 30
0.0
 40
2.880009
100
AcDbArc
 50
270.0
 51
90.0
  0
ARC
  5
D3
100
AcDbEntity
  8
0
  6
CONTINUOUS
 62
     7
100
AcDbCircle
 10
228.237213
 20
378.162498
 30
0.0
 40
2.95
100
AcDbArc
 50
270.0
 51
90.0
  0
LINE
  5
D4
100
AcDbEntity
  8
0
  6
CONTINUOUS
 62
     7
100
AcDbLine
 10
108.187213
 20
375.162498
 30
0.0
 11
108.187213
 21
381.162498
 31
0.0
  0
LINE
  5
D5
100
AcDbEntity
  8
0
  6
CONTINUOUS
 62
     7
100
AcDbLine
 10
108.117222
 20
375.162498
 30
0.0
 11
108.117222
 21
381.162498
 31
0.0
  0
LINE
  5
D6
100
AcDbEntity
  8
0
  6
CONTINUOUS
 62
     7
100
AcDbLine
 10
222.357204
 20
581.162498
 30
0.0
 11
222.357204
 21
575.162498
 31
0.0
  0
LINE
  5
D7
100
AcDbEntity
  8
0
  6
CONTINUOUS
 62
     7
100
AcDbLine
 10
222.357204
 20
575.162498
 30
0.0
 11
222.287213
 21
575.162498
 31
0.0
  0
CIRCLE
  5
D8
100
AcDbEntity
  8
0
  6
CONTINUOUS
 62
     7
100
AcDbCircle
 10
225.237213
 20
578.162498
 30
0.0
 40
10.309853
  0
ARC
  5
D9
100
AcDbEntity
  8
0
  6
CONTINUOUS
 62
     7
100
AcDbCircle
 10
225.237213
 20
575.162498
 30
0.0
 40
2.880009
100
AcDbArc
 50
180.0
 51
0.0
  0
CIRCLE
  5
DA
100
AcDbEntity
  8
0
  6
CONTINUOUS
 62
     7
100
AcDbCircle
 10
105.237213
 20
578.162498
 30
0.0
 40
10.309853
  0
CIRCLE
  5
DB
100
AcDbEntity
  8
0
  6
CONTINUOUS
 62
     7
100
AcDbCircle
 10
67.737213
 20
320.362498
 30
0.0
 40
1.6
  0
CIRCLE
  5
DC
100
AcDbEntity
  8
0
  6
CONTINUOUS
 62
     7
100
AcDbCircle
 10
34.937213
 20
340.162498
 30
0.0
 40
1.6
  0
CIRCLE
  5
DD
100
AcDbEntity
  8
0
  6
CONTINUOUS
 62
     7
100
AcDbCircle
 10
295.537213
 20
616.162498
 30
0.0
 40
1.558548
  0
CIRCLE
  5
DE
100
AcDbEntity
  8
0
  6
CONTINUOUS
 62
     7
100
AcDbCircle
 10
295.537213
 20
616.162498
 30
0.0
 40
1.6
  0
CIRCLE
  5
DF
100
AcDbEntity
  8
0
  6
CONTINUOUS
 62
     7
100
AcDbCircle
 10
67.737213
 20
635.962498
 30
0.0
 40
1.6
  0
CIRCLE
  5
E0
100
AcDbEntity
  8
0
  6
CONTINUOUS
 62
     7
100
AcDbCircle
 10
34.937213
 20
616.162498
 30
0.0
 40
1.6
  0
CIRCLE
  5
E1
100
AcDbEntity
  8
0
  6
CONTINUOUS
 62
     7
100
AcDbCircle
 10
67.737213
 20
635.962498
 30
0.0
 40
1.558548
  0
CIRCLE
  5
E2
100
AcDbEntity
  8
0
  6
CONTINUOUS
 62
     7
100
AcDbCircle
 10
34.937213
 20
340.162498
 30
0.0
 40
1.558548
  0
CIRCLE
  5
E3
100
AcDbEntity
  8
0
  6
CONTINUOUS
 62
     7
100
AcDbCircle
 10
262.737213
 20
320.362498
 30
0.0
 40
1.558548
  0
CIRCLE
  5
E4
100
AcDbEntity
  8
0
  6
CONTINUOUS
 62
     7
100
AcDbCircle
 10
262.737213
 20
320.362498
 30
0.0
 40
1.6
  0
CIRCLE
  5
E5
100
AcDbEntity
  8
0
  6
CONTINUOUS
 62
     7
100
AcDbCircle
 10
295.537213
 20
340.162498
 30
0.0
 40
1.558548
  0
CIRCLE
  5
E6
100
AcDbEntity
  8
0
  6
CONTINUOUS
 62
     7
100
AcDbCircle
 10
295.537213
 20
340.162498
 30
0.0
 40
1.6
  0
CIRCLE
  5
E7
100
AcDbEntity
  8
0
  6
CONTINUOUS
 62
     7
100
AcDbCircle
 10
262.737213
 20
635.962498
 30
0.0
 40
1.558548
  0
CIRCLE
  5
E8
100
AcDbEntity
  8
0
  6
CONTINUOUS
 62
     7
100
AcDbCircle
 10
262.737213
 20
635.962498
 30
0.0
 40
1.6
  0
CIRCLE
  5
E9
100
AcDbEntity
  8
0
  6
CONTINUOUS
 62
     7
100
AcDbCircle
 10
34.937213
 20
616.162498
 30
0.0
 40
1.558548
  0
CIRCLE
  5
EA
100
AcDbEntity
  8
0
  6
CONTINUOUS
 62
     7
100
AcDbCircle
 10
67.737213
 20
320.362498
 30
0.0
 40
1.558548
  0
CIRCLE
  5
EB
100
AcDbEntity
  8
0
  6
CONTINUOUS
 62
     7
100
AcDbCircle
 10
262.737213
 20
320.362498
 30
0.0
 40
4.947592
  0
CIRCLE
  5
EC
100
AcDbEntity
  8
0
  6
CONTINUOUS
 62
     7
100
AcDbCircle
 10
295.537213
 20
340.162498
 30
0.0
 40
5.0
  0
CIRCLE
  5
ED
100
AcDbEntity
  8
0
  6
CONTINUOUS
 62
     7
100
AcDbCircle
 10
295.537213
 20
340.162498
 30
0.0
 40
4.947592
  0
LINE
  5
EE
100
AcDbEntity
  8
0
  6
CONTINUOUS
 62
     7
100
AcDbLine
 10
273.967024
 20
338.45372
 30
0.0
 11
273.518339
 21
338.090382
 31
0.0
  0
ARC
  5
EF
100
AcDbEntity
  8
0
  6
CONTINUOUS
 62
     7
100
AcDbCircle
 10
276.626922
 20
340.607663
 30
0.0
 40
3.42265
100
AcDbArc
 50
219.0
 51
39.0
  0
LINE
  5
F0
100
AcDbEntity
  8
0
  6
CONTINUOUS
 62
     7
100
AcDbLine
 10
279.286821
 20
342.761607
 30
0.0
 11
279.735506
 21
343.124945
 31
0.0
  0
ARC
  5
F1
100
AcDbEntity
  8
0
  6
CONTINUOUS
 62
     7
100
AcDbCircle
 10
276.626922
 20
340.607663
 30
0.0
 40
4.0
100
AcDbArc
 50
219.0
 51
39.0
  0
LINE
  5
F2
100
AcDbEntity
  8
0
  6
CONTINUOUS
 62
     7
100
AcDbLine
 10
165.237213
 20
471.806436
 30
0.0
 11
56.956088
 21
338.090382
 31
0.0
  0
LINE
  5
F3
100
AcDbEntity
  8
0
  6
CONTINUOUS
 62
     7
100
AcDbLine
 10
56.507402
 20
338.45372
 30
0.0
 11
56.956088
 21
338.090382
 31
0.0
  0
LINE
  5
F4
100
AcDbEntity
  8
0
  6
CONTINUOUS
 62
     7
100
AcDbLine
 10
165.237213
 20
472.723854
 30
0.0
 11
56.507402
 21
338.45372
 31
0.0
  0
LINE
  5
F5
100
AcDbEntity
  8
0
  6
CONTINUOUS
 62
     7
100
AcDbLine
 10
165.237213
 20
472.723854
 30
0.0
 11
165.237213
 21
471.806436
 31
0.0
  0
CIRCLE
  5
F6
100
AcDbEntity
  8
0
  6
CONTINUOUS
 62
     7
100
AcDbCircle
 10
34.937213
 20
340.162498
 30
0.0
 40
5.0
  0
CIRCLE
  5
F7
100
AcDbEntity
  8
0
  6
CONTINUOUS
 62
     7
100
AcDbCircle
 10
34.937213
 20
340.162498
 30
0.0
 40
4.947592
  0
CIRCLE
  5
F8
100
AcDbEntity
  8
0
  6
CONTINUOUS
 62
     7
100
AcDbCircle
 10
67.737213
 20
635.962498
 30
0.0
 40
5.0
  0
CIRCLE
  5
F9
100
AcDbEntity
  8
0
  6
CONTINUOUS
 62
     7
100
AcDbCircle
 10
67.737213
 20
635.962498
 30
0.0
 40
4.947592
  0
LINE
  5
FA
100
AcDbEntity
  8
0
  6
CONTINUOUS
 62
     7
100
AcDbLine
 10
279.286821
 20
613.56339
 30
0.0
 11
279.735506
 21
613.200052
 31
0.0
  0
LINE
  5
FB
100
AcDbEntity
  8
0
  6
CONTINUOUS
 62
     7
100
AcDbLine
 10
279.735506
 20
613.200052
 30
0.0
 11
170.384252
 21
478.162498
 31
0.0
  0
LINE
  5
FC
100
AcDbEntity
  8
0
  6
CONTINUOUS
 62
     7
100
AcDbLine
 10
169.64134
 20
478.162498
 30
0.0
 11
170.384252
 21
478.162498
 31
0.0
  0
LINE
  5
FD
100
AcDbEntity
  8
0
  6
CONTINUOUS
 62
     7
100
AcDbLine
 10
279.286821
 20
613.56339
 30
0.0
 11
169.64134
 21
478.162498
 31
0.0
  0
LINE
  5
FE
100
AcDbEntity
  8
0
  6
CONTINUOUS
 62
     7
100
AcDbLine
 10
165.237213
 20
484.518561
 30
0.0
 11
273.518339
 21
618.234615
 31
0.0
  0
LINE
  5
FF
100
AcDbEntity
  8
0
  6
CONTINUOUS
 62
     7
100
AcDbLine
 10
273.967024
 20
617.871277
 30
0.0
 11
273.518339
 21
618.234615
 31
0.0
  0
LINE
  5
100
100
AcDbEntity
  8
0
  6
CONTINUOUS
 62
     7
100
AcDbLine
 10
165.237213
 20
483.601143
 30
0.0
 11
273.967024
 21
617.871277
 31
0.0
  0
LINE
  5
101
100
AcDbEntity
  8
0
  6
CONTINUOUS
 62
     7
100
AcDbLine
 10
165.237213
 20
483.601143
 30
0.0
 11
165.237213
 21
484.518561
 31
0.0
  0
CIRCLE
  5
102
100
AcDbEntity
  8
0
  6
CONTINUOUS
 62
     7
100
AcDbCircle
 10
295.537213
 20
616.162498
 30
0.0
 40
5.0
  0
CIRCLE
  5
103
100
AcDbEntity
  8
0
  6
CONTINUOUS
 62
     7
100
AcDbCircle
 10
295.537213
 20
616.162498
 30
0.0
 40
4.947592
  0
ARC
  5
104
100
AcDbEntity
  8
0
  6
CONTINUOUS
 62
     7
100
AcDbCircle
 10
53.847504
 20
615.717334
 30
0.0
 40
3.42265
100
AcDbArc
 50
39.0
 51
219.0
  0
LINE
  5
105
100
AcDbEntity
  8
0
  6
CONTINUOUS
 62
     7
100
AcDbLine
 10
165.237213
 20
483.601143
 30
0.0
 11
56.507402
 21
617.871277
 31
0.0
  0
ARC
  5
106
100
AcDbEntity
  8
0
  6
CONTINUOUS
 62
     7
100
AcDbCircle
 10
276.626922
 20
615.717334
 30
0.0
 40
3.42265
100
AcDbArc
 50
321.0
 51
141.0
  0
LINE
  5
107
100
AcDbEntity
  8
0
  6
CONTINUOUS
 62
     7
100
AcDbLine
 10
279.286821
 20
342.761607
 30
0.0
 11
169.64134
 21
478.162498
 31
0.0
  0
LINE
  5
108
100
AcDbEntity
  8
0
  6
CONTINUOUS
 62
     7
100
AcDbLine
 10
165.237213
 20
472.723854
 30
0.0
 11
273.967024
 21
338.45372
 31
0.0
  0
ARC
  5
109
100
AcDbEntity
  8
0
  6
CONTINUOUS
 62
     7
100
AcDbCircle
 10
53.847504
 20
340.607663
 30
0.0
 40
3.42265
100
AcDbArc
 50
141.0
 51
321.0
  0
LINE
  5
10A
100
AcDbEntity
  8
0
  6
CONTINUOUS
 62
     7
100
AcDbLine
 10
51.187606
 20
342.761607
 30
0.0
 11
160.833086
 21
478.162498
 31
0.0
  0
LINE
  5
10B
100
AcDbEntity
  8
0
  6
CONTINUOUS
 62
     7
100
AcDbLine
 10
51.187606
 20
613.56339
 30
0.0
 11
160.833086
 21
478.162498
 31
0.0
  0
CIRCLE
  5
10C
100
AcDbEntity
  8
0
  6
CONTINUOUS
 62
     7
100
AcDbCircle
 10
34.937213
 20
616.162498
 30
0.0
 40
5.0
  0
CIRCLE
  5
10D
100
AcDbEntity
  8
0
  6
CONTINUOUS
 62
     7
100
AcDbCircle
 10
34.937213
 20
616.162498
 30
0.0
 40
4.947592
  0
CIRCLE
  5
10E
100
AcDbEntity
  8
0
  6
CONTINUOUS
 62
     7
100
AcDbCircle
 10
67.737213
 20
320.362498
 30
0.0
 40
4.947592
  0
LINE
  5
10F
100
AcDbEntity
  8
0
  6
CONTINUOUS
 62
     7
100
AcDbLine
 10
165.237213
 20
471.806436
 30
0.0
 11
273.518339
 21
338.090382
 31
0.0
  0
CIRCLE
  5
110
100
AcDbEntity
  8
0
  6
CONTINUOUS
 62
     7
100
AcDbCircle
 10
262.737213
 20
320.362498
 30
0.0
 40
5.0
  0
CIRCLE
  5
111
100
AcDbEntity
  8
0
  6
CONTINUOUS
 62
     7
100
AcDbCircle
 10
262.737213
 20
635.962498
 30
0.0
 40
5.0
  0
CIRCLE
  5
112
100
AcDbEntity
  8
0
  6
CONTINUOUS
 62
     7
100
AcDbCircle
 10
262.737213
 20
635.962498
 30
0.0
 40
4.947592
  0
LINE
  5
113
100
AcDbEntity
  8
0
  6
CONTINUOUS
 62
     7
100
AcDbLine
 10
51.187606
 20
342.761607
 30
0.0
 11
50.73892
 21
343.124945
 31
0.0
  0
LINE
  5
114
100
AcDbEntity
  8
0
  6
CONTINUOUS
 62
     7
100
AcDbLine
 10
50.73892
 20
343.124945
 30
0.0
 11
160.090175
 21
478.162498
 31
0.0
  0
LINE
  5
115
100
AcDbEntity
  8
0
  6
CONTINUOUS
 62
     7
100
AcDbLine
 10
160.090175
 20
478.162498
 30
0.0
 11
160.833086
 21
478.162498
 31
0.0
  0
CIRCLE
  5
116
100
AcDbEntity
  8
0
  6
CONTINUOUS
 62
     7
100
AcDbCircle
 10
67.737213
 20
320.362498
 30
0.0
 40
5.0
  0
LINE
  5
117
100
AcDbEntity
  8
0
  6
CONTINUOUS
 62
     7
100
AcDbLine
 10
279.735506
 20
343.124945
 30
0.0
 11
170.384252
 21
478.162498
 31
0.0
  0
LINE
  5
118
100
AcDbEntity
  8
0
  6
CONTINUOUS
 62
     7
100
AcDbLine
 10
56.507402
 20
617.871277
 30
0.0
 11
56.956088
 21
618.234615
 31
0.0
  0
LINE
  5
119
100
AcDbEntity
  8
0
  6
CONTINUOUS
 62
     7
100
AcDbLine
 10
165.237213
 20
484.518561
 30
0.0
 11
56.956088
 21
618.234615
 31
0.0
  0
LINE
  5
11A
100
AcDbEntity
  8
0
  6
CONTINUOUS
 62
     7
100
AcDbLine
 10
51.187606
 20
613.56339
 30
0.0
 11
50.73892
 21
613.200052
 31
0.0
  0
ARC
  5
11B
100
AcDbEntity
  8
0
  6
CONTINUOUS
 62
     7
100
AcDbCircle
 10
53.847504
 20
615.717334
 30
0.0
 40
4.0
100
AcDbArc
 50
39.0
 51
219.0
  0
ARC
  5
11C
100
AcDbEntity
  8
0
  6
CONTINUOUS
 62
     7
100
AcDbCircle
 10
53.847504
 20
340.607663
 30
0.0
 40
4.0
100
AcDbArc
 50
141.0
 51
321.0
  0
LINE
  5
11D
100
AcDbEntity
  8
0
  6
CONTINUOUS
 62
     7
100
AcDbLine
 10
50.73892
 20
613.200052
 30
0.0
 11
160.090175
 21
478.162498
 31
0.0
  0
ARC
  5
11E
100
AcDbEntity
  8
0
  6
CONTINUOUS
 62
     7
100
AcDbCircle
 10
276.626922
 20
615.717334
 30
0.0
 40
4.0
100
AcDbArc
 50
321.0
 51
141.0
  0
LINE
  5
11F
100
AcDbEntity
  8
0
  6
CONTINUOUS
 62
     7
100
AcDbLine
 10
45.930239
 20
645.419465
 30
0.0
 11
284.544187
 21
645.419465
 31
0.0
  0
LINE
  5
120
100
AcDbEntity
  8
0
  6
CONTINUOUS
 62
     7
100
AcDbLine
 10
304.994191
 20
626.969473
 30
0.0
 11
304.994191
 21
329.355524
 31
0.0
  0
LINE
  5
121
100
AcDbEntity
  8
0
  6
CONTINUOUS
 62
     7
100
AcDbLine
 10
45.930239
 20
310.905532
 30
0.0
 11
284.544187
 21
310.905532
 31
0.0
  0
LINE
  5
122
100
AcDbEntity
  8
0
  6
CONTINUOUS
 62
     7
100
AcDbLine
 10
25.480236
 20
626.969473
 30
0.0
 11
25.480236
 21
329.355524
 31
0.0
  0
CIRCLE
  5
123
100
AcDbEntity
  8
0
  6
CONTINUOUS
 62
     7
100
AcDbCircle
 10
165.237213
 20
415.662498
 30
0.0
 40
10.4
  0
CIRCLE
  5
124
100
AcDbEntity
  8
0
  6
CONTINUOUS
 62
     7
100
AcDbCircle
 10
165.237213
 20
540.662498
 30
0.0
 40
10.4
  0
ELLIPSE
  5
125
100
AcDbEntity
  8
0
  6
CONTINUOUS
 62
     7
100
AcDbEllipse
 10
24.081738
 20
329.112498
 30
0.0
 11
0.0
 21
1.155298972339835
 31
0.0
210
0.0
220
0.0
230
1.0
 40
0.017458
 41
1.570796326794896
 42
3.159048605007881
  0
LINE
  5
126
100
AcDbEntity
  8
0
  6
CONTINUOUS
 62
     7
100
AcDbLine
 10
24.061571
 20
627.212496
 30
0.0
 11
24.061571
 21
329.112501
 31
0.0
  0
ELLIPSE
  5
127
100
AcDbEntity
  8
0
  6
CONTINUOUS
 62
     7
100
AcDbEllipse
 10
24.081738
 20
627.212498
 30
0.0
 11
0.0
 21
1.155298972339835
 31
0.0
210
0.0
220
0.0
230
1.0
 40
0.017458
 41
6.265729355763078
 42
7.853981633974482
  0
ELLIPSE
  5
128
100
AcDbEntity
  8
0
  6
CONTINUOUS
 62
     7
100
AcDbEllipse
 10
45.687213
 20
646.817973
 30
0.0
 11
1.155298972339817
 21
0.0
 31
0.0
210
0.0
220
0.0
230
1.0
 40
0.017458
 41
1.570796326794881
 42
3.159048605006173
  0
LINE
  5
129
100
AcDbEntity
  8
0
  6
CONTINUOUS
 62
     7
100
AcDbLine
 10
45.687216
 20
646.838145
 30
0.0
 11
284.78721
 21
646.838145
 31
0.0
  0
ELLIPSE
  5
12A
100
AcDbEntity
  8
0
  6
CONTINUOUS
 62
     7
100
AcDbEllipse
 10
284.787213
 20
646.817973
 30
0.0
 11
1.155298972339764
 21
0.0
 31
0.0
210
0.0
220
0.0
230
1.0
 40
0.017458
 41
6.265729355764813
 42
7.853981633974482
  0
ELLIPSE
  5
12B
100
AcDbEntity
  8
0
  6
CONTINUOUS
 62
     7
100
AcDbEllipse
 10
306.392688
 20
627.212498
 30
0.0
 11
0.0
 21
1.155298972339835
 31
0.0
210
0.0
220
0.0
230
1.0
 40
0.017458
 41
4.712388980384689
 42
6.300641258595898
  0
LINE
  5
12C
100
AcDbEntity
  8
0
  6
CONTINUOUS
 62
     7
100
AcDbLine
 10
306.412856
 20
627.212496
 30
0.0
 11
306.412856
 21
329.112501
 31
0.0
  0
ELLIPSE
  5
12D
100
AcDbEntity
  8
0
  6
CONTINUOUS
 62
     7
100
AcDbEllipse
 10
306.392688
 20
329.112498
 30
0.0
 11
0.0
 21
1.155298972339835
 31
0.0
210
0.0
220
0.0
230
1.0
 40
0.017458
 41
3.124136702174274
 42
4.712388980384689
  0
CIRCLE
  5
12E
100
AcDbEntity
  8
0
  6
CONTINUOUS
 62
     7
100
AcDbCircle
 10
165.237213
 20
415.662498
 30
0.0
 40
10.159169
  0
CIRCLE
  5
12F
100
AcDbEntity
  8
0
  6
CONTINUOUS
 62
     7
100
AcDbCircle
 10
165.237213
 20
415.662498
 30
0.0
 40
10.379958
  0
CIRCLE
  5
130
100
AcDbEntity
  8
0
  6
CONTINUOUS
 62
     7
100
AcDbCircle
 10
165.237213
 20
540.662498
 30
0.0
 40
10.379958
  0
CIRCLE
  5
131
100
AcDbEntity
  8
0
  6
CONTINUOUS
 62
     7
100
AcDbCircle
 10
165.237213
 20
540.662498
 30
0.0
 40
10.159169
  0
ELLIPSE
  5
132
100
AcDbEntity
  8
0
  6
CONTINUOUS
 62
     7
100
AcDbEllipse
 10
284.787213
 20
309.507023
 30
0.0
 11
1.155298972339835
 21
0.0
 31
0.0
210
0.0
220
0.0
230
1.0
 40
0.017458
 41
4.712388980384689
 42
6.300641258599407
  0
LINE
  5
133
100
AcDbEntity
  8
0
  6
CONTINUOUS
 62
     7
100
AcDbLine
 10
45.687216
 20
309.486852
 30
0.0
 11
284.78721
 21
309.486852
 31
0.0
  0
ELLIPSE
  5
134
100
AcDbEntity
  8
0
  6
CONTINUOUS
 62
     7
100
AcDbEllipse
 10
45.687213
 20
309.507023
 30
0.0
 11
1.155298972339835
 21
0.0
 31
0.0
210
0.0
220
0.0
230
1.0
 40
0.017458
 41
3.124136702170765
 42
4.712388980384705
  0
LINE
  5
135
100
AcDbEntity
  8
0
  6
CONTINUOUS
 62
     7
100
AcDbLine
 10
306.412856
 20
329.112501
 30
0.0
 11
309.737213
 21
329.112498
 31
0.0
  0
LINE
  5
136
100
AcDbEntity
  8
0
  6
CONTINUOUS
 62
     7
100
AcDbLine
 10
309.737213
 20
324.612498
 30
0.0
 11
309.737213
 21
329.112498
 31
0.0
  0
LINE
  5
137
100
AcDbEntity
  8
0
  6
CONTINUOUS
 62
     7
100
AcDbLine
 10
24.061571
 20
329.112501
 30
0.0
 11
20.737213
 21
329.112498
 31
0.0
  0
LINE
  5
138
100
AcDbEntity
  8
0
  6
CONTINUOUS
 62
     7
100
AcDbLine
 10
20.737213
 20
324.612498
 30
0.0
 11
20.737213
 21
329.112498
 31
0.0
  0
LINE
  5
139
100
AcDbEntity
  8
0
  6
CONTINUOUS
 62
     7
100
AcDbLine
 10
284.78721
 20
646.838145
 30
0.0
 11
284.787213
 21
650.162498
 31
0.0
  0
LINE
  5
13A
100
AcDbEntity
  8
0
  6
CONTINUOUS
 62
     7
100
AcDbLine
 10
289.287213
 20
650.162498
 30
0.0
 11
284.787213
 21
650.162498
 31
0.0
  0
LINE
  5
13B
100
AcDbEntity
  8
0
  6
CONTINUOUS
 62
     7
100
AcDbLine
 10
284.78721
 20
309.486852
 30
0.0
 11
284.787213
 21
306.162498
 31
0.0
  0
LINE
  5
13C
100
AcDbEntity
  8
0
  6
CONTINUOUS
 62
     7
100
AcDbLine
 10
289.287213
 20
306.162498
 30
0.0
 11
284.787213
 21
306.162498
 31
0.0
  0
LINE
  5
13D
100
AcDbEntity
  8
0
  6
CONTINUOUS
 62
     7
100
AcDbLine
 10
45.687216
 20
646.838145
 30
0.0
 11
45.687213
 21
650.162498
 31
0.0
  0
LINE
  5
13E
100
AcDbEntity
  8
0
  6
CONTINUOUS
 62
     7
100
AcDbLine
 10
45.687213
 20
650.162498
 30
0.0
 11
41.187213
 21
650.162498
 31
0.0
  0
LINE
  5
13F
100
AcDbEntity
  8
0
  6
CONTINUOUS
 62
     7
100
AcDbLine
 10
45.687216
 20
309.486852
 30
0.0
 11
45.687213
 21
306.162498
 31
0.0
  0
LINE
  5
140
100
AcDbEntity
  8
0
  6
CONTINUOUS
 62
     7
100
AcDbLine
 10
45.687213
 20
306.162498
 30
0.0
 11
41.187213
 21
306.162498
 31
0.0
  0
LINE
  5
141
100
AcDbEntity
  8
0
  6
CONTINUOUS
 62
     7
100
AcDbLine
 10
306.412856
 20
627.212496
 30
0.0
 11
309.737213
 21
627.212498
 31
0.0
  0
LINE
  5
142
100
AcDbEntity
  8
0
  6
CONTINUOUS
 62
     7
100
AcDbLine
 10
309.737213
 20
627.212498
 30
0.0
 11
309.737213
 21
631.712498
 31
0.0
  0
LINE
  5
143
100
AcDbEntity
  8
0
  6
CONTINUOUS
 62
     7
100
AcDbLine
 10
24.061571
 20
627.212496
 30
0.0
 11
20.737213
 21
627.212498
 31
0.0
  0
LINE
  5
144
100
AcDbEntity
  8
0
  6
CONTINUOUS
 62
     7
100
AcDbLine
 10
20.737213
 20
627.212498
 30
0.0
 11
20.737213
 21
631.712498
 31
0.0
  0
LINE
  5
145
100
AcDbEntity
  8
0
  6
CONTINUOUS
 62
     7
100
AcDbLine
 10
20.737213
 20
329.112498
 30
0.0
 11
20.737213
 21
627.212498
 31
0.0
  0
LINE
  5
146
100
AcDbEntity
  8
0
  6
CONTINUOUS
 62
     7
100
AcDbLine
 10
284.787213
 20
650.162498
 30
0.0
 11
45.687213
 21
650.162498
 31
0.0
  0
LINE
  5
147
100
AcDbEntity
  8
0
  6
CONTINUOUS
 62
     7
100
AcDbLine
 10
309.737213
 20
329.112498
 30
0.0
 11
309.737213
 21
627.212498
 31
0.0
  0
LINE
  5
148
100
AcDbEntity
  8
0
  6
CONTINUOUS
 62
     7
100
AcDbLine
 10
284.787213
 20
306.162498
 30
0.0
 11
45.687213
 21
306.162498
 31
0.0
  0
LINE
  5
149
100
AcDbEntity
  8
0
  6
CONTINUOUS
 62
     7
100
AcDbLine
 10
547.034557
 20
611.1625
 30
0.0
 11
548.034558
 21
611.214906
 31
0.0
  0
LINE
  5
14A
100
AcDbEntity
  8
0
  6
CONTINUOUS
 62
     7
100
AcDbLine
 10
548.034558
 20
621.110091
 30
0.0
 11
547.034557
 21
621.162505
 31
0.0
  0
LINE
  5
14B
100
AcDbEntity
  8
0
  6
CONTINUOUS
 62
     7
100
AcDbLine
 10
547.034557
 20
335.162492
 30
0.0
 11
548.034558
 21
335.214906
 31
0.0
  0
LINE
  5
14C
100
AcDbEntity
  8
0
  6
CONTINUOUS
 62
     7
100
AcDbLine
 10
548.034558
 20
345.110091
 30
0.0
 11
547.034557
 21
345.162497
 31
0.0
  0
LINE
  5
14D
100
AcDbEntity
  8
0
  6
CONTINUOUS
 62
     7
100
AcDbLine
 10
548.034559
 20
336.912499
 30
0.0
 11
550.034558
 21
336.912498
 31
0.0
  0
LINE
  5
14E
100
AcDbEntity
  8
0
  6
CONTINUOUS
 62
     7
100
AcDbLine
 10
550.034558
 20
343.412498
 30
0.0
 11
548.034559
 21
343.412505
 31
0.0
  0
LINE
  5
14F
100
AcDbEntity
  8
0
  6
CONTINUOUS
 62
     7
100
AcDbLine
 10
548.034559
 20
612.912492
 30
0.0
 11
550.034558
 21
612.912498
 31
0.0
  0
LINE
  5
150
100
AcDbEntity
  8
0
  6
CONTINUOUS
 62
     7
100
AcDbLine
 10
550.034558
 20
619.412498
 30
0.0
 11
548.034559
 21
619.412498
 31
0.0
  0
LINE
  5
151
100
AcDbEntity
  8
0
  6
CONTINUOUS
 62
     7
100
AcDbLine
 10
547.034557
 20
332.862498
 30
0.0
 11
550.034558
 21
332.914864
 31
0.0
  0
LINE
  5
152
100
AcDbEntity
  8
0
  6
CONTINUOUS
 62
     7
100
AcDbLine
 10
547.034557
 20
608.862506
 30
0.0
 11
550.034558
 21
608.914864
 31
0.0
  0
LINE
  5
153
100
AcDbEntity
  8
0
  6
CONTINUOUS
 62
     7
100
AcDbLine
 10
550.034558
 20
347.410133
 30
0.0
 11
547.034557
 21
347.462491
 31
0.0
  0
LINE
  5
154
100
AcDbEntity
  8
0
  6
CONTINUOUS
 62
     7
100
AcDbLine
 10
550.034558
 20
623.410133
 30
0.0
 11
547.034557
 21
623.462499
 31
0.0
  0
LINE
  5
155
100
AcDbEntity
  8
0
  6
CONTINUOUS
 62
     7
100
AcDbLine
 10
550.034558
 20
331.610133
 30
0.0
 11
547.034557
 21
331.662492
 31
0.0
  0
LINE
  5
156
100
AcDbEntity
  8
0
  6
CONTINUOUS
 62
     7
100
AcDbLine
 10
547.034557
 20
624.662505
 30
0.0
 11
550.034558
 21
624.714864
 31
0.0
  0
LINE
  5
157
100
AcDbEntity
  8
0
  6
CONTINUOUS
 62
     7
100
AcDbLine
 10
548.034559
 20
367.870101
 30
0.0
 11
549.534558
 21
367.896283
 31
0.0
  0
LINE
  5
158
100
AcDbEntity
  8
0
  6
CONTINUOUS
 62
     7
100
AcDbLine
 10
549.534558
 20
388.428714
 30
0.0
 11
548.034559
 21
388.4549
 31
0.0
  0
LINE
  5
159
100
AcDbEntity
  8
0
  6
CONTINUOUS
 62
     7
100
AcDbLine
 10
548.034559
 20
567.870097
 30
0.0
 11
549.534558
 21
567.896283
 31
0.0
  0
LINE
  5
15A
100
AcDbEntity
  8
0
  6
CONTINUOUS
 62
     7
100
AcDbLine
 10
549.534558
 20
588.428714
 30
0.0
 11
548.034559
 21
588.454896
 31
0.0
  0
ELLIPSE
  5
15B
100
AcDbEntity
  8
0
  6
CONTINUOUS
 62
     7
100
AcDbEllipse
 10
466.91439
 20
627.212498
 30
0.0
 11
1.155475010403463
 21
0.0
 31
0.0
210
0.0
220
0.0
230
1.0
 40
0.999848
 41
1.553340375378989
 42
3.141592653589793
  0
LINE
  5
15C
100
AcDbEntity
  8
0
  6
CONTINUOUS
 62
     7
100
AcDbLine
 10
465.758914
 20
627.212496
 30
0.0
 11
462.434558
 21
627.212498
 31
0.0
  0
ARC
  5
15D
100
AcDbEntity
  8
0
  6
CONTINUOUS
 62
     7
100
AcDbCircle
 10
466.934558
 20
627.212498
 30
0.0
 40
4.5
100
AcDbArc
 50
90.0
 51
180.0
  0
LINE
  5
15E
100
AcDbEntity
  8
0
  6
CONTINUOUS
 62
     7
100
AcDbLine
 10
466.934558
 20
628.367619
 30
0.0
 11
466.934558
 21
631.712498
 31
0.0
  0
ELLIPSE
  5
15F
100
AcDbEntity
  8
0
  6
CONTINUOUS
 62
     7
100
AcDbEllipse
 10
466.91439
 20
329.112498
 30
0.0
 11
1.155475010403463
 21
0.0
 31
0.0
210
0.0
220
0.0
230
1.0
 40
0.999848
 41
3.141592653589793
 42
4.729844931800612
  0
LINE
  5
160
100
AcDbEntity
  8
0
  6
CONTINUOUS
 62
     7
100
AcDbLine
 10
466.934558
 20
327.957378
 30
0.0
 11
466.934558
 21
324.612498
 31
0.0
  0
ARC
  5
161
100
AcDbEntity
  8
0
  6
CONTINUOUS
 62
     7
100
AcDbCircle
 10
466.934558
 20
329.112498
 30
0.0
 40
4.5
100
AcDbArc
 50
180.0
 51
270.0
  0
LINE
  5
162
100
AcDbEntity
  8
0
  6
CONTINUOUS
 62
     7
100
AcDbLine
 10
465.758914
 20
329.112501
 30
0.0
 11
462.434558
 21
329.112498
 31
0.0
  0
LINE
  5
163
100
AcDbEntity
  8
0
  6
CONTINUOUS
 62
     7
100
AcDbLine
 10
465.758914
 20
627.212496
 30
0.0
 11
465.758914
 21
329.112501
 31
0.0
  0
LINE
  5
164
100
AcDbEntity
  8
0
  6
CONTINUOUS
 62
     7
100
AcDbLine
 10
462.434558
 20
329.112498
 30
0.0
 11
462.434558
 21
627.212498
 31
0.0
  0
LINE
  5
165
100
AcDbEntity
  8
0
  6
CONTINUOUS
 62
     7
100
AcDbLine
 10
458.634558
 20
312.162498
 30
0.0
 11
458.634558
 21
644.162498
 31
0.0
  0
LINE
  5
166
100
AcDbEntity
  8
0
  6
CONTINUOUS
 62
     7
100
AcDbLine
 10
550.034558
 20
644.162498
 30
0.0
 11
458.634558
 21
644.162498
 31
0.0
  0
LINE
  5
167
100
AcDbEntity
  8
0
  6
CONTINUOUS
 62
     7
100
AcDbLine
 10
550.034558
 20
644.162498
 30
0.0
 11
550.034556
 21
631.712497
 31
0.0
  0
LINE
  5
168
100
AcDbEntity
  8
0
  6
CONTINUOUS
 62
     7
100
AcDbLine
 10
466.934558
 20
631.712498
 30
0.0
 11
550.034556
 21
631.712497
 31
0.0
  0
LINE
  5
169
100
AcDbEntity
  8
0
  6
CONTINUOUS
 62
     7
100
AcDbLine
 10
550.034556
 20
324.612499
 30
0.0
 11
466.934558
 21
324.612498
 31
0.0
  0
LINE
  5
16A
100
AcDbEntity
  8
0
  6
CONTINUOUS
 62
     7
100
AcDbLine
 10
550.034556
 20
324.612499
 30
0.0
 11
550.034558
 21
312.162498
 31
0.0
  0
LINE
  5
16B
100
AcDbEntity
  8
0
  6
CONTINUOUS
 62
     7
100
AcDbLine
 10
458.634558
 20
312.162498
 30
0.0
 11
550.034558
 21
312.162498
 31
0.0
  0
LINE
  5
16C
100
AcDbEntity
  8
0
  6
CONTINUOUS
 62
     7
100
AcDbLine
 10
458.634558
 20
650.162498
 30
0.0
 11
550.034558
 21
650.162498
 31
0.0
  0
LINE
  5
16D
100
AcDbEntity
  8
0
  6
CONTINUOUS
 62
     7
100
AcDbLine
 10
550.034558
 20
650.162498
 30
0.0
 11
550.034558
 21
644.162498
 31
0.0
  0
LINE
  5
16E
100
AcDbEntity
  8
0
  6
CONTINUOUS
 62
     7
100
AcDbLine
 10
458.634558
 20
644.162498
 30
0.0
 11
458.634558
 21
650.162498
 31
0.0
  0
LINE
  5
16F
100
AcDbEntity
  8
0
  6
CONTINUOUS
 62
     7
100
AcDbLine
 10
550.034558
 20
312.162498
 30
0.0
 11
550.034558
 21
306.162498
 31
0.0
  0
LINE
  5
170
100
AcDbEntity
  8
0
  6
CONTINUOUS
 62
     7
100
AcDbLine
 10
550.034558
 20
306.162498
 30
0.0
 11
458.634558
 21
306.162498
 31
0.0
  0
LINE
  5
171
100
AcDbEntity
  8
0
  6
CONTINUOUS
 62
     7
100
AcDbLine
 10
458.634558
 20
306.162498
 30
0.0
 11
458.634558
 21
312.162498
 31
0.0
  0
LINE
  5
172
100
AcDbEntity
  8
0
  6
CONTINUOUS
 62
     7
100
AcDbLine
 10
550.034556
 20
631.712497
 30
0.0
 11
550.034558
 21
626.969471
 31
0.0
  0
LINE
  5
173
100
AcDbEntity
  8
0
  6
CONTINUOUS
 62
     7
100
AcDbLine
 10
550.034558
 20
626.969471
 30
0.0
 11
547.034557
 21
626.969473
 31
0.0
  0
LINE
  5
174
100
AcDbEntity
  8
0
  6
CONTINUOUS
 62
     7
100
AcDbLine
 10
466.934558
 20
628.367619
 30
0.0
 11
547.034557
 21
626.969473
 31
0.0
  0
LINE
  5
175
100
AcDbEntity
  8
0
  6
CONTINUOUS
 62
     7
100
AcDbLine
 10
466.934558
 20
327.957378
 30
0.0
 11
547.034557
 21
329.355524
 31
0.0
  0
LINE
  5
176
100
AcDbEntity
  8
0
  6
CONTINUOUS
 62
     7
100
AcDbLine
 10
550.034558
 20
329.355526
 30
0.0
 11
547.034557
 21
329.355524
 31
0.0
  0
LINE
  5
177
100
AcDbEntity
  8
0
  6
CONTINUOUS
 62
     7
100
AcDbLine
 10
550.034558
 20
329.355526
 30
0.0
 11
550.034556
 21
324.612499
 31
0.0
  0
LINE
  5
178
100
AcDbEntity
  8
0
  6
CONTINUOUS
 62
     7
100
AcDbLine
 10
547.034557
 20
626.969473
 30
0.0
 11
547.034557
 21
329.355524
 31
0.0
  0
LINE
  5
179
100
AcDbEntity
  8
0
  6
CONTINUOUS
 62
     7
100
AcDbLine
 10
548.034558
 20
621.110091
 30
0.0
 11
548.034558
 21
611.214906
 31
0.0
  0
LINE
  5
17A
100
AcDbEntity
  8
0
  6
CONTINUOUS
 62
     7
100
AcDbLine
 10
548.034558
 20
345.110091
 30
0.0
 11
548.034558
 21
335.214906
 31
0.0
  0
LINE
  5
17B
100
AcDbEntity
  8
0
  6
CONTINUOUS
 62
     7
100
AcDbLine
 10
550.034558
 20
343.412498
 30
0.0
 11
550.034558
 21
336.912498
 31
0.0
  0
LINE
  5
17C
100
AcDbEntity
  8
0
  6
CONTINUOUS
 62
     7
100
AcDbLine
 10
550.034558
 20
619.412498
 30
0.0
 11
550.034558
 21
612.912498
 31
0.0
  0
LINE
  5
17D
100
AcDbEntity
  8
0
  6
CONTINUOUS
 62
     7
100
AcDbLine
 10
550.034558
 20
336.912498
 30
0.0
 11
550.034558
 21
332.914864
 31
0.0
  0
LINE
  5
17E
100
AcDbEntity
  8
0
  6
CONTINUOUS
 62
     7
100
AcDbLine
 10
550.034558
 20
612.912498
 30
0.0
 11
550.034558
 21
608.914864
 31
0.0
  0
LINE
  5
17F
100
AcDbEntity
  8
0
  6
CONTINUOUS
 62
     7
100
AcDbLine
 10
550.034558
 20
347.410133
 30
0.0
 11
550.034558
 21
343.412498
 31
0.0
  0
LINE
  5
180
100
AcDbEntity
  8
0
  6
CONTINUOUS
 62
     7
100
AcDbLine
 10
550.034558
 20
623.410133
 30
0.0
 11
550.034558
 21
619.412498
 31
0.0
  0
LINE
  5
181
100
AcDbEntity
  8
0
  6
CONTINUOUS
 62
     7
100
AcDbLine
 10
547.034557
 20
478.162498
 30
0.0
 11
548.034559
 21
478.162498
 31
0.0
  0
LINE
  5
182
100
AcDbEntity
  8
0
  6
CONTINUOUS
 62
     7
100
AcDbLine
 10
548.034559
 20
347.445042
 30
0.0
 11
548.034559
 21
478.162498
 31
0.0
  0
LINE
  5
183
100
AcDbEntity
  8
0
  6
CONTINUOUS
 62
     7
100
AcDbLine
 10
548.034559
 20
608.879955
 30
0.0
 11
548.034559
 21
478.162498
 31
0.0
  0
LINE
  5
184
100
AcDbEntity
  8
0
  6
CONTINUOUS
 62
     7
100
AcDbLine
 10
550.034558
 20
331.610133
 30
0.0
 11
550.034558
 21
329.355526
 31
0.0
  0
LINE
  5
185
100
AcDbEntity
  8
0
  6
CONTINUOUS
 62
     7
100
AcDbLine
 10
550.034558
 20
626.969471
 30
0.0
 11
550.034558
 21
624.714864
 31
0.0
  0
LINE
  5
186
100
AcDbEntity
  8
0
  6
CONTINUOUS
 62
     7
100
AcDbLine
 10
549.534558
 20
367.896283
 30
0.0
 11
549.534558
 21
388.428714
 31
0.0
  0
LINE
  5
187
100
AcDbEntity
  8
0
  6
CONTINUOUS
 62
     7
100
AcDbLine
 10
549.534558
 20
567.896283
 30
0.0
 11
549.534558
 21
588.428714
 31
0.0
  0
LINE
  5
188
100
AcDbEntity
  8
0
  6
CONTINUOUS
 62
     7
100
AcDbLine
 10
550.034558
 20
650.162498
 30
0.0
 11
466.934558
 21
650.162498
 31
0.0
  0
LINE
  5
189
100
AcDbEntity
  8
0
  6
CONTINUOUS
 62
     7
100
AcDbLine
 10
550.034558
 20
306.162498
 30
0.0
 11
466.934558
 21
306.162498
 31
0.0
  0
LINE
  5
18A
100
AcDbEntity
  8
0
  6
CONTINUOUS
 62
     7
100
AcDbLine
 10
466.934558
 20
650.162498
 30
0.0
 11
462.434558
 21
650.162498
 31
0.0
  0
LINE
  5
18B
100
AcDbEntity
  8
0
  6
CONTINUOUS
 62
     7
100
AcDbLine
 10
466.934558
 20
306.162498
 30
0.0
 11
462.434558
 21
306.162498
 31
0.0
  0
INSERT
  5
193
100
AcDbEntity
  8
0
  6
CONTINUOUS
 62
     7
100
AcDbBlockReference
  2
SW_CENTERMARKSYMBOL_0
 10
466.934558
 20
627.212498
 30
0.0
 41
5.0
 42
5.0
 43
5.0
  0
INSERT
  5
19B
100
AcDbEntity
  8
0
  6
CONTINUOUS
 62
     7
100
AcDbBlockReference
  2
SW_CENTERMARKSYMBOL_1
 10
466.934558
 20
329.112498
 30
0.0
 41
5.0
 42
5.0
 43
5.0
  0
CIRCLE
  5
19C
100
AcDbEntity
  8
0
  6
CONTINUOUS
 62
     7
100
AcDbCircle
 10
967.007125
 20
318.662498
 30
0.0
 40
5.4
  0
ARC
  5
19D
100
AcDbEntity
  8
0
  6
CONTINUOUS
 62
     7
100
AcDbCircle
 10
952.307125
 20
319.898993
 30
0.0
 40
3.7
100
AcDbArc
 50
92.5
 51
180.0
  0
LINE
  5
19E
100
AcDbEntity
  8
0
  6
CONTINUOUS
 62
     7
100
AcDbLine
 10
948.607125
 20
319.898993
 30
0.0
 11
948.607125
 21
316.062498
 31
0.0
  0
ARC
  5
19F
100
AcDbEntity
  8
0
  6
CONTINUOUS
 62
     7
100
AcDbCircle
 10
938.707125
 20
316.062498
 30
0.0
 40
9.9
100
AcDbArc
 50
309.854279
 51
0.0
  0
LINE
  5
1A0
100
AcDbEntity
  8
0
  6
CONTINUOUS
 62
     7
100
AcDbLine
 10
945.051414
 20
308.462498
 30
0.0
 11
973.507125
 21
308.462498
 31
0.0
  0
ARC
  5
1A1
100
AcDbEntity
  8
0
  6
CONTINUOUS
 62
     7
100
AcDbCircle
 10
973.507125
 20
312.162498
 30
0.0
 40
3.7
100
AcDbArc
 50
270.0
 51
0.0
  0
LINE
  5
1A2
100
AcDbEntity
  8
0
  6
CONTINUOUS
 62
     7
100
AcDbLine
 10
977.207125
 20
312.162498
 30
0.0
 11
977.207125
 21
327.922995
 31
0.0
  0
ARC
  5
1A3
100
AcDbEntity
  8
0
  6
CONTINUOUS
 62
     7
100
AcDbCircle
 10
969.607125
 20
334.267284
 30
0.0
 40
9.9
100
AcDbArc
 50
272.5
 51
320.145721
  0
LINE
  5
1A4
100
AcDbEntity
  8
0
  6
CONTINUOUS
 62
     7
100
AcDbLine
 10
970.038957
 20
324.376707
 30
0.0
 11
969.583408
 21
324.356817
 31
0.0
  0
ARC
  5
1A5
100
AcDbEntity
  8
0
  6
CONTINUOUS
 62
     7
100
AcDbCircle
 10
967.007125
 20
318.662498
 30
0.0
 40
6.25
100
AcDbArc
 50
119.343448
 51
65.656552
  0
LINE
  5
1A6
100
AcDbEntity
  8
0
  6
CONTINUOUS
 62
     7
100
AcDbLine
 10
963.944352
 20
324.11061
 30
0.0
 11
952.145733
 21
323.595472
 31
0.0
  0
CIRCLE
  5
1A7
100
AcDbEntity
  8
0
  6
CONTINUOUS
 62
     7
100
AcDbCircle
 10
703.007125
 20
318.662498
 30
0.0
 40
5.4
  0
LINE
  5
1A8
100
AcDbEntity
  8
0
  6
CONTINUOUS
 62
     7
100
AcDbLine
 10
699.975293
 20
324.376707
 30
0.0
 11
700.430841
 21
324.356817
 31
0.0
  0
ARC
  5
1A9
100
AcDbEntity
  8
0
  6
CONTINUOUS
 62
     7
100
AcDbCircle
 10
700.407125
 20
334.267284
 30
0.0
 40
9.9
100
AcDbArc
 50
219.854279
 51
267.5
  0
LINE
  5
1AA
100
AcDbEntity
  8
0
  6
CONTINUOUS
 62
     7
100
AcDbLine
 10
692.807125
 20
327.922995
 30
0.0
 11
692.807125
 21
312.162498
 31
0.0
  0
ARC
  5
1AB
100
AcDbEntity
  8
0
  6
CONTINUOUS
 62
     7
100
AcDbCircle
 10
696.507125
 20
312.162498
 30
0.0
 40
3.7
100
AcDbArc
 50
180.0
 51
270.0
  0
LINE
  5
1AC
100
AcDbEntity
  8
0
  6
CONTINUOUS
 62
     7
100
AcDbLine
 10
696.507125
 20
308.462498
 30
0.0
 11
724.962836
 21
308.462498
 31
0.0
  0
ARC
  5
1AD
100
AcDbEntity
  8
0
  6
CONTINUOUS
 62
     7
100
AcDbCircle
 10
731.307125
 20
316.062498
 30
0.0
 40
9.9
100
AcDbArc
 50
180.0
 51
230.145721
  0
LINE
  5
1AE
100
AcDbEntity
  8
0
  6
CONTINUOUS
 62
     7
100
AcDbLine
 10
721.407125
 20
319.898993
 30
0.0
 11
721.407125
 21
316.062498
 31
0.0
  0
ARC
  5
1AF
100
AcDbEntity
  8
0
  6
CONTINUOUS
 62
     7
100
AcDbCircle
 10
717.707125
 20
319.898993
 30
0.0
 40
3.7
100
AcDbArc
 50
0.0
 51
87.5
  0
LINE
  5
1B0
100
AcDbEntity
  8
0
  6
CONTINUOUS
 62
     7
100
AcDbLine
 10
706.069897
 20
324.11061
 30
0.0
 11
717.868517
 21
323.595472
 31
0.0
  0
ARC
  5
1B1
100
AcDbEntity
  8
0
  6
CONTINUOUS
 62
     7
100
AcDbCircle
 10
703.007125
 20
318.662498
 30
0.0
 40
6.25
100
AcDbArc
 50
114.343448
 51
60.656552
  0
CIRCLE
  5
1B2
100
AcDbEntity
  8
0
  6
CONTINUOUS
 62
     7
100
AcDbCircle
 10
703.007125
 20
637.662498
 30
0.0
 40
5.4
  0
ARC
  5
1B3
100
AcDbEntity
  8
0
  6
CONTINUOUS
 62
     7
100
AcDbCircle
 10
717.707125
 20
636.426004
 30
0.0
 40
3.7
100
AcDbArc
 50
272.5
 51
0.0
  0
LINE
  5
1B4
100
AcDbEntity
  8
0
  6
CONTINUOUS
 62
     7
100
AcDbLine
 10
721.407125
 20
636.426004
 30
0.0
 11
721.407125
 21
640.262498
 31
0.0
  0
ARC
  5
1B5
100
AcDbEntity
  8
0
  6
CONTINUOUS
 62
     7
100
AcDbCircle
 10
731.307125
 20
640.262498
 30
0.0
 40
9.9
100
AcDbArc
 50
129.854279
 51
180.0
  0
LINE
  5
1B6
100
AcDbEntity
  8
0
  6
CONTINUOUS
 62
     7
100
AcDbLine
 10
724.962836
 20
647.862498
 30
0.0
 11
696.507125
 21
647.862498
 31
0.0
  0
ARC
  5
1B7
100
AcDbEntity
  8
0
  6
CONTINUOUS
 62
     7
100
AcDbCircle
 10
696.507125
 20
644.162498
 30
0.0
 40
3.7
100
AcDbArc
 50
90.0
 51
180.0
  0
LINE
  5
1B8
100
AcDbEntity
  8
0
  6
CONTINUOUS
 62
     7
100
AcDbLine
 10
692.807125
 20
644.162498
 30
0.0
 11
692.807125
 21
628.402002
 31
0.0
  0
ARC
  5
1B9
100
AcDbEntity
  8
0
  6
CONTINUOUS
 62
     7
100
AcDbCircle
 10
700.407125
 20
622.057713
 30
0.0
 40
9.9
100
AcDbArc
 50
92.5
 51
140.145721
  0
LINE
  5
1BA
100
AcDbEntity
  8
0
  6
CONTINUOUS
 62
     7
100
AcDbLine
 10
699.975293
 20
631.94829
 30
0.0
 11
700.430841
 21
631.96818
 31
0.0
  0
ARC
  5
1BB
100
AcDbEntity
  8
0
  6
CONTINUOUS
 62
     7
100
AcDbCircle
 10
703.007125
 20
637.662498
 30
0.0
 40
6.25
100
AcDbArc
 50
299.343448
 51
245.656552
  0
LINE
  5
1BC
100
AcDbEntity
  8
0
  6
CONTINUOUS
 62
     7
100
AcDbLine
 10
706.069897
 20
632.214386
 30
0.0
 11
717.868517
 21
632.729525
 31
0.0
  0
CIRCLE
  5
1BD
100
AcDbEntity
  8
0
  6
CONTINUOUS
 62
     7
100
AcDbCircle
 10
967.007125
 20
637.662498
 30
0.0
 40
5.4
  0
LINE
  5
1BE
100
AcDbEntity
  8
0
  6
CONTINUOUS
 62
     7
100
AcDbLine
 10
727.007125
 20
640.262498
 30
0.0
 11
727.007125
 21
636.426004
 31
0.0
  0
ARC
  5
1BF
100
AcDbEntity
  8
0
  6
CONTINUOUS
 62
     7
100
AcDbCircle
 10
717.707125
 20
636.426004
 30
0.0
 40
9.3
100
AcDbArc
 50
272.5
 51
0.0
  0
LINE
  5
1C0
100
AcDbEntity
  8
0
  6
CONTINUOUS
 62
     7
100
AcDbLine
 10
718.112785
 20
627.134855
 30
0.0
 11
700.219561
 21
626.35362
 31
0.0
  0
ARC
  5
1C1
100
AcDbEntity
  8
0
  6
CONTINUOUS
 62
     7
100
AcDbCircle
 10
700.407125
 20
622.057713
 30
0.0
 40
4.3
100
AcDbArc
 50
92.5
 51
180.0
  0
LINE
  5
1C2
100
AcDbEntity
  8
0
  6
CONTINUOUS
 62
     7
100
AcDbLine
 10
696.107125
 20
334.267284
 30
0.0
 11
696.107125
 21
622.057713
 31
0.0
  0
ARC
  5
1C3
100
AcDbEntity
  8
0
  6
CONTINUOUS
 62
     7
100
AcDbCircle
 10
700.407125
 20
334.267284
 30
0.0
 40
4.3
100
AcDbArc
 50
180.0
 51
267.5
  0
LINE
  5
1C4
100
AcDbEntity
  8
0
  6
CONTINUOUS
 62
     7
100
AcDbLine
 10
718.112785
 20
329.190142
 30
0.0
 11
700.219561
 21
329.971377
 31
0.0
  0
ARC
  5
1C5
100
AcDbEntity
  8
0
  6
CONTINUOUS
 62
     7
100
AcDbCircle
 10
717.707125
 20
319.898993
 30
0.0
 40
9.3
100
AcDbArc
 50
0.0
 51
87.5
  0
LINE
  5
1C6
100
AcDbEntity
  8
0
  6
CONTINUOUS
 62
     7
100
AcDbLine
 10
727.007125
 20
316.062498
 30
0.0
 11
727.007125
 21
319.898993
 31
0.0
  0
ARC
  5
1C7
100
AcDbEntity
  8
0
  6
CONTINUOUS
 62
     7
100
AcDbCircle
 10
731.307125
 20
316.062498
 30
0.0
 40
4.3
100
AcDbArc
 50
180.0
 51
270.0
  0
LINE
  5
1C8
100
AcDbEntity
  8
0
  6
CONTINUOUS
 62
     7
100
AcDbLine
 10
731.307125
 20
311.762498
 30
0.0
 11
938.707125
 21
311.762498
 31
0.0
  0
ARC
  5
1C9
100
AcDbEntity
  8
0
  6
CONTINUOUS
 62
     7
100
AcDbCircle
 10
938.707125
 20
316.062498
 30
0.0
 40
4.3
100
AcDbArc
 50
270.0
 51
0.0
  0
LINE
  5
1CA
100
AcDbEntity
  8
0
  6
CONTINUOUS
 62
     7
100
AcDbLine
 10
943.007125
 20
316.062498
 30
0.0
 11
943.007125
 21
319.898993
 31
0.0
  0
ARC
  5
1CB
100
AcDbEntity
  8
0
  6
CONTINUOUS
 62
     7
100
AcDbCircle
 10
952.307125
 20
319.898993
 30
0.0
 40
9.3
100
AcDbArc
 50
92.5
 51
180.0
  0
LINE
  5
1CC
100
AcDbEntity
  8
0
  6
CONTINUOUS
 62
     7
100
AcDbLine
 10
951.901464
 20
329.190142
 30
0.0
 11
969.794688
 21
329.971377
 31
0.0
  0
ARC
  5
1CD
100
AcDbEntity
  8
0
  6
CONTINUOUS
 62
     7
100
AcDbCircle
 10
969.607125
 20
334.267284
 30
0.0
 40
4.3
100
AcDbArc
 50
272.5
 51
0.0
  0
LINE
  5
1CE
100
AcDbEntity
  8
0
  6
CONTINUOUS
 62
     7
100
AcDbLine
 10
973.907125
 20
622.057713
 30
0.0
 11
973.907125
 21
334.267284
 31
0.0
  0
ARC
  5
1CF
100
AcDbEntity
  8
0
  6
CONTINUOUS
 62
     7
100
AcDbCircle
 10
969.607125
 20
622.057713
 30
0.0
 40
4.3
100
AcDbArc
 50
0.0
 51
87.5
  0
LINE
  5
1D0
100
AcDbEntity
  8
0
  6
CONTINUOUS
 62
     7
100
AcDbLine
 10
951.901464
 20
627.134855
 30
0.0
 11
969.794688
 21
626.35362
 31
0.0
  0
ARC
  5
1D1
100
AcDbEntity
  8
0
  6
CONTINUOUS
 62
     7
100
AcDbCircle
 10
952.307125
 20
636.426004
 30
0.0
 40
9.3
100
AcDbArc
 50
180.0
 51
267.5
  0
LINE
  5
1D2
100
AcDbEntity
  8
0
  6
CONTINUOUS
 62
     7
100
AcDbLine
 10
943.007125
 20
640.262498
 30
0.0
 11
943.007125
 21
636.426004
 31
0.0
  0
ARC
  5
1D3
100
AcDbEntity
  8
0
  6
CONTINUOUS
 62
     7
100
AcDbCircle
 10
938.707125
 20
640.262498
 30
0.0
 40
4.3
100
AcDbArc
 50
0.0
 51
90.0
  0
LINE
  5
1D4
100
AcDbEntity
  8
0
  6
CONTINUOUS
 62
     7
100
AcDbLine
 10
731.307125
 20
644.562498
 30
0.0
 11
938.707125
 21
644.562498
 31
0.0
  0
ARC
  5
1D5
100
AcDbEntity
  8
0
  6
CONTINUOUS
 62
     7
100
AcDbCircle
 10
731.307125
 20
640.262498
 30
0.0
 40
4.3
100
AcDbArc
 50
90.0
 51
180.0
  0
ARC
  5
1D6
100
AcDbEntity
  8
0
  6
CONTINUOUS
 62
     7
100
AcDbCircle
 10
973.507125
 20
644.162498
 30
0.0
 40
3.7
100
AcDbArc
 50
0.0
 51
90.0
  0
LINE
  5
1D7
100
AcDbEntity
  8
0
  6
CONTINUOUS
 62
     7
100
AcDbLine
 10
973.507125
 20
647.862498
 30
0.0
 11
945.051414
 21
647.862498
 31
0.0
  0
ARC
  5
1D8
100
AcDbEntity
  8
0
  6
CONTINUOUS
 62
     7
100
AcDbCircle
 10
938.707125
 20
640.262498
 30
0.0
 40
9.9
100
AcDbArc
 50
0.0
 51
50.145721
  0
LINE
  5
1D9
100
AcDbEntity
  8
0
  6
CONTINUOUS
 62
     7
100
AcDbLine
 10
948.607125
 20
636.426004
 30
0.0
 11
948.607125
 21
640.262498
 31
0.0
  0
ARC
  5
1DA
100
AcDbEntity
  8
0
  6
CONTINUOUS
 62
     7
100
AcDbCircle
 10
952.307125
 20
636.426004
 30
0.0
 40
3.7
100
AcDbArc
 50
180.0
 51
267.5
  0
LINE
  5
1DB
100
AcDbEntity
  8
0
  6
CONTINUOUS
 62
     7
100
AcDbLine
 10
963.944352
 20
632.214386
 30
0.0
 11
952.145733
 21
632.729525
 31
0.0
  0
ARC
  5
1DC
100
AcDbEntity
  8
0
  6
CONTINUOUS
 62
     7
100
AcDbCircle
 10
967.007125
 20
637.662498
 30
0.0
 40
6.25
100
AcDbArc
 50
294.343448
 51
240.656552
  0
LINE
  5
1DD
100
AcDbEntity
  8
0
  6
CONTINUOUS
 62
     7
100
AcDbLine
 10
970.038957
 20
631.94829
 30
0.0
 11
969.583408
 21
631.96818
 31
0.0
  0
ARC
  5
1DE
100
AcDbEntity
  8
0
  6
CONTINUOUS
 62
     7
100
AcDbCircle
 10
969.607125
 20
622.057713
 30
0.0
 40
9.9
100
AcDbArc
 50
39.854279
 51
87.5
  0
LINE
  5
1DF
100
AcDbEntity
  8
0
  6
CONTINUOUS
 62
     7
100
AcDbLine
 10
977.207125
 20
628.402002
 30
0.0
 11
977.207125
 21
644.162498
 31
0.0
  0
LINE
  5
1E0
100
AcDbEntity
  8
0
  6
CONTINUOUS
 62
     7
100
AcDbLine
 10
973.507125
 20
650.162498
 30
0.0
 11
696.507125
 21
650.162498
 31
0.0
  0
ARC
  5
1E1
100
AcDbEntity
  8
0
  6
CONTINUOUS
 62
     7
100
AcDbCircle
 10
973.507125
 20
644.162498
 30
0.0
 40
6.0
100
AcDbArc
 50
0.0
 51
90.0
  0
LINE
  5
1E2
100
AcDbEntity
  8
0
  6
CONTINUOUS
 62
     7
100
AcDbLine
 10
979.507125
 20
312.162498
 30
0.0
 11
979.507125
 21
644.162498
 31
0.0
  0
ARC
  5
1E3
100
AcDbEntity
  8
0
  6
CONTINUOUS
 62
     7
100
AcDbCircle
 10
973.507125
 20
312.162498
 30
0.0
 40
6.0
100
AcDbArc
 50
270.0
 51
0.0
  0
LINE
  5
1E4
100
AcDbEntity
  8
0
  6
CONTINUOUS
 62
     7
100
AcDbLine
 10
696.507125
 20
306.162498
 30
0.0
 11
973.507125
 21
306.162498
 31
0.0
  0
ARC
  5
1E5
100
AcDbEntity
  8
0
  6
CONTINUOUS
 62
     7
100
AcDbCircle
 10
696.507125
 20
312.162498
 30
0.0
 40
6.0
100
AcDbArc
 50
180.0
 51
270.0
  0
LINE
  5
1E6
100
AcDbEntity
  8
0
  6
CONTINUOUS
 62
     7
100
AcDbLine
 10
690.507125
 20
644.162498
 30
0.0
 11
690.507125
 21
312.162498
 31
0.0
  0
ARC
  5
1E7
100
AcDbEntity
  8
0
  6
CONTINUOUS
 62
     7
100
AcDbCircle
 10
696.507125
 20
644.162498
 30
0.0
 40
6.0
100
AcDbArc
 50
90.0
 51
180.0
  0
LINE
  5
1E8
100
AcDbEntity
  8
0
  6
CONTINUOUS
 62
     7
100
AcDbLine
 10
699.964253
 20
632.201148
 30
0.0
 11
699.975293
 21
631.94829
 31
0.0
  0
ARC
  5
1E9
100
AcDbEntity
  8
0
  6
CONTINUOUS
 62
     7
100
AcDbCircle
 10
705.573436
 20
616.986347
 30
0.0
 40
17.180204
100
AcDbArc
 50
128.11512
 51
137.994642
  0
ARC
  5
1EA
100
AcDbEntity
  8
0
  6
CONTINUOUS
 62
     7
100
AcDbCircle
 10
700.407125
 20
622.057713
 30
0.0
 40
10.153098
100
AcDbArc
 50
92.5
 51
122.909642
  0
ARC
  5
1EB
100
AcDbEntity
  8
0
  6
CONTINUOUS
 62
     7
100
AcDbCircle
 10
705.573436
 20
339.338649
 30
0.0
 40
17.180204
100
AcDbArc
 50
222.005358
 51
231.88488
  0
LINE
  5
1EC
100
AcDbEntity
  8
0
  6
CONTINUOUS
 62
     7
100
AcDbLine
 10
699.964253
 20
324.123849
 30
0.0
 11
699.975293
 21
324.376707
 31
0.0
  0
ARC
  5
1ED
100
AcDbEntity
  8
0
  6
CONTINUOUS
 62
     7
100
AcDbCircle
 10
700.407125
 20
334.267284
 30
0.0
 40
10.153098
100
AcDbArc
 50
237.090358
 51
267.5
  0
LINE
  5
1EE
100
AcDbEntity
  8
0
  6
CONTINUOUS
 62
     7
100
AcDbLine
 10
700.285116
 20
624.85217
 30
0.0
 11
700.219561
 21
626.35362
 31
0.0
  0
ARC
  5
1EF
100
AcDbEntity
  8
0
  6
CONTINUOUS
 62
     7
100
AcDbCircle
 10
700.407125
 20
622.057713
 30
0.0
 40
2.797119
100
AcDbArc
 50
92.5
 51
180.0
  0
LINE
  5
1F0
100
AcDbEntity
  8
0
  6
CONTINUOUS
 62
     7
100
AcDbLine
 10
697.610006
 20
622.057713
 30
0.0
 11
696.107125
 21
622.057713
 31
0.0
  0
LINE
  5
1F1
100
AcDbEntity
  8
0
  6
CONTINUOUS
 62
     7
100
AcDbLine
 10
700.285116
 20
331.472827
 30
0.0
 11
700.219561
 21
329.971377
 31
0.0
  0
LINE
  5
1F2
100
AcDbEntity
  8
0
  6
CONTINUOUS
 62
     7
100
AcDbLine
 10
697.610006
 20
334.267284
 30
0.0
 11
696.107125
 21
334.267284
 31
0.0
  0
ARC
  5
1F3
100
AcDbEntity
  8
0
  6
CONTINUOUS
 62
     7
100
AcDbCircle
 10
700.407125
 20
334.267284
 30
0.0
 40
2.797119
100
AcDbArc
 50
180.0
 51
267.5
  0
LINE
  5
1F4
100
AcDbEntity
  8
0
  6
CONTINUOUS
 62
     7
100
AcDbLine
 10
697.610006
 20
622.057713
 30
0.0
 11
697.610006
 21
334.267284
 31
0.0
  0
CIRCLE
  5
1F5
100
AcDbEntity
  8
0
  6
CONTINUOUS
 62
     7
100
AcDbCircle
 10
703.007125
 20
318.662498
 30
0.0
 40
4.467385
  0
CIRCLE
  5
1F6
100
AcDbEntity
  8
0
  6
CONTINUOUS
 62
     7
100
AcDbCircle
 10
703.007125
 20
637.662498
 30
0.0
 40
4.467385
  0
LINE
  5
1F7
100
AcDbEntity
  8
0
  6
CONTINUOUS
 62
     7
100
AcDbLine
 10
718.17834
 20
625.633405
 30
0.0
 11
718.112785
 21
627.134855
 31
0.0
  0
LINE
  5
1F8
100
AcDbEntity
  8
0
  6
CONTINUOUS
 62
     7
100
AcDbLine
 10
700.285116
 20
624.85217
 30
0.0
 11
718.17834
 21
625.633405
 31
0.0
  0
LINE
  5
1F9
100
AcDbEntity
  8
0
  6
CONTINUOUS
 62
     7
100
AcDbLine
 10
718.17834
 20
330.691592
 30
0.0
 11
718.112785
 21
329.190142
 31
0.0
  0
LINE
  5
1FA
100
AcDbEntity
  8
0
  6
CONTINUOUS
 62
     7
100
AcDbLine
 10
700.285116
 20
331.472827
 30
0.0
 11
718.17834
 21
330.691592
 31
0.0
  0
LINE
  5
1FB
100
AcDbEntity
  8
0
  6
CONTINUOUS
 62
     7
100
AcDbLine
 10
710.543432
 20
323.634
 30
0.0
 11
710.507126
 21
323.663534
 31
0.0
  0
LINE
  5
1FC
100
AcDbEntity
  8
0
  6
CONTINUOUS
 62
     7
100
AcDbLine
 10
706.51091
 20
323.838012
 30
0.0
 11
710.507126
 21
323.663534
 31
0.0
  0
LINE
  5
1FD
100
AcDbEntity
  8
0
  6
CONTINUOUS
 62
     7
100
AcDbLine
 10
717.803114
 20
322.097509
 30
0.0
 11
717.868517
 21
323.595472
 31
0.0
  0
LINE
  5
1FE
100
AcDbEntity
  8
0
  6
CONTINUOUS
 62
     7
100
AcDbLine
 10
712.127418
 20
322.345318
 30
0.0
 11
717.803114
 21
322.097509
 31
0.0
  0
LINE
  5
1FF
100
AcDbEntity
  8
0
  6
CONTINUOUS
 62
     7
100
AcDbLine
 10
712.127418
 20
322.345318
 30
0.0
 11
710.647845
 21
323.549048
 31
0.0
  0
LINE
  5
200
100
AcDbEntity
  8
0
  6
CONTINUOUS
 62
     7
100
AcDbLine
 10
710.647845
 20
323.62944
 30
0.0
 11
710.543432
 21
323.634
 31
0.0
  0
LINE
  5
201
100
AcDbEntity
  8
0
  6
CONTINUOUS
 62
     7
100
AcDbLine
 10
710.647845
 20
632.775949
 30
0.0
 11
712.127418
 21
633.979679
 31
0.0
  0
LINE
  5
202
100
AcDbEntity
  8
0
  6
CONTINUOUS
 62
     7
100
AcDbLine
 10
712.127418
 20
633.979679
 30
0.0
 11
717.803114
 21
634.227488
 31
0.0
  0
LINE
  5
203
100
AcDbEntity
  8
0
  6
CONTINUOUS
 62
     7
100
AcDbLine
 10
717.803114
 20
634.227488
 30
0.0
 11
717.868517
 21
632.729525
 31
0.0
  0
LINE
  5
204
100
AcDbEntity
  8
0
  6
CONTINUOUS
 62
     7
100
AcDbLine
 10
706.51091
 20
632.486985
 30
0.0
 11
710.507126
 21
632.661463
 31
0.0
  0
LINE
  5
205
100
AcDbEntity
  8
0
  6
CONTINUOUS
 62
     7
100
AcDbLine
 10
710.507126
 20
632.661463
 30
0.0
 11
710.543432
 21
632.690997
 31
0.0
  0
LINE
  5
206
100
AcDbEntity
  8
0
  6
CONTINUOUS
 62
     7
100
AcDbLine
 10
710.647845
 20
632.695557
 30
0.0
 11
710.543432
 21
632.690997
 31
0.0
  0
LINE
  5
207
100
AcDbEntity
  8
0
  6
CONTINUOUS
 62
     7
100
AcDbLine
 10
719.907735
 20
319.898993
 30
0.0
 11
721.407125
 21
319.898993
 31
0.0
  0
ARC
  5
208
100
AcDbEntity
  8
0
  6
CONTINUOUS
 62
     7
100
AcDbCircle
 10
717.707125
 20
319.898993
 30
0.0
 40
2.20061
100
AcDbArc
 50
0.0
 51
87.5
  0
LINE
  5
209
100
AcDbEntity
  8
0
  6
CONTINUOUS
 62
     7
100
AcDbLine
 10
719.907735
 20
636.426004
 30
0.0
 11
721.407125
 21
636.426004
 31
0.0
  0
ARC
  5
20A
100
AcDbEntity
  8
0
  6
CONTINUOUS
 62
     7
100
AcDbCircle
 10
717.707125
 20
636.426004
 30
0.0
 40
2.20061
100
AcDbArc
 50
272.5
 51
0.0
  0
LINE
  5
20B
100
AcDbEntity
  8
0
  6
CONTINUOUS
 62
     7
100
AcDbLine
 10
728.510006
 20
636.426004
 30
0.0
 11
727.007125
 21
636.426004
 31
0.0
  0
ARC
  5
20C
100
AcDbEntity
  8
0
  6
CONTINUOUS
 62
     7
100
AcDbCircle
 10
717.707125
 20
636.426004
 30
0.0
 40
10.802881
100
AcDbArc
 50
272.5
 51
0.0
  0
LINE
  5
20D
100
AcDbEntity
  8
0
  6
CONTINUOUS
 62
     7
100
AcDbLine
 10
728.510006
 20
319.898993
 30
0.0
 11
727.007125
 21
319.898993
 31
0.0
  0
ARC
  5
20E
100
AcDbEntity
  8
0
  6
CONTINUOUS
 62
     7
100
AcDbCircle
 10
717.707125
 20
319.898993
 30
0.0
 40
10.802881
100
AcDbArc
 50
0.0
 51
87.5
  0
LINE
  5
20F
100
AcDbEntity
  8
0
  6
CONTINUOUS
 62
     7
100
AcDbLine
 10
719.907735
 20
640.262498
 30
0.0
 11
721.407125
 21
640.262498
 31
0.0
  0
LINE
  5
210
100
AcDbEntity
  8
0
  6
CONTINUOUS
 62
     7
100
AcDbLine
 10
719.907735
 20
636.426004
 30
0.0
 11
719.907735
 21
640.262498
 31
0.0
  0
ELLIPSE
  5
211
100
AcDbEntity
  8
0
  6
CONTINUOUS
 62
     7
100
AcDbEllipse
 10
731.307125
 20
316.23854
 30
0.0
 11
-0.0000000002312106
 21
10.08543127560038
 31
0.0
210
0.0
220
0.0
230
1.0
 40
0.999848
 41
2.029783616571959
 42
2.451233399628895
  0
LWPOLYLINE
  5
212
100
AcDbEntity
  8
0
  6
CONTINUOUS
 62
     7
100
AcDbPolyline
 90
        3
 70
   128
 43
0.0
 10
720.282854
 20
313.162239
 10
720.797614
 20
312.774644
 10
722.266899
 20
311.770291
  0
ARC
  5
213
100
AcDbEntity
  8
0
  6
CONTINUOUS
 62
     7
100
AcDbCircle
 10
731.307125
 20
316.062498
 30
0.0
 40
11.39939
100
AcDbArc
 50
180.0
 51
194.739359
  0
LINE
  5
214
100
AcDbEntity
  8
0
  6
CONTINUOUS
 62
     7
100
AcDbLine
 10
719.907735
 20
316.062498
 30
0.0
 11
721.407125
 21
316.062498
 31
0.0
  0
LWPOLYLINE
  5
215
100
AcDbEntity
  8
0
  6
CONTINUOUS
 62
     7
100
AcDbPolyline
 90
        3
 70
   128
 43
0.0
 10
720.282854
 20
643.162758
 10
720.797614
 20
643.550352
 10
722.266899
 20
644.554706
  0
ELLIPSE
  5
216
100
AcDbEntity
  8
0
  6
CONTINUOUS
 62
     7
100
AcDbEllipse
 10
731.307125
 20
640.086457
 30
0.0
 11
0.0000000002312106
 21
10.08543127560031
 31
0.0
210
0.0
220
0.0
230
1.0
 40
0.999848
 41
0.6903592539608941
 42
1.111809037017843
  0
ARC
  5
217
100
AcDbEntity
  8
0
  6
CONTINUOUS
 62
     7
100
AcDbCircle
 10
731.307125
 20
640.262498
 30
0.0
 40
11.39939
100
AcDbArc
 50
165.260641
 51
180.0
  0
LINE
  5
218
100
AcDbEntity
  8
0
  6
CONTINUOUS
 62
     7
100
AcDbLine
 10
719.907735
 20
319.898993
 30
0.0
 11
719.907735
 21
316.062498
 31
0.0
  0
LINE
  5
219
100
AcDbEntity
  8
0
  6
CONTINUOUS
 62
     7
100
AcDbLine
 10
728.510006
 20
316.062498
 30
0.0
 11
727.007125
 21
316.062498
 31
0.0
  0
LINE
  5
21A
100
AcDbEntity
  8
0
  6
CONTINUOUS
 62
     7
100
AcDbLine
 10
728.510006
 20
319.898993
 30
0.0
 11
728.510006
 21
316.062498
 31
0.0
  0
LINE
  5
21B
100
AcDbEntity
  8
0
  6
CONTINUOUS
 62
     7
100
AcDbLine
 10
728.510006
 20
640.262498
 30
0.0
 11
727.007125
 21
640.262498
 31
0.0
  0
LINE
  5
21C
100
AcDbEntity
  8
0
  6
CONTINUOUS
 62
     7
100
AcDbLine
 10
728.510006
 20
636.426004
 30
0.0
 11
728.510006
 21
640.262498
 31
0.0
  0
LINE
  5
21D
100
AcDbEntity
  8
0
  6
CONTINUOUS
 62
     7
100
AcDbLine
 10
731.307125
 20
643.059617
 30
0.0
 11
731.307125
 21
644.562498
 31
0.0
  0
ARC
  5
21E
100
AcDbEntity
  8
0
  6
CONTINUOUS
 62
     7
100
AcDbCircle
 10
731.307125
 20
640.262498
 30
0.0
 40
2.797119
100
AcDbArc
 50
90.0
 51
180.0
  0
LINE
  5
21F
100
AcDbEntity
  8
0
  6
CONTINUOUS
 62
     7
100
AcDbLine
 10
731.307125
 20
313.26538
 30
0.0
 11
731.307125
 21
311.762498
 31
0.0
  0
ARC
  5
220
100
AcDbEntity
  8
0
  6
CONTINUOUS
 62
     7
100
AcDbCircle
 10
731.307125
 20
316.062498
 30
0.0
 40
2.797119
100
AcDbArc
 50
180.0
 51
270.0
  0
LINE
  5
221
100
AcDbEntity
  8
0
  6
CONTINUOUS
 62
     7
100
AcDbLine
 10
938.707125
 20
313.26538
 30
0.0
 11
731.307125
 21
313.26538
 31
0.0
  0
LINE
  5
222
100
AcDbEntity
  8
0
  6
CONTINUOUS
 62
     7
100
AcDbLine
 10
938.707125
 20
313.26538
 30
0.0
 11
938.707125
 21
311.762498
 31
0.0
  0
LINE
  5
223
100
AcDbEntity
  8
0
  6
CONTINUOUS
 62
     7
100
AcDbLine
 10
938.707125
 20
643.059617
 30
0.0
 11
938.707125
 21
644.562498
 31
0.0
  0
LINE
  5
224
100
AcDbEntity
  8
0
  6
CONTINUOUS
 62
     7
100
AcDbLine
 10
938.707125
 20
643.059617
 30
0.0
 11
731.307125
 21
643.059617
 31
0.0
  0
ARC
  5
225
100
AcDbEntity
  8
0
  6
CONTINUOUS
 62
     7
100
AcDbCircle
 10
938.707125
 20
316.062498
 30
0.0
 40
2.797119
100
AcDbArc
 50
270.0
 51
0.0
  0
LINE
  5
226
100
AcDbEntity
  8
0
  6
CONTINUOUS
 62
     7
100
AcDbLine
 10
941.504244
 20
316.062498
 30
0.0
 11
943.007125
 21
316.062498
 31
0.0
  0
LINE
  5
227
100
AcDbEntity
  8
0
  6
CONTINUOUS
 62
     7
100
AcDbLine
 10
941.504244
 20
640.262498
 30
0.0
 11
943.007125
 21
640.262498
 31
0.0
  0
ARC
  5
228
100
AcDbEntity
  8
0
  6
CONTINUOUS
 62
     7
100
AcDbCircle
 10
938.707125
 20
640.262498
 30
0.0
 40
2.797119
100
AcDbArc
 50
0.0
 51
90.0
  0
LINE
  5
229
100
AcDbEntity
  8
0
  6
CONTINUOUS
 62
     7
100
AcDbLine
 10
941.504244
 20
319.898993
 30
0.0
 11
943.007125
 21
319.898993
 31
0.0
  0
ARC
  5
22A
100
AcDbEntity
  8
0
  6
CONTINUOUS
 62
     7
100
AcDbCircle
 10
952.307125
 20
319.898993
 30
0.0
 40
10.802881
100
AcDbArc
 50
92.5
 51
180.0
  0
LINE
  5
22B
100
AcDbEntity
  8
0
  6
CONTINUOUS
 62
     7
100
AcDbLine
 10
951.83591
 20
330.691592
 30
0.0
 11
951.901464
 21
329.190142
 31
0.0
  0
LINE
  5
22C
100
AcDbEntity
  8
0
  6
CONTINUOUS
 62
     7
100
AcDbLine
 10
941.504244
 20
636.426004
 30
0.0
 11
943.007125
 21
636.426004
 31
0.0
  0
LINE
  5
22D
100
AcDbEntity
  8
0
  6
CONTINUOUS
 62
     7
100
AcDbLine
 10
951.83591
 20
625.633405
 30
0.0
 11
951.901464
 21
627.134855
 31
0.0
  0
ARC
  5
22E
100
AcDbEntity
  8
0
  6
CONTINUOUS
 62
     7
100
AcDbCircle
 10
952.307125
 20
636.426004
 30
0.0
 40
10.802881
100
AcDbArc
 50
180.0
 51
267.5
  0
LINE
  5
22F
100
AcDbEntity
  8
0
  6
CONTINUOUS
 62
     7
100
AcDbLine
 10
941.504244
 20
319.898993
 30
0.0
 11
941.504244
 21
316.062498
 31
0.0
  0
LINE
  5
230
100
AcDbEntity
  8
0
  6
CONTINUOUS
 62
     7
100
AcDbLine
 10
941.504244
 20
636.426004
 30
0.0
 11
941.504244
 21
640.262498
 31
0.0
  0
ELLIPSE
  5
231
100
AcDbEntity
  8
0
  6
CONTINUOUS
 62
     7
100
AcDbEllipse
 10
938.707125
 20
640.086457
 30
0.0
 11
0.0000000002310685
 21
10.08543127560031
 31
0.0
210
0.0
220
0.0
230
1.0
 40
0.999848
 41
5.171376270207594
 42
5.592826053264539
  0
LWPOLYLINE
  5
232
100
AcDbEntity
  8
0
  6
CONTINUOUS
 62
     7
100
AcDbPolyline
 90
        3
 70
   128
 43
0.0
 10
949.731396
 20
643.162758
 10
949.216635
 20
643.550352
 10
947.747351
 20
644.554706
  0
ARC
  5
233
100
AcDbEntity
  8
0
  6
CONTINUOUS
 62
     7
100
AcDbCircle
 10
938.707125
 20
640.262498
 30
0.0
 40
11.39939
100
AcDbArc
 50
0.0
 51
14.739359
  0
LINE
  5
234
100
AcDbEntity
  8
0
  6
CONTINUOUS
 62
     7
100
AcDbLine
 10
950.106515
 20
640.262498
 30
0.0
 11
948.607125
 21
640.262498
 31
0.0
  0
LWPOLYLINE
  5
235
100
AcDbEntity
  8
0
  6
CONTINUOUS
 62
     7
100
AcDbPolyline
 90
        3
 70
   128
 43
0.0
 10
949.731396
 20
313.162239
 10
949.216635
 20
312.774644
 10
947.747351
 20
311.770291
  0
ELLIPSE
  5
236
100
AcDbEntity
  8
0
  6
CONTINUOUS
 62
     7
100
AcDbEllipse
 10
938.707125
 20
316.23854
 30
0.0
 11
-0.0000000002312106
 21
10.08543127560038
 31
0.0
210
0.0
220
0.0
230
1.0
 40
0.999848
 41
3.831951907504856
 42
4.253401690561789
  0
LINE
  5
237
100
AcDbEntity
  8
0
  6
CONTINUOUS
 62
     7
100
AcDbLine
 10
950.106515
 20
316.062498
 30
0.0
 11
948.607125
 21
316.062498
 31
0.0
  0
ARC
  5
238
100
AcDbEntity
  8
0
  6
CONTINUOUS
 62
     7
100
AcDbCircle
 10
938.707125
 20
316.062498
 30
0.0
 40
11.39939
100
AcDbArc
 50
345.260641
 51
0.0
  0
LINE
  5
239
100
AcDbEntity
  8
0
  6
CONTINUOUS
 62
     7
100
AcDbLine
 10
950.106515
 20
636.426004
 30
0.0
 11
950.106515
 21
640.262498
 31
0.0
  0
LINE
  5
23A
100
AcDbEntity
  8
0
  6
CONTINUOUS
 62
     7
100
AcDbLine
 10
950.106515
 20
636.426004
 30
0.0
 11
948.607125
 21
636.426004
 31
0.0
  0
LINE
  5
23B
100
AcDbEntity
  8
0
  6
CONTINUOUS
 62
     7
100
AcDbLine
 10
950.106515
 20
319.898993
 30
0.0
 11
948.607125
 21
319.898993
 31
0.0
  0
LINE
  5
23C
100
AcDbEntity
  8
0
  6
CONTINUOUS
 62
     7
100
AcDbLine
 10
952.211136
 20
322.097509
 30
0.0
 11
952.145733
 21
323.595472
 31
0.0
  0
ARC
  5
23D
100
AcDbEntity
  8
0
  6
CONTINUOUS
 62
     7
100
AcDbCircle
 10
952.307125
 20
319.898993
 30
0.0
 40
2.20061
100
AcDbArc
 50
92.5
 51
180.0
  0
LINE
  5
23E
100
AcDbEntity
  8
0
  6
CONTINUOUS
 62
     7
100
AcDbLine
 10
950.106515
 20
319.898993
 30
0.0
 11
950.106515
 21
316.062498
 31
0.0
  0
ARC
  5
23F
100
AcDbEntity
  8
0
  6
CONTINUOUS
 62
     7
100
AcDbCircle
 10
952.307125
 20
636.426004
 30
0.0
 40
2.20061
100
AcDbArc
 50
180.0
 51
267.5
  0
LINE
  5
240
100
AcDbEntity
  8
0
  6
CONTINUOUS
 62
     7
100
AcDbLine
 10
952.211136
 20
634.227488
 30
0.0
 11
952.145733
 21
632.729525
 31
0.0
  0
LINE
  5
241
100
AcDbEntity
  8
0
  6
CONTINUOUS
 62
     7
100
AcDbLine
 10
969.729133
 20
624.85217
 30
0.0
 11
969.794688
 21
626.35362
 31
0.0
  0
LINE
  5
242
100
AcDbEntity
  8
0
  6
CONTINUOUS
 62
     7
100
AcDbLine
 10
969.729133
 20
624.85217
 30
0.0
 11
951.83591
 21
625.633405
 31
0.0
  0
LINE
  5
243
100
AcDbEntity
  8
0
  6
CONTINUOUS
 62
     7
100
AcDbLine
 10
969.729133
 20
331.472827
 30
0.0
 11
951.83591
 21
330.691592
 31
0.0
  0
LINE
  5
244
100
AcDbEntity
  8
0
  6
CONTINUOUS
 62
     7
100
AcDbLine
 10
969.729133
 20
331.472827
 30
0.0
 11
969.794688
 21
329.971377
 31
0.0
  0
LINE
  5
245
100
AcDbEntity
  8
0
  6
CONTINUOUS
 62
     7
100
AcDbLine
 10
959.366405
 20
323.549048
 30
0.0
 11
957.886831
 21
322.345318
 31
0.0
  0
LINE
  5
246
100
AcDbEntity
  8
0
  6
CONTINUOUS
 62
     7
100
AcDbLine
 10
957.886831
 20
322.345318
 30
0.0
 11
952.211136
 21
322.097509
 31
0.0
  0
LINE
  5
247
100
AcDbEntity
  8
0
  6
CONTINUOUS
 62
     7
100
AcDbLine
 10
963.50334
 20
323.838012
 30
0.0
 11
959.507124
 21
323.663534
 31
0.0
  0
LINE
  5
248
100
AcDbEntity
  8
0
  6
CONTINUOUS
 62
     7
100
AcDbLine
 10
959.507124
 20
323.663534
 30
0.0
 11
959.470817
 21
323.634
 31
0.0
  0
LINE
  5
249
100
AcDbEntity
  8
0
  6
CONTINUOUS
 62
     7
100
AcDbLine
 10
959.366405
 20
323.62944
 30
0.0
 11
959.470817
 21
323.634
 31
0.0
  0
LINE
  5
24A
100
AcDbEntity
  8
0
  6
CONTINUOUS
 62
     7
100
AcDbLine
 10
959.470817
 20
632.690997
 30
0.0
 11
959.507124
 21
632.661463
 31
0.0
  0
LINE
  5
24B
100
AcDbEntity
  8
0
  6
CONTINUOUS
 62
     7
100
AcDbLine
 10
963.50334
 20
632.486985
 30
0.0
 11
959.507124
 21
632.661463
 31
0.0
  0
LINE
  5
24C
100
AcDbEntity
  8
0
  6
CONTINUOUS
 62
     7
100
AcDbLine
 10
957.886831
 20
633.979679
 30
0.0
 11
952.211136
 21
634.227488
 31
0.0
  0
LINE
  5
24D
100
AcDbEntity
  8
0
  6
CONTINUOUS
 62
     7
100
AcDbLine
 10
957.886831
 20
633.979679
 30
0.0
 11
959.366405
 21
632.775949
 31
0.0
  0
LINE
  5
24E
100
AcDbEntity
  8
0
  6
CONTINUOUS
 62
     7
100
AcDbLine
 10
959.366405
 20
632.695557
 30
0.0
 11
959.470817
 21
632.690997
 31
0.0
  0
CIRCLE
  5
24F
100
AcDbEntity
  8
0
  6
CONTINUOUS
 62
     7
100
AcDbCircle
 10
967.007125
 20
637.662498
 30
0.0
 40
4.467385
  0
CIRCLE
  5
250
100
AcDbEntity
  8
0
  6
CONTINUOUS
 62
     7
100
AcDbCircle
 10
967.007125
 20
318.662498
 30
0.0
 40
4.467385
  0
LINE
  5
251
100
AcDbEntity
  8
0
  6
CONTINUOUS
 62
     7
100
AcDbLine
 10
970.049997
 20
632.201148
 30
0.0
 11
970.038957
 21
631.94829
 31
0.0
  0
LINE
  5
252
100
AcDbEntity
  8
0
  6
CONTINUOUS
 62
     7
100
AcDbLine
 10
970.049997
 20
324.123849
 30
0.0
 11
970.038957
 21
324.376707
 31
0.0
  0
LINE
  5
253
100
AcDbEntity
  8
0
  6
CONTINUOUS
 62
     7
100
AcDbLine
 10
972.404244
 20
622.057713
 30
0.0
 11
973.907125
 21
622.057713
 31
0.0
  0
ARC
  5
254
100
AcDbEntity
  8
0
  6
CONTINUOUS
 62
     7
100
AcDbCircle
 10
969.607125
 20
622.057713
 30
0.0
 40
2.797119
100
AcDbArc
 50
0.0
 51
87.5
  0
ARC
  5
255
100
AcDbEntity
  8
0
  6
CONTINUOUS
 62
     7
100
AcDbCircle
 10
969.607125
 20
334.267284
 30
0.0
 40
2.797119
100
AcDbArc
 50
272.5
 51
0.0
  0
LINE
  5
256
100
AcDbEntity
  8
0
  6
CONTINUOUS
 62
     7
100
AcDbLine
 10
972.404244
 20
334.267284
 30
0.0
 11
973.907125
 21
334.267284
 31
0.0
  0
ARC
  5
257
100
AcDbEntity
  8
0
  6
CONTINUOUS
 62
     7
100
AcDbCircle
 10
960.408458
 20
343.654525
 30
0.0
 40
23.070367
100
AcDbArc
 50
309.378338
 51
316.731424
  0
ARC
  5
258
100
AcDbEntity
  8
0
  6
CONTINUOUS
 62
     7
100
AcDbCircle
 10
969.607125
 20
334.267284
 30
0.0
 40
10.153098
100
AcDbArc
 50
272.5
 51
302.909642
  0
ARC
  5
259
100
AcDbEntity
  8
0
  6
CONTINUOUS
 62
     7
100
AcDbCircle
 10
960.408458
 20
612.670471
 30
0.0
 40
23.070367
100
AcDbArc
 50
43.268576
 51
50.621662
  0
ARC
  5
25A
100
AcDbEntity
  8
0
  6
CONTINUOUS
 62
     7
100
AcDbCircle
 10
969.607125
 20
622.057713
 30
0.0
 40
10.153098
100
AcDbArc
 50
57.090358
 51
87.5
  0
LINE
  5
25B
100
AcDbEntity
  8
0
  6
CONTINUOUS
 62
     7
100
AcDbLine
 10
972.404244
 20
334.267284
 30
0.0
 11
972.404244
 21
622.057713
 31
0.0
  0
ELLIPSE
  5
25C
100
AcDbEntity
  8
0
  6
CONTINUOUS
 62
     7
100
AcDbEllipse
 10
715.457125
 20
644.517913
 30
0.0
 11
2.107784923723556
 21
0.0
 31
0.0
210
0.0
220
0.0
230
1.0
 40
0.017458
 41
1.570796326794896
 42
3.15904860500609
  0
LINE
  5
25D
100
AcDbEntity
  8
0
  6
CONTINUOUS
 62
     7
100
AcDbLine
 10
713.349664
 20
644.517274
 30
0.0
 11
710.004428
 21
647.862495
 31
0.0
  0
LINE
  5
25E
100
AcDbEntity
  8
0
  6
CONTINUOUS
 62
     7
100
AcDbLine
 10
715.457128
 20
644.554706
 30
0.0
 11
715.457128
 21
647.862495
 31
0.0
  0
LINE
  5
25F
100
AcDbEntity
  8
0
  6
CONTINUOUS
 62
     7
100
AcDbLine
 10
713.349664
 20
311.807723
 30
0.0
 11
710.004428
 21
308.462502
 31
0.0
  0
ELLIPSE
  5
260
100
AcDbEntity
  8
0
  6
CONTINUOUS
 62
     7
100
AcDbEllipse
 10
715.457125
 20
311.807084
 30
0.0
 11
2.107784923723556
 21
0.0
 31
0.0
210
0.0
220
0.0
230
1.0
 40
0.017458
 41
3.124136702174295
 42
4.712388980384689
  0
LINE
  5
261
100
AcDbEntity
  8
0
  6
CONTINUOUS
 62
     7
100
AcDbLine
 10
715.457128
 20
311.770291
 30
0.0
 11
715.457128
 21
308.462502
 31
0.0
  0
LINE
  5
262
100
AcDbEntity
  8
0
  6
CONTINUOUS
 62
     7
100
AcDbLine
 10
722.266899
 20
311.770291
 30
0.0
 11
715.457128
 21
311.770291
 31
0.0
  0
LINE
  5
263
100
AcDbEntity
  8
0
  6
CONTINUOUS
 62
     7
100
AcDbLine
 10
722.266899
 20
644.554706
 30
0.0
 11
715.457128
 21
644.554706
 31
0.0
  0
LINE
  5
264
100
AcDbEntity
  8
0
  6
CONTINUOUS
 62
     7
100
AcDbLine
 10
954.557122
 20
311.770291
 30
0.0
 11
947.747351
 21
311.770291
 31
0.0
  0
LINE
  5
265
100
AcDbEntity
  8
0
  6
CONTINUOUS
 62
     7
100
AcDbLine
 10
954.557122
 20
311.770291
 30
0.0
 11
954.557122
 21
308.462502
 31
0.0
  0
LINE
  5
266
100
AcDbEntity
  8
0
  6
CONTINUOUS
 62
     7
100
AcDbLine
 10
954.557122
 20
644.554706
 30
0.0
 11
954.557122
 21
647.862495
 31
0.0
  0
LINE
  5
267
100
AcDbEntity
  8
0
  6
CONTINUOUS
 62
     7
100
AcDbLine
 10
954.557122
 20
644.554706
 30
0.0
 11
947.747351
 21
644.554706
 31
0.0
  0
ELLIPSE
  5
268
100
AcDbEntity
  8
0
  6
CONTINUOUS
 62
     7
100
AcDbEllipse
 10
954.557125
 20
311.807084
 30
0.0
 11
2.107784923723414
 21
0.0
 31
0.0
210
0.0
220
0.0
230
1.0
 40
0.017458
 41
4.712388980384689
 42
6.300641258595901
  0
LINE
  5
269
100
AcDbEntity
  8
0
  6
CONTINUOUS
 62
     7
100
AcDbLine
 10
956.664586
 20
311.807723
 30
0.0
 11
960.009822
 21
308.462502
 31
0.0
  0
ELLIPSE
  5
26A
100
AcDbEntity
  8
0
  6
CONTINUOUS
 62
     7
100
AcDbEllipse
 10
954.557125
 20
644.517913
 30
0.0
 11
2.107784923723414
 21
0.0
 31
0.0
210
0.0
220
0.0
230
1.0
 40
0.017458
 41
6.26572935576487
 42
7.853981633974482
  0
LINE
  5
26B
100
AcDbEntity
  8
0
  6
CONTINUOUS
 62
     7
100
AcDbLine
 10
956.664586
 20
644.517274
 30
0.0
 11
960.009822
 21
647.862495
 31
0.0
  0
LINE
  5
26C
100
AcDbEntity
  8
0
  6
CONTINUOUS
 62
     7
100
AcDbLine
 10
694.969067
 20
630.503253
 30
0.0
 11
692.807132
 21
632.665188
 31
0.0
  0
LINE
  5
26D
100
AcDbEntity
  8
0
  6
CONTINUOUS
 62
     7
100
AcDbLine
 10
694.969067
 20
325.821744
 30
0.0
 11
692.807132
 21
323.659809
 31
0.0
  0
LINE
  5
26E
100
AcDbEntity
  8
0
  6
CONTINUOUS
 62
     7
100
AcDbLine
 10
975.045183
 20
630.503253
 30
0.0
 11
977.207118
 21
632.665188
 31
0.0
  0
LINE
  5
26F
100
AcDbEntity
  8
0
  6
CONTINUOUS
 62
     7
100
AcDbLine
 10
975.045183
 20
325.821744
 30
0.0
 11
977.207118
 21
323.659809
 31
0.0
  0
LINE
  5
270
100
AcDbEntity
  8
0
  6
CONTINUOUS
 62
     7
100
AcDbLine
 10
713.349664
 20
311.807723
 30
0.0
 11
714.704172
 21
313.162239
 31
0.0
  0
LINE
  5
271
100
AcDbEntity
  8
0
  6
CONTINUOUS
 62
     7
100
AcDbLine
 10
714.704172
 20
313.162239
 30
0.0
 11
720.282852
 21
313.162239
 31
0.0
  0
LINE
  5
272
100
AcDbEntity
  8
0
  6
CONTINUOUS
 62
     7
100
AcDbLine
 10
713.349664
 20
644.517274
 30
0.0
 11
714.704172
 21
643.162758
 31
0.0
  0
LINE
  5
273
100
AcDbEntity
  8
0
  6
CONTINUOUS
 62
     7
100
AcDbLine
 10
720.282852
 20
643.162758
 30
0.0
 11
714.704172
 21
643.162758
 31
0.0
  0
LINE
  5
274
100
AcDbEntity
  8
0
  6
CONTINUOUS
 62
     7
100
AcDbLine
 10
956.664586
 20
311.807723
 30
0.0
 11
955.310078
 21
313.162239
 31
0.0
  0
LINE
  5
275
100
AcDbEntity
  8
0
  6
CONTINUOUS
 62
     7
100
AcDbLine
 10
949.731397
 20
313.162239
 30
0.0
 11
955.310078
 21
313.162239
 31
0.0
  0
LINE
  5
276
100
AcDbEntity
  8
0
  6
CONTINUOUS
 62
     7
100
AcDbLine
 10
956.664586
 20
644.517274
 30
0.0
 11
955.310078
 21
643.162758
 31
0.0
  0
LINE
  5
277
100
AcDbEntity
  8
0
  6
CONTINUOUS
 62
     7
100
AcDbLine
 10
955.310078
 20
643.162758
 30
0.0
 11
949.731397
 21
643.162758
 31
0.0
  0
LINE
  5
278
100
AcDbEntity
  8
0
  6
CONTINUOUS
 62
     7
100
AcDbLine
 10
710.507126
 20
632.661463
 30
0.0
 11
710.507126
 21
647.359804
 31
0.0
  0
LINE
  5
279
100
AcDbEntity
  8
0
  6
CONTINUOUS
 62
     7
100
AcDbLine
 10
707.032125
 20
644.634003
 30
0.0
 11
706.132123
 21
643.075154
 31
0.0
  0
ARC
  5
27A
100
AcDbEntity
  8
0
  6
CONTINUOUS
 62
     7
100
AcDbCircle
 10
703.007125
 20
637.662498
 30
0.0
 40
8.05
100
AcDbArc
 50
60.0
 51
210.0
  0
LINE
  5
27B
100
AcDbEntity
  8
0
  6
CONTINUOUS
 62
     7
100
AcDbLine
 10
697.594472
 20
634.537504
 30
0.0
 11
696.03562
 21
633.637498
 31
0.0
  0
LINE
  5
27C
100
AcDbEntity
  8
0
  6
CONTINUOUS
 62
     7
100
AcDbLine
 10
710.507126
 20
323.663534
 30
0.0
 11
710.507126
 21
308.965192
 31
0.0
  0
LINE
  5
27D
100
AcDbEntity
  8
0
  6
CONTINUOUS
 62
     7
100
AcDbLine
 10
697.594472
 20
321.787493
 30
0.0
 11
696.03562
 21
322.687498
 31
0.0
  0
ARC
  5
27E
100
AcDbEntity
  8
0
  6
CONTINUOUS
 62
     7
100
AcDbCircle
 10
703.007125
 20
318.662498
 30
0.0
 40
8.05
100
AcDbArc
 50
150.0
 51
300.0
  0
LINE
  5
27F
100
AcDbEntity
  8
0
  6
CONTINUOUS
 62
     7
100
AcDbLine
 10
707.032125
 20
311.690994
 30
0.0
 11
706.132123
 21
313.249842
 31
0.0
  0
LINE
  5
280
100
AcDbEntity
  8
0
  6
CONTINUOUS
 62
     7
100
AcDbLine
 10
710.543432
 20
632.690997
 30
0.0
 11
710.543432
 21
647.323505
 31
0.0
  0
LINE
  5
281
100
AcDbEntity
  8
0
  6
CONTINUOUS
 62
     7
100
AcDbLine
 10
710.543432
 20
323.634
 30
0.0
 11
710.543432
 21
309.001492
 31
0.0
  0
LINE
  5
282
100
AcDbEntity
  8
0
  6
CONTINUOUS
 62
     7
100
AcDbLine
 10
959.507124
 20
323.663534
 30
0.0
 11
959.507124
 21
308.965192
 31
0.0
  0
LINE
  5
283
100
AcDbEntity
  8
0
  6
CONTINUOUS
 62
     7
100
AcDbLine
 10
962.982125
 20
311.690994
 30
0.0
 11
963.882127
 21
313.249842
 31
0.0
  0
ARC
  5
284
100
AcDbEntity
  8
0
  6
CONTINUOUS
 62
     7
100
AcDbCircle
 10
967.007125
 20
318.662498
 30
0.0
 40
8.05
100
AcDbArc
 50
240.0
 51
30.0
  0
LINE
  5
285
100
AcDbEntity
  8
0
  6
CONTINUOUS
 62
     7
100
AcDbLine
 10
972.419777
 20
321.787493
 30
0.0
 11
973.978629
 21
322.687498
 31
0.0
  0
LINE
  5
286
100
AcDbEntity
  8
0
  6
CONTINUOUS
 62
     7
100
AcDbLine
 10
959.507124
 20
632.661463
 30
0.0
 11
959.507124
 21
647.359804
 31
0.0
  0
LINE
  5
287
100
AcDbEntity
  8
0
  6
CONTINUOUS
 62
     7
100
AcDbLine
 10
972.419777
 20
634.537504
 30
0.0
 11
973.978629
 21
633.637498
 31
0.0
  0
ARC
  5
288
100
AcDbEntity
  8
0
  6
CONTINUOUS
 62
     7
100
AcDbCircle
 10
967.007125
 20
637.662498
 30
0.0
 40
8.05
100
AcDbArc
 50
330.0
 51
120.0
  0
LINE
  5
289
100
AcDbEntity
  8
0
  6
CONTINUOUS
 62
     7
100
AcDbLine
 10
962.982125
 20
644.634003
 30
0.0
 11
963.882127
 21
643.075154
 31
0.0
  0
LINE
  5
28A
100
AcDbEntity
  8
0
  6
CONTINUOUS
 62
     7
100
AcDbLine
 10
959.470817
 20
632.690997
 30
0.0
 11
959.470817
 21
647.323505
 31
0.0
  0
LINE
  5
28B
100
AcDbEntity
  8
0
  6
CONTINUOUS
 62
     7
100
AcDbLine
 10
959.470817
 20
323.634
 30
0.0
 11
959.470817
 21
309.001492
 31
0.0
  0
LINE
  5
28C
100
AcDbEntity
  8
0
  6
CONTINUOUS
 62
     7
100
AcDbLine
 10
710.647845
 20
647.219093
 30
0.0
 11
710.647845
 21
632.695557
 31
0.0
  0
LINE
  5
28D
100
AcDbEntity
  8
0
  6
CONTINUOUS
 62
     7
100
AcDbLine
 10
710.647845
 20
323.62944
 30
0.0
 11
710.647845
 21
309.105904
 31
0.0
  0
LINE
  5
28E
100
AcDbEntity
  8
0
  6
CONTINUOUS
 62
     7
100
AcDbLine
 10
959.366405
 20
309.105904
 30
0.0
 11
959.366405
 21
323.62944
 31
0.0
  0
LINE
  5
28F
100
AcDbEntity
  8
0
  6
CONTINUOUS
 62
     7
100
AcDbLine
 10
959.366405
 20
632.695557
 30
0.0
 11
959.366405
 21
647.219093
 31
0.0
  0
LINE
  5
290
100
AcDbEntity
  8
0
  6
CONTINUOUS
 62
     7
100
AcDbLine
 10
712.127418
 20
645.739512
 30
0.0
 11
712.127418
 21
633.979679
 31
0.0
  0
LINE
  5
291
100
AcDbEntity
  8
0
  6
CONTINUOUS
 62
     7
100
AcDbLine
 10
957.886831
 20
645.739512
 30
0.0
 11
957.886831
 21
633.979679
 31
0.0
  0
LINE
  5
292
100
AcDbEntity
  8
0
  6
CONTINUOUS
 62
     7
100
AcDbLine
 10
712.127418
 20
310.585485
 30
0.0
 11
712.127418
 21
322.345318
 31
0.0
  0
LINE
  5
293
100
AcDbEntity
  8
0
  6
CONTINUOUS
 62
     7
100
AcDbLine
 10
957.886831
 20
310.585485
 30
0.0
 11
957.886831
 21
322.345318
 31
0.0
  0
LINE
  5
294
100
AcDbEntity
  8
0
  6
CONTINUOUS
 62
     7
100
AcDbLine
 10
709.126212
 20
349.77517
 30
0.0
 11
709.257125
 21
349.877952
 31
0.0
  0
ARC
  5
295
100
AcDbEntity
  8
0
  6
CONTINUOUS
 62
     7
100
AcDbCircle
 10
710.007125
 20
353.162498
 30
0.0
 40
3.5
100
AcDbArc
 50
104.577506
 51
255.422494
  0
LWPOLYLINE
  5
296
100
AcDbEntity
  8
0
  6
CONTINUOUS
 62
     7
100
AcDbPolyline
 90
        3
 70
   128
 43
0.0
 10
709.25712
 20
356.447042
 10
709.141561
 20
356.537939
 10
709.126213
 20
356.549823
  0
ARC
  5
297
100
AcDbEntity
  8
0
  6
CONTINUOUS
 62
     7
100
AcDbCircle
 10
710.007125
 20
353.162498
 30
0.0
 40
3.369087
100
AcDbArc
 50
102.862509
 51
257.137491
  0
LINE
  5
298
100
AcDbEntity
  8
0
  6
CONTINUOUS
 62
     7
100
AcDbLine
 10
709.126212
 20
474.77517
 30
0.0
 11
709.257125
 21
474.877952
 31
0.0
  0
ARC
  5
299
100
AcDbEntity
  8
0
  6
CONTINUOUS
 62
     7
100
AcDbCircle
 10
710.007125
 20
478.162498
 30
0.0
 40
3.5
100
AcDbArc
 50
104.577506
 51
255.422494
  0
LWPOLYLINE
  5
29A
100
AcDbEntity
  8
0
  6
CONTINUOUS
 62
     7
100
AcDbPolyline
 90
        3
 70
   128
 43
0.0
 10
709.25712
 20
481.447045
 10
709.141561
 20
481.537939
 10
709.126213
 20
481.549827
  0
ARC
  5
29B
100
AcDbEntity
  8
0
  6
CONTINUOUS
 62
     7
100
AcDbCircle
 10
710.007125
 20
478.162498
 30
0.0
 40
3.369087
100
AcDbArc
 50
102.862509
 51
257.137491
  0
LINE
  5
29C
100
AcDbEntity
  8
0
  6
CONTINUOUS
 62
     7
100
AcDbLine
 10
709.25712
 20
422.162497
 30
0.0
 11
709.257125
 21
418.947045
 31
0.0
  0
LINE
  5
29D
100
AcDbEntity
  8
0
  6
CONTINUOUS
 62
     7
100
AcDbLine
 10
710.757123
 20
422.162497
 30
0.0
 11
709.25712
 21
422.162497
 31
0.0
  0
LINE
  5
29E
100
AcDbEntity
  8
0
  6
CONTINUOUS
 62
     7
100
AcDbLine
 10
710.757125
 20
418.947045
 30
0.0
 11
710.757123
 21
422.162497
 31
0.0
  0
ARC
  5
29F
100
AcDbEntity
  8
0
  6
CONTINUOUS
 62
     7
100
AcDbCircle
 10
710.007125
 20
415.662498
 30
0.0
 40
3.369087
100
AcDbArc
 50
282.862509
 51
77.137491
  0
LINE
  5
2A0
100
AcDbEntity
  8
0
  6
CONTINUOUS
 62
     7
100
AcDbLine
 10
710.757123
 20
409.1625
 30
0.0
 11
710.757125
 21
412.377952
 31
0.0
  0
LINE
  5
2A1
100
AcDbEntity
  8
0
  6
CONTINUOUS
 62
     7
100
AcDbLine
 10
709.25712
 20
409.1625
 30
0.0
 11
710.757123
 21
409.1625
 31
0.0
  0
LINE
  5
2A2
100
AcDbEntity
  8
0
  6
CONTINUOUS
 62
     7
100
AcDbLine
 10
709.257125
 20
412.377952
 30
0.0
 11
709.25712
 21
409.1625
 31
0.0
  0
ARC
  5
2A3
100
AcDbEntity
  8
0
  6
CONTINUOUS
 62
     7
100
AcDbCircle
 10
710.007125
 20
415.662498
 30
0.0
 40
3.369087
100
AcDbArc
 50
102.862509
 51
257.137491
  0
CIRCLE
  5
2A4
100
AcDbEntity
  8
0
  6
CONTINUOUS
 62
     7
100
AcDbCircle
 10
710.007125
 20
415.662498
 30
0.0
 40
2.0
  0
LINE
  5
2A5
100
AcDbEntity
  8
0
  6
CONTINUOUS
 62
     7
100
AcDbLine
 10
709.126212
 20
412.27517
 30
0.0
 11
709.257125
 21
412.377952
 31
0.0
  0
ARC
  5
2A6
100
AcDbEntity
  8
0
  6
CONTINUOUS
 62
     7
100
AcDbCircle
 10
710.007125
 20
415.662498
 30
0.0
 40
3.5
100
AcDbArc
 50
104.577506
 51
255.422494
  0
LWPOLYLINE
  5
2A7
100
AcDbEntity
  8
0
  6
CONTINUOUS
 62
     7
100
AcDbPolyline
 90
        3
 70
   128
 43
0.0
 10
709.25712
 20
418.947046
 10
709.141561
 20
419.037939
 10
709.126213
 20
419.049827
  0
LINE
  5
2A8
100
AcDbEntity
  8
0
  6
CONTINUOUS
 62
     7
100
AcDbLine
 10
709.126212
 20
537.27517
 30
0.0
 11
709.257125
 21
537.377952
 31
0.0
  0
ARC
  5
2A9
100
AcDbEntity
  8
0
  6
CONTINUOUS
 62
     7
100
AcDbCircle
 10
710.007125
 20
540.662498
 30
0.0
 40
3.5
100
AcDbArc
 50
104.577506
 51
255.422494
  0
LWPOLYLINE
  5
2AA
100
AcDbEntity
  8
0
  6
CONTINUOUS
 62
     7
100
AcDbPolyline
 90
        3
 70
   128
 43
0.0
 10
709.25712
 20
543.947042
 10
709.141561
 20
544.037939
 10
709.126213
 20
544.049823
  0
ARC
  5
2AB
100
AcDbEntity
  8
0
  6
CONTINUOUS
 62
     7
100
AcDbCircle
 10
710.007125
 20
540.662498
 30
0.0
 40
3.369087
100
AcDbArc
 50
102.862509
 51
257.137491
  0
LINE
  5
2AC
100
AcDbEntity
  8
0
  6
CONTINUOUS
 62
     7
100
AcDbLine
 10
710.757123
 20
346.662493
 30
0.0
 11
710.757125
 21
349.877952
 31
0.0
  0
LINE
  5
2AD
100
AcDbEntity
  8
0
  6
CONTINUOUS
 62
     7
100
AcDbLine
 10
709.25712
 20
346.662493
 30
0.0
 11
710.757123
 21
346.662493
 31
0.0
  0
LINE
  5
2AE
100
AcDbEntity
  8
0
  6
CONTINUOUS
 62
     7
100
AcDbLine
 10
709.257125
 20
349.877952
 30
0.0
 11
709.25712
 21
346.662493
 31
0.0
  0
LINE
  5
2AF
100
AcDbEntity
  8
0
  6
CONTINUOUS
 62
     7
100
AcDbLine
 10
709.25712
 20
359.662497
 30
0.0
 11
709.257125
 21
356.447045
 31
0.0
  0
LINE
  5
2B0
100
AcDbEntity
  8
0
  6
CONTINUOUS
 62
     7
100
AcDbLine
 10
710.757123
 20
359.662497
 30
0.0
 11
709.25712
 21
359.662497
 31
0.0
  0
LINE
  5
2B1
100
AcDbEntity
  8
0
  6
CONTINUOUS
 62
     7
100
AcDbLine
 10
710.757125
 20
356.447045
 30
0.0
 11
710.757123
 21
359.662497
 31
0.0
  0
ARC
  5
2B2
100
AcDbEntity
  8
0
  6
CONTINUOUS
 62
     7
100
AcDbCircle
 10
710.007125
 20
353.162498
 30
0.0
 40
3.369087
100
AcDbArc
 50
282.862509
 51
77.137491
  0
CIRCLE
  5
2B3
100
AcDbEntity
  8
0
  6
CONTINUOUS
 62
     7
100
AcDbCircle
 10
710.007125
 20
353.162498
 30
0.0
 40
2.0
  0
LINE
  5
2B4
100
AcDbEntity
  8
0
  6
CONTINUOUS
 62
     7
100
AcDbLine
 10
710.757123
 20
534.1625
 30
0.0
 11
710.757125
 21
537.377952
 31
0.0
  0
LINE
  5
2B5
100
AcDbEntity
  8
0
  6
CONTINUOUS
 62
     7
100
AcDbLine
 10
709.25712
 20
534.1625
 30
0.0
 11
710.757123
 21
534.1625
 31
0.0
  0
LINE
  5
2B6
100
AcDbEntity
  8
0
  6
CONTINUOUS
 62
     7
100
AcDbLine
 10
709.257125
 20
537.377952
 30
0.0
 11
709.25712
 21
534.1625
 31
0.0
  0
LINE
  5
2B7
100
AcDbEntity
  8
0
  6
CONTINUOUS
 62
     7
100
AcDbLine
 10
709.25712
 20
547.162497
 30
0.0
 11
709.257125
 21
543.947045
 31
0.0
  0
LINE
  5
2B8
100
AcDbEntity
  8
0
  6
CONTINUOUS
 62
     7
100
AcDbLine
 10
710.757123
 20
547.162497
 30
0.0
 11
709.25712
 21
547.162497
 31
0.0
  0
LINE
  5
2B9
100
AcDbEntity
  8
0
  6
CONTINUOUS
 62
     7
100
AcDbLine
 10
710.757125
 20
543.947045
 30
0.0
 11
710.757123
 21
547.162497
 31
0.0
  0
ARC
  5
2BA
100
AcDbEntity
  8
0
  6
CONTINUOUS
 62
     7
100
AcDbCircle
 10
710.007125
 20
540.662498
 30
0.0
 40
3.369087
100
AcDbArc
 50
282.862509
 51
77.137491
  0
CIRCLE
  5
2BB
100
AcDbEntity
  8
0
  6
CONTINUOUS
 62
     7
100
AcDbCircle
 10
710.007125
 20
540.662498
 30
0.0
 40
2.0
  0
LINE
  5
2BC
100
AcDbEntity
  8
0
  6
CONTINUOUS
 62
     7
100
AcDbLine
 10
710.757123
 20
596.6625
 30
0.0
 11
710.757125
 21
599.877952
 31
0.0
  0
LINE
  5
2BD
100
AcDbEntity
  8
0
  6
CONTINUOUS
 62
     7
100
AcDbLine
 10
709.25712
 20
596.6625
 30
0.0
 11
710.757123
 21
596.6625
 31
0.0
  0
LINE
  5
2BE
100
AcDbEntity
  8
0
  6
CONTINUOUS
 62
     7
100
AcDbLine
 10
709.257125
 20
599.877952
 30
0.0
 11
709.25712
 21
596.6625
 31
0.0
  0
ARC
  5
2BF
100
AcDbEntity
  8
0
  6
CONTINUOUS
 62
     7
100
AcDbCircle
 10
710.007125
 20
603.162498
 30
0.0
 40
3.369087
100
AcDbArc
 50
102.862509
 51
257.137491
  0
LINE
  5
2C0
100
AcDbEntity
  8
0
  6
CONTINUOUS
 62
     7
100
AcDbLine
 10
709.25712
 20
609.662504
 30
0.0
 11
709.257125
 21
606.447045
 31
0.0
  0
LINE
  5
2C1
100
AcDbEntity
  8
0
  6
CONTINUOUS
 62
     7
100
AcDbLine
 10
710.757123
 20
609.662504
 30
0.0
 11
709.25712
 21
609.662504
 31
0.0
  0
LINE
  5
2C2
100
AcDbEntity
  8
0
  6
CONTINUOUS
 62
     7
100
AcDbLine
 10
710.757125
 20
606.447045
 30
0.0
 11
710.757123
 21
609.662504
 31
0.0
  0
ARC
  5
2C3
100
AcDbEntity
  8
0
  6
CONTINUOUS
 62
     7
100
AcDbCircle
 10
710.007125
 20
603.162498
 30
0.0
 40
3.369087
100
AcDbArc
 50
282.862509
 51
77.137491
  0
CIRCLE
  5
2C4
100
AcDbEntity
  8
0
  6
CONTINUOUS
 62
     7
100
AcDbCircle
 10
710.007125
 20
603.162498
 30
0.0
 40
2.0
  0
LINE
  5
2C5
100
AcDbEntity
  8
0
  6
CONTINUOUS
 62
     7
100
AcDbLine
 10
710.757123
 20
471.662498
 30
0.0
 11
710.757125
 21
474.877952
 31
0.0
  0
LINE
  5
2C6
100
AcDbEntity
  8
0
  6
CONTINUOUS
 62
     7
100
AcDbLine
 10
709.25712
 20
471.662498
 30
0.0
 11
710.757123
 21
471.662498
 31
0.0
  0
LINE
  5
2C7
100
AcDbEntity
  8
0
  6
CONTINUOUS
 62
     7
100
AcDbLine
 10
709.257125
 20
474.877952
 30
0.0
 11
709.25712
 21
471.662498
 31
0.0
  0
LINE
  5
2C8
100
AcDbEntity
  8
0
  6
CONTINUOUS
 62
     7
100
AcDbLine
 10
709.25712
 20
484.662499
 30
0.0
 11
709.257125
 21
481.447045
 31
0.0
  0
LINE
  5
2C9
100
AcDbEntity
  8
0
  6
CONTINUOUS
 62
     7
100
AcDbLine
 10
710.757123
 20
484.662499
 30
0.0
 11
709.25712
 21
484.662499
 31
0.0
  0
LINE
  5
2CA
100
AcDbEntity
  8
0
  6
CONTINUOUS
 62
     7
100
AcDbLine
 10
710.757125
 20
481.447045
 30
0.0
 11
710.757123
 21
484.662499
 31
0.0
  0
ARC
  5
2CB
100
AcDbEntity
  8
0
  6
CONTINUOUS
 62
     7
100
AcDbCircle
 10
710.007125
 20
478.162498
 30
0.0
 40
3.369087
100
AcDbArc
 50
282.862509
 51
77.137491
  0
CIRCLE
  5
2CC
100
AcDbEntity
  8
0
  6
CONTINUOUS
 62
     7
100
AcDbCircle
 10
710.007125
 20
478.162498
 30
0.0
 40
2.0
  0
LINE
  5
2CD
100
AcDbEntity
  8
0
  6
CONTINUOUS
 62
     7
100
AcDbLine
 10
709.126212
 20
599.77517
 30
0.0
 11
709.257125
 21
599.877952
 31
0.0
  0
ARC
  5
2CE
100
AcDbEntity
  8
0
  6
CONTINUOUS
 62
     7
100
AcDbCircle
 10
710.007125
 20
603.162498
 30
0.0
 40
3.5
100
AcDbArc
 50
104.577506
 51
255.422494
  0
LWPOLYLINE
  5
2CF
100
AcDbEntity
  8
0
  6
CONTINUOUS
 62
     7
100
AcDbPolyline
 90
        3
 70
   128
 43
0.0
 10
709.25712
 20
606.447042
 10
709.141561
 20
606.537939
 10
709.126213
 20
606.54983
  0
CIRCLE
  5
2D0
100
AcDbEntity
  8
0
  6
CONTINUOUS
 62
     7
100
AcDbCircle
 10
710.007125
 20
603.162498
 30
0.0
 40
1.982545
  0
CIRCLE
  5
2D1
100
AcDbEntity
  8
0
  6
CONTINUOUS
 62
     7
100
AcDbCircle
 10
710.007125
 20
353.162498
 30
0.0
 40
1.982545
  0
CIRCLE
  5
2D2
100
AcDbEntity
  8
0
  6
CONTINUOUS
 62
     7
100
AcDbCircle
 10
710.007125
 20
478.162498
 30
0.0
 40
1.982545
  0
CIRCLE
  5
2D3
100
AcDbEntity
  8
0
  6
CONTINUOUS
 62
     7
100
AcDbCircle
 10
710.007125
 20
540.662498
 30
0.0
 40
1.982545
  0
CIRCLE
  5
2D4
100
AcDbEntity
  8
0
  6
CONTINUOUS
 62
     7
100
AcDbCircle
 10
710.007125
 20
415.662498
 30
0.0
 40
1.982545
  0
LINE
  5
2D5
100
AcDbEntity
  8
0
  6
CONTINUOUS
 62
     7
100
AcDbLine
 10
710.888038
 20
599.77517
 30
0.0
 11
710.888037
 21
596.531586
 31
0.0
  0
LINE
  5
2D6
100
AcDbEntity
  8
0
  6
CONTINUOUS
 62
     7
100
AcDbLine
 10
710.888037
 20
596.531586
 30
0.0
 11
710.757123
 21
596.6625
 31
0.0
  0
LWPOLYLINE
  5
2D7
100
AcDbEntity
  8
0
  6
CONTINUOUS
 62
     7
100
AcDbPolyline
 90
        3
 70
   128
 43
0.0
 10
710.757123
 20
599.877955
 10
710.872689
 20
599.787058
 10
710.888037
 20
599.775174
  0
LINE
  5
2D8
100
AcDbEntity
  8
0
  6
CONTINUOUS
 62
     7
100
AcDbLine
 10
710.888037
 20
484.793411
 30
0.0
 11
710.757123
 21
484.662499
 31
0.0
  0
LINE
  5
2D9
100
AcDbEntity
  8
0
  6
CONTINUOUS
 62
     7
100
AcDbLine
 10
709.126213
 20
484.793411
 30
0.0
 11
709.25712
 21
484.662499
 31
0.0
  0
LINE
  5
2DA
100
AcDbEntity
  8
0
  6
CONTINUOUS
 62
     7
100
AcDbLine
 10
709.126213
 20
484.793411
 30
0.0
 11
710.888037
 21
484.793411
 31
0.0
  0
LINE
  5
2DB
100
AcDbEntity
  8
0
  6
CONTINUOUS
 62
     7
100
AcDbLine
 10
709.126213
 20
534.031586
 30
0.0
 11
709.25712
 21
534.1625
 31
0.0
  0
LINE
  5
2DC
100
AcDbEntity
  8
0
  6
CONTINUOUS
 62
     7
100
AcDbLine
 10
710.888037
 20
534.031586
 30
0.0
 11
710.757123
 21
534.1625
 31
0.0
  0
LINE
  5
2DD
100
AcDbEntity
  8
0
  6
CONTINUOUS
 62
     7
100
AcDbLine
 10
710.888037
 20
534.031586
 30
0.0
 11
709.126213
 21
534.031586
 31
0.0
  0
LINE
  5
2DE
100
AcDbEntity
  8
0
  6
CONTINUOUS
 62
     7
100
AcDbLine
 10
709.126213
 20
346.531586
 30
0.0
 11
709.25712
 21
346.662493
 31
0.0
  0
LINE
  5
2DF
100
AcDbEntity
  8
0
  6
CONTINUOUS
 62
     7
100
AcDbLine
 10
710.888037
 20
346.531586
 30
0.0
 11
710.757123
 21
346.662493
 31
0.0
  0
LINE
  5
2E0
100
AcDbEntity
  8
0
  6
CONTINUOUS
 62
     7
100
AcDbLine
 10
710.888037
 20
346.531586
 30
0.0
 11
709.126213
 21
346.531586
 31
0.0
  0
LINE
  5
2E1
100
AcDbEntity
  8
0
  6
CONTINUOUS
 62
     7
100
AcDbLine
 10
710.888037
 20
422.293411
 30
0.0
 11
710.757123
 21
422.162497
 31
0.0
  0
LINE
  5
2E2
100
AcDbEntity
  8
0
  6
CONTINUOUS
 62
     7
100
AcDbLine
 10
710.888037
 20
422.293411
 30
0.0
 11
710.888038
 21
419.049827
 31
0.0
  0
LINE
  5
2E3
100
AcDbEntity
  8
0
  6
CONTINUOUS
 62
     7
100
AcDbLine
 10
710.888038
 20
419.049827
 30
0.0
 11
710.757125
 21
418.947045
 31
0.0
  0
LINE
  5
2E4
100
AcDbEntity
  8
0
  6
CONTINUOUS
 62
     7
100
AcDbLine
 10
709.126212
 20
481.549827
 30
0.0
 11
709.126213
 21
484.793411
 31
0.0
  0
LINE
  5
2E5
100
AcDbEntity
  8
0
  6
CONTINUOUS
 62
     7
100
AcDbLine
 10
710.888038
 20
481.549827
 30
0.0
 11
710.757125
 21
481.447045
 31
0.0
  0
ARC
  5
2E6
100
AcDbEntity
  8
0
  6
CONTINUOUS
 62
     7
100
AcDbCircle
 10
710.007125
 20
478.162498
 30
0.0
 40
3.5
100
AcDbArc
 50
284.577506
 51
75.422494
  0
LWPOLYLINE
  5
2E7
100
AcDbEntity
  8
0
  6
CONTINUOUS
 62
     7
100
AcDbPolyline
 90
        3
 70
   128
 43
0.0
 10
710.757123
 20
474.877952
 10
710.872689
 20
474.787058
 10
710.888037
 20
474.77517
  0
LINE
  5
2E8
100
AcDbEntity
  8
0
  6
CONTINUOUS
 62
     7
100
AcDbLine
 10
709.126213
 20
596.531586
 30
0.0
 11
709.25712
 21
596.6625
 31
0.0
  0
LINE
  5
2E9
100
AcDbEntity
  8
0
  6
CONTINUOUS
 62
     7
100
AcDbLine
 10
709.126213
 20
596.531586
 30
0.0
 11
709.126212
 21
599.77517
 31
0.0
  0
LINE
  5
2EA
100
AcDbEntity
  8
0
  6
CONTINUOUS
 62
     7
100
AcDbLine
 10
709.126213
 20
346.531586
 30
0.0
 11
709.126212
 21
349.77517
 31
0.0
  0
LINE
  5
2EB
100
AcDbEntity
  8
0
  6
CONTINUOUS
 62
     7
100
AcDbLine
 10
709.126213
 20
422.293411
 30
0.0
 11
709.25712
 21
422.162497
 31
0.0
  0
LINE
  5
2EC
100
AcDbEntity
  8
0
  6
CONTINUOUS
 62
     7
100
AcDbLine
 10
709.126213
 20
422.293411
 30
0.0
 11
710.888037
 21
422.293411
 31
0.0
  0
LINE
  5
2ED
100
AcDbEntity
  8
0
  6
CONTINUOUS
 62
     7
100
AcDbLine
 10
710.888037
 20
609.793411
 30
0.0
 11
710.757123
 21
609.662504
 31
0.0
  0
LINE
  5
2EE
100
AcDbEntity
  8
0
  6
CONTINUOUS
 62
     7
100
AcDbLine
 10
710.888037
 20
609.793411
 30
0.0
 11
710.888038
 21
606.549827
 31
0.0
  0
LINE
  5
2EF
100
AcDbEntity
  8
0
  6
CONTINUOUS
 62
     7
100
AcDbLine
 10
710.888038
 20
606.549827
 30
0.0
 11
710.757125
 21
606.447045
 31
0.0
  0
LINE
  5
2F0
100
AcDbEntity
  8
0
  6
CONTINUOUS
 62
     7
100
AcDbLine
 10
709.126213
 20
609.793411
 30
0.0
 11
709.25712
 21
609.662504
 31
0.0
  0
LINE
  5
2F1
100
AcDbEntity
  8
0
  6
CONTINUOUS
 62
     7
100
AcDbLine
 10
709.126213
 20
609.793411
 30
0.0
 11
710.888037
 21
609.793411
 31
0.0
  0
LINE
  5
2F2
100
AcDbEntity
  8
0
  6
CONTINUOUS
 62
     7
100
AcDbLine
 10
710.888038
 20
537.27517
 30
0.0
 11
710.888037
 21
534.031586
 31
0.0
  0
LWPOLYLINE
  5
2F3
100
AcDbEntity
  8
0
  6
CONTINUOUS
 62
     7
100
AcDbPolyline
 90
        3
 70
   128
 43
0.0
 10
710.757123
 20
537.377951
 10
710.872689
 20
537.287058
 10
710.888037
 20
537.27517
  0
LINE
  5
2F4
100
AcDbEntity
  8
0
  6
CONTINUOUS
 62
     7
100
AcDbLine
 10
709.126213
 20
534.031586
 30
0.0
 11
709.126212
 21
537.27517
 31
0.0
  0
ARC
  5
2F5
100
AcDbEntity
  8
0
  6
CONTINUOUS
 62
     7
100
AcDbCircle
 10
710.007125
 20
415.662498
 30
0.0
 40
3.5
100
AcDbArc
 50
284.577506
 51
75.422494
  0
LWPOLYLINE
  5
2F6
100
AcDbEntity
  8
0
  6
CONTINUOUS
 62
     7
100
AcDbPolyline
 90
        3
 70
   128
 43
0.0
 10
710.757123
 20
412.377955
 10
710.872689
 20
412.287058
 10
710.888037
 20
412.275174
  0
LINE
  5
2F7
100
AcDbEntity
  8
0
  6
CONTINUOUS
 62
     7
100
AcDbLine
 10
709.126212
 20
419.049827
 30
0.0
 11
709.126213
 21
422.293411
 31
0.0
  0
LINE
  5
2F8
100
AcDbEntity
  8
0
  6
CONTINUOUS
 62
     7
100
AcDbLine
 10
709.126212
 20
356.549827
 30
0.0
 11
709.126213
 21
359.793411
 31
0.0
  0
LINE
  5
2F9
100
AcDbEntity
  8
0
  6
CONTINUOUS
 62
     7
100
AcDbLine
 10
709.126213
 20
359.793411
 30
0.0
 11
709.25712
 21
359.662497
 31
0.0
  0
LINE
  5
2FA
100
AcDbEntity
  8
0
  6
CONTINUOUS
 62
     7
100
AcDbLine
 10
710.888037
 20
359.793411
 30
0.0
 11
710.757123
 21
359.662497
 31
0.0
  0
LINE
  5
2FB
100
AcDbEntity
  8
0
  6
CONTINUOUS
 62
     7
100
AcDbLine
 10
709.126213
 20
359.793411
 30
0.0
 11
710.888037
 21
359.793411
 31
0.0
  0
LINE
  5
2FC
100
AcDbEntity
  8
0
  6
CONTINUOUS
 62
     7
100
AcDbLine
 10
710.888038
 20
474.77517
 30
0.0
 11
710.888037
 21
471.531586
 31
0.0
  0
LINE
  5
2FD
100
AcDbEntity
  8
0
  6
CONTINUOUS
 62
     7
100
AcDbLine
 10
710.888037
 20
471.531586
 30
0.0
 11
710.757123
 21
471.662498
 31
0.0
  0
LINE
  5
2FE
100
AcDbEntity
  8
0
  6
CONTINUOUS
 62
     7
100
AcDbLine
 10
709.126213
 20
471.531586
 30
0.0
 11
709.25712
 21
471.662498
 31
0.0
  0
LINE
  5
2FF
100
AcDbEntity
  8
0
  6
CONTINUOUS
 62
     7
100
AcDbLine
 10
710.888037
 20
471.531586
 30
0.0
 11
709.126213
 21
471.531586
 31
0.0
  0
LINE
  5
300
100
AcDbEntity
  8
0
  6
CONTINUOUS
 62
     7
100
AcDbLine
 10
710.888037
 20
484.793411
 30
0.0
 11
710.888038
 21
481.549827
 31
0.0
  0
LINE
  5
301
100
AcDbEntity
  8
0
  6
CONTINUOUS
 62
     7
100
AcDbLine
 10
710.888037
 20
359.793411
 30
0.0
 11
710.888038
 21
356.549827
 31
0.0
  0
LINE
  5
302
100
AcDbEntity
  8
0
  6
CONTINUOUS
 62
     7
100
AcDbLine
 10
710.888038
 20
356.549827
 30
0.0
 11
710.757125
 21
356.447045
 31
0.0
  0
LINE
  5
303
100
AcDbEntity
  8
0
  6
CONTINUOUS
 62
     7
100
AcDbLine
 10
709.126213
 20
409.031586
 30
0.0
 11
709.25712
 21
409.1625
 31
0.0
  0
LINE
  5
304
100
AcDbEntity
  8
0
  6
CONTINUOUS
 62
     7
100
AcDbLine
 10
709.126213
 20
409.031586
 30
0.0
 11
709.126212
 21
412.27517
 31
0.0
  0
LINE
  5
305
100
AcDbEntity
  8
0
  6
CONTINUOUS
 62
     7
100
AcDbLine
 10
710.888038
 20
412.27517
 30
0.0
 11
710.888037
 21
409.031586
 31
0.0
  0
LINE
  5
306
100
AcDbEntity
  8
0
  6
CONTINUOUS
 62
     7
100
AcDbLine
 10
710.888037
 20
409.031586
 30
0.0
 11
710.757123
 21
409.1625
 31
0.0
  0
LINE
  5
307
100
AcDbEntity
  8
0
  6
CONTINUOUS
 62
     7
100
AcDbLine
 10
710.888037
 20
409.031586
 30
0.0
 11
709.126213
 21
409.031586
 31
0.0
  0
LINE
  5
308
100
AcDbEntity
  8
0
  6
CONTINUOUS
 62
     7
100
AcDbLine
 10
710.888038
 20
349.77517
 30
0.0
 11
710.888037
 21
346.531586
 31
0.0
  0
LWPOLYLINE
  5
309
100
AcDbEntity
  8
0
  6
CONTINUOUS
 62
     7
100
AcDbPolyline
 90
        3
 70
   128
 43
0.0
 10
710.757123
 20
349.877955
 10
710.872689
 20
349.787058
 10
710.888037
 20
349.775166
  0
LINE
  5
30A
100
AcDbEntity
  8
0
  6
CONTINUOUS
 62
     7
100
AcDbLine
 10
710.888037
 20
547.293411
 30
0.0
 11
710.757123
 21
547.162497
 31
0.0
  0
LINE
  5
30B
100
AcDbEntity
  8
0
  6
CONTINUOUS
 62
     7
100
AcDbLine
 10
710.888037
 20
547.293411
 30
0.0
 11
710.888038
 21
544.049827
 31
0.0
  0
LINE
  5
30C
100
AcDbEntity
  8
0
  6
CONTINUOUS
 62
     7
100
AcDbLine
 10
710.888038
 20
544.049827
 30
0.0
 11
710.757125
 21
543.947045
 31
0.0
  0
LINE
  5
30D
100
AcDbEntity
  8
0
  6
CONTINUOUS
 62
     7
100
AcDbLine
 10
709.126213
 20
547.293411
 30
0.0
 11
709.25712
 21
547.162497
 31
0.0
  0
LINE
  5
30E
100
AcDbEntity
  8
0
  6
CONTINUOUS
 62
     7
100
AcDbLine
 10
709.126213
 20
547.293411
 30
0.0
 11
710.888037
 21
547.293411
 31
0.0
  0
LINE
  5
30F
100
AcDbEntity
  8
0
  6
CONTINUOUS
 62
     7
100
AcDbLine
 10
709.126213
 20
471.531586
 30
0.0
 11
709.126212
 21
474.77517
 31
0.0
  0
LINE
  5
310
100
AcDbEntity
  8
0
  6
CONTINUOUS
 62
     7
100
AcDbLine
 10
710.888037
 20
596.531586
 30
0.0
 11
709.126213
 21
596.531586
 31
0.0
  0
LINE
  5
311
100
AcDbEntity
  8
0
  6
CONTINUOUS
 62
     7
100
AcDbLine
 10
709.126212
 20
544.049827
 30
0.0
 11
709.126213
 21
547.293411
 31
0.0
  0
LINE
  5
312
100
AcDbEntity
  8
0
  6
CONTINUOUS
 62
     7
100
AcDbLine
 10
709.126212
 20
606.549827
 30
0.0
 11
709.126213
 21
609.793411
 31
0.0
  0
ARC
  5
313
100
AcDbEntity
  8
0
  6
CONTINUOUS
 62
     7
100
AcDbCircle
 10
710.007125
 20
603.162498
 30
0.0
 40
3.5
100
AcDbArc
 50
284.577506
 51
75.422494
  0
ARC
  5
314
100
AcDbEntity
  8
0
  6
CONTINUOUS
 62
     7
100
AcDbCircle
 10
710.007125
 20
353.162498
 30
0.0
 40
3.5
100
AcDbArc
 50
284.577506
 51
75.422494
  0
ARC
  5
315
100
AcDbEntity
  8
0
  6
CONTINUOUS
 62
     7
100
AcDbCircle
 10
710.007125
 20
540.662498
 30
0.0
 40
3.5
100
AcDbArc
 50
284.577506
 51
75.422494
  0
CIRCLE
  5
316
100
AcDbEntity
  8
0
  6
CONTINUOUS
 62
     7
100
AcDbCircle
 10
717.507125
 20
620.662498
 30
0.0
 40
3.369087
  0
CIRCLE
  5
317
100
AcDbEntity
  8
0
  6
CONTINUOUS
 62
     7
100
AcDbCircle
 10
717.507125
 20
620.662498
 30
0.0
 40
2.0
  0
CIRCLE
  5
318
100
AcDbEntity
  8
0
  6
CONTINUOUS
 62
     7
100
AcDbCircle
 10
717.507125
 20
335.662498
 30
0.0
 40
3.369087
  0
CIRCLE
  5
319
100
AcDbEntity
  8
0
  6
CONTINUOUS
 62
     7
100
AcDbCircle
 10
717.507125
 20
335.662498
 30
0.0
 40
2.0
  0
CIRCLE
  5
31A
100
AcDbEntity
  8
0
  6
CONTINUOUS
 62
     7
100
AcDbCircle
 10
717.507125
 20
335.662498
 30
0.0
 40
3.5
  0
CIRCLE
  5
31B
100
AcDbEntity
  8
0
  6
CONTINUOUS
 62
     7
100
AcDbCircle
 10
717.507125
 20
620.662498
 30
0.0
 40
3.5
  0
CIRCLE
  5
31C
100
AcDbEntity
  8
0
  6
CONTINUOUS
 62
     7
100
AcDbCircle
 10
717.507125
 20
335.662498
 30
0.0
 40
1.982545
  0
CIRCLE
  5
31D
100
AcDbEntity
  8
0
  6
CONTINUOUS
 62
     7
100
AcDbCircle
 10
717.507125
 20
620.662498
 30
0.0
 40
1.982545
  0
CIRCLE
  5
31E
100
AcDbEntity
  8
0
  6
CONTINUOUS
 62
     7
100
AcDbCircle
 10
730.007125
 20
353.162498
 30
0.0
 40
3.369087
  0
CIRCLE
  5
31F
100
AcDbEntity
  8
0
  6
CONTINUOUS
 62
     7
100
AcDbCircle
 10
730.007125
 20
353.162498
 30
0.0
 40
3.5
  0
CIRCLE
  5
320
100
AcDbEntity
  8
0
  6
CONTINUOUS
 62
     7
100
AcDbCircle
 10
730.007125
 20
603.162498
 30
0.0
 40
3.369087
  0
CIRCLE
  5
321
100
AcDbEntity
  8
0
  6
CONTINUOUS
 62
     7
100
AcDbCircle
 10
730.007125
 20
603.162498
 30
0.0
 40
2.0
  0
CIRCLE
  5
322
100
AcDbEntity
  8
0
  6
CONTINUOUS
 62
     7
100
AcDbCircle
 10
730.007125
 20
353.162498
 30
0.0
 40
2.0
  0
CIRCLE
  5
323
100
AcDbEntity
  8
0
  6
CONTINUOUS
 62
     7
100
AcDbCircle
 10
730.007125
 20
603.162498
 30
0.0
 40
3.5
  0
CIRCLE
  5
324
100
AcDbEntity
  8
0
  6
CONTINUOUS
 62
     7
100
AcDbCircle
 10
730.007125
 20
603.162498
 30
0.0
 40
1.982545
  0
CIRCLE
  5
325
100
AcDbEntity
  8
0
  6
CONTINUOUS
 62
     7
100
AcDbCircle
 10
730.007125
 20
353.162498
 30
0.0
 40
1.982545
  0
CIRCLE
  5
326
100
AcDbEntity
  8
0
  6
CONTINUOUS
 62
     7
100
AcDbCircle
 10
734.007125
 20
377.162498
 30
0.0
 40
3.5
  0
CIRCLE
  5
327
100
AcDbEntity
  8
0
  6
CONTINUOUS
 62
     7
100
AcDbCircle
 10
734.007125
 20
377.162498
 30
0.0
 40
3.369087
  0
CIRCLE
  5
328
100
AcDbEntity
  8
0
  6
CONTINUOUS
 62
     7
100
AcDbCircle
 10
734.007125
 20
579.162498
 30
0.0
 40
3.369087
  0
CIRCLE
  5
329
100
AcDbEntity
  8
0
  6
CONTINUOUS
 62
     7
100
AcDbCircle
 10
734.007125
 20
579.162498
 30
0.0
 40
2.0
  0
CIRCLE
  5
32A
100
AcDbEntity
  8
0
  6
CONTINUOUS
 62
     7
100
AcDbCircle
 10
734.007125
 20
377.162498
 30
0.0
 40
2.0
  0
CIRCLE
  5
32B
100
AcDbEntity
  8
0
  6
CONTINUOUS
 62
     7
100
AcDbCircle
 10
734.007125
 20
579.162498
 30
0.0
 40
3.5
  0
CIRCLE
  5
32C
100
AcDbEntity
  8
0
  6
CONTINUOUS
 62
     7
100
AcDbCircle
 10
734.007125
 20
579.162498
 30
0.0
 40
1.982545
  0
CIRCLE
  5
32D
100
AcDbEntity
  8
0
  6
CONTINUOUS
 62
     7
100
AcDbCircle
 10
734.007125
 20
377.162498
 30
0.0
 40
1.982545
  0
CIRCLE
  5
32E
100
AcDbEntity
  8
0
  6
CONTINUOUS
 62
     7
100
AcDbCircle
 10
742.507125
 20
595.662498
 30
0.0
 40
2.0
  0
CIRCLE
  5
32F
100
AcDbEntity
  8
0
  6
CONTINUOUS
 62
     7
100
AcDbCircle
 10
742.507125
 20
595.662498
 30
0.0
 40
1.982545
  0
CIRCLE
  5
330
100
AcDbEntity
  8
0
  6
CONTINUOUS
 62
     7
100
AcDbCircle
 10
742.507125
 20
360.662498
 30
0.0
 40
3.369087
  0
CIRCLE
  5
331
100
AcDbEntity
  8
0
  6
CONTINUOUS
 62
     7
100
AcDbCircle
 10
742.507125
 20
360.662498
 30
0.0
 40
2.0
  0
CIRCLE
  5
332
100
AcDbEntity
  8
0
  6
CONTINUOUS
 62
     7
100
AcDbCircle
 10
742.507125
 20
595.662498
 30
0.0
 40
3.369087
  0
CIRCLE
  5
333
100
AcDbEntity
  8
0
  6
CONTINUOUS
 62
     7
100
AcDbCircle
 10
742.507125
 20
595.662498
 30
0.0
 40
3.5
  0
CIRCLE
  5
334
100
AcDbEntity
  8
0
  6
CONTINUOUS
 62
     7
100
AcDbCircle
 10
742.507125
 20
360.662498
 30
0.0
 40
1.982545
  0
CIRCLE
  5
335
100
AcDbEntity
  8
0
  6
CONTINUOUS
 62
     7
100
AcDbCircle
 10
742.507125
 20
360.662498
 30
0.0
 40
3.5
  0
CIRCLE
  5
336
100
AcDbEntity
  8
0
  6
CONTINUOUS
 62
     7
100
AcDbCircle
 10
754.507125
 20
588.662498
 30
0.0
 40
3.5
  0
CIRCLE
  5
337
100
AcDbEntity
  8
0
  6
CONTINUOUS
 62
     7
100
AcDbCircle
 10
754.507125
 20
588.662498
 30
0.0
 40
3.369087
  0
CIRCLE
  5
338
100
AcDbEntity
  8
0
  6
CONTINUOUS
 62
     7
100
AcDbCircle
 10
754.507125
 20
588.662498
 30
0.0
 40
2.0
  0
CIRCLE
  5
339
100
AcDbEntity
  8
0
  6
CONTINUOUS
 62
     7
100
AcDbCircle
 10
754.507125
 20
588.662498
 30
0.0
 40
1.982545
  0
CIRCLE
  5
33A
100
AcDbEntity
  8
0
  6
CONTINUOUS
 62
     7
100
AcDbCircle
 10
754.507125
 20
367.662498
 30
0.0
 40
2.0
  0
CIRCLE
  5
33B
100
AcDbEntity
  8
0
  6
CONTINUOUS
 62
     7
100
AcDbCircle
 10
754.507125
 20
367.662498
 30
0.0
 40
1.982545
  0
CIRCLE
  5
33C
100
AcDbEntity
  8
0
  6
CONTINUOUS
 62
     7
100
AcDbCircle
 10
754.507125
 20
367.662498
 30
0.0
 40
3.369087
  0
CIRCLE
  5
33D
100
AcDbEntity
  8
0
  6
CONTINUOUS
 62
     7
100
AcDbCircle
 10
754.507125
 20
367.662498
 30
0.0
 40
3.5
  0
LINE
  5
33E
100
AcDbEntity
  8
0
  6
CONTINUOUS
 62
     7
100
AcDbLine
 10
765.876212
 20
326.043413
 30
0.0
 11
766.007127
 21
325.912492
 31
0.0
  0
LINE
  5
33F
100
AcDbEntity
  8
0
  6
CONTINUOUS
 62
     7
100
AcDbLine
 10
766.007127
 20
325.912492
 30
0.0
 11
766.007127
 21
324.412496
 31
0.0
  0
LINE
  5
340
100
AcDbEntity
  8
0
  6
CONTINUOUS
 62
     7
100
AcDbLine
 10
765.876212
 20
324.281589
 30
0.0
 11
766.007127
 21
324.412496
 31
0.0
  0
LINE
  5
341
100
AcDbEntity
  8
0
  6
CONTINUOUS
 62
     7
100
AcDbLine
 10
765.876212
 20
324.281589
 30
0.0
 11
765.876212
 21
326.043413
 31
0.0
  0
LINE
  5
342
100
AcDbEntity
  8
0
  6
CONTINUOUS
 62
     7
100
AcDbLine
 10
765.876212
 20
632.043408
 30
0.0
 11
766.007127
 21
631.912501
 31
0.0
  0
LINE
  5
343
100
AcDbEntity
  8
0
  6
CONTINUOUS
 62
     7
100
AcDbLine
 10
766.007127
 20
631.912501
 30
0.0
 11
766.007127
 21
630.412505
 31
0.0
  0
LINE
  5
344
100
AcDbEntity
  8
0
  6
CONTINUOUS
 62
     7
100
AcDbLine
 10
765.876212
 20
630.281584
 30
0.0
 11
766.007127
 21
630.412505
 31
0.0
  0
LINE
  5
345
100
AcDbEntity
  8
0
  6
CONTINUOUS
 62
     7
100
AcDbLine
 10
765.876212
 20
630.281584
 30
0.0
 11
765.876212
 21
632.043408
 31
0.0
  0
LINE
  5
346
100
AcDbEntity
  8
0
  6
CONTINUOUS
 62
     7
100
AcDbLine
 10
766.007127
 20
630.412505
 30
0.0
 11
769.222578
 21
630.412498
 31
0.0
  0
LINE
  5
347
100
AcDbEntity
  8
0
  6
CONTINUOUS
 62
     7
100
AcDbLine
 10
769.222578
 20
631.912498
 30
0.0
 11
766.007127
 21
631.912501
 31
0.0
  0
ARC
  5
348
100
AcDbEntity
  8
0
  6
CONTINUOUS
 62
     7
100
AcDbCircle
 10
772.507125
 20
631.162498
 30
0.0
 40
3.369087
100
AcDbArc
 50
12.862509
 51
167.137491
  0
LINE
  5
349
100
AcDbEntity
  8
0
  6
CONTINUOUS
 62
     7
100
AcDbLine
 10
779.007123
 20
631.912501
 30
0.0
 11
775.791672
 21
631.912498
 31
0.0
  0
LINE
  5
34A
100
AcDbEntity
  8
0
  6
CONTINUOUS
 62
     7
100
AcDbLine
 10
779.007123
 20
630.412505
 30
0.0
 11
779.007123
 21
631.912501
 31
0.0
  0
LINE
  5
34B
100
AcDbEntity
  8
0
  6
CONTINUOUS
 62
     7
100
AcDbLine
 10
775.791672
 20
630.412498
 30
0.0
 11
779.007123
 21
630.412505
 31
0.0
  0
ARC
  5
34C
100
AcDbEntity
  8
0
  6
CONTINUOUS
 62
     7
100
AcDbCircle
 10
772.507125
 20
631.162498
 30
0.0
 40
3.369087
100
AcDbArc
 50
192.862509
 51
347.137491
  0
CIRCLE
  5
34D
100
AcDbEntity
  8
0
  6
CONTINUOUS
 62
     7
100
AcDbCircle
 10
772.507125
 20
631.162498
 30
0.0
 40
2.0
  0
LINE
  5
34E
100
AcDbEntity
  8
0
  6
CONTINUOUS
 62
     7
100
AcDbLine
 10
769.119797
 20
324.281585
 30
0.0
 11
765.876212
 21
324.281589
 31
0.0
  0
LINE
  5
34F
100
AcDbEntity
  8
0
  6
CONTINUOUS
 62
     7
100
AcDbLine
 10
766.007127
 20
324.412496
 30
0.0
 11
769.222578
 21
324.412498
 31
0.0
  0
LWPOLYLINE
  5
350
100
AcDbEntity
  8
0
  6
CONTINUOUS
 62
     7
100
AcDbPolyline
 90
        3
 70
   128
 43
0.0
 10
769.222581
 20
324.412496
 10
769.131684
 20
324.296938
 10
769.1198
 20
324.281589
  0
LINE
  5
351
100
AcDbEntity
  8
0
  6
CONTINUOUS
 62
     7
100
AcDbLine
 10
779.007123
 20
325.912492
 30
0.0
 11
775.791672
 21
325.912498
 31
0.0
  0
LINE
  5
352
100
AcDbEntity
  8
0
  6
CONTINUOUS
 62
     7
100
AcDbLine
 10
779.007123
 20
324.412496
 30
0.0
 11
779.007123
 21
325.912492
 31
0.0
  0
LINE
  5
353
100
AcDbEntity
  8
0
  6
CONTINUOUS
 62
     7
100
AcDbLine
 10
775.791672
 20
324.412498
 30
0.0
 11
779.007123
 21
324.412496
 31
0.0
  0
ARC
  5
354
100
AcDbEntity
  8
0
  6
CONTINUOUS
 62
     7
100
AcDbCircle
 10
772.507125
 20
325.162498
 30
0.0
 40
3.369087
100
AcDbArc
 50
192.862509
 51
347.137491
  0
LINE
  5
355
100
AcDbEntity
  8
0
  6
CONTINUOUS
 62
     7
100
AcDbLine
 10
769.222578
 20
325.912498
 30
0.0
 11
766.007127
 21
325.912492
 31
0.0
  0
ARC
  5
356
100
AcDbEntity
  8
0
  6
CONTINUOUS
 62
     7
100
AcDbCircle
 10
772.507125
 20
325.162498
 30
0.0
 40
3.369087
100
AcDbArc
 50
12.862509
 51
167.137491
  0
CIRCLE
  5
357
100
AcDbEntity
  8
0
  6
CONTINUOUS
 62
     7
100
AcDbCircle
 10
772.507125
 20
325.162498
 30
0.0
 40
2.0
  0
LINE
  5
358
100
AcDbEntity
  8
0
  6
CONTINUOUS
 62
     7
100
AcDbLine
 10
765.876212
 20
326.043413
 30
0.0
 11
769.119797
 21
326.043411
 31
0.0
  0
LINE
  5
359
100
AcDbEntity
  8
0
  6
CONTINUOUS
 62
     7
100
AcDbLine
 10
769.119797
 20
326.043411
 30
0.0
 11
769.222578
 21
325.912498
 31
0.0
  0
LINE
  5
35A
100
AcDbEntity
  8
0
  6
CONTINUOUS
 62
     7
100
AcDbLine
 10
765.876212
 20
632.043408
 30
0.0
 11
769.119797
 21
632.043411
 31
0.0
  0
LINE
  5
35B
100
AcDbEntity
  8
0
  6
CONTINUOUS
 62
     7
100
AcDbLine
 10
769.119797
 20
632.043411
 30
0.0
 11
769.222578
 21
631.912498
 31
0.0
  0
LINE
  5
35C
100
AcDbEntity
  8
0
  6
CONTINUOUS
 62
     7
100
AcDbLine
 10
769.119797
 20
630.281585
 30
0.0
 11
765.876212
 21
630.281584
 31
0.0
  0
LWPOLYLINE
  5
35D
100
AcDbEntity
  8
0
  6
CONTINUOUS
 62
     7
100
AcDbPolyline
 90
        3
 70
   128
 43
0.0
 10
769.222581
 20
630.412505
 10
769.131684
 20
630.296932
 10
769.1198
 20
630.281584
  0
ARC
  5
35E
100
AcDbEntity
  8
0
  6
CONTINUOUS
 62
     7
100
AcDbCircle
 10
772.507125
 20
325.162498
 30
0.0
 40
3.5
100
AcDbArc
 50
14.577506
 51
165.422494
  0
LWPOLYLINE
  5
35F
100
AcDbEntity
  8
0
  6
CONTINUOUS
 62
     7
100
AcDbPolyline
 90
        3
 70
   128
 43
0.0
 10
775.791672
 20
325.912492
 10
775.882566
 20
326.028065
 10
775.894453
 20
326.043413
  0
LINE
  5
360
100
AcDbEntity
  8
0
  6
CONTINUOUS
 62
     7
100
AcDbLine
 10
775.894453
 20
324.281585
 30
0.0
 11
775.791672
 21
324.412498
 31
0.0
  0
ARC
  5
361
100
AcDbEntity
  8
0
  6
CONTINUOUS
 62
     7
100
AcDbCircle
 10
772.507125
 20
325.162498
 30
0.0
 40
3.5
100
AcDbArc
 50
194.577506
 51
345.422494
  0
LINE
  5
362
100
AcDbEntity
  8
0
  6
CONTINUOUS
 62
     7
100
AcDbLine
 10
775.894453
 20
630.281585
 30
0.0
 11
775.791672
 21
630.412498
 31
0.0
  0
ARC
  5
363
100
AcDbEntity
  8
0
  6
CONTINUOUS
 62
     7
100
AcDbCircle
 10
772.507125
 20
631.162498
 30
0.0
 40
3.5
100
AcDbArc
 50
194.577506
 51
345.422494
  0
ARC
  5
364
100
AcDbEntity
  8
0
  6
CONTINUOUS
 62
     7
100
AcDbCircle
 10
772.507125
 20
631.162498
 30
0.0
 40
3.5
100
AcDbArc
 50
14.577506
 51
165.422494
  0
LWPOLYLINE
  5
365
100
AcDbEntity
  8
0
  6
CONTINUOUS
 62
     7
100
AcDbPolyline
 90
        3
 70
   128
 43
0.0
 10
775.791672
 20
631.912501
 10
775.882566
 20
632.028059
 10
775.894453
 20
632.043408
  0
CIRCLE
  5
366
100
AcDbEntity
  8
0
  6
CONTINUOUS
 62
     7
100
AcDbCircle
 10
772.507125
 20
325.162498
 30
0.0
 40
1.982545
  0
CIRCLE
  5
367
100
AcDbEntity
  8
0
  6
CONTINUOUS
 62
     7
100
AcDbCircle
 10
772.507125
 20
631.162498
 30
0.0
 40
1.982545
  0
LINE
  5
368
100
AcDbEntity
  8
0
  6
CONTINUOUS
 62
     7
100
AcDbLine
 10
779.138037
 20
630.281584
 30
0.0
 11
779.007123
 21
630.412505
 31
0.0
  0
LINE
  5
369
100
AcDbEntity
  8
0
  6
CONTINUOUS
 62
     7
100
AcDbLine
 10
779.138037
 20
630.281584
 30
0.0
 11
775.894453
 21
630.281585
 31
0.0
  0
LINE
  5
36A
100
AcDbEntity
  8
0
  6
CONTINUOUS
 62
     7
100
AcDbLine
 10
775.894453
 20
326.043411
 30
0.0
 11
779.138037
 21
326.043413
 31
0.0
  0
LINE
  5
36B
100
AcDbEntity
  8
0
  6
CONTINUOUS
 62
     7
100
AcDbLine
 10
779.138037
 20
326.043413
 30
0.0
 11
779.007123
 21
325.912492
 31
0.0
  0
LINE
  5
36C
100
AcDbEntity
  8
0
  6
CONTINUOUS
 62
     7
100
AcDbLine
 10
775.894453
 20
632.043411
 30
0.0
 11
779.138037
 21
632.043408
 31
0.0
  0
LINE
  5
36D
100
AcDbEntity
  8
0
  6
CONTINUOUS
 62
     7
100
AcDbLine
 10
779.138037
 20
632.043408
 30
0.0
 11
779.007123
 21
631.912501
 31
0.0
  0
LINE
  5
36E
100
AcDbEntity
  8
0
  6
CONTINUOUS
 62
     7
100
AcDbLine
 10
779.138037
 20
324.281589
 30
0.0
 11
779.007123
 21
324.412496
 31
0.0
  0
LINE
  5
36F
100
AcDbEntity
  8
0
  6
CONTINUOUS
 62
     7
100
AcDbLine
 10
779.138037
 20
324.281589
 30
0.0
 11
775.894453
 21
324.281585
 31
0.0
  0
LINE
  5
370
100
AcDbEntity
  8
0
  6
CONTINUOUS
 62
     7
100
AcDbLine
 10
779.138037
 20
632.043408
 30
0.0
 11
779.138037
 21
630.281584
 31
0.0
  0
LINE
  5
371
100
AcDbEntity
  8
0
  6
CONTINUOUS
 62
     7
100
AcDbLine
 10
779.138037
 20
326.043413
 30
0.0
 11
779.138037
 21
324.281589
 31
0.0
  0
LINE
  5
372
100
AcDbEntity
  8
0
  6
CONTINUOUS
 62
     7
100
AcDbLine
 10
831.722578
 20
325.912498
 30
0.0
 11
828.507125
 21
325.912492
 31
0.0
  0
LINE
  5
373
100
AcDbEntity
  8
0
  6
CONTINUOUS
 62
     7
100
AcDbLine
 10
828.376212
 20
326.043413
 30
0.0
 11
828.507125
 21
325.912492
 31
0.0
  0
LINE
  5
374
100
AcDbEntity
  8
0
  6
CONTINUOUS
 62
     7
100
AcDbLine
 10
828.376212
 20
326.043413
 30
0.0
 11
831.619797
 21
326.043411
 31
0.0
  0
LINE
  5
375
100
AcDbEntity
  8
0
  6
CONTINUOUS
 62
     7
100
AcDbLine
 10
831.619797
 20
326.043411
 30
0.0
 11
831.722578
 21
325.912498
 31
0.0
  0
LINE
  5
376
100
AcDbEntity
  8
0
  6
CONTINUOUS
 62
     7
100
AcDbLine
 10
828.507125
 20
324.412496
 30
0.0
 11
831.722578
 21
324.412498
 31
0.0
  0
LINE
  5
377
100
AcDbEntity
  8
0
  6
CONTINUOUS
 62
     7
100
AcDbLine
 10
828.507125
 20
325.912492
 30
0.0
 11
828.507125
 21
324.412496
 31
0.0
  0
ARC
  5
378
100
AcDbEntity
  8
0
  6
CONTINUOUS
 62
     7
100
AcDbCircle
 10
835.007125
 20
325.162498
 30
0.0
 40
3.369087
100
AcDbArc
 50
12.862509
 51
167.137491
  0
LINE
  5
379
100
AcDbEntity
  8
0
  6
CONTINUOUS
 62
     7
100
AcDbLine
 10
841.507125
 20
325.912492
 30
0.0
 11
838.291672
 21
325.912498
 31
0.0
  0
LINE
  5
37A
100
AcDbEntity
  8
0
  6
CONTINUOUS
 62
     7
100
AcDbLine
 10
841.507125
 20
324.412496
 30
0.0
 11
841.507125
 21
325.912492
 31
0.0
  0
LINE
  5
37B
100
AcDbEntity
  8
0
  6
CONTINUOUS
 62
     7
100
AcDbLine
 10
838.291672
 20
324.412498
 30
0.0
 11
841.507125
 21
324.412496
 31
0.0
  0
ARC
  5
37C
100
AcDbEntity
  8
0
  6
CONTINUOUS
 62
     7
100
AcDbCircle
 10
835.007125
 20
325.162498
 30
0.0
 40
3.369087
100
AcDbArc
 50
192.862509
 51
347.137491
  0
CIRCLE
  5
37D
100
AcDbEntity
  8
0
  6
CONTINUOUS
 62
     7
100
AcDbCircle
 10
835.007125
 20
325.162498
 30
0.0
 40
2.0
  0
LINE
  5
37E
100
AcDbEntity
  8
0
  6
CONTINUOUS
 62
     7
100
AcDbLine
 10
831.619797
 20
324.281585
 30
0.0
 11
828.376212
 21
324.281589
 31
0.0
  0
LINE
  5
37F
100
AcDbEntity
  8
0
  6
CONTINUOUS
 62
     7
100
AcDbLine
 10
828.376212
 20
324.281589
 30
0.0
 11
828.507125
 21
324.412496
 31
0.0
  0
LWPOLYLINE
  5
380
100
AcDbEntity
  8
0
  6
CONTINUOUS
 62
     7
100
AcDbPolyline
 90
        3
 70
   128
 43
0.0
 10
831.722578
 20
324.412496
 10
831.631684
 20
324.296938
 10
831.619797
 20
324.281589
  0
LINE
  5
381
100
AcDbEntity
  8
0
  6
CONTINUOUS
 62
     7
100
AcDbLine
 10
831.619797
 20
630.281585
 30
0.0
 11
828.376212
 21
630.281584
 31
0.0
  0
LINE
  5
382
100
AcDbEntity
  8
0
  6
CONTINUOUS
 62
     7
100
AcDbLine
 10
828.376212
 20
630.281584
 30
0.0
 11
828.507125
 21
630.412505
 31
0.0
  0
LINE
  5
383
100
AcDbEntity
  8
0
  6
CONTINUOUS
 62
     7
100
AcDbLine
 10
828.507125
 20
630.412505
 30
0.0
 11
831.722578
 21
630.412498
 31
0.0
  0
LWPOLYLINE
  5
384
100
AcDbEntity
  8
0
  6
CONTINUOUS
 62
     7
100
AcDbPolyline
 90
        3
 70
   128
 43
0.0
 10
831.722578
 20
630.412505
 10
831.631684
 20
630.296932
 10
831.619797
 20
630.281584
  0
LINE
  5
385
100
AcDbEntity
  8
0
  6
CONTINUOUS
 62
     7
100
AcDbLine
 10
828.507125
 20
631.912501
 30
0.0
 11
828.507125
 21
630.412505
 31
0.0
  0
LINE
  5
386
100
AcDbEntity
  8
0
  6
CONTINUOUS
 62
     7
100
AcDbLine
 10
831.722578
 20
631.912498
 30
0.0
 11
828.507125
 21
631.912501
 31
0.0
  0
ARC
  5
387
100
AcDbEntity
  8
0
  6
CONTINUOUS
 62
     7
100
AcDbCircle
 10
835.007125
 20
631.162498
 30
0.0
 40
3.369087
100
AcDbArc
 50
12.862509
 51
167.137491
  0
LINE
  5
388
100
AcDbEntity
  8
0
  6
CONTINUOUS
 62
     7
100
AcDbLine
 10
841.507125
 20
631.912501
 30
0.0
 11
838.291672
 21
631.912498
 31
0.0
  0
LINE
  5
389
100
AcDbEntity
  8
0
  6
CONTINUOUS
 62
     7
100
AcDbLine
 10
841.507125
 20
630.412505
 30
0.0
 11
841.507125
 21
631.912501
 31
0.0
  0
LINE
  5
38A
100
AcDbEntity
  8
0
  6
CONTINUOUS
 62
     7
100
AcDbLine
 10
838.291672
 20
630.412498
 30
0.0
 11
841.507125
 21
630.412505
 31
0.0
  0
ARC
  5
38B
100
AcDbEntity
  8
0
  6
CONTINUOUS
 62
     7
100
AcDbCircle
 10
835.007125
 20
631.162498
 30
0.0
 40
3.369087
100
AcDbArc
 50
192.862509
 51
347.137491
  0
CIRCLE
  5
38C
100
AcDbEntity
  8
0
  6
CONTINUOUS
 62
     7
100
AcDbCircle
 10
835.007125
 20
631.162498
 30
0.0
 40
2.0
  0
LINE
  5
38D
100
AcDbEntity
  8
0
  6
CONTINUOUS
 62
     7
100
AcDbLine
 10
828.376212
 20
632.043408
 30
0.0
 11
828.507125
 21
631.912501
 31
0.0
  0
LINE
  5
38E
100
AcDbEntity
  8
0
  6
CONTINUOUS
 62
     7
100
AcDbLine
 10
828.376212
 20
632.043408
 30
0.0
 11
831.619797
 21
632.043411
 31
0.0
  0
LINE
  5
38F
100
AcDbEntity
  8
0
  6
CONTINUOUS
 62
     7
100
AcDbLine
 10
831.619797
 20
632.043411
 30
0.0
 11
831.722578
 21
631.912498
 31
0.0
  0
LINE
  5
390
100
AcDbEntity
  8
0
  6
CONTINUOUS
 62
     7
100
AcDbLine
 10
828.376212
 20
324.281589
 30
0.0
 11
828.376212
 21
326.043413
 31
0.0
  0
LINE
  5
391
100
AcDbEntity
  8
0
  6
CONTINUOUS
 62
     7
100
AcDbLine
 10
828.376212
 20
630.281584
 30
0.0
 11
828.376212
 21
632.043408
 31
0.0
  0
LINE
  5
392
100
AcDbEntity
  8
0
  6
CONTINUOUS
 62
     7
100
AcDbLine
 10
838.394453
 20
630.281585
 30
0.0
 11
838.291672
 21
630.412498
 31
0.0
  0
ARC
  5
393
100
AcDbEntity
  8
0
  6
CONTINUOUS
 62
     7
100
AcDbCircle
 10
835.007125
 20
631.162498
 30
0.0
 40
3.5
100
AcDbArc
 50
194.577506
 51
345.422494
  0
ARC
  5
394
100
AcDbEntity
  8
0
  6
CONTINUOUS
 62
     7
100
AcDbCircle
 10
835.007125
 20
631.162498
 30
0.0
 40
3.5
100
AcDbArc
 50
14.577506
 51
165.422494
  0
LWPOLYLINE
  5
395
100
AcDbEntity
  8
0
  6
CONTINUOUS
 62
     7
100
AcDbPolyline
 90
        3
 70
   128
 43
0.0
 10
838.291672
 20
631.912501
 10
838.382566
 20
632.028059
 10
838.394453
 20
632.043408
  0
ARC
  5
396
100
AcDbEntity
  8
0
  6
CONTINUOUS
 62
     7
100
AcDbCircle
 10
835.007125
 20
325.162498
 30
0.0
 40
3.5
100
AcDbArc
 50
14.577506
 51
165.422494
  0
LWPOLYLINE
  5
397
100
AcDbEntity
  8
0
  6
CONTINUOUS
 62
     7
100
AcDbPolyline
 90
        3
 70
   128
 43
0.0
 10
838.291672
 20
325.912492
 10
838.382566
 20
326.028065
 10
838.394453
 20
326.043413
  0
LINE
  5
398
100
AcDbEntity
  8
0
  6
CONTINUOUS
 62
     7
100
AcDbLine
 10
838.394453
 20
324.281585
 30
0.0
 11
838.291672
 21
324.412498
 31
0.0
  0
ARC
  5
399
100
AcDbEntity
  8
0
  6
CONTINUOUS
 62
     7
100
AcDbCircle
 10
835.007125
 20
325.162498
 30
0.0
 40
3.5
100
AcDbArc
 50
194.577506
 51
345.422494
  0
CIRCLE
  5
39A
100
AcDbEntity
  8
0
  6
CONTINUOUS
 62
     7
100
AcDbCircle
 10
835.007125
 20
631.162498
 30
0.0
 40
1.982545
  0
CIRCLE
  5
39B
100
AcDbEntity
  8
0
  6
CONTINUOUS
 62
     7
100
AcDbCircle
 10
835.007125
 20
325.162498
 30
0.0
 40
1.982545
  0
LINE
  5
39C
100
AcDbEntity
  8
0
  6
CONTINUOUS
 62
     7
100
AcDbLine
 10
838.394453
 20
632.043411
 30
0.0
 11
841.638038
 21
632.043408
 31
0.0
  0
LINE
  5
39D
100
AcDbEntity
  8
0
  6
CONTINUOUS
 62
     7
100
AcDbLine
 10
841.638038
 20
632.043408
 30
0.0
 11
841.507125
 21
631.912501
 31
0.0
  0
LINE
  5
39E
100
AcDbEntity
  8
0
  6
CONTINUOUS
 62
     7
100
AcDbLine
 10
838.394453
 20
326.043411
 30
0.0
 11
841.638038
 21
326.043413
 31
0.0
  0
LINE
  5
39F
100
AcDbEntity
  8
0
  6
CONTINUOUS
 62
     7
100
AcDbLine
 10
841.638038
 20
326.043413
 30
0.0
 11
841.507125
 21
325.912492
 31
0.0
  0
LINE
  5
3A0
100
AcDbEntity
  8
0
  6
CONTINUOUS
 62
     7
100
AcDbLine
 10
841.638038
 20
630.281584
 30
0.0
 11
841.507125
 21
630.412505
 31
0.0
  0
LINE
  5
3A1
100
AcDbEntity
  8
0
  6
CONTINUOUS
 62
     7
100
AcDbLine
 10
841.638038
 20
630.281584
 30
0.0
 11
838.394453
 21
630.281585
 31
0.0
  0
LINE
  5
3A2
100
AcDbEntity
  8
0
  6
CONTINUOUS
 62
     7
100
AcDbLine
 10
841.638038
 20
324.281589
 30
0.0
 11
841.507125
 21
324.412496
 31
0.0
  0
LINE
  5
3A3
100
AcDbEntity
  8
0
  6
CONTINUOUS
 62
     7
100
AcDbLine
 10
841.638038
 20
324.281589
 30
0.0
 11
838.394453
 21
324.281585
 31
0.0
  0
LINE
  5
3A4
100
AcDbEntity
  8
0
  6
CONTINUOUS
 62
     7
100
AcDbLine
 10
841.638038
 20
326.043413
 30
0.0
 11
841.638038
 21
324.281589
 31
0.0
  0
LINE
  5
3A5
100
AcDbEntity
  8
0
  6
CONTINUOUS
 62
     7
100
AcDbLine
 10
841.638038
 20
632.043408
 30
0.0
 11
841.638038
 21
630.281584
 31
0.0
  0
LINE
  5
3A6
100
AcDbEntity
  8
0
  6
CONTINUOUS
 62
     7
100
AcDbLine
 10
894.119797
 20
630.281585
 30
0.0
 11
890.876212
 21
630.281584
 31
0.0
  0
LINE
  5
3A7
100
AcDbEntity
  8
0
  6
CONTINUOUS
 62
     7
100
AcDbLine
 10
890.876212
 20
630.281584
 30
0.0
 11
891.007127
 21
630.412505
 31
0.0
  0
LINE
  5
3A8
100
AcDbEntity
  8
0
  6
CONTINUOUS
 62
     7
100
AcDbLine
 10
891.007127
 20
630.412505
 30
0.0
 11
894.222578
 21
630.412498
 31
0.0
  0
LWPOLYLINE
  5
3A9
100
AcDbEntity
  8
0
  6
CONTINUOUS
 62
     7
100
AcDbPolyline
 90
        3
 70
   128
 43
0.0
 10
894.222577
 20
630.412505
 10
894.131684
 20
630.296932
 10
894.119797
 20
630.281584
  0
LINE
  5
3AA
100
AcDbEntity
  8
0
  6
CONTINUOUS
 62
     7
100
AcDbLine
 10
894.222578
 20
631.912498
 30
0.0
 11
891.007127
 21
631.912501
 31
0.0
  0
LINE
  5
3AB
100
AcDbEntity
  8
0
  6
CONTINUOUS
 62
     7
100
AcDbLine
 10
890.876212
 20
632.043408
 30
0.0
 11
891.007127
 21
631.912501
 31
0.0
  0
LINE
  5
3AC
100
AcDbEntity
  8
0
  6
CONTINUOUS
 62
     7
100
AcDbLine
 10
890.876212
 20
632.043408
 30
0.0
 11
894.119797
 21
632.043411
 31
0.0
  0
LINE
  5
3AD
100
AcDbEntity
  8
0
  6
CONTINUOUS
 62
     7
100
AcDbLine
 10
894.119797
 20
632.043411
 30
0.0
 11
894.222578
 21
631.912498
 31
0.0
  0
LINE
  5
3AE
100
AcDbEntity
  8
0
  6
CONTINUOUS
 62
     7
100
AcDbLine
 10
904.007123
 20
325.912492
 30
0.0
 11
900.791672
 21
325.912498
 31
0.0
  0
LINE
  5
3AF
100
AcDbEntity
  8
0
  6
CONTINUOUS
 62
     7
100
AcDbLine
 10
904.007123
 20
324.412496
 30
0.0
 11
904.007123
 21
325.912492
 31
0.0
  0
LINE
  5
3B0
100
AcDbEntity
  8
0
  6
CONTINUOUS
 62
     7
100
AcDbLine
 10
900.791672
 20
324.412498
 30
0.0
 11
904.007123
 21
324.412496
 31
0.0
  0
ARC
  5
3B1
100
AcDbEntity
  8
0
  6
CONTINUOUS
 62
     7
100
AcDbCircle
 10
897.507125
 20
325.162498
 30
0.0
 40
3.369087
100
AcDbArc
 50
192.862509
 51
347.137491
  0
LINE
  5
3B2
100
AcDbEntity
  8
0
  6
CONTINUOUS
 62
     7
100
AcDbLine
 10
891.007127
 20
324.412496
 30
0.0
 11
894.222578
 21
324.412498
 31
0.0
  0
LINE
  5
3B3
100
AcDbEntity
  8
0
  6
CONTINUOUS
 62
     7
100
AcDbLine
 10
891.007127
 20
325.912492
 30
0.0
 11
891.007127
 21
324.412496
 31
0.0
  0
LINE
  5
3B4
100
AcDbEntity
  8
0
  6
CONTINUOUS
 62
     7
100
AcDbLine
 10
894.222578
 20
325.912498
 30
0.0
 11
891.007127
 21
325.912492
 31
0.0
  0
ARC
  5
3B5
100
AcDbEntity
  8
0
  6
CONTINUOUS
 62
     7
100
AcDbCircle
 10
897.507125
 20
325.162498
 30
0.0
 40
3.369087
100
AcDbArc
 50
12.862509
 51
167.137491
  0
CIRCLE
  5
3B6
100
AcDbEntity
  8
0
  6
CONTINUOUS
 62
     7
100
AcDbCircle
 10
897.507125
 20
325.162498
 30
0.0
 40
2.0
  0
LINE
  5
3B7
100
AcDbEntity
  8
0
  6
CONTINUOUS
 62
     7
100
AcDbLine
 10
891.007127
 20
631.912501
 30
0.0
 11
891.007127
 21
630.412505
 31
0.0
  0
LINE
  5
3B8
100
AcDbEntity
  8
0
  6
CONTINUOUS
 62
     7
100
AcDbLine
 10
890.876212
 20
630.281584
 30
0.0
 11
890.876212
 21
632.043408
 31
0.0
  0
LINE
  5
3B9
100
AcDbEntity
  8
0
  6
CONTINUOUS
 62
     7
100
AcDbLine
 10
890.876212
 20
326.043413
 30
0.0
 11
891.007127
 21
325.912492
 31
0.0
  0
LINE
  5
3BA
100
AcDbEntity
  8
0
  6
CONTINUOUS
 62
     7
100
AcDbLine
 10
890.876212
 20
326.043413
 30
0.0
 11
894.119797
 21
326.043411
 31
0.0
  0
LINE
  5
3BB
100
AcDbEntity
  8
0
  6
CONTINUOUS
 62
     7
100
AcDbLine
 10
894.119797
 20
326.043411
 30
0.0
 11
894.222578
 21
325.912498
 31
0.0
  0
ARC
  5
3BC
100
AcDbEntity
  8
0
  6
CONTINUOUS
 62
     7
100
AcDbCircle
 10
897.507125
 20
631.162498
 30
0.0
 40
3.369087
100
AcDbArc
 50
12.862509
 51
167.137491
  0
LINE
  5
3BD
100
AcDbEntity
  8
0
  6
CONTINUOUS
 62
     7
100
AcDbLine
 10
904.007123
 20
631.912501
 30
0.0
 11
900.791672
 21
631.912498
 31
0.0
  0
LINE
  5
3BE
100
AcDbEntity
  8
0
  6
CONTINUOUS
 62
     7
100
AcDbLine
 10
904.007123
 20
630.412505
 30
0.0
 11
904.007123
 21
631.912501
 31
0.0
  0
LINE
  5
3BF
100
AcDbEntity
  8
0
  6
CONTINUOUS
 62
     7
100
AcDbLine
 10
900.791672
 20
630.412498
 30
0.0
 11
904.007123
 21
630.412505
 31
0.0
  0
ARC
  5
3C0
100
AcDbEntity
  8
0
  6
CONTINUOUS
 62
     7
100
AcDbCircle
 10
897.507125
 20
631.162498
 30
0.0
 40
3.369087
100
AcDbArc
 50
192.862509
 51
347.137491
  0
CIRCLE
  5
3C1
100
AcDbEntity
  8
0
  6
CONTINUOUS
 62
     7
100
AcDbCircle
 10
897.507125
 20
631.162498
 30
0.0
 40
2.0
  0
LINE
  5
3C2
100
AcDbEntity
  8
0
  6
CONTINUOUS
 62
     7
100
AcDbLine
 10
890.876212
 20
324.281589
 30
0.0
 11
891.007127
 21
324.412496
 31
0.0
  0
LINE
  5
3C3
100
AcDbEntity
  8
0
  6
CONTINUOUS
 62
     7
100
AcDbLine
 10
890.876212
 20
324.281589
 30
0.0
 11
890.876212
 21
326.043413
 31
0.0
  0
LINE
  5
3C4
100
AcDbEntity
  8
0
  6
CONTINUOUS
 62
     7
100
AcDbLine
 10
894.119797
 20
324.281585
 30
0.0
 11
890.876212
 21
324.281589
 31
0.0
  0
LWPOLYLINE
  5
3C5
100
AcDbEntity
  8
0
  6
CONTINUOUS
 62
     7
100
AcDbPolyline
 90
        3
 70
   128
 43
0.0
 10
894.222577
 20
324.412496
 10
894.131684
 20
324.296938
 10
894.119797
 20
324.281589
  0
LINE
  5
3C6
100
AcDbEntity
  8
0
  6
CONTINUOUS
 62
     7
100
AcDbLine
 10
900.894453
 20
630.281585
 30
0.0
 11
900.791672
 21
630.412498
 31
0.0
  0
ARC
  5
3C7
100
AcDbEntity
  8
0
  6
CONTINUOUS
 62
     7
100
AcDbCircle
 10
897.507125
 20
631.162498
 30
0.0
 40
3.5
100
AcDbArc
 50
194.577506
 51
345.422494
  0
CIRCLE
  5
3C8
100
AcDbEntity
  8
0
  6
CONTINUOUS
 62
     7
100
AcDbCircle
 10
897.507125
 20
325.162498
 30
0.0
 40
1.982545
  0
ARC
  5
3C9
100
AcDbEntity
  8
0
  6
CONTINUOUS
 62
     7
100
AcDbCircle
 10
897.507125
 20
631.162498
 30
0.0
 40
3.5
100
AcDbArc
 50
14.577506
 51
165.422494
  0
LWPOLYLINE
  5
3CA
100
AcDbEntity
  8
0
  6
CONTINUOUS
 62
     7
100
AcDbPolyline
 90
        3
 70
   128
 43
0.0
 10
900.791669
 20
631.912501
 10
900.882566
 20
632.028059
 10
900.894449
 20
632.043408
  0
ARC
  5
3CB
100
AcDbEntity
  8
0
  6
CONTINUOUS
 62
     7
100
AcDbCircle
 10
897.507125
 20
325.162498
 30
0.0
 40
3.5
100
AcDbArc
 50
14.577506
 51
165.422494
  0
LWPOLYLINE
  5
3CC
100
AcDbEntity
  8
0
  6
CONTINUOUS
 62
     7
100
AcDbPolyline
 90
        3
 70
   128
 43
0.0
 10
900.791669
 20
325.912492
 10
900.882566
 20
326.028065
 10
900.894449
 20
326.043413
  0
LINE
  5
3CD
100
AcDbEntity
  8
0
  6
CONTINUOUS
 62
     7
100
AcDbLine
 10
900.894453
 20
324.281585
 30
0.0
 11
900.791672
 21
324.412498
 31
0.0
  0
ARC
  5
3CE
100
AcDbEntity
  8
0
  6
CONTINUOUS
 62
     7
100
AcDbCircle
 10
897.507125
 20
325.162498
 30
0.0
 40
3.5
100
AcDbArc
 50
194.577506
 51
345.422494
  0
CIRCLE
  5
3CF
100
AcDbEntity
  8
0
  6
CONTINUOUS
 62
     7
100
AcDbCircle
 10
897.507125
 20
631.162498
 30
0.0
 40
1.982545
  0
LINE
  5
3D0
100
AcDbEntity
  8
0
  6
CONTINUOUS
 62
     7
100
AcDbLine
 10
900.894453
 20
632.043411
 30
0.0
 11
904.138037
 21
632.043408
 31
0.0
  0
LINE
  5
3D1
100
AcDbEntity
  8
0
  6
CONTINUOUS
 62
     7
100
AcDbLine
 10
904.138037
 20
632.043408
 30
0.0
 11
904.007123
 21
631.912501
 31
0.0
  0
LINE
  5
3D2
100
AcDbEntity
  8
0
  6
CONTINUOUS
 62
     7
100
AcDbLine
 10
900.894453
 20
326.043411
 30
0.0
 11
904.138037
 21
326.043413
 31
0.0
  0
LINE
  5
3D3
100
AcDbEntity
  8
0
  6
CONTINUOUS
 62
     7
100
AcDbLine
 10
904.138037
 20
326.043413
 30
0.0
 11
904.007123
 21
325.912492
 31
0.0
  0
LINE
  5
3D4
100
AcDbEntity
  8
0
  6
CONTINUOUS
 62
     7
100
AcDbLine
 10
904.138037
 20
630.281584
 30
0.0
 11
904.007123
 21
630.412505
 31
0.0
  0
LINE
  5
3D5
100
AcDbEntity
  8
0
  6
CONTINUOUS
 62
     7
100
AcDbLine
 10
904.138037
 20
630.281584
 30
0.0
 11
900.894453
 21
630.281585
 31
0.0
  0
LINE
  5
3D6
100
AcDbEntity
  8
0
  6
CONTINUOUS
 62
     7
100
AcDbLine
 10
904.138037
 20
324.281589
 30
0.0
 11
904.007123
 21
324.412496
 31
0.0
  0
LINE
  5
3D7
100
AcDbEntity
  8
0
  6
CONTINUOUS
 62
     7
100
AcDbLine
 10
904.138037
 20
324.281589
 30
0.0
 11
900.894453
 21
324.281585
 31
0.0
  0
LINE
  5
3D8
100
AcDbEntity
  8
0
  6
CONTINUOUS
 62
     7
100
AcDbLine
 10
904.138037
 20
326.043413
 30
0.0
 11
904.138037
 21
324.281589
 31
0.0
  0
LINE
  5
3D9
100
AcDbEntity
  8
0
  6
CONTINUOUS
 62
     7
100
AcDbLine
 10
904.138037
 20
632.043408
 30
0.0
 11
904.138037
 21
630.281584
 31
0.0
  0
CIRCLE
  5
3DA
100
AcDbEntity
  8
0
  6
CONTINUOUS
 62
     7
100
AcDbCircle
 10
915.507125
 20
367.662498
 30
0.0
 40
2.0
  0
CIRCLE
  5
3DB
100
AcDbEntity
  8
0
  6
CONTINUOUS
 62
     7
100
AcDbCircle
 10
915.507125
 20
367.662498
 30
0.0
 40
1.982545
  0
CIRCLE
  5
3DC
100
AcDbEntity
  8
0
  6
CONTINUOUS
 62
     7
100
AcDbCircle
 10
915.507125
 20
588.662498
 30
0.0
 40
3.369087
  0
CIRCLE
  5
3DD
100
AcDbEntity
  8
0
  6
CONTINUOUS
 62
     7
100
AcDbCircle
 10
915.507125
 20
588.662498
 30
0.0
 40
2.0
  0
CIRCLE
  5
3DE
100
AcDbEntity
  8
0
  6
CONTINUOUS
 62
     7
100
AcDbCircle
 10
915.507125
 20
588.662498
 30
0.0
 40
3.5
  0
CIRCLE
  5
3DF
100
AcDbEntity
  8
0
  6
CONTINUOUS
 62
     7
100
AcDbCircle
 10
915.507125
 20
588.662498
 30
0.0
 40
1.982545
  0
CIRCLE
  5
3E0
100
AcDbEntity
  8
0
  6
CONTINUOUS
 62
     7
100
AcDbCircle
 10
915.507125
 20
367.662498
 30
0.0
 40
3.5
  0
CIRCLE
  5
3E1
100
AcDbEntity
  8
0
  6
CONTINUOUS
 62
     7
100
AcDbCircle
 10
915.507125
 20
367.662498
 30
0.0
 40
3.369087
  0
CIRCLE
  5
3E2
100
AcDbEntity
  8
0
  6
CONTINUOUS
 62
     7
100
AcDbCircle
 10
927.507125
 20
595.662498
 30
0.0
 40
3.369087
  0
CIRCLE
  5
3E3
100
AcDbEntity
  8
0
  6
CONTINUOUS
 62
     7
100
AcDbCircle
 10
927.507125
 20
595.662498
 30
0.0
 40
2.0
  0
CIRCLE
  5
3E4
100
AcDbEntity
  8
0
  6
CONTINUOUS
 62
     7
100
AcDbCircle
 10
927.507125
 20
360.662498
 30
0.0
 40
3.369087
  0
CIRCLE
  5
3E5
100
AcDbEntity
  8
0
  6
CONTINUOUS
 62
     7
100
AcDbCircle
 10
927.507125
 20
360.662498
 30
0.0
 40
2.0
  0
CIRCLE
  5
3E6
100
AcDbEntity
  8
0
  6
CONTINUOUS
 62
     7
100
AcDbCircle
 10
927.507125
 20
595.662498
 30
0.0
 40
3.5
  0
CIRCLE
  5
3E7
100
AcDbEntity
  8
0
  6
CONTINUOUS
 62
     7
100
AcDbCircle
 10
927.507125
 20
360.662498
 30
0.0
 40
3.5
  0
CIRCLE
  5
3E8
100
AcDbEntity
  8
0
  6
CONTINUOUS
 62
     7
100
AcDbCircle
 10
927.507125
 20
595.662498
 30
0.0
 40
1.982545
  0
CIRCLE
  5
3E9
100
AcDbEntity
  8
0
  6
CONTINUOUS
 62
     7
100
AcDbCircle
 10
927.507125
 20
360.662498
 30
0.0
 40
1.982545
  0
CIRCLE
  5
3EA
100
AcDbEntity
  8
0
  6
CONTINUOUS
 62
     7
100
AcDbCircle
 10
936.007125
 20
377.162498
 30
0.0
 40
3.369087
  0
CIRCLE
  5
3EB
100
AcDbEntity
  8
0
  6
CONTINUOUS
 62
     7
100
AcDbCircle
 10
936.007125
 20
377.162498
 30
0.0
 40
2.0
  0
CIRCLE
  5
3EC
100
AcDbEntity
  8
0
  6
CONTINUOUS
 62
     7
100
AcDbCircle
 10
936.007125
 20
377.162498
 30
0.0
 40
3.5
  0
CIRCLE
  5
3ED
100
AcDbEntity
  8
0
  6
CONTINUOUS
 62
     7
100
AcDbCircle
 10
936.007125
 20
579.162498
 30
0.0
 40
3.369087
  0
CIRCLE
  5
3EE
100
AcDbEntity
  8
0
  6
CONTINUOUS
 62
     7
100
AcDbCircle
 10
936.007125
 20
579.162498
 30
0.0
 40
2.0
  0
CIRCLE
  5
3EF
100
AcDbEntity
  8
0
  6
CONTINUOUS
 62
     7
100
AcDbCircle
 10
936.007125
 20
579.162498
 30
0.0
 40
3.5
  0
CIRCLE
  5
3F0
100
AcDbEntity
  8
0
  6
CONTINUOUS
 62
     7
100
AcDbCircle
 10
936.007125
 20
579.162498
 30
0.0
 40
1.982545
  0
CIRCLE
  5
3F1
100
AcDbEntity
  8
0
  6
CONTINUOUS
 62
     7
100
AcDbCircle
 10
936.007125
 20
377.162498
 30
0.0
 40
1.982545
  0
CIRCLE
  5
3F2
100
AcDbEntity
  8
0
  6
CONTINUOUS
 62
     7
100
AcDbCircle
 10
940.007125
 20
353.162498
 30
0.0
 40
3.369087
  0
CIRCLE
  5
3F3
100
AcDbEntity
  8
0
  6
CONTINUOUS
 62
     7
100
AcDbCircle
 10
940.007125
 20
353.162498
 30
0.0
 40
2.0
  0
CIRCLE
  5
3F4
100
AcDbEntity
  8
0
  6
CONTINUOUS
 62
     7
100
AcDbCircle
 10
940.007125
 20
603.162498
 30
0.0
 40
3.369087
  0
CIRCLE
  5
3F5
100
AcDbEntity
  8
0
  6
CONTINUOUS
 62
     7
100
AcDbCircle
 10
940.007125
 20
603.162498
 30
0.0
 40
3.5
  0
CIRCLE
  5
3F6
100
AcDbEntity
  8
0
  6
CONTINUOUS
 62
     7
100
AcDbCircle
 10
940.007125
 20
353.162498
 30
0.0
 40
3.5
  0
CIRCLE
  5
3F7
100
AcDbEntity
  8
0
  6
CONTINUOUS
 62
     7
100
AcDbCircle
 10
940.007125
 20
603.162498
 30
0.0
 40
2.0
  0
CIRCLE
  5
3F8
100
AcDbEntity
  8
0
  6
CONTINUOUS
 62
     7
100
AcDbCircle
 10
940.007125
 20
353.162498
 30
0.0
 40
1.982545
  0
CIRCLE
  5
3F9
100
AcDbEntity
  8
0
  6
CONTINUOUS
 62
     7
100
AcDbCircle
 10
940.007125
 20
603.162498
 30
0.0
 40
1.982545
  0
CIRCLE
  5
3FA
100
AcDbEntity
  8
0
  6
CONTINUOUS
 62
     7
100
AcDbCircle
 10
952.507125
 20
620.662498
 30
0.0
 40
3.369087
  0
CIRCLE
  5
3FB
100
AcDbEntity
  8
0
  6
CONTINUOUS
 62
     7
100
AcDbCircle
 10
952.507125
 20
620.662498
 30
0.0
 40
2.0
  0
CIRCLE
  5
3FC
100
AcDbEntity
  8
0
  6
CONTINUOUS
 62
     7
100
AcDbCircle
 10
952.507125
 20
335.662498
 30
0.0
 40
3.369087
  0
CIRCLE
  5
3FD
100
AcDbEntity
  8
0
  6
CONTINUOUS
 62
     7
100
AcDbCircle
 10
952.507125
 20
335.662498
 30
0.0
 40
2.0
  0
CIRCLE
  5
3FE
100
AcDbEntity
  8
0
  6
CONTINUOUS
 62
     7
100
AcDbCircle
 10
952.507125
 20
335.662498
 30
0.0
 40
3.5
  0
CIRCLE
  5
3FF
100
AcDbEntity
  8
0
  6
CONTINUOUS
 62
     7
100
AcDbCircle
 10
952.507125
 20
620.662498
 30
0.0
 40
3.5
  0
CIRCLE
  5
400
100
AcDbEntity
  8
0
  6
CONTINUOUS
 62
     7
100
AcDbCircle
 10
952.507125
 20
335.662498
 30
0.0
 40
1.982545
  0
CIRCLE
  5
401
100
AcDbEntity
  8
0
  6
CONTINUOUS
 62
     7
100
AcDbCircle
 10
952.507125
 20
620.662498
 30
0.0
 40
1.982545
  0
LINE
  5
402
100
AcDbEntity
  8
0
  6
CONTINUOUS
 62
     7
100
AcDbLine
 10
959.126212
 20
349.77517
 30
0.0
 11
959.257125
 21
349.877952
 31
0.0
  0
ARC
  5
403
100
AcDbEntity
  8
0
  6
CONTINUOUS
 62
     7
100
AcDbCircle
 10
960.007125
 20
353.162498
 30
0.0
 40
3.5
100
AcDbArc
 50
104.577506
 51
255.422494
  0
LWPOLYLINE
  5
404
100
AcDbEntity
  8
0
  6
CONTINUOUS
 62
     7
100
AcDbPolyline
 90
        3
 70
   128
 43
0.0
 10
959.257127
 20
356.447042
 10
959.141561
 20
356.537939
 10
959.126213
 20
356.549823
  0
ARC
  5
405
100
AcDbEntity
  8
0
  6
CONTINUOUS
 62
     7
100
AcDbCircle
 10
960.007125
 20
353.162498
 30
0.0
 40
3.369087
100
AcDbArc
 50
102.862509
 51
257.137491
  0
LINE
  5
406
100
AcDbEntity
  8
0
  6
CONTINUOUS
 62
     7
100
AcDbLine
 10
959.126212
 20
412.27517
 30
0.0
 11
959.257125
 21
412.377952
 31
0.0
  0
ARC
  5
407
100
AcDbEntity
  8
0
  6
CONTINUOUS
 62
     7
100
AcDbCircle
 10
960.007125
 20
415.662498
 30
0.0
 40
3.5
100
AcDbArc
 50
104.577506
 51
255.422494
  0
LWPOLYLINE
  5
408
100
AcDbEntity
  8
0
  6
CONTINUOUS
 62
     7
100
AcDbPolyline
 90
        3
 70
   128
 43
0.0
 10
959.257127
 20
418.947046
 10
959.141561
 20
419.037939
 10
959.126213
 20
419.049827
  0
ARC
  5
409
100
AcDbEntity
  8
0
  6
CONTINUOUS
 62
     7
100
AcDbCircle
 10
960.007125
 20
415.662498
 30
0.0
 40
3.369087
100
AcDbArc
 50
102.862509
 51
257.137491
  0
LINE
  5
40A
100
AcDbEntity
  8
0
  6
CONTINUOUS
 62
     7
100
AcDbLine
 10
959.126212
 20
599.77517
 30
0.0
 11
959.257125
 21
599.877952
 31
0.0
  0
ARC
  5
40B
100
AcDbEntity
  8
0
  6
CONTINUOUS
 62
     7
100
AcDbCircle
 10
960.007125
 20
603.162498
 30
0.0
 40
3.5
100
AcDbArc
 50
104.577506
 51
255.422494
  0
LWPOLYLINE
  5
40C
100
AcDbEntity
  8
0
  6
CONTINUOUS
 62
     7
100
AcDbPolyline
 90
        3
 70
   128
 43
0.0
 10
959.257127
 20
606.447042
 10
959.141561
 20
606.537939
 10
959.126213
 20
606.54983
  0
ARC
  5
40D
100
AcDbEntity
  8
0
  6
CONTINUOUS
 62
     7
100
AcDbCircle
 10
960.007125
 20
603.162498
 30
0.0
 40
3.369087
100
AcDbArc
 50
102.862509
 51
257.137491
  0
LINE
  5
40E
100
AcDbEntity
  8
0
  6
CONTINUOUS
 62
     7
100
AcDbLine
 10
959.126212
 20
537.27517
 30
0.0
 11
959.257125
 21
537.377952
 31
0.0
  0
ARC
  5
40F
100
AcDbEntity
  8
0
  6
CONTINUOUS
 62
     7
100
AcDbCircle
 10
960.007125
 20
540.662498
 30
0.0
 40
3.5
100
AcDbArc
 50
104.577506
 51
255.422494
  0
LWPOLYLINE
  5
410
100
AcDbEntity
  8
0
  6
CONTINUOUS
 62
     7
100
AcDbPolyline
 90
        3
 70
   128
 43
0.0
 10
959.257127
 20
543.947042
 10
959.141561
 20
544.037939
 10
959.126213
 20
544.049823
  0
ARC
  5
411
100
AcDbEntity
  8
0
  6
CONTINUOUS
 62
     7
100
AcDbCircle
 10
960.007125
 20
540.662498
 30
0.0
 40
3.369087
100
AcDbArc
 50
102.862509
 51
257.137491
  0
LINE
  5
412
100
AcDbEntity
  8
0
  6
CONTINUOUS
 62
     7
100
AcDbLine
 10
959.257127
 20
422.162497
 30
0.0
 11
959.257125
 21
418.947045
 31
0.0
  0
LINE
  5
413
100
AcDbEntity
  8
0
  6
CONTINUOUS
 62
     7
100
AcDbLine
 10
960.75713
 20
422.162497
 30
0.0
 11
959.257127
 21
422.162497
 31
0.0
  0
LINE
  5
414
100
AcDbEntity
  8
0
  6
CONTINUOUS
 62
     7
100
AcDbLine
 10
960.757125
 20
418.947045
 30
0.0
 11
960.75713
 21
422.162497
 31
0.0
  0
ARC
  5
415
100
AcDbEntity
  8
0
  6
CONTINUOUS
 62
     7
100
AcDbCircle
 10
960.007125
 20
415.662498
 30
0.0
 40
3.369087
100
AcDbArc
 50
282.862509
 51
77.137491
  0
LINE
  5
416
100
AcDbEntity
  8
0
  6
CONTINUOUS
 62
     7
100
AcDbLine
 10
960.75713
 20
409.1625
 30
0.0
 11
960.757125
 21
412.377952
 31
0.0
  0
LINE
  5
417
100
AcDbEntity
  8
0
  6
CONTINUOUS
 62
     7
100
AcDbLine
 10
959.257127
 20
409.1625
 30
0.0
 11
960.75713
 21
409.1625
 31
0.0
  0
LINE
  5
418
100
AcDbEntity
  8
0
  6
CONTINUOUS
 62
     7
100
AcDbLine
 10
959.257125
 20
412.377952
 30
0.0
 11
959.257127
 21
409.1625
 31
0.0
  0
CIRCLE
  5
419
100
AcDbEntity
  8
0
  6
CONTINUOUS
 62
     7
100
AcDbCircle
 10
960.007125
 20
415.662498
 30
0.0
 40
2.0
  0
LINE
  5
41A
100
AcDbEntity
  8
0
  6
CONTINUOUS
 62
     7
100
AcDbLine
 10
959.257127
 20
609.662504
 30
0.0
 11
959.257125
 21
606.447045
 31
0.0
  0
LINE
  5
41B
100
AcDbEntity
  8
0
  6
CONTINUOUS
 62
     7
100
AcDbLine
 10
960.75713
 20
609.662504
 30
0.0
 11
959.257127
 21
609.662504
 31
0.0
  0
LINE
  5
41C
100
AcDbEntity
  8
0
  6
CONTINUOUS
 62
     7
100
AcDbLine
 10
960.757125
 20
606.447045
 30
0.0
 11
960.75713
 21
609.662504
 31
0.0
  0
ARC
  5
41D
100
AcDbEntity
  8
0
  6
CONTINUOUS
 62
     7
100
AcDbCircle
 10
960.007125
 20
603.162498
 30
0.0
 40
3.369087
100
AcDbArc
 50
282.862509
 51
77.137491
  0
LINE
  5
41E
100
AcDbEntity
  8
0
  6
CONTINUOUS
 62
     7
100
AcDbLine
 10
960.75713
 20
596.6625
 30
0.0
 11
960.757125
 21
599.877952
 31
0.0
  0
LINE
  5
41F
100
AcDbEntity
  8
0
  6
CONTINUOUS
 62
     7
100
AcDbLine
 10
959.257127
 20
596.6625
 30
0.0
 11
960.75713
 21
596.6625
 31
0.0
  0
LINE
  5
420
100
AcDbEntity
  8
0
  6
CONTINUOUS
 62
     7
100
AcDbLine
 10
959.257125
 20
599.877952
 30
0.0
 11
959.257127
 21
596.6625
 31
0.0
  0
CIRCLE
  5
421
100
AcDbEntity
  8
0
  6
CONTINUOUS
 62
     7
100
AcDbCircle
 10
960.007125
 20
603.162498
 30
0.0
 40
2.0
  0
LINE
  5
422
100
AcDbEntity
  8
0
  6
CONTINUOUS
 62
     7
100
AcDbLine
 10
959.126212
 20
474.77517
 30
0.0
 11
959.257125
 21
474.877952
 31
0.0
  0
ARC
  5
423
100
AcDbEntity
  8
0
  6
CONTINUOUS
 62
     7
100
AcDbCircle
 10
960.007125
 20
478.162498
 30
0.0
 40
3.5
100
AcDbArc
 50
104.577506
 51
255.422494
  0
LWPOLYLINE
  5
424
100
AcDbEntity
  8
0
  6
CONTINUOUS
 62
     7
100
AcDbPolyline
 90
        3
 70
   128
 43
0.0
 10
959.257127
 20
481.447045
 10
959.141561
 20
481.537939
 10
959.126213
 20
481.549827
  0
ARC
  5
425
100
AcDbEntity
  8
0
  6
CONTINUOUS
 62
     7
100
AcDbCircle
 10
960.007125
 20
478.162498
 30
0.0
 40
3.369087
100
AcDbArc
 50
102.862509
 51
257.137491
  0
LINE
  5
426
100
AcDbEntity
  8
0
  6
CONTINUOUS
 62
     7
100
AcDbLine
 10
960.75713
 20
471.662498
 30
0.0
 11
960.757125
 21
474.877952
 31
0.0
  0
LINE
  5
427
100
AcDbEntity
  8
0
  6
CONTINUOUS
 62
     7
100
AcDbLine
 10
959.257127
 20
471.662498
 30
0.0
 11
960.75713
 21
471.662498
 31
0.0
  0
LINE
  5
428
100
AcDbEntity
  8
0
  6
CONTINUOUS
 62
     7
100
AcDbLine
 10
959.257125
 20
474.877952
 30
0.0
 11
959.257127
 21
471.662498
 31
0.0
  0
LINE
  5
429
100
AcDbEntity
  8
0
  6
CONTINUOUS
 62
     7
100
AcDbLine
 10
959.257127
 20
484.662499
 30
0.0
 11
959.257125
 21
481.447045
 31
0.0
  0
LINE
  5
42A
100
AcDbEntity
  8
0
  6
CONTINUOUS
 62
     7
100
AcDbLine
 10
960.75713
 20
484.662499
 30
0.0
 11
959.257127
 21
484.662499
 31
0.0
  0
LINE
  5
42B
100
AcDbEntity
  8
0
  6
CONTINUOUS
 62
     7
100
AcDbLine
 10
960.757125
 20
481.447045
 30
0.0
 11
960.75713
 21
484.662499
 31
0.0
  0
ARC
  5
42C
100
AcDbEntity
  8
0
  6
CONTINUOUS
 62
     7
100
AcDbCircle
 10
960.007125
 20
478.162498
 30
0.0
 40
3.369087
100
AcDbArc
 50
282.862509
 51
77.137491
  0
CIRCLE
  5
42D
100
AcDbEntity
  8
0
  6
CONTINUOUS
 62
     7
100
AcDbCircle
 10
960.007125
 20
478.162498
 30
0.0
 40
2.0
  0
LINE
  5
42E
100
AcDbEntity
  8
0
  6
CONTINUOUS
 62
     7
100
AcDbLine
 10
960.75713
 20
534.1625
 30
0.0
 11
960.757125
 21
537.377952
 31
0.0
  0
LINE
  5
42F
100
AcDbEntity
  8
0
  6
CONTINUOUS
 62
     7
100
AcDbLine
 10
959.257127
 20
534.1625
 30
0.0
 11
960.75713
 21
534.1625
 31
0.0
  0
LINE
  5
430
100
AcDbEntity
  8
0
  6
CONTINUOUS
 62
     7
100
AcDbLine
 10
959.257125
 20
537.377952
 30
0.0
 11
959.257127
 21
534.1625
 31
0.0
  0
LINE
  5
431
100
AcDbEntity
  8
0
  6
CONTINUOUS
 62
     7
100
AcDbLine
 10
959.257127
 20
547.162497
 30
0.0
 11
959.257125
 21
543.947045
 31
0.0
  0
LINE
  5
432
100
AcDbEntity
  8
0
  6
CONTINUOUS
 62
     7
100
AcDbLine
 10
960.75713
 20
547.162497
 30
0.0
 11
959.257127
 21
547.162497
 31
0.0
  0
LINE
  5
433
100
AcDbEntity
  8
0
  6
CONTINUOUS
 62
     7
100
AcDbLine
 10
960.757125
 20
543.947045
 30
0.0
 11
960.75713
 21
547.162497
 31
0.0
  0
ARC
  5
434
100
AcDbEntity
  8
0
  6
CONTINUOUS
 62
     7
100
AcDbCircle
 10
960.007125
 20
540.662498
 30
0.0
 40
3.369087
100
AcDbArc
 50
282.862509
 51
77.137491
  0
CIRCLE
  5
435
100
AcDbEntity
  8
0
  6
CONTINUOUS
 62
     7
100
AcDbCircle
 10
960.007125
 20
540.662498
 30
0.0
 40
2.0
  0
LINE
  5
436
100
AcDbEntity
  8
0
  6
CONTINUOUS
 62
     7
100
AcDbLine
 10
959.257127
 20
359.662497
 30
0.0
 11
959.257125
 21
356.447045
 31
0.0
  0
LINE
  5
437
100
AcDbEntity
  8
0
  6
CONTINUOUS
 62
     7
100
AcDbLine
 10
960.75713
 20
359.662497
 30
0.0
 11
959.257127
 21
359.662497
 31
0.0
  0
LINE
  5
438
100
AcDbEntity
  8
0
  6
CONTINUOUS
 62
     7
100
AcDbLine
 10
960.757125
 20
356.447045
 30
0.0
 11
960.75713
 21
359.662497
 31
0.0
  0
ARC
  5
439
100
AcDbEntity
  8
0
  6
CONTINUOUS
 62
     7
100
AcDbCircle
 10
960.007125
 20
353.162498
 30
0.0
 40
3.369087
100
AcDbArc
 50
282.862509
 51
77.137491
  0
LINE
  5
43A
100
AcDbEntity
  8
0
  6
CONTINUOUS
 62
     7
100
AcDbLine
 10
960.75713
 20
346.662493
 30
0.0
 11
960.757125
 21
349.877952
 31
0.0
  0
LINE
  5
43B
100
AcDbEntity
  8
0
  6
CONTINUOUS
 62
     7
100
AcDbLine
 10
959.257127
 20
346.662493
 30
0.0
 11
960.75713
 21
346.662493
 31
0.0
  0
LINE
  5
43C
100
AcDbEntity
  8
0
  6
CONTINUOUS
 62
     7
100
AcDbLine
 10
959.257125
 20
349.877952
 30
0.0
 11
959.257127
 21
346.662493
 31
0.0
  0
CIRCLE
  5
43D
100
AcDbEntity
  8
0
  6
CONTINUOUS
 62
     7
100
AcDbCircle
 10
960.007125
 20
353.162498
 30
0.0
 40
2.0
  0
LINE
  5
43E
100
AcDbEntity
  8
0
  6
CONTINUOUS
 62
     7
100
AcDbLine
 10
959.126213
 20
596.531586
 30
0.0
 11
959.257127
 21
596.6625
 31
0.0
  0
LINE
  5
43F
100
AcDbEntity
  8
0
  6
CONTINUOUS
 62
     7
100
AcDbLine
 10
960.888037
 20
596.531586
 30
0.0
 11
960.75713
 21
596.6625
 31
0.0
  0
LINE
  5
440
100
AcDbEntity
  8
0
  6
CONTINUOUS
 62
     7
100
AcDbLine
 10
960.888037
 20
596.531586
 30
0.0
 11
959.126213
 21
596.531586
 31
0.0
  0
LINE
  5
441
100
AcDbEntity
  8
0
  6
CONTINUOUS
 62
     7
100
AcDbLine
 10
960.888037
 20
359.793411
 30
0.0
 11
960.75713
 21
359.662497
 31
0.0
  0
LINE
  5
442
100
AcDbEntity
  8
0
  6
CONTINUOUS
 62
     7
100
AcDbLine
 10
959.126213
 20
359.793411
 30
0.0
 11
959.257127
 21
359.662497
 31
0.0
  0
LINE
  5
443
100
AcDbEntity
  8
0
  6
CONTINUOUS
 62
     7
100
AcDbLine
 10
959.126213
 20
359.793411
 30
0.0
 11
960.888037
 21
359.793411
 31
0.0
  0
LINE
  5
444
100
AcDbEntity
  8
0
  6
CONTINUOUS
 62
     7
100
AcDbLine
 10
959.126212
 20
544.049827
 30
0.0
 11
959.126213
 21
547.293411
 31
0.0
  0
LINE
  5
445
100
AcDbEntity
  8
0
  6
CONTINUOUS
 62
     7
100
AcDbLine
 10
959.126213
 20
547.293411
 30
0.0
 11
959.257127
 21
547.162497
 31
0.0
  0
LINE
  5
446
100
AcDbEntity
  8
0
  6
CONTINUOUS
 62
     7
100
AcDbLine
 10
959.126212
 20
419.049827
 30
0.0
 11
959.126213
 21
422.293411
 31
0.0
  0
LINE
  5
447
100
AcDbEntity
  8
0
  6
CONTINUOUS
 62
     7
100
AcDbLine
 10
959.126213
 20
422.293411
 30
0.0
 11
959.257127
 21
422.162497
 31
0.0
  0
CIRCLE
  5
448
100
AcDbEntity
  8
0
  6
CONTINUOUS
 62
     7
100
AcDbCircle
 10
960.007125
 20
478.162498
 30
0.0
 40
1.982545
  0
CIRCLE
  5
449
100
AcDbEntity
  8
0
  6
CONTINUOUS
 62
     7
100
AcDbCircle
 10
960.007125
 20
353.162498
 30
0.0
 40
1.982545
  0
LINE
  5
44A
100
AcDbEntity
  8
0
  6
CONTINUOUS
 62
     7
100
AcDbLine
 10
959.126212
 20
481.549827
 30
0.0
 11
959.126213
 21
484.793411
 31
0.0
  0
LINE
  5
44B
100
AcDbEntity
  8
0
  6
CONTINUOUS
 62
     7
100
AcDbLine
 10
959.126213
 20
484.793411
 30
0.0
 11
959.257127
 21
484.662499
 31
0.0
  0
LINE
  5
44C
100
AcDbEntity
  8
0
  6
CONTINUOUS
 62
     7
100
AcDbLine
 10
959.126213
 20
471.531586
 30
0.0
 11
959.257127
 21
471.662498
 31
0.0
  0
LINE
  5
44D
100
AcDbEntity
  8
0
  6
CONTINUOUS
 62
     7
100
AcDbLine
 10
959.126213
 20
471.531586
 30
0.0
 11
959.126212
 21
474.77517
 31
0.0
  0
LINE
  5
44E
100
AcDbEntity
  8
0
  6
CONTINUOUS
 62
     7
100
AcDbLine
 10
959.126212
 20
356.549827
 30
0.0
 11
959.126213
 21
359.793411
 31
0.0
  0
LINE
  5
44F
100
AcDbEntity
  8
0
  6
CONTINUOUS
 62
     7
100
AcDbLine
 10
960.888037
 20
422.293411
 30
0.0
 11
960.75713
 21
422.162497
 31
0.0
  0
LINE
  5
450
100
AcDbEntity
  8
0
  6
CONTINUOUS
 62
     7
100
AcDbLine
 10
959.126213
 20
422.293411
 30
0.0
 11
960.888037
 21
422.293411
 31
0.0
  0
CIRCLE
  5
451
100
AcDbEntity
  8
0
  6
CONTINUOUS
 62
     7
100
AcDbCircle
 10
960.007125
 20
603.162498
 30
0.0
 40
1.982545
  0
LINE
  5
452
100
AcDbEntity
  8
0
  6
CONTINUOUS
 62
     7
100
AcDbLine
 10
959.126213
 20
409.031586
 30
0.0
 11
959.257127
 21
409.1625
 31
0.0
  0
LINE
  5
453
100
AcDbEntity
  8
0
  6
CONTINUOUS
 62
     7
100
AcDbLine
 10
960.888037
 20
409.031586
 30
0.0
 11
960.75713
 21
409.1625
 31
0.0
  0
LINE
  5
454
100
AcDbEntity
  8
0
  6
CONTINUOUS
 62
     7
100
AcDbLine
 10
960.888037
 20
409.031586
 30
0.0
 11
959.126213
 21
409.031586
 31
0.0
  0
CIRCLE
  5
455
100
AcDbEntity
  8
0
  6
CONTINUOUS
 62
     7
100
AcDbCircle
 10
960.007125
 20
415.662498
 30
0.0
 40
1.982545
  0
CIRCLE
  5
456
100
AcDbEntity
  8
0
  6
CONTINUOUS
 62
     7
100
AcDbCircle
 10
960.007125
 20
540.662498
 30
0.0
 40
1.982545
  0
LINE
  5
457
100
AcDbEntity
  8
0
  6
CONTINUOUS
 62
     7
100
AcDbLine
 10
959.126213
 20
346.531586
 30
0.0
 11
959.257127
 21
346.662493
 31
0.0
  0
LINE
  5
458
100
AcDbEntity
  8
0
  6
CONTINUOUS
 62
     7
100
AcDbLine
 10
960.888037
 20
346.531586
 30
0.0
 11
960.75713
 21
346.662493
 31
0.0
  0
LINE
  5
459
100
AcDbEntity
  8
0
  6
CONTINUOUS
 62
     7
100
AcDbLine
 10
960.888037
 20
346.531586
 30
0.0
 11
959.126213
 21
346.531586
 31
0.0
  0
LINE
  5
45A
100
AcDbEntity
  8
0
  6
CONTINUOUS
 62
     7
100
AcDbLine
 10
960.888037
 20
471.531586
 30
0.0
 11
960.75713
 21
471.662498
 31
0.0
  0
LINE
  5
45B
100
AcDbEntity
  8
0
  6
CONTINUOUS
 62
     7
100
AcDbLine
 10
960.888037
 20
471.531586
 30
0.0
 11
959.126213
 21
471.531586
 31
0.0
  0
LINE
  5
45C
100
AcDbEntity
  8
0
  6
CONTINUOUS
 62
     7
100
AcDbLine
 10
960.888037
 20
547.293411
 30
0.0
 11
960.75713
 21
547.162497
 31
0.0
  0
LINE
  5
45D
100
AcDbEntity
  8
0
  6
CONTINUOUS
 62
     7
100
AcDbLine
 10
959.126213
 20
547.293411
 30
0.0
 11
960.888037
 21
547.293411
 31
0.0
  0
LINE
  5
45E
100
AcDbEntity
  8
0
  6
CONTINUOUS
 62
     7
100
AcDbLine
 10
960.888037
 20
609.793411
 30
0.0
 11
960.75713
 21
609.662504
 31
0.0
  0
LINE
  5
45F
100
AcDbEntity
  8
0
  6
CONTINUOUS
 62
     7
100
AcDbLine
 10
959.126213
 20
609.793411
 30
0.0
 11
959.257127
 21
609.662504
 31
0.0
  0
LINE
  5
460
100
AcDbEntity
  8
0
  6
CONTINUOUS
 62
     7
100
AcDbLine
 10
959.126213
 20
609.793411
 30
0.0
 11
960.888037
 21
609.793411
 31
0.0
  0
LINE
  5
461
100
AcDbEntity
  8
0
  6
CONTINUOUS
 62
     7
100
AcDbLine
 10
959.126213
 20
534.031586
 30
0.0
 11
959.257127
 21
534.1625
 31
0.0
  0
LINE
  5
462
100
AcDbEntity
  8
0
  6
CONTINUOUS
 62
     7
100
AcDbLine
 10
960.888037
 20
534.031586
 30
0.0
 11
960.75713
 21
534.1625
 31
0.0
  0
LINE
  5
463
100
AcDbEntity
  8
0
  6
CONTINUOUS
 62
     7
100
AcDbLine
 10
960.888037
 20
534.031586
 30
0.0
 11
959.126213
 21
534.031586
 31
0.0
  0
LINE
  5
464
100
AcDbEntity
  8
0
  6
CONTINUOUS
 62
     7
100
AcDbLine
 10
959.126213
 20
596.531586
 30
0.0
 11
959.126212
 21
599.77517
 31
0.0
  0
LINE
  5
465
100
AcDbEntity
  8
0
  6
CONTINUOUS
 62
     7
100
AcDbLine
 10
959.126213
 20
409.031586
 30
0.0
 11
959.126212
 21
412.27517
 31
0.0
  0
LINE
  5
466
100
AcDbEntity
  8
0
  6
CONTINUOUS
 62
     7
100
AcDbLine
 10
959.126213
 20
534.031586
 30
0.0
 11
959.126212
 21
537.27517
 31
0.0
  0
LINE
  5
467
100
AcDbEntity
  8
0
  6
CONTINUOUS
 62
     7
100
AcDbLine
 10
960.888037
 20
484.793411
 30
0.0
 11
960.75713
 21
484.662499
 31
0.0
  0
LINE
  5
468
100
AcDbEntity
  8
0
  6
CONTINUOUS
 62
     7
100
AcDbLine
 10
959.126213
 20
484.793411
 30
0.0
 11
960.888037
 21
484.793411
 31
0.0
  0
LINE
  5
469
100
AcDbEntity
  8
0
  6
CONTINUOUS
 62
     7
100
AcDbLine
 10
959.126212
 20
606.549827
 30
0.0
 11
959.126213
 21
609.793411
 31
0.0
  0
LINE
  5
46A
100
AcDbEntity
  8
0
  6
CONTINUOUS
 62
     7
100
AcDbLine
 10
959.126213
 20
346.531586
 30
0.0
 11
959.126212
 21
349.77517
 31
0.0
  0
LINE
  5
46B
100
AcDbEntity
  8
0
  6
CONTINUOUS
 62
     7
100
AcDbLine
 10
960.888037
 20
484.793411
 30
0.0
 11
960.888038
 21
481.549827
 31
0.0
  0
LINE
  5
46C
100
AcDbEntity
  8
0
  6
CONTINUOUS
 62
     7
100
AcDbLine
 10
960.888038
 20
481.549827
 30
0.0
 11
960.757125
 21
481.447045
 31
0.0
  0
LINE
  5
46D
100
AcDbEntity
  8
0
  6
CONTINUOUS
 62
     7
100
AcDbLine
 10
960.888038
 20
606.549827
 30
0.0
 11
960.757125
 21
606.447045
 31
0.0
  0
ARC
  5
46E
100
AcDbEntity
  8
0
  6
CONTINUOUS
 62
     7
100
AcDbCircle
 10
960.007125
 20
603.162498
 30
0.0
 40
3.5
100
AcDbArc
 50
284.577506
 51
75.422494
  0
LWPOLYLINE
  5
46F
100
AcDbEntity
  8
0
  6
CONTINUOUS
 62
     7
100
AcDbPolyline
 90
        3
 70
   128
 43
0.0
 10
960.75713
 20
599.877955
 10
960.872689
 20
599.787058
 10
960.888037
 20
599.775174
  0
LINE
  5
470
100
AcDbEntity
  8
0
  6
CONTINUOUS
 62
     7
100
AcDbLine
 10
960.888038
 20
419.049827
 30
0.0
 11
960.757125
 21
418.947045
 31
0.0
  0
ARC
  5
471
100
AcDbEntity
  8
0
  6
CONTINUOUS
 62
     7
100
AcDbCircle
 10
960.007125
 20
415.662498
 30
0.0
 40
3.5
100
AcDbArc
 50
284.577506
 51
75.422494
  0
LWPOLYLINE
  5
472
100
AcDbEntity
  8
0
  6
CONTINUOUS
 62
     7
100
AcDbPolyline
 90
        3
 70
   128
 43
0.0
 10
960.75713
 20
412.377955
 10
960.872689
 20
412.287058
 10
960.888037
 20
412.275174
  0
LINE
  5
473
100
AcDbEntity
  8
0
  6
CONTINUOUS
 62
     7
100
AcDbLine
 10
960.888038
 20
349.77517
 30
0.0
 11
960.888037
 21
346.531586
 31
0.0
  0
LWPOLYLINE
  5
474
100
AcDbEntity
  8
0
  6
CONTINUOUS
 62
     7
100
AcDbPolyline
 90
        3
 70
   128
 43
0.0
 10
960.75713
 20
349.877955
 10
960.872689
 20
349.787058
 10
960.888037
 20
349.775166
  0
ARC
  5
475
100
AcDbEntity
  8
0
  6
CONTINUOUS
 62
     7
100
AcDbCircle
 10
960.007125
 20
478.162498
 30
0.0
 40
3.5
100
AcDbArc
 50
284.577506
 51
75.422494
  0
LWPOLYLINE
  5
476
100
AcDbEntity
  8
0
  6
CONTINUOUS
 62
     7
100
AcDbPolyline
 90
        3
 70
   128
 43
0.0
 10
960.75713
 20
474.877952
 10
960.872689
 20
474.787058
 10
960.888037
 20
474.77517
  0
LINE
  5
477
100
AcDbEntity
  8
0
  6
CONTINUOUS
 62
     7
100
AcDbLine
 10
960.888038
 20
544.049827
 30
0.0
 11
960.757125
 21
543.947045
 31
0.0
  0
ARC
  5
478
100
AcDbEntity
  8
0
  6
CONTINUOUS
 62
     7
100
AcDbCircle
 10
960.007125
 20
540.662498
 30
0.0
 40
3.5
100
AcDbArc
 50
284.577506
 51
75.422494
  0
LWPOLYLINE
  5
479
100
AcDbEntity
  8
0
  6
CONTINUOUS
 62
     7
100
AcDbPolyline
 90
        3
 70
   128
 43
0.0
 10
960.75713
 20
537.377951
 10
960.872689
 20
537.287058
 10
960.888037
 20
537.27517
  0
LINE
  5
47A
100
AcDbEntity
  8
0
  6
CONTINUOUS
 62
     7
100
AcDbLine
 10
960.888037
 20
609.793411
 30
0.0
 11
960.888038
 21
606.549827
 31
0.0
  0
LINE
  5
47B
100
AcDbEntity
  8
0
  6
CONTINUOUS
 62
     7
100
AcDbLine
 10
960.888037
 20
422.293411
 30
0.0
 11
960.888038
 21
419.049827
 31
0.0
  0
LINE
  5
47C
100
AcDbEntity
  8
0
  6
CONTINUOUS
 62
     7
100
AcDbLine
 10
960.888038
 20
599.77517
 30
0.0
 11
960.888037
 21
596.531586
 31
0.0
  0
LINE
  5
47D
100
AcDbEntity
  8
0
  6
CONTINUOUS
 62
     7
100
AcDbLine
 10
960.888038
 20
356.549827
 30
0.0
 11
960.757125
 21
356.447045
 31
0.0
  0
ARC
  5
47E
100
AcDbEntity
  8
0
  6
CONTINUOUS
 62
     7
100
AcDbCircle
 10
960.007125
 20
353.162498
 30
0.0
 40
3.5
100
AcDbArc
 50
284.577506
 51
75.422494
  0
LINE
  5
47F
100
AcDbEntity
  8
0
  6
CONTINUOUS
 62
     7
100
AcDbLine
 10
960.888037
 20
547.293411
 30
0.0
 11
960.888038
 21
544.049827
 31
0.0
  0
LINE
  5
480
100
AcDbEntity
  8
0
  6
CONTINUOUS
 62
     7
100
AcDbLine
 10
960.888037
 20
359.793411
 30
0.0
 11
960.888038
 21
356.549827
 31
0.0
  0
LINE
  5
481
100
AcDbEntity
  8
0
  6
CONTINUOUS
 62
     7
100
AcDbLine
 10
960.888038
 20
412.27517
 30
0.0
 11
960.888037
 21
409.031586
 31
0.0
  0
LINE
  5
482
100
AcDbEntity
  8
0
  6
CONTINUOUS
 62
     7
100
AcDbLine
 10
960.888038
 20
474.77517
 30
0.0
 11
960.888037
 21
471.531586
 31
0.0
  0
LINE
  5
483
100
AcDbEntity
  8
0
  6
CONTINUOUS
 62
     7
100
AcDbLine
 10
960.888038
 20
537.27517
 30
0.0
 11
960.888037
 21
534.031586
 31
0.0
  0
CIRCLE
  5
484
100
AcDbEntity
  8
0
  6
CONTINUOUS
 62
     7
100
AcDbCircle
 10
710.007125
 20
603.162498
 30
0.0
 40
1.6
  0
CIRCLE
  5
485
100
AcDbEntity
  8
0
  6
CONTINUOUS
 62
     7
100
AcDbCircle
 10
710.007125
 20
478.162498
 30
0.0
 40
1.6
  0
CIRCLE
  5
486
100
AcDbEntity
  8
0
  6
CONTINUOUS
 62
     7
100
AcDbCircle
 10
710.007125
 20
415.662498
 30
0.0
 40
1.6
  0
CIRCLE
  5
487
100
AcDbEntity
  8
0
  6
CONTINUOUS
 62
     7
100
AcDbCircle
 10
710.007125
 20
478.162498
 30
0.0
 40
1.564657
  0
CIRCLE
  5
488
100
AcDbEntity
  8
0
  6
CONTINUOUS
 62
     7
100
AcDbCircle
 10
710.007125
 20
603.162498
 30
0.0
 40
1.564657
  0
CIRCLE
  5
489
100
AcDbEntity
  8
0
  6
CONTINUOUS
 62
     7
100
AcDbCircle
 10
710.007125
 20
540.662498
 30
0.0
 40
1.6
  0
CIRCLE
  5
48A
100
AcDbEntity
  8
0
  6
CONTINUOUS
 62
     7
100
AcDbCircle
 10
710.007125
 20
540.662498
 30
0.0
 40
1.564657
  0
CIRCLE
  5
48B
100
AcDbEntity
  8
0
  6
CONTINUOUS
 62
     7
100
AcDbCircle
 10
710.007125
 20
415.662498
 30
0.0
 40
1.564657
  0
CIRCLE
  5
48C
100
AcDbEntity
  8
0
  6
CONTINUOUS
 62
     7
100
AcDbCircle
 10
710.007125
 20
353.162498
 30
0.0
 40
1.6
  0
CIRCLE
  5
48D
100
AcDbEntity
  8
0
  6
CONTINUOUS
 62
     7
100
AcDbCircle
 10
710.007125
 20
353.162498
 30
0.0
 40
1.564657
  0
CIRCLE
  5
48E
100
AcDbEntity
  8
0
  6
CONTINUOUS
 62
     7
100
AcDbCircle
 10
717.507125
 20
620.662498
 30
0.0
 40
1.6
  0
CIRCLE
  5
48F
100
AcDbEntity
  8
0
  6
CONTINUOUS
 62
     7
100
AcDbCircle
 10
717.507125
 20
620.662498
 30
0.0
 40
1.564657
  0
CIRCLE
  5
490
100
AcDbEntity
  8
0
  6
CONTINUOUS
 62
     7
100
AcDbCircle
 10
717.507125
 20
335.662498
 30
0.0
 40
1.6
  0
CIRCLE
  5
491
100
AcDbEntity
  8
0
  6
CONTINUOUS
 62
     7
100
AcDbCircle
 10
717.507125
 20
335.662498
 30
0.0
 40
1.564657
  0
CIRCLE
  5
492
100
AcDbEntity
  8
0
  6
CONTINUOUS
 62
     7
100
AcDbCircle
 10
730.007125
 20
603.162498
 30
0.0
 40
1.6
  0
CIRCLE
  5
493
100
AcDbEntity
  8
0
  6
CONTINUOUS
 62
     7
100
AcDbCircle
 10
730.007125
 20
353.162498
 30
0.0
 40
1.6
  0
CIRCLE
  5
494
100
AcDbEntity
  8
0
  6
CONTINUOUS
 62
     7
100
AcDbCircle
 10
730.007125
 20
353.162498
 30
0.0
 40
1.564657
  0
CIRCLE
  5
495
100
AcDbEntity
  8
0
  6
CONTINUOUS
 62
     7
100
AcDbCircle
 10
730.007125
 20
603.162498
 30
0.0
 40
1.564657
  0
CIRCLE
  5
496
100
AcDbEntity
  8
0
  6
CONTINUOUS
 62
     7
100
AcDbCircle
 10
734.007125
 20
377.162498
 30
0.0
 40
1.6
  0
CIRCLE
  5
497
100
AcDbEntity
  8
0
  6
CONTINUOUS
 62
     7
100
AcDbCircle
 10
734.007125
 20
377.162498
 30
0.0
 40
1.564657
  0
CIRCLE
  5
498
100
AcDbEntity
  8
0
  6
CONTINUOUS
 62
     7
100
AcDbCircle
 10
734.007125
 20
579.162498
 30
0.0
 40
1.6
  0
CIRCLE
  5
499
100
AcDbEntity
  8
0
  6
CONTINUOUS
 62
     7
100
AcDbCircle
 10
734.007125
 20
579.162498
 30
0.0
 40
1.564657
  0
CIRCLE
  5
49A
100
AcDbEntity
  8
0
  6
CONTINUOUS
 62
     7
100
AcDbCircle
 10
742.507125
 20
360.662498
 30
0.0
 40
1.6
  0
CIRCLE
  5
49B
100
AcDbEntity
  8
0
  6
CONTINUOUS
 62
     7
100
AcDbCircle
 10
742.507125
 20
595.662498
 30
0.0
 40
1.6
  0
CIRCLE
  5
49C
100
AcDbEntity
  8
0
  6
CONTINUOUS
 62
     7
100
AcDbCircle
 10
742.507125
 20
360.662498
 30
0.0
 40
1.564657
  0
CIRCLE
  5
49D
100
AcDbEntity
  8
0
  6
CONTINUOUS
 62
     7
100
AcDbCircle
 10
742.507125
 20
595.662498
 30
0.0
 40
1.564657
  0
CIRCLE
  5
49E
100
AcDbEntity
  8
0
  6
CONTINUOUS
 62
     7
100
AcDbCircle
 10
754.507125
 20
367.662498
 30
0.0
 40
1.6
  0
CIRCLE
  5
49F
100
AcDbEntity
  8
0
  6
CONTINUOUS
 62
     7
100
AcDbCircle
 10
754.507125
 20
588.662498
 30
0.0
 40
1.6
  0
CIRCLE
  5
4A0
100
AcDbEntity
  8
0
  6
CONTINUOUS
 62
     7
100
AcDbCircle
 10
754.507125
 20
367.662498
 30
0.0
 40
1.564657
  0
CIRCLE
  5
4A1
100
AcDbEntity
  8
0
  6
CONTINUOUS
 62
     7
100
AcDbCircle
 10
754.507125
 20
588.662498
 30
0.0
 40
1.564657
  0
CIRCLE
  5
4A2
100
AcDbEntity
  8
0
  6
CONTINUOUS
 62
     7
100
AcDbCircle
 10
772.507125
 20
325.162498
 30
0.0
 40
1.6
  0
CIRCLE
  5
4A3
100
AcDbEntity
  8
0
  6
CONTINUOUS
 62
     7
100
AcDbCircle
 10
772.507125
 20
631.162498
 30
0.0
 40
1.6
  0
CIRCLE
  5
4A4
100
AcDbEntity
  8
0
  6
CONTINUOUS
 62
     7
100
AcDbCircle
 10
772.507125
 20
631.162498
 30
0.0
 40
1.564657
  0
CIRCLE
  5
4A5
100
AcDbEntity
  8
0
  6
CONTINUOUS
 62
     7
100
AcDbCircle
 10
772.507125
 20
325.162498
 30
0.0
 40
1.564657
  0
CIRCLE
  5
4A6
100
AcDbEntity
  8
0
  6
CONTINUOUS
 62
     7
100
AcDbCircle
 10
835.007125
 20
631.162498
 30
0.0
 40
1.6
  0
CIRCLE
  5
4A7
100
AcDbEntity
  8
0
  6
CONTINUOUS
 62
     7
100
AcDbCircle
 10
835.007125
 20
631.162498
 30
0.0
 40
1.564657
  0
CIRCLE
  5
4A8
100
AcDbEntity
  8
0
  6
CONTINUOUS
 62
     7
100
AcDbCircle
 10
835.007125
 20
325.162498
 30
0.0
 40
1.6
  0
CIRCLE
  5
4A9
100
AcDbEntity
  8
0
  6
CONTINUOUS
 62
     7
100
AcDbCircle
 10
835.007125
 20
325.162498
 30
0.0
 40
1.564657
  0
CIRCLE
  5
4AA
100
AcDbEntity
  8
0
  6
CONTINUOUS
 62
     7
100
AcDbCircle
 10
897.507125
 20
325.162498
 30
0.0
 40
1.6
  0
CIRCLE
  5
4AB
100
AcDbEntity
  8
0
  6
CONTINUOUS
 62
     7
100
AcDbCircle
 10
897.507125
 20
631.162498
 30
0.0
 40
1.6
  0
CIRCLE
  5
4AC
100
AcDbEntity
  8
0
  6
CONTINUOUS
 62
     7
100
AcDbCircle
 10
897.507125
 20
325.162498
 30
0.0
 40
1.564657
  0
CIRCLE
  5
4AD
100
AcDbEntity
  8
0
  6
CONTINUOUS
 62
     7
100
AcDbCircle
 10
897.507125
 20
631.162498
 30
0.0
 40
1.564657
  0
CIRCLE
  5
4AE
100
AcDbEntity
  8
0
  6
CONTINUOUS
 62
     7
100
AcDbCircle
 10
915.507125
 20
588.662498
 30
0.0
 40
1.6
  0
CIRCLE
  5
4AF
100
AcDbEntity
  8
0
  6
CONTINUOUS
 62
     7
100
AcDbCircle
 10
915.507125
 20
588.662498
 30
0.0
 40
1.564657
  0
CIRCLE
  5
4B0
100
AcDbEntity
  8
0
  6
CONTINUOUS
 62
     7
100
AcDbCircle
 10
915.507125
 20
367.662498
 30
0.0
 40
1.6
  0
CIRCLE
  5
4B1
100
AcDbEntity
  8
0
  6
CONTINUOUS
 62
     7
100
AcDbCircle
 10
915.507125
 20
367.662498
 30
0.0
 40
1.564657
  0
CIRCLE
  5
4B2
100
AcDbEntity
  8
0
  6
CONTINUOUS
 62
     7
100
AcDbCircle
 10
927.507125
 20
360.662498
 30
0.0
 40
1.6
  0
CIRCLE
  5
4B3
100
AcDbEntity
  8
0
  6
CONTINUOUS
 62
     7
100
AcDbCircle
 10
927.507125
 20
360.662498
 30
0.0
 40
1.564657
  0
CIRCLE
  5
4B4
100
AcDbEntity
  8
0
  6
CONTINUOUS
 62
     7
100
AcDbCircle
 10
927.507125
 20
595.662498
 30
0.0
 40
1.6
  0
CIRCLE
  5
4B5
100
AcDbEntity
  8
0
  6
CONTINUOUS
 62
     7
100
AcDbCircle
 10
927.507125
 20
595.662498
 30
0.0
 40
1.564657
  0
CIRCLE
  5
4B6
100
AcDbEntity
  8
0
  6
CONTINUOUS
 62
     7
100
AcDbCircle
 10
936.007125
 20
377.162498
 30
0.0
 40
1.6
  0
CIRCLE
  5
4B7
100
AcDbEntity
  8
0
  6
CONTINUOUS
 62
     7
100
AcDbCircle
 10
936.007125
 20
579.162498
 30
0.0
 40
1.6
  0
CIRCLE
  5
4B8
100
AcDbEntity
  8
0
  6
CONTINUOUS
 62
     7
100
AcDbCircle
 10
936.007125
 20
579.162498
 30
0.0
 40
1.564657
  0
CIRCLE
  5
4B9
100
AcDbEntity
  8
0
  6
CONTINUOUS
 62
     7
100
AcDbCircle
 10
936.007125
 20
377.162498
 30
0.0
 40
1.564657
  0
CIRCLE
  5
4BA
100
AcDbEntity
  8
0
  6
CONTINUOUS
 62
     7
100
AcDbCircle
 10
940.007125
 20
353.162498
 30
0.0
 40
1.6
  0
CIRCLE
  5
4BB
100
AcDbEntity
  8
0
  6
CONTINUOUS
 62
     7
100
AcDbCircle
 10
940.007125
 20
353.162498
 30
0.0
 40
1.564657
  0
CIRCLE
  5
4BC
100
AcDbEntity
  8
0
  6
CONTINUOUS
 62
     7
100
AcDbCircle
 10
940.007125
 20
603.162498
 30
0.0
 40
1.6
  0
CIRCLE
  5
4BD
100
AcDbEntity
  8
0
  6
CONTINUOUS
 62
     7
100
AcDbCircle
 10
940.007125
 20
603.162498
 30
0.0
 40
1.564657
  0
CIRCLE
  5
4BE
100
AcDbEntity
  8
0
  6
CONTINUOUS
 62
     7
100
AcDbCircle
 10
952.507125
 20
335.662498
 30
0.0
 40
1.6
  0
CIRCLE
  5
4BF
100
AcDbEntity
  8
0
  6
CONTINUOUS
 62
     7
100
AcDbCircle
 10
952.507125
 20
620.662498
 30
0.0
 40
1.6
  0
CIRCLE
  5
4C0
100
AcDbEntity
  8
0
  6
CONTINUOUS
 62
     7
100
AcDbCircle
 10
952.507125
 20
620.662498
 30
0.0
 40
1.564657
  0
CIRCLE
  5
4C1
100
AcDbEntity
  8
0
  6
CONTINUOUS
 62
     7
100
AcDbCircle
 10
952.507125
 20
335.662498
 30
0.0
 40
1.564657
  0
CIRCLE
  5
4C2
100
AcDbEntity
  8
0
  6
CONTINUOUS
 62
     7
100
AcDbCircle
 10
960.007125
 20
478.162498
 30
0.0
 40
1.6
  0
CIRCLE
  5
4C3
100
AcDbEntity
  8
0
  6
CONTINUOUS
 62
     7
100
AcDbCircle
 10
960.007125
 20
478.162498
 30
0.0
 40
1.564657
  0
CIRCLE
  5
4C4
100
AcDbEntity
  8
0
  6
CONTINUOUS
 62
     7
100
AcDbCircle
 10
960.007125
 20
603.162498
 30
0.0
 40
1.6
  0
CIRCLE
  5
4C5
100
AcDbEntity
  8
0
  6
CONTINUOUS
 62
     7
100
AcDbCircle
 10
960.007125
 20
540.662498
 30
0.0
 40
1.6
  0
CIRCLE
  5
4C6
100
AcDbEntity
  8
0
  6
CONTINUOUS
 62
     7
100
AcDbCircle
 10
960.007125
 20
540.662498
 30
0.0
 40
1.564657
  0
CIRCLE
  5
4C7
100
AcDbEntity
  8
0
  6
CONTINUOUS
 62
     7
100
AcDbCircle
 10
960.007125
 20
603.162498
 30
0.0
 40
1.564657
  0
CIRCLE
  5
4C8
100
AcDbEntity
  8
0
  6
CONTINUOUS
 62
     7
100
AcDbCircle
 10
960.007125
 20
353.162498
 30
0.0
 40
1.6
  0
CIRCLE
  5
4C9
100
AcDbEntity
  8
0
  6
CONTINUOUS
 62
     7
100
AcDbCircle
 10
960.007125
 20
353.162498
 30
0.0
 40
1.564657
  0
CIRCLE
  5
4CA
100
AcDbEntity
  8
0
  6
CONTINUOUS
 62
     7
100
AcDbCircle
 10
960.007125
 20
415.662498
 30
0.0
 40
1.6
  0
CIRCLE
  5
4CB
100
AcDbEntity
  8
0
  6
CONTINUOUS
 62
     7
100
AcDbCircle
 10
960.007125
 20
415.662498
 30
0.0
 40
1.564657
  0
CIRCLE
  5
4CC
100
AcDbEntity
  8
0
  6
CONTINUOUS
 62
     7
100
AcDbCircle
 10
704.707125
 20
340.162498
 30
0.0
 40
3.351632
  0
CIRCLE
  5
4CD
100
AcDbEntity
  8
0
  6
CONTINUOUS
 62
     7
100
AcDbCircle
 10
704.707125
 20
340.162498
 30
0.0
 40
3.459853
  0
CIRCLE
  5
4CE
100
AcDbEntity
  8
0
  6
CONTINUOUS
 62
     7
100
AcDbCircle
 10
704.707125
 20
616.162498
 30
0.0
 40
3.351632
  0
CIRCLE
  5
4CF
100
AcDbEntity
  8
0
  6
CONTINUOUS
 62
     7
100
AcDbCircle
 10
704.707125
 20
616.162498
 30
0.0
 40
3.459853
  0
CIRCLE
  5
4D0
100
AcDbEntity
  8
0
  6
CONTINUOUS
 62
     7
100
AcDbCircle
 10
737.507125
 20
320.362498
 30
0.0
 40
3.351632
  0
CIRCLE
  5
4D1
100
AcDbEntity
  8
0
  6
CONTINUOUS
 62
     7
100
AcDbCircle
 10
737.507125
 20
635.962498
 30
0.0
 40
3.351632
  0
CIRCLE
  5
4D2
100
AcDbEntity
  8
0
  6
CONTINUOUS
 62
     7
100
AcDbCircle
 10
737.507125
 20
320.362498
 30
0.0
 40
3.459853
  0
CIRCLE
  5
4D3
100
AcDbEntity
  8
0
  6
CONTINUOUS
 62
     7
100
AcDbCircle
 10
737.507125
 20
635.962498
 30
0.0
 40
3.459853
  0
CIRCLE
  5
4D4
100
AcDbEntity
  8
0
  6
CONTINUOUS
 62
     7
100
AcDbCircle
 10
932.507125
 20
320.362498
 30
0.0
 40
3.351632
  0
CIRCLE
  5
4D5
100
AcDbEntity
  8
0
  6
CONTINUOUS
 62
     7
100
AcDbCircle
 10
932.507125
 20
320.362498
 30
0.0
 40
3.459853
  0
CIRCLE
  5
4D6
100
AcDbEntity
  8
0
  6
CONTINUOUS
 62
     7
100
AcDbCircle
 10
932.507125
 20
635.962498
 30
0.0
 40
3.351632
  0
CIRCLE
  5
4D7
100
AcDbEntity
  8
0
  6
CONTINUOUS
 62
     7
100
AcDbCircle
 10
932.507125
 20
635.962498
 30
0.0
 40
3.459853
  0
CIRCLE
  5
4D8
100
AcDbEntity
  8
0
  6
CONTINUOUS
 62
     7
100
AcDbCircle
 10
965.307125
 20
340.162498
 30
0.0
 40
3.351632
  0
CIRCLE
  5
4D9
100
AcDbEntity
  8
0
  6
CONTINUOUS
 62
     7
100
AcDbCircle
 10
965.307125
 20
340.162498
 30
0.0
 40
3.459853
  0
CIRCLE
  5
4DA
100
AcDbEntity
  8
0
  6
CONTINUOUS
 62
     7
100
AcDbCircle
 10
965.307125
 20
616.162498
 30
0.0
 40
3.351632
  0
CIRCLE
  5
4DB
100
AcDbEntity
  8
0
  6
CONTINUOUS
 62
     7
100
AcDbCircle
 10
965.307125
 20
616.162498
 30
0.0
 40
3.459853
  0
CIRCLE
  5
4DC
100
AcDbEntity
  8
0
  6
CONTINUOUS
 62
     7
100
AcDbCircle
 10
775.007125
 20
378.162498
 30
0.0
 40
8.65
  0
CIRCLE
  5
4DD
100
AcDbEntity
  8
0
  6
CONTINUOUS
 62
     7
100
AcDbCircle
 10
775.007125
 20
378.162498
 30
0.0
 40
8.520833
  0
CIRCLE
  5
4DE
100
AcDbEntity
  8
0
  6
CONTINUOUS
 62
     7
100
AcDbCircle
 10
775.007125
 20
578.162498
 30
0.0
 40
8.65
  0
CIRCLE
  5
4DF
100
AcDbEntity
  8
0
  6
CONTINUOUS
 62
     7
100
AcDbCircle
 10
775.007125
 20
578.162498
 30
0.0
 40
8.520833
  0
CIRCLE
  5
4E0
100
AcDbEntity
  8
0
  6
CONTINUOUS
 62
     7
100
AcDbCircle
 10
775.007125
 20
578.162498
 30
0.0
 40
10.266216
  0
CIRCLE
  5
4E1
100
AcDbEntity
  8
0
  6
CONTINUOUS
 62
     7
100
AcDbCircle
 10
775.007125
 20
378.162498
 30
0.0
 40
10.266216
  0
CIRCLE
  5
4E2
100
AcDbEntity
  8
0
  6
CONTINUOUS
 62
     7
100
AcDbCircle
 10
775.007125
 20
378.162498
 30
0.0
 40
10.35
  0
CIRCLE
  5
4E3
100
AcDbEntity
  8
0
  6
CONTINUOUS
 62
     7
100
AcDbCircle
 10
775.007125
 20
578.162498
 30
0.0
 40
10.35
  0
CIRCLE
  5
4E4
100
AcDbEntity
  8
0
  6
CONTINUOUS
 62
     7
100
AcDbCircle
 10
895.007125
 20
378.162498
 30
0.0
 40
10.35
  0
CIRCLE
  5
4E5
100
AcDbEntity
  8
0
  6
CONTINUOUS
 62
     7
100
AcDbCircle
 10
895.007125
 20
378.162498
 30
0.0
 40
10.266216
  0
CIRCLE
  5
4E6
100
AcDbEntity
  8
0
  6
CONTINUOUS
 62
     7
100
AcDbCircle
 10
895.007125
 20
578.162498
 30
0.0
 40
10.266216
  0
CIRCLE
  5
4E7
100
AcDbEntity
  8
0
  6
CONTINUOUS
 62
     7
100
AcDbCircle
 10
895.007125
 20
578.162498
 30
0.0
 40
8.65
  0
CIRCLE
  5
4E8
100
AcDbEntity
  8
0
  6
CONTINUOUS
 62
     7
100
AcDbCircle
 10
895.007125
 20
378.162498
 30
0.0
 40
8.65
  0
CIRCLE
  5
4E9
100
AcDbEntity
  8
0
  6
CONTINUOUS
 62
     7
100
AcDbCircle
 10
895.007125
 20
578.162498
 30
0.0
 40
10.35
  0
CIRCLE
  5
4EA
100
AcDbEntity
  8
0
  6
CONTINUOUS
 62
     7
100
AcDbCircle
 10
895.007125
 20
578.162498
 30
0.0
 40
8.520833
  0
CIRCLE
  5
4EB
100
AcDbEntity
  8
0
  6
CONTINUOUS
 62
     7
100
AcDbCircle
 10
895.007125
 20
378.162498
 30
0.0
 40
8.520833
  0
CIRCLE
  5
4EC
100
AcDbEntity
  8
0
  6
CONTINUOUS
 62
     7
100
AcDbCircle
 10
716.107125
 20
638.162498
 30
0.0
 40
2.196003
  0
CIRCLE
  5
4ED
100
AcDbEntity
  8
0
  6
CONTINUOUS
 62
     7
100
AcDbCircle
 10
716.107125
 20
318.162498
 30
0.0
 40
2.196003
  0
CIRCLE
  5
4EE
100
AcDbEntity
  8
0
  6
CONTINUOUS
 62
     7
100
AcDbCircle
 10
716.107125
 20
318.162498
 30
0.0
 40
2.1
  0
CIRCLE
  5
4EF
100
AcDbEntity
  8
0
  6
CONTINUOUS
 62
     7
100
AcDbCircle
 10
716.107125
 20
638.162498
 30
0.0
 40
2.1
  0
CIRCLE
  5
4F0
100
AcDbEntity
  8
0
  6
CONTINUOUS
 62
     7
100
AcDbCircle
 10
953.907125
 20
318.162498
 30
0.0
 40
2.196003
  0
CIRCLE
  5
4F1
100
AcDbEntity
  8
0
  6
CONTINUOUS
 62
     7
100
AcDbCircle
 10
953.907125
 20
638.162498
 30
0.0
 40
2.196003
  0
CIRCLE
  5
4F2
100
AcDbEntity
  8
0
  6
CONTINUOUS
 62
     7
100
AcDbCircle
 10
953.907125
 20
638.162498
 30
0.0
 40
2.1
  0
CIRCLE
  5
4F3
100
AcDbEntity
  8
0
  6
CONTINUOUS
 62
     7
100
AcDbCircle
 10
953.907125
 20
318.162498
 30
0.0
 40
2.1
  0
LINE
  5
4F4
100
AcDbEntity
  8
0
  6
CONTINUOUS
 62
     7
100
AcDbLine
 10
777.957125
 20
575.162498
 30
0.0
 11
777.957125
 21
581.162498
 31
0.0
  0
ARC
  5
4F5
100
AcDbEntity
  8
0
  6
CONTINUOUS
 62
     7
100
AcDbCircle
 10
775.007125
 20
581.162498
 30
0.0
 40
2.95
100
AcDbArc
 50
0.0
 51
180.0
  0
LINE
  5
4F6
100
AcDbEntity
  8
0
  6
CONTINUOUS
 62
     7
100
AcDbLine
 10
772.057125
 20
581.162498
 30
0.0
 11
772.057125
 21
575.162498
 31
0.0
  0
ARC
  5
4F7
100
AcDbEntity
  8
0
  6
CONTINUOUS
 62
     7
100
AcDbCircle
 10
775.007125
 20
575.162498
 30
0.0
 40
2.95
100
AcDbArc
 50
180.0
 51
0.0
  0
LINE
  5
4F8
100
AcDbEntity
  8
0
  6
CONTINUOUS
 62
     7
100
AcDbLine
 10
778.007125
 20
381.112498
 30
0.0
 11
772.007125
 21
381.112498
 31
0.0
  0
ARC
  5
4F9
100
AcDbEntity
  8
0
  6
CONTINUOUS
 62
     7
100
AcDbCircle
 10
772.007125
 20
378.162498
 30
0.0
 40
2.95
100
AcDbArc
 50
90.0
 51
270.0
  0
LINE
  5
4FA
100
AcDbEntity
  8
0
  6
CONTINUOUS
 62
     7
100
AcDbLine
 10
772.007125
 20
375.212498
 30
0.0
 11
778.007125
 21
375.212498
 31
0.0
  0
ARC
  5
4FB
100
AcDbEntity
  8
0
  6
CONTINUOUS
 62
     7
100
AcDbCircle
 10
778.007125
 20
378.162498
 30
0.0
 40
2.95
100
AcDbArc
 50
270.0
 51
90.0
  0
LINE
  5
4FC
100
AcDbEntity
  8
0
  6
CONTINUOUS
 62
     7
100
AcDbLine
 10
772.007125
 20
381.084562
 30
0.0
 11
772.007125
 21
381.112498
 31
0.0
  0
ARC
  5
4FD
100
AcDbEntity
  8
0
  6
CONTINUOUS
 62
     7
100
AcDbCircle
 10
772.007125
 20
378.162498
 30
0.0
 40
2.922063
100
AcDbArc
 50
90.0
 51
270.0
  0
LINE
  5
4FE
100
AcDbEntity
  8
0
  6
CONTINUOUS
 62
     7
100
AcDbLine
 10
772.007125
 20
375.240435
 30
0.0
 11
772.007125
 21
375.212498
 31
0.0
  0
LINE
  5
4FF
100
AcDbEntity
  8
0
  6
CONTINUOUS
 62
     7
100
AcDbLine
 10
772.007125
 20
375.802315
 30
0.0
 11
778.007125
 21
375.802315
 31
0.0
  0
ARC
  5
500
100
AcDbEntity
  8
0
  6
CONTINUOUS
 62
     7
100
AcDbCircle
 10
772.007125
 20
378.162498
 30
0.0
 40
2.360183
100
AcDbArc
 50
90.0
 51
270.0
  0
LINE
  5
501
100
AcDbEntity
  8
0
  6
CONTINUOUS
 62
     7
100
AcDbLine
 10
778.007125
 20
380.522682
 30
0.0
 11
772.007125
 21
380.522682
 31
0.0
  0
ARC
  5
502
100
AcDbEntity
  8
0
  6
CONTINUOUS
 62
     7
100
AcDbCircle
 10
778.007125
 20
378.162498
 30
0.0
 40
2.360183
100
AcDbArc
 50
270.0
 51
90.0
  0
LINE
  5
503
100
AcDbEntity
  8
0
  6
CONTINUOUS
 62
     7
100
AcDbLine
 10
772.007125
 20
380.522682
 30
0.0
 11
772.007125
 21
380.984562
 31
0.0
  0
LINE
  5
504
100
AcDbEntity
  8
0
  6
CONTINUOUS
 62
     7
100
AcDbLine
 10
772.007125
 20
375.802315
 30
0.0
 11
772.007125
 21
375.340435
 31
0.0
  0
ARC
  5
505
100
AcDbEntity
  8
0
  6
CONTINUOUS
 62
     7
100
AcDbCircle
 10
772.007125
 20
378.162498
 30
0.0
 40
2.822063
100
AcDbArc
 50
90.0
 51
270.0
  0
LINE
  5
506
100
AcDbEntity
  8
0
  6
CONTINUOUS
 62
     7
100
AcDbLine
 10
772.646942
 20
581.162498
 30
0.0
 11
772.185061
 21
581.162498
 31
0.0
  0
LINE
  5
507
100
AcDbEntity
  8
0
  6
CONTINUOUS
 62
     7
100
AcDbLine
 10
772.646942
 20
581.162498
 30
0.0
 11
772.646942
 21
575.162498
 31
0.0
  0
LINE
  5
508
100
AcDbEntity
  8
0
  6
CONTINUOUS
 62
     7
100
AcDbLine
 10
772.646942
 20
575.162498
 30
0.0
 11
772.185061
 21
575.162498
 31
0.0
  0
LINE
  5
509
100
AcDbEntity
  8
0
  6
CONTINUOUS
 62
     7
100
AcDbLine
 10
772.185061
 20
581.162498
 30
0.0
 11
772.185061
 21
575.162498
 31
0.0
  0
LINE
  5
50A
100
AcDbEntity
  8
0
  6
CONTINUOUS
 62
     7
100
AcDbLine
 10
777.929188
 20
581.162498
 30
0.0
 11
777.957125
 21
581.162498
 31
0.0
  0
ARC
  5
50B
100
AcDbEntity
  8
0
  6
CONTINUOUS
 62
     7
100
AcDbCircle
 10
775.007125
 20
581.162498
 30
0.0
 40
2.922063
100
AcDbArc
 50
0.0
 51
180.0
  0
LINE
  5
50C
100
AcDbEntity
  8
0
  6
CONTINUOUS
 62
     7
100
AcDbLine
 10
772.085061
 20
581.162498
 30
0.0
 11
772.057125
 21
581.162498
 31
0.0
  0
ARC
  5
50D
100
AcDbEntity
  8
0
  6
CONTINUOUS
 62
     7
100
AcDbCircle
 10
775.007125
 20
575.162498
 30
0.0
 40
2.360183
100
AcDbArc
 50
180.0
 51
0.0
  0
LINE
  5
50E
100
AcDbEntity
  8
0
  6
CONTINUOUS
 62
     7
100
AcDbLine
 10
777.367308
 20
575.162498
 30
0.0
 11
777.829188
 21
575.162498
 31
0.0
  0
ARC
  5
50F
100
AcDbEntity
  8
0
  6
CONTINUOUS
 62
     7
100
AcDbCircle
 10
775.007125
 20
575.162498
 30
0.0
 40
2.822063
100
AcDbArc
 50
180.0
 51
0.0
  0
LINE
  5
510
100
AcDbEntity
  8
0
  6
CONTINUOUS
 62
     7
100
AcDbLine
 10
772.007125
 20
375.240435
 30
0.0
 11
778.007125
 21
375.240435
 31
0.0
  0
LINE
  5
511
100
AcDbEntity
  8
0
  6
CONTINUOUS
 62
     7
100
AcDbLine
 10
778.007125
 20
375.240435
 30
0.0
 11
778.007125
 21
375.212498
 31
0.0
  0
LINE
  5
512
100
AcDbEntity
  8
0
  6
CONTINUOUS
 62
     7
100
AcDbLine
 10
777.367308
 20
581.162498
 30
0.0
 11
777.829188
 21
581.162498
 31
0.0
  0
ARC
  5
513
100
AcDbEntity
  8
0
  6
CONTINUOUS
 62
     7
100
AcDbCircle
 10
775.007125
 20
581.162498
 30
0.0
 40
2.360183
100
AcDbArc
 50
0.0
 51
180.0
  0
ARC
  5
514
100
AcDbEntity
  8
0
  6
CONTINUOUS
 62
     7
100
AcDbCircle
 10
775.007125
 20
581.162498
 30
0.0
 40
2.822063
100
AcDbArc
 50
0.0
 51
180.0
  0
LINE
  5
515
100
AcDbEntity
  8
0
  6
CONTINUOUS
 62
     7
100
AcDbLine
 10
778.007125
 20
381.084562
 30
0.0
 11
778.007125
 21
381.112498
 31
0.0
  0
LINE
  5
516
100
AcDbEntity
  8
0
  6
CONTINUOUS
 62
     7
100
AcDbLine
 10
778.007125
 20
381.084562
 30
0.0
 11
772.007125
 21
381.084562
 31
0.0
  0
LINE
  5
517
100
AcDbEntity
  8
0
  6
CONTINUOUS
 62
     7
100
AcDbLine
 10
772.085061
 20
581.162498
 30
0.0
 11
772.085061
 21
575.162498
 31
0.0
  0
LINE
  5
518
100
AcDbEntity
  8
0
  6
CONTINUOUS
 62
     7
100
AcDbLine
 10
772.085061
 20
575.162498
 30
0.0
 11
772.057125
 21
575.162498
 31
0.0
  0
LINE
  5
519
100
AcDbEntity
  8
0
  6
CONTINUOUS
 62
     7
100
AcDbLine
 10
778.007125
 20
380.522682
 30
0.0
 11
778.007125
 21
380.984562
 31
0.0
  0
LINE
  5
51A
100
AcDbEntity
  8
0
  6
CONTINUOUS
 62
     7
100
AcDbLine
 10
778.007125
 20
380.984562
 30
0.0
 11
772.007125
 21
380.984562
 31
0.0
  0
ARC
  5
51B
100
AcDbEntity
  8
0
  6
CONTINUOUS
 62
     7
100
AcDbCircle
 10
775.007125
 20
575.162498
 30
0.0
 40
2.922063
100
AcDbArc
 50
180.0
 51
0.0
  0
LINE
  5
51C
100
AcDbEntity
  8
0
  6
CONTINUOUS
 62
     7
100
AcDbLine
 10
777.929188
 20
575.162498
 30
0.0
 11
777.957125
 21
575.162498
 31
0.0
  0
LINE
  5
51D
100
AcDbEntity
  8
0
  6
CONTINUOUS
 62
     7
100
AcDbLine
 10
778.007125
 20
375.802315
 30
0.0
 11
778.007125
 21
375.340435
 31
0.0
  0
LINE
  5
51E
100
AcDbEntity
  8
0
  6
CONTINUOUS
 62
     7
100
AcDbLine
 10
772.007125
 20
375.340435
 30
0.0
 11
778.007125
 21
375.340435
 31
0.0
  0
LINE
  5
51F
100
AcDbEntity
  8
0
  6
CONTINUOUS
 62
     7
100
AcDbLine
 10
777.367308
 20
575.162498
 30
0.0
 11
777.367308
 21
581.162498
 31
0.0
  0
LINE
  5
520
100
AcDbEntity
  8
0
  6
CONTINUOUS
 62
     7
100
AcDbLine
 10
777.929188
 20
575.162498
 30
0.0
 11
777.929188
 21
581.162498
 31
0.0
  0
LINE
  5
521
100
AcDbEntity
  8
0
  6
CONTINUOUS
 62
     7
100
AcDbLine
 10
777.829188
 20
575.162498
 30
0.0
 11
777.829188
 21
581.162498
 31
0.0
  0
ARC
  5
522
100
AcDbEntity
  8
0
  6
CONTINUOUS
 62
     7
100
AcDbCircle
 10
778.007125
 20
378.162498
 30
0.0
 40
2.922063
100
AcDbArc
 50
270.0
 51
90.0
  0
ARC
  5
523
100
AcDbEntity
  8
0
  6
CONTINUOUS
 62
     7
100
AcDbCircle
 10
778.007125
 20
378.162498
 30
0.0
 40
2.822063
100
AcDbArc
 50
270.0
 51
90.0
  0
LINE
  5
524
100
AcDbEntity
  8
0
  6
CONTINUOUS
 62
     7
100
AcDbLine
 10
898.007125
 20
581.112498
 30
0.0
 11
892.007125
 21
581.112498
 31
0.0
  0
ARC
  5
525
100
AcDbEntity
  8
0
  6
CONTINUOUS
 62
     7
100
AcDbCircle
 10
892.007125
 20
578.162498
 30
0.0
 40
2.95
100
AcDbArc
 50
90.0
 51
270.0
  0
LINE
  5
526
100
AcDbEntity
  8
0
  6
CONTINUOUS
 62
     7
100
AcDbLine
 10
892.007125
 20
575.212498
 30
0.0
 11
898.007125
 21
575.212498
 31
0.0
  0
ARC
  5
527
100
AcDbEntity
  8
0
  6
CONTINUOUS
 62
     7
100
AcDbCircle
 10
898.007125
 20
578.162498
 30
0.0
 40
2.95
100
AcDbArc
 50
270.0
 51
90.0
  0
LINE
  5
528
100
AcDbEntity
  8
0
  6
CONTINUOUS
 62
     7
100
AcDbLine
 10
897.957125
 20
375.162498
 30
0.0
 11
897.957125
 21
381.162498
 31
0.0
  0
ARC
  5
529
100
AcDbEntity
  8
0
  6
CONTINUOUS
 62
     7
100
AcDbCircle
 10
895.007125
 20
381.162498
 30
0.0
 40
2.95
100
AcDbArc
 50
0.0
 51
180.0
  0
LINE
  5
52A
100
AcDbEntity
  8
0
  6
CONTINUOUS
 62
     7
100
AcDbLine
 10
892.057125
 20
381.162498
 30
0.0
 11
892.057125
 21
375.162498
 31
0.0
  0
ARC
  5
52B
100
AcDbEntity
  8
0
  6
CONTINUOUS
 62
     7
100
AcDbCircle
 10
895.007125
 20
375.162498
 30
0.0
 40
2.95
100
AcDbArc
 50
180.0
 51
0.0
  0
LINE
  5
52C
100
AcDbEntity
  8
0
  6
CONTINUOUS
 62
     7
100
AcDbLine
 10
892.007125
 20
580.522682
 30
0.0
 11
892.007125
 21
580.984562
 31
0.0
  0
ARC
  5
52D
100
AcDbEntity
  8
0
  6
CONTINUOUS
 62
     7
100
AcDbCircle
 10
892.007125
 20
578.162498
 30
0.0
 40
2.360183
100
AcDbArc
 50
90.0
 51
270.0
  0
LINE
  5
52E
100
AcDbEntity
  8
0
  6
CONTINUOUS
 62
     7
100
AcDbLine
 10
892.007125
 20
575.802315
 30
0.0
 11
892.007125
 21
575.340435
 31
0.0
  0
ARC
  5
52F
100
AcDbEntity
  8
0
  6
CONTINUOUS
 62
     7
100
AcDbCircle
 10
892.007125
 20
578.162498
 30
0.0
 40
2.822063
100
AcDbArc
 50
90.0
 51
270.0
  0
LINE
  5
530
100
AcDbEntity
  8
0
  6
CONTINUOUS
 62
     7
100
AcDbLine
 10
892.007125
 20
581.084562
 30
0.0
 11
892.007125
 21
581.112498
 31
0.0
  0
ARC
  5
531
100
AcDbEntity
  8
0
  6
CONTINUOUS
 62
     7
100
AcDbCircle
 10
892.007125
 20
578.162498
 30
0.0
 40
2.922063
100
AcDbArc
 50
90.0
 51
270.0
  0
LINE
  5
532
100
AcDbEntity
  8
0
  6
CONTINUOUS
 62
     7
100
AcDbLine
 10
892.007125
 20
575.240435
 30
0.0
 11
892.007125
 21
575.212498
 31
0.0
  0
LINE
  5
533
100
AcDbEntity
  8
0
  6
CONTINUOUS
 62
     7
100
AcDbLine
 10
892.007125
 20
575.802315
 30
0.0
 11
898.007125
 21
575.802315
 31
0.0
  0
LINE
  5
534
100
AcDbEntity
  8
0
  6
CONTINUOUS
 62
     7
100
AcDbLine
 10
898.007125
 20
580.522682
 30
0.0
 11
892.007125
 21
580.522682
 31
0.0
  0
ARC
  5
535
100
AcDbEntity
  8
0
  6
CONTINUOUS
 62
     7
100
AcDbCircle
 10
898.007125
 20
578.162498
 30
0.0
 40
2.360183
100
AcDbArc
 50
270.0
 51
90.0
  0
LINE
  5
536
100
AcDbEntity
  8
0
  6
CONTINUOUS
 62
     7
100
AcDbLine
 10
892.085061
 20
381.162498
 30
0.0
 11
892.057125
 21
381.162498
 31
0.0
  0
LINE
  5
537
100
AcDbEntity
  8
0
  6
CONTINUOUS
 62
     7
100
AcDbLine
 10
892.085061
 20
381.162498
 30
0.0
 11
892.085061
 21
375.162498
 31
0.0
  0
LINE
  5
538
100
AcDbEntity
  8
0
  6
CONTINUOUS
 62
     7
100
AcDbLine
 10
892.085061
 20
375.162498
 30
0.0
 11
892.057125
 21
375.162498
 31
0.0
  0
LINE
  5
539
100
AcDbEntity
  8
0
  6
CONTINUOUS
 62
     7
100
AcDbLine
 10
892.646942
 20
381.162498
 30
0.0
 11
892.185061
 21
381.162498
 31
0.0
  0
LINE
  5
53A
100
AcDbEntity
  8
0
  6
CONTINUOUS
 62
     7
100
AcDbLine
 10
892.646942
 20
381.162498
 30
0.0
 11
892.646942
 21
375.162498
 31
0.0
  0
LINE
  5
53B
100
AcDbEntity
  8
0
  6
CONTINUOUS
 62
     7
100
AcDbLine
 10
892.646942
 20
375.162498
 30
0.0
 11
892.185061
 21
375.162498
 31
0.0
  0
LINE
  5
53C
100
AcDbEntity
  8
0
  6
CONTINUOUS
 62
     7
100
AcDbLine
 10
892.185061
 20
381.162498
 30
0.0
 11
892.185061
 21
375.162498
 31
0.0
  0
ARC
  5
53D
100
AcDbEntity
  8
0
  6
CONTINUOUS
 62
     7
100
AcDbCircle
 10
895.007125
 20
375.162498
 30
0.0
 40
2.922063
100
AcDbArc
 50
180.0
 51
0.0
  0
LINE
  5
53E
100
AcDbEntity
  8
0
  6
CONTINUOUS
 62
     7
100
AcDbLine
 10
897.929188
 20
375.162498
 30
0.0
 11
897.957125
 21
375.162498
 31
0.0
  0
LINE
  5
53F
100
AcDbEntity
  8
0
  6
CONTINUOUS
 62
     7
100
AcDbLine
 10
898.007125
 20
580.522682
 30
0.0
 11
898.007125
 21
580.984562
 31
0.0
  0
LINE
  5
540
100
AcDbEntity
  8
0
  6
CONTINUOUS
 62
     7
100
AcDbLine
 10
898.007125
 20
580.984562
 30
0.0
 11
892.007125
 21
580.984562
 31
0.0
  0
LINE
  5
541
100
AcDbEntity
  8
0
  6
CONTINUOUS
 62
     7
100
AcDbLine
 10
898.007125
 20
581.084562
 30
0.0
 11
898.007125
 21
581.112498
 31
0.0
  0
LINE
  5
542
100
AcDbEntity
  8
0
  6
CONTINUOUS
 62
     7
100
AcDbLine
 10
898.007125
 20
581.084562
 30
0.0
 11
892.007125
 21
581.084562
 31
0.0
  0
LINE
  5
543
100
AcDbEntity
  8
0
  6
CONTINUOUS
 62
     7
100
AcDbLine
 10
897.929188
 20
381.162498
 30
0.0
 11
897.957125
 21
381.162498
 31
0.0
  0
ARC
  5
544
100
AcDbEntity
  8
0
  6
CONTINUOUS
 62
     7
100
AcDbCircle
 10
895.007125
 20
381.162498
 30
0.0
 40
2.922063
100
AcDbArc
 50
0.0
 51
180.0
  0
LINE
  5
545
100
AcDbEntity
  8
0
  6
CONTINUOUS
 62
     7
100
AcDbLine
 10
898.007125
 20
575.802315
 30
0.0
 11
898.007125
 21
575.340435
 31
0.0
  0
LINE
  5
546
100
AcDbEntity
  8
0
  6
CONTINUOUS
 62
     7
100
AcDbLine
 10
892.007125
 20
575.340435
 30
0.0
 11
898.007125
 21
575.340435
 31
0.0
  0
LINE
  5
547
100
AcDbEntity
  8
0
  6
CONTINUOUS
 62
     7
100
AcDbLine
 10
892.007125
 20
575.240435
 30
0.0
 11
898.007125
 21
575.240435
 31
0.0
  0
LINE
  5
548
100
AcDbEntity
  8
0
  6
CONTINUOUS
 62
     7
100
AcDbLine
 10
898.007125
 20
575.240435
 30
0.0
 11
898.007125
 21
575.212498
 31
0.0
  0
ARC
  5
549
100
AcDbEntity
  8
0
  6
CONTINUOUS
 62
     7
100
AcDbCircle
 10
895.007125
 20
375.162498
 30
0.0
 40
2.360183
100
AcDbArc
 50
180.0
 51
0.0
  0
LINE
  5
54A
100
AcDbEntity
  8
0
  6
CONTINUOUS
 62
     7
100
AcDbLine
 10
897.367308
 20
375.162498
 30
0.0
 11
897.829188
 21
375.162498
 31
0.0
  0
ARC
  5
54B
100
AcDbEntity
  8
0
  6
CONTINUOUS
 62
     7
100
AcDbCircle
 10
895.007125
 20
375.162498
 30
0.0
 40
2.822063
100
AcDbArc
 50
180.0
 51
0.0
  0
ARC
  5
54C
100
AcDbEntity
  8
0
  6
CONTINUOUS
 62
     7
100
AcDbCircle
 10
895.007125
 20
381.162498
 30
0.0
 40
2.360183
100
AcDbArc
 50
0.0
 51
180.0
  0
LINE
  5
54D
100
AcDbEntity
  8
0
  6
CONTINUOUS
 62
     7
100
AcDbLine
 10
897.367308
 20
375.162498
 30
0.0
 11
897.367308
 21
381.162498
 31
0.0
  0
LINE
  5
54E
100
AcDbEntity
  8
0
  6
CONTINUOUS
 62
     7
100
AcDbLine
 10
897.367308
 20
381.162498
 30
0.0
 11
897.829188
 21
381.162498
 31
0.0
  0
ARC
  5
54F
100
AcDbEntity
  8
0
  6
CONTINUOUS
 62
     7
100
AcDbCircle
 10
895.007125
 20
381.162498
 30
0.0
 40
2.822063
100
AcDbArc
 50
0.0
 51
180.0
  0
LINE
  5
550
100
AcDbEntity
  8
0
  6
CONTINUOUS
 62
     7
100
AcDbLine
 10
897.829188
 20
375.162498
 30
0.0
 11
897.829188
 21
381.162498
 31
0.0
  0
LINE
  5
551
100
AcDbEntity
  8
0
  6
CONTINUOUS
 62
     7
100
AcDbLine
 10
897.929188
 20
375.162498
 30
0.0
 11
897.929188
 21
381.162498
 31
0.0
  0
ARC
  5
552
100
AcDbEntity
  8
0
  6
CONTINUOUS
 62
     7
100
AcDbCircle
 10
898.007125
 20
578.162498
 30
0.0
 40
2.922063
100
AcDbArc
 50
270.0
 51
90.0
  0
ARC
  5
553
100
AcDbEntity
  8
0
  6
CONTINUOUS
 62
     7
100
AcDbCircle
 10
898.007125
 20
578.162498
 30
0.0
 40
2.822063
100
AcDbArc
 50
270.0
 51
90.0
  0
LINE
  5
554
100
AcDbEntity
  8
0
  6
CONTINUOUS
 62
     7
100
AcDbLine
 10
949.407124
 20
766.135066
 30
0.0
 11
949.564348
 21
763.135065
 31
0.0
  0
LINE
  5
555
100
AcDbEntity
  8
0
  6
CONTINUOUS
 62
     7
100
AcDbLine
 10
720.449901
 20
763.135065
 30
0.0
 11
720.607125
 21
766.135066
 31
0.0
  0
LINE
  5
556
100
AcDbEntity
  8
0
  6
CONTINUOUS
 62
     7
100
AcDbLine
 10
927.507126
 20
766.135066
 30
0.0
 11
927.559533
 21
765.135065
 31
0.0
  0
LINE
  5
557
100
AcDbEntity
  8
0
  6
CONTINUOUS
 62
     7
100
AcDbLine
 10
937.454717
 20
765.135065
 30
0.0
 11
937.507124
 21
766.135066
 31
0.0
  0
LINE
  5
558
100
AcDbEntity
  8
0
  6
CONTINUOUS
 62
     7
100
AcDbLine
 10
732.507126
 20
766.135066
 30
0.0
 11
732.559533
 21
765.135065
 31
0.0
  0
LINE
  5
559
100
AcDbEntity
  8
0
  6
CONTINUOUS
 62
     7
100
AcDbLine
 10
742.454717
 20
765.135065
 30
0.0
 11
742.507124
 21
766.135066
 31
0.0
  0
LINE
  5
55A
100
AcDbEntity
  8
0
  6
CONTINUOUS
 62
     7
100
AcDbLine
 10
929.257126
 20
765.135064
 30
0.0
 11
929.257125
 21
763.135065
 31
0.0
  0
LINE
  5
55B
100
AcDbEntity
  8
0
  6
CONTINUOUS
 62
     7
100
AcDbLine
 10
935.757125
 20
763.135065
 30
0.0
 11
935.757124
 21
765.135064
 31
0.0
  0
LINE
  5
55C
100
AcDbEntity
  8
0
  6
CONTINUOUS
 62
     7
100
AcDbLine
 10
734.257125
 20
765.135064
 30
0.0
 11
734.257125
 21
763.135065
 31
0.0
  0
LINE
  5
55D
100
AcDbEntity
  8
0
  6
CONTINUOUS
 62
     7
100
AcDbLine
 10
740.757125
 20
763.135065
 30
0.0
 11
740.757124
 21
765.135064
 31
0.0
  0
LINE
  5
55E
100
AcDbEntity
  8
0
  6
CONTINUOUS
 62
     7
100
AcDbLine
 10
925.207124
 20
766.135066
 30
0.0
 11
925.25949
 21
763.135065
 31
0.0
  0
LINE
  5
55F
100
AcDbEntity
  8
0
  6
CONTINUOUS
 62
     7
100
AcDbLine
 10
744.75476
 20
763.135065
 30
0.0
 11
744.807125
 21
766.135066
 31
0.0
  0
LINE
  5
560
100
AcDbEntity
  8
0
  6
CONTINUOUS
 62
     7
100
AcDbLine
 10
939.75476
 20
763.135065
 30
0.0
 11
939.807126
 21
766.135066
 31
0.0
  0
LINE
  5
561
100
AcDbEntity
  8
0
  6
CONTINUOUS
 62
     7
100
AcDbLine
 10
730.207124
 20
766.135066
 30
0.0
 11
730.25949
 21
763.135065
 31
0.0
  0
LINE
  5
562
100
AcDbEntity
  8
0
  6
CONTINUOUS
 62
     7
100
AcDbLine
 10
764.69727
 20
766.135066
 30
0.0
 11
764.740909
 21
763.635065
 31
0.0
  0
LINE
  5
563
100
AcDbEntity
  8
0
  6
CONTINUOUS
 62
     7
100
AcDbLine
 10
785.27334
 20
763.635065
 30
0.0
 11
785.316979
 21
766.135066
 31
0.0
  0
LINE
  5
564
100
AcDbEntity
  8
0
  6
CONTINUOUS
 62
     7
100
AcDbLine
 10
884.697271
 20
766.135066
 30
0.0
 11
884.740909
 21
763.635065
 31
0.0
  0
LINE
  5
565
100
AcDbEntity
  8
0
  6
CONTINUOUS
 62
     7
100
AcDbLine
 10
905.27334
 20
763.635065
 30
0.0
 11
905.31698
 21
766.135066
 31
0.0
  0
LINE
  5
566
100
AcDbEntity
  8
0
  6
CONTINUOUS
 62
     7
100
AcDbLine
 10
714.302005
 20
846.235065
 30
0.0
 11
715.700151
 21
766.135066
 31
0.0
  0
LINE
  5
567
100
AcDbEntity
  8
0
  6
CONTINUOUS
 62
     7
100
AcDbLine
 10
715.700153
 20
763.135065
 30
0.0
 11
715.700151
 21
766.135066
 31
0.0
  0
LINE
  5
568
100
AcDbEntity
  8
0
  6
CONTINUOUS
 62
     7
100
AcDbLine
 10
710.957126
 20
763.135067
 30
0.0
 11
710.957125
 21
846.235065
 31
0.0
  0
LINE
  5
569
100
AcDbEntity
  8
0
  6
CONTINUOUS
 62
     7
100
AcDbLine
 10
714.302005
 20
846.235065
 30
0.0
 11
710.957125
 21
846.235065
 31
0.0
  0
LINE
  5
56A
100
AcDbEntity
  8
0
  6
CONTINUOUS
 62
     7
100
AcDbLine
 10
715.700153
 20
763.135065
 30
0.0
 11
710.957126
 21
763.135067
 31
0.0
  0
LINE
  5
56B
100
AcDbEntity
  8
0
  6
CONTINUOUS
 62
     7
100
AcDbLine
 10
973.507125
 20
854.535065
 30
0.0
 11
979.507125
 21
854.535065
 31
0.0
  0
LINE
  5
56C
100
AcDbEntity
  8
0
  6
CONTINUOUS
 62
     7
100
AcDbLine
 10
979.507125
 20
854.535065
 30
0.0
 11
979.507125
 21
763.135065
 31
0.0
  0
LINE
  5
56D
100
AcDbEntity
  8
0
  6
CONTINUOUS
 62
     7
100
AcDbLine
 10
973.507125
 20
763.135065
 30
0.0
 11
973.507125
 21
854.535065
 31
0.0
  0
LINE
  5
56E
100
AcDbEntity
  8
0
  6
CONTINUOUS
 62
     7
100
AcDbLine
 10
979.507125
 20
763.135065
 30
0.0
 11
973.507125
 21
763.135065
 31
0.0
  0
LINE
  5
56F
100
AcDbEntity
  8
0
  6
CONTINUOUS
 62
     7
100
AcDbLine
 10
690.507125
 20
854.535065
 30
0.0
 11
696.507125
 21
854.535065
 31
0.0
  0
LINE
  5
570
100
AcDbEntity
  8
0
  6
CONTINUOUS
 62
     7
100
AcDbLine
 10
696.507125
 20
854.535065
 30
0.0
 11
696.507125
 21
763.135065
 31
0.0
  0
LINE
  5
571
100
AcDbEntity
  8
0
  6
CONTINUOUS
 62
     7
100
AcDbLine
 10
690.507125
 20
763.135065
 30
0.0
 11
690.507125
 21
854.535065
 31
0.0
  0
LINE
  5
572
100
AcDbEntity
  8
0
  6
CONTINUOUS
 62
     7
100
AcDbLine
 10
696.507125
 20
763.135065
 30
0.0
 11
690.507125
 21
763.135065
 31
0.0
  0
LINE
  5
573
100
AcDbEntity
  8
0
  6
CONTINUOUS
 62
     7
100
AcDbLine
 10
955.712245
 20
846.235065
 30
0.0
 11
959.057125
 21
846.235065
 31
0.0
  0
LINE
  5
574
100
AcDbEntity
  8
0
  6
CONTINUOUS
 62
     7
100
AcDbLine
 10
959.057125
 20
846.235065
 30
0.0
 11
959.057124
 21
763.135067
 31
0.0
  0
LINE
  5
575
100
AcDbEntity
  8
0
  6
CONTINUOUS
 62
     7
100
AcDbLine
 10
954.314097
 20
763.135065
 30
0.0
 11
954.314099
 21
766.135066
 31
0.0
  0
LINE
  5
576
100
AcDbEntity
  8
0
  6
CONTINUOUS
 62
     7
100
AcDbLine
 10
955.712245
 20
846.235065
 30
0.0
 11
954.314099
 21
766.135066
 31
0.0
  0
LINE
  5
577
100
AcDbEntity
  8
0
  6
CONTINUOUS
 62
     7
100
AcDbLine
 10
959.057124
 20
763.135067
 30
0.0
 11
954.314097
 21
763.135065
 31
0.0
  0
LINE
  5
578
100
AcDbEntity
  8
0
  6
CONTINUOUS
 62
     7
100
AcDbLine
 10
696.507125
 20
854.535065
 30
0.0
 11
973.507125
 21
854.535065
 31
0.0
  0
ARC
  5
579
100
AcDbEntity
  8
0
  6
CONTINUOUS
 62
     7
100
AcDbCircle
 10
954.557125
 20
846.235065
 30
0.0
 40
4.5
100
AcDbArc
 50
0.0
 51
90.0
  0
LINE
  5
57A
100
AcDbEntity
  8
0
  6
CONTINUOUS
 62
     7
100
AcDbLine
 10
715.457125
 20
850.735065
 30
0.0
 11
954.557125
 21
850.735065
 31
0.0
  0
ARC
  5
57B
100
AcDbEntity
  8
0
  6
CONTINUOUS
 62
     7
100
AcDbCircle
 10
715.457125
 20
846.235065
 30
0.0
 40
4.5
100
AcDbArc
 50
90.0
 51
180.0
  0
LINE
  5
57C
100
AcDbEntity
  8
0
  6
CONTINUOUS
 62
     7
100
AcDbLine
 10
973.507125
 20
763.135065
 30
0.0
 11
959.057124
 21
763.135067
 31
0.0
  0
LINE
  5
57D
100
AcDbEntity
  8
0
  6
CONTINUOUS
 62
     7
100
AcDbLine
 10
710.957126
 20
763.135067
 30
0.0
 11
696.507125
 21
763.135065
 31
0.0
  0
LINE
  5
57E
100
AcDbEntity
  8
0
  6
CONTINUOUS
 62
     7
100
AcDbLine
 10
954.557122
 20
847.410709
 30
0.0
 11
715.457128
 21
847.410709
 31
0.0
  0
LINE
  5
57F
100
AcDbEntity
  8
0
  6
CONTINUOUS
 62
     7
100
AcDbLine
 10
715.457128
 20
847.410709
 30
0.0
 11
715.457125
 21
850.735065
 31
0.0
  0
LINE
  5
580
100
AcDbEntity
  8
0
  6
CONTINUOUS
 62
     7
100
AcDbLine
 10
954.557122
 20
847.410709
 30
0.0
 11
954.557125
 21
850.735065
 31
0.0
  0
ELLIPSE
  5
581
100
AcDbEntity
  8
0
  6
CONTINUOUS
 62
     7
100
AcDbEllipse
 10
954.557125
 20
846.255234
 30
0.0
 11
0.0
 21
1.155475010403534
 31
0.0
210
0.0
220
0.0
230
1.0
 40
0.999848
 41
4.694933028968856
 42
6.283185307179586
  0
ELLIPSE
  5
582
100
AcDbEntity
  8
0
  6
CONTINUOUS
 62
     7
100
AcDbEllipse
 10
715.457125
 20
846.255234
 30
0.0
 11
0.0000000000001421
 21
1.155475010403392
 31
0.0
210
0.0
220
0.0
230
1.0
 40
0.999848
 41
0.0
 42
1.588252278210868
  0
LINE
  5
583
100
AcDbEntity
  8
0
  6
CONTINUOUS
 62
     7
100
AcDbLine
 10
954.314099
 20
766.135066
 30
0.0
 11
715.700151
 21
766.135066
 31
0.0
  0
LINE
  5
584
100
AcDbEntity
  8
0
  6
CONTINUOUS
 62
     7
100
AcDbLine
 10
954.314097
 20
763.135065
 30
0.0
 11
949.564348
 21
763.135065
 31
0.0
  0
LINE
  5
585
100
AcDbEntity
  8
0
  6
CONTINUOUS
 62
     7
100
AcDbLine
 10
716.107125
 20
763.135065
 30
0.0
 11
715.700153
 21
763.135065
 31
0.0
  0
LINE
  5
586
100
AcDbEntity
  8
0
  6
CONTINUOUS
 62
     7
100
AcDbLine
 10
720.449901
 20
763.135065
 30
0.0
 11
716.107125
 21
763.135065
 31
0.0
  0
LINE
  5
587
100
AcDbEntity
  8
0
  6
CONTINUOUS
 62
     7
100
AcDbLine
 10
932.507125
 20
765.135065
 30
0.0
 11
927.559533
 21
765.135065
 31
0.0
  0
LINE
  5
588
100
AcDbEntity
  8
0
  6
CONTINUOUS
 62
     7
100
AcDbLine
 10
937.454717
 20
765.135065
 30
0.0
 11
932.507125
 21
765.135065
 31
0.0
  0
LINE
  5
589
100
AcDbEntity
  8
0
  6
CONTINUOUS
 62
     7
100
AcDbLine
 10
742.454717
 20
765.135065
 30
0.0
 11
732.559533
 21
765.135065
 31
0.0
  0
LINE
  5
58A
100
AcDbEntity
  8
0
  6
CONTINUOUS
 62
     7
100
AcDbLine
 10
932.507125
 20
763.135065
 30
0.0
 11
929.257125
 21
763.135065
 31
0.0
  0
LINE
  5
58B
100
AcDbEntity
  8
0
  6
CONTINUOUS
 62
     7
100
AcDbLine
 10
935.757125
 20
763.135065
 30
0.0
 11
932.507125
 21
763.135065
 31
0.0
  0
LINE
  5
58C
100
AcDbEntity
  8
0
  6
CONTINUOUS
 62
     7
100
AcDbLine
 10
737.507125
 20
763.135065
 30
0.0
 11
734.257125
 21
763.135065
 31
0.0
  0
LINE
  5
58D
100
AcDbEntity
  8
0
  6
CONTINUOUS
 62
     7
100
AcDbLine
 10
740.757125
 20
763.135065
 30
0.0
 11
737.507125
 21
763.135065
 31
0.0
  0
LINE
  5
58E
100
AcDbEntity
  8
0
  6
CONTINUOUS
 62
     7
100
AcDbLine
 10
927.507125
 20
763.135065
 30
0.0
 11
925.25949
 21
763.135065
 31
0.0
  0
LINE
  5
58F
100
AcDbEntity
  8
0
  6
CONTINUOUS
 62
     7
100
AcDbLine
 10
929.257125
 20
763.135065
 30
0.0
 11
927.507125
 21
763.135065
 31
0.0
  0
LINE
  5
590
100
AcDbEntity
  8
0
  6
CONTINUOUS
 62
     7
100
AcDbLine
 10
744.75476
 20
763.135065
 30
0.0
 11
740.757125
 21
763.135065
 31
0.0
  0
LINE
  5
591
100
AcDbEntity
  8
0
  6
CONTINUOUS
 62
     7
100
AcDbLine
 10
937.507125
 20
763.135065
 30
0.0
 11
935.757125
 21
763.135065
 31
0.0
  0
LINE
  5
592
100
AcDbEntity
  8
0
  6
CONTINUOUS
 62
     7
100
AcDbLine
 10
939.75476
 20
763.135065
 30
0.0
 11
937.507125
 21
763.135065
 31
0.0
  0
LINE
  5
593
100
AcDbEntity
  8
0
  6
CONTINUOUS
 62
     7
100
AcDbLine
 10
734.257125
 20
763.135065
 30
0.0
 11
730.25949
 21
763.135065
 31
0.0
  0
LINE
  5
594
100
AcDbEntity
  8
0
  6
CONTINUOUS
 62
     7
100
AcDbLine
 10
943.736936
 20
765.135065
 30
0.0
 11
949.459533
 21
765.135065
 31
0.0
  0
LINE
  5
595
100
AcDbEntity
  8
0
  6
CONTINUOUS
 62
     7
100
AcDbLine
 10
943.736936
 20
765.135065
 30
0.0
 11
943.288253
 21
766.135066
 31
0.0
  0
LINE
  5
596
100
AcDbEntity
  8
0
  6
CONTINUOUS
 62
     7
100
AcDbLine
 10
726.277314
 20
765.135065
 30
0.0
 11
726.725997
 21
766.135066
 31
0.0
  0
LINE
  5
597
100
AcDbEntity
  8
0
  6
CONTINUOUS
 62
     7
100
AcDbLine
 10
726.277314
 20
765.135065
 30
0.0
 11
720.554717
 21
765.135065
 31
0.0
  0
LINE
  5
598
100
AcDbEntity
  8
0
  6
CONTINUOUS
 62
     7
100
AcDbLine
 10
835.007125
 20
765.135064
 30
0.0
 11
835.007125
 21
766.135066
 31
0.0
  0
LINE
  5
599
100
AcDbEntity
  8
0
  6
CONTINUOUS
 62
     7
100
AcDbLine
 10
835.007125
 20
765.135064
 30
0.0
 11
785.299522
 21
765.135064
 31
0.0
  0
LINE
  5
59A
100
AcDbEntity
  8
0
  6
CONTINUOUS
 62
     7
100
AcDbLine
 10
764.714726
 20
765.135064
 30
0.0
 11
744.789669
 21
765.135064
 31
0.0
  0
LINE
  5
59B
100
AcDbEntity
  8
0
  6
CONTINUOUS
 62
     7
100
AcDbLine
 10
730.224581
 20
765.135064
 30
0.0
 11
726.277314
 21
765.135065
 31
0.0
  0
LINE
  5
59C
100
AcDbEntity
  8
0
  6
CONTINUOUS
 62
     7
100
AcDbLine
 10
835.007125
 20
765.135064
 30
0.0
 11
884.714727
 21
765.135064
 31
0.0
  0
LINE
  5
59D
100
AcDbEntity
  8
0
  6
CONTINUOUS
 62
     7
100
AcDbLine
 10
905.299523
 20
765.135064
 30
0.0
 11
925.224581
 21
765.135064
 31
0.0
  0
LINE
  5
59E
100
AcDbEntity
  8
0
  6
CONTINUOUS
 62
     7
100
AcDbLine
 10
939.789669
 20
765.135064
 30
0.0
 11
943.736936
 21
765.135065
 31
0.0
  0
LINE
  5
59F
100
AcDbEntity
  8
0
  6
CONTINUOUS
 62
     7
100
AcDbLine
 10
775.007125
 20
763.635065
 30
0.0
 11
785.27334
 21
763.635065
 31
0.0
  0
LINE
  5
5A0
100
AcDbEntity
  8
0
  6
CONTINUOUS
 62
     7
100
AcDbLine
 10
764.740909
 20
763.635065
 30
0.0
 11
775.007125
 21
763.635065
 31
0.0
  0
LINE
  5
5A1
100
AcDbEntity
  8
0
  6
CONTINUOUS
 62
     7
100
AcDbLine
 10
884.740909
 20
763.635065
 30
0.0
 11
905.27334
 21
763.635065
 31
0.0
  0
LINE
  5
5A2
100
AcDbEntity
  8
0
  6
CONTINUOUS
 62
     7
100
AcDbLine
 10
690.507125
 20
846.235065
 30
0.0
 11
690.507125
 21
763.135065
 31
0.0
  0
LINE
  5
5A3
100
AcDbEntity
  8
0
  6
CONTINUOUS
 62
     7
100
AcDbLine
 10
979.507125
 20
846.235065
 30
0.0
 11
979.507125
 21
763.135065
 31
0.0
  0
LINE
  5
5A4
100
AcDbEntity
  8
0
  6
CONTINUOUS
 62
     7
100
AcDbLine
 10
690.507125
 20
850.735065
 30
0.0
 11
690.507125
 21
846.235065
 31
0.0
  0
LINE
  5
5A5
100
AcDbEntity
  8
0
  6
CONTINUOUS
 62
     7
100
AcDbLine
 10
979.507125
 20
850.735065
 30
0.0
 11
979.507125
 21
846.235065
 31
0.0
  0
INSERT
  5
5AD
100
AcDbEntity
  8
0
  6
CONTINUOUS
 62
     7
100
AcDbBlockReference
  2
SW_CENTERMARKSYMBOL_2
 10
715.457125
 20
846.235065
 30
0.0
 41
5.0
 42
5.0
 43
5.0
  0
INSERT
  5
5B5
100
AcDbEntity
  8
0
  6
CONTINUOUS
 62
     7
100
AcDbBlockReference
  2
SW_CENTERMARKSYMBOL_3
 10
954.557125
 20
846.235065
 30
0.0
 41
5.0
 42
5.0
 43
5.0
  0
LINE
  5
5B6
100
AcDbEntity
  8
0
  6
CONTINUOUS
 62
     7
100
AcDbLine
 10
720.607125
 20
154.384621
 30
0.0
 11
720.449901
 21
157.384622
 31
0.0
  0
LINE
  5
5B7
100
AcDbEntity
  8
0
  6
CONTINUOUS
 62
     7
100
AcDbLine
 10
949.564348
 20
157.384622
 30
0.0
 11
949.407124
 21
154.384621
 31
0.0
  0
LINE
  5
5B8
100
AcDbEntity
  8
0
  6
CONTINUOUS
 62
     7
100
AcDbLine
 10
937.507124
 20
154.384621
 30
0.0
 11
937.454717
 21
155.384622
 31
0.0
  0
LINE
  5
5B9
100
AcDbEntity
  8
0
  6
CONTINUOUS
 62
     7
100
AcDbLine
 10
927.559533
 20
155.384622
 30
0.0
 11
927.507126
 21
154.384621
 31
0.0
  0
LINE
  5
5BA
100
AcDbEntity
  8
0
  6
CONTINUOUS
 62
     7
100
AcDbLine
 10
742.507124
 20
154.384621
 30
0.0
 11
742.454717
 21
155.384622
 31
0.0
  0
LINE
  5
5BB
100
AcDbEntity
  8
0
  6
CONTINUOUS
 62
     7
100
AcDbLine
 10
732.559533
 20
155.384622
 30
0.0
 11
732.507126
 21
154.384621
 31
0.0
  0
LINE
  5
5BC
100
AcDbEntity
  8
0
  6
CONTINUOUS
 62
     7
100
AcDbLine
 10
935.757124
 20
155.384623
 30
0.0
 11
935.757125
 21
157.384622
 31
0.0
  0
LINE
  5
5BD
100
AcDbEntity
  8
0
  6
CONTINUOUS
 62
     7
100
AcDbLine
 10
929.257125
 20
157.384622
 30
0.0
 11
929.257126
 21
155.384623
 31
0.0
  0
LINE
  5
5BE
100
AcDbEntity
  8
0
  6
CONTINUOUS
 62
     7
100
AcDbLine
 10
740.757124
 20
155.384623
 30
0.0
 11
740.757125
 21
157.384622
 31
0.0
  0
LINE
  5
5BF
100
AcDbEntity
  8
0
  6
CONTINUOUS
 62
     7
100
AcDbLine
 10
734.257125
 20
157.384622
 30
0.0
 11
734.257125
 21
155.384623
 31
0.0
  0
LINE
  5
5C0
100
AcDbEntity
  8
0
  6
CONTINUOUS
 62
     7
100
AcDbLine
 10
925.25949
 20
157.384622
 30
0.0
 11
925.207124
 21
154.384621
 31
0.0
  0
LINE
  5
5C1
100
AcDbEntity
  8
0
  6
CONTINUOUS
 62
     7
100
AcDbLine
 10
939.807126
 20
154.384621
 30
0.0
 11
939.75476
 21
157.384622
 31
0.0
  0
LINE
  5
5C2
100
AcDbEntity
  8
0
  6
CONTINUOUS
 62
     7
100
AcDbLine
 10
744.807125
 20
154.384621
 30
0.0
 11
744.75476
 21
157.384622
 31
0.0
  0
LINE
  5
5C3
100
AcDbEntity
  8
0
  6
CONTINUOUS
 62
     7
100
AcDbLine
 10
730.25949
 20
157.384622
 30
0.0
 11
730.207124
 21
154.384621
 31
0.0
  0
LINE
  5
5C4
100
AcDbEntity
  8
0
  6
CONTINUOUS
 62
     7
100
AcDbLine
 10
905.31698
 20
154.384621
 30
0.0
 11
905.27334
 21
156.884622
 31
0.0
  0
LINE
  5
5C5
100
AcDbEntity
  8
0
  6
CONTINUOUS
 62
     7
100
AcDbLine
 10
884.740909
 20
156.884622
 30
0.0
 11
884.697271
 21
154.384621
 31
0.0
  0
LINE
  5
5C6
100
AcDbEntity
  8
0
  6
CONTINUOUS
 62
     7
100
AcDbLine
 10
785.316979
 20
154.384621
 30
0.0
 11
785.27334
 21
156.884622
 31
0.0
  0
LINE
  5
5C7
100
AcDbEntity
  8
0
  6
CONTINUOUS
 62
     7
100
AcDbLine
 10
764.740909
 20
156.884622
 30
0.0
 11
764.69727
 21
154.384621
 31
0.0
  0
LINE
  5
5C8
100
AcDbEntity
  8
0
  6
CONTINUOUS
 62
     7
100
AcDbLine
 10
696.507125
 20
65.984622
 30
0.0
 11
690.507125
 21
65.984622
 31
0.0
  0
LINE
  5
5C9
100
AcDbEntity
  8
0
  6
CONTINUOUS
 62
     7
100
AcDbLine
 10
690.507125
 20
65.984622
 30
0.0
 11
690.507125
 21
157.384622
 31
0.0
  0
LINE
  5
5CA
100
AcDbEntity
  8
0
  6
CONTINUOUS
 62
     7
100
AcDbLine
 10
690.507125
 20
157.384622
 30
0.0
 11
696.507125
 21
157.384622
 31
0.0
  0
LINE
  5
5CB
100
AcDbEntity
  8
0
  6
CONTINUOUS
 62
     7
100
AcDbLine
 10
696.507125
 20
157.384622
 30
0.0
 11
696.507125
 21
65.984622
 31
0.0
  0
LINE
  5
5CC
100
AcDbEntity
  8
0
  6
CONTINUOUS
 62
     7
100
AcDbLine
 10
710.957126
 20
157.38462
 30
0.0
 11
710.957125
 21
74.284622
 31
0.0
  0
LINE
  5
5CD
100
AcDbEntity
  8
0
  6
CONTINUOUS
 62
     7
100
AcDbLine
 10
710.957126
 20
157.38462
 30
0.0
 11
715.700153
 21
157.384622
 31
0.0
  0
LINE
  5
5CE
100
AcDbEntity
  8
0
  6
CONTINUOUS
 62
     7
100
AcDbLine
 10
715.700153
 20
157.384622
 30
0.0
 11
715.700151
 21
154.384621
 31
0.0
  0
LINE
  5
5CF
100
AcDbEntity
  8
0
  6
CONTINUOUS
 62
     7
100
AcDbLine
 10
714.302005
 20
74.284622
 30
0.0
 11
715.700151
 21
154.384621
 31
0.0
  0
LINE
  5
5D0
100
AcDbEntity
  8
0
  6
CONTINUOUS
 62
     7
100
AcDbLine
 10
714.302005
 20
74.284622
 30
0.0
 11
710.957125
 21
74.284622
 31
0.0
  0
LINE
  5
5D1
100
AcDbEntity
  8
0
  6
CONTINUOUS
 62
     7
100
AcDbLine
 10
959.057124
 20
157.38462
 30
0.0
 11
973.507125
 21
157.384622
 31
0.0
  0
LINE
  5
5D2
100
AcDbEntity
  8
0
  6
CONTINUOUS
 62
     7
100
AcDbLine
 10
973.507125
 20
65.984622
 30
0.0
 11
973.507125
 21
157.384622
 31
0.0
  0
LINE
  5
5D3
100
AcDbEntity
  8
0
  6
CONTINUOUS
 62
     7
100
AcDbLine
 10
973.507125
 20
65.984622
 30
0.0
 11
696.507125
 21
65.984622
 31
0.0
  0
LINE
  5
5D4
100
AcDbEntity
  8
0
  6
CONTINUOUS
 62
     7
100
AcDbLine
 10
696.507125
 20
157.384622
 30
0.0
 11
710.957126
 21
157.38462
 31
0.0
  0
ARC
  5
5D5
100
AcDbEntity
  8
0
  6
CONTINUOUS
 62
     7
100
AcDbCircle
 10
715.457125
 20
74.284622
 30
0.0
 40
4.5
100
AcDbArc
 50
180.0
 51
270.0
  0
LINE
  5
5D6
100
AcDbEntity
  8
0
  6
CONTINUOUS
 62
     7
100
AcDbLine
 10
715.457125
 20
69.784622
 30
0.0
 11
954.557125
 21
69.784622
 31
0.0
  0
ARC
  5
5D7
100
AcDbEntity
  8
0
  6
CONTINUOUS
 62
     7
100
AcDbCircle
 10
954.557125
 20
74.284622
 30
0.0
 40
4.5
100
AcDbArc
 50
270.0
 51
0.0
  0
LINE
  5
5D8
100
AcDbEntity
  8
0
  6
CONTINUOUS
 62
     7
100
AcDbLine
 10
959.057125
 20
74.284622
 30
0.0
 11
959.057124
 21
157.38462
 31
0.0
  0
LINE
  5
5D9
100
AcDbEntity
  8
0
  6
CONTINUOUS
 62
     7
100
AcDbLine
 10
979.507125
 20
65.984622
 30
0.0
 11
973.507125
 21
65.984622
 31
0.0
  0
LINE
  5
5DA
100
AcDbEntity
  8
0
  6
CONTINUOUS
 62
     7
100
AcDbLine
 10
973.507125
 20
157.384622
 30
0.0
 11
979.507125
 21
157.384622
 31
0.0
  0
LINE
  5
5DB
100
AcDbEntity
  8
0
  6
CONTINUOUS
 62
     7
100
AcDbLine
 10
979.507125
 20
157.384622
 30
0.0
 11
979.507125
 21
65.984622
 31
0.0
  0
LINE
  5
5DC
100
AcDbEntity
  8
0
  6
CONTINUOUS
 62
     7
100
AcDbLine
 10
955.712245
 20
74.284622
 30
0.0
 11
959.057125
 21
74.284622
 31
0.0
  0
LINE
  5
5DD
100
AcDbEntity
  8
0
  6
CONTINUOUS
 62
     7
100
AcDbLine
 10
955.712245
 20
74.284622
 30
0.0
 11
954.314099
 21
154.384621
 31
0.0
  0
LINE
  5
5DE
100
AcDbEntity
  8
0
  6
CONTINUOUS
 62
     7
100
AcDbLine
 10
954.314097
 20
157.384622
 30
0.0
 11
954.314099
 21
154.384621
 31
0.0
  0
LINE
  5
5DF
100
AcDbEntity
  8
0
  6
CONTINUOUS
 62
     7
100
AcDbLine
 10
954.314097
 20
157.384622
 30
0.0
 11
959.057124
 21
157.38462
 31
0.0
  0
LINE
  5
5E0
100
AcDbEntity
  8
0
  6
CONTINUOUS
 62
     7
100
AcDbLine
 10
715.457128
 20
73.108978
 30
0.0
 11
715.457125
 21
69.784622
 31
0.0
  0
LINE
  5
5E1
100
AcDbEntity
  8
0
  6
CONTINUOUS
 62
     7
100
AcDbLine
 10
954.557122
 20
73.108978
 30
0.0
 11
715.457128
 21
73.108978
 31
0.0
  0
LINE
  5
5E2
100
AcDbEntity
  8
0
  6
CONTINUOUS
 62
     7
100
AcDbLine
 10
954.557122
 20
73.108978
 30
0.0
 11
954.557125
 21
69.784622
 31
0.0
  0
ELLIPSE
  5
5E3
100
AcDbEntity
  8
0
  6
CONTINUOUS
 62
     7
100
AcDbEllipse
 10
715.457125
 20
74.264453
 30
0.0
 11
0.0
 21
1.155475010403499
 31
0.0
210
0.0
220
0.0
230
1.0
 40
0.999848
 41
1.553340375378956
 42
3.141592653589793
  0
ELLIPSE
  5
5E4
100
AcDbEntity
  8
0
  6
CONTINUOUS
 62
     7
100
AcDbEllipse
 10
954.557125
 20
74.264453
 30
0.0
 11
0.0
 21
1.155475010403499
 31
0.0
210
0.0
220
0.0
230
1.0
 40
0.999848
 41
3.141592653589793
 42
4.729844931800643
  0
LINE
  5
5E5
100
AcDbEntity
  8
0
  6
CONTINUOUS
 62
     7
100
AcDbLine
 10
954.314099
 20
154.384621
 30
0.0
 11
715.700151
 21
154.384621
 31
0.0
  0
LINE
  5
5E6
100
AcDbEntity
  8
0
  6
CONTINUOUS
 62
     7
100
AcDbLine
 10
715.700153
 20
157.384622
 30
0.0
 11
720.449901
 21
157.384622
 31
0.0
  0
LINE
  5
5E7
100
AcDbEntity
  8
0
  6
CONTINUOUS
 62
     7
100
AcDbLine
 10
949.564348
 20
157.384622
 30
0.0
 11
954.314097
 21
157.384622
 31
0.0
  0
LINE
  5
5E8
100
AcDbEntity
  8
0
  6
CONTINUOUS
 62
     7
100
AcDbLine
 10
932.507125
 20
155.384622
 30
0.0
 11
937.454717
 21
155.384622
 31
0.0
  0
LINE
  5
5E9
100
AcDbEntity
  8
0
  6
CONTINUOUS
 62
     7
100
AcDbLine
 10
927.559533
 20
155.384622
 30
0.0
 11
932.507125
 21
155.384622
 31
0.0
  0
LINE
  5
5EA
100
AcDbEntity
  8
0
  6
CONTINUOUS
 62
     7
100
AcDbLine
 10
732.559533
 20
155.384622
 30
0.0
 11
742.454717
 21
155.384622
 31
0.0
  0
LINE
  5
5EB
100
AcDbEntity
  8
0
  6
CONTINUOUS
 62
     7
100
AcDbLine
 10
929.257125
 20
157.384622
 30
0.0
 11
935.757125
 21
157.384622
 31
0.0
  0
LINE
  5
5EC
100
AcDbEntity
  8
0
  6
CONTINUOUS
 62
     7
100
AcDbLine
 10
734.257125
 20
157.384622
 30
0.0
 11
740.757125
 21
157.384622
 31
0.0
  0
LINE
  5
5ED
100
AcDbEntity
  8
0
  6
CONTINUOUS
 62
     7
100
AcDbLine
 10
927.507125
 20
157.384622
 30
0.0
 11
929.257125
 21
157.384622
 31
0.0
  0
LINE
  5
5EE
100
AcDbEntity
  8
0
  6
CONTINUOUS
 62
     7
100
AcDbLine
 10
925.25949
 20
157.384622
 30
0.0
 11
927.507125
 21
157.384622
 31
0.0
  0
LINE
  5
5EF
100
AcDbEntity
  8
0
  6
CONTINUOUS
 62
     7
100
AcDbLine
 10
937.507125
 20
157.384622
 30
0.0
 11
939.75476
 21
157.384622
 31
0.0
  0
LINE
  5
5F0
100
AcDbEntity
  8
0
  6
CONTINUOUS
 62
     7
100
AcDbLine
 10
935.757125
 20
157.384622
 30
0.0
 11
937.507125
 21
157.384622
 31
0.0
  0
LINE
  5
5F1
100
AcDbEntity
  8
0
  6
CONTINUOUS
 62
     7
100
AcDbLine
 10
740.757125
 20
157.384622
 30
0.0
 11
744.75476
 21
157.384622
 31
0.0
  0
LINE
  5
5F2
100
AcDbEntity
  8
0
  6
CONTINUOUS
 62
     7
100
AcDbLine
 10
730.25949
 20
157.384622
 30
0.0
 11
734.257125
 21
157.384622
 31
0.0
  0
LINE
  5
5F3
100
AcDbEntity
  8
0
  6
CONTINUOUS
 62
     7
100
AcDbLine
 10
726.277314
 20
155.384622
 30
0.0
 11
720.554717
 21
155.384622
 31
0.0
  0
LINE
  5
5F4
100
AcDbEntity
  8
0
  6
CONTINUOUS
 62
     7
100
AcDbLine
 10
726.277314
 20
155.384622
 30
0.0
 11
726.725997
 21
154.384621
 31
0.0
  0
LINE
  5
5F5
100
AcDbEntity
  8
0
  6
CONTINUOUS
 62
     7
100
AcDbLine
 10
943.736936
 20
155.384622
 30
0.0
 11
943.288253
 21
154.384621
 31
0.0
  0
LINE
  5
5F6
100
AcDbEntity
  8
0
  6
CONTINUOUS
 62
     7
100
AcDbLine
 10
943.736936
 20
155.384622
 30
0.0
 11
949.459533
 21
155.384622
 31
0.0
  0
LINE
  5
5F7
100
AcDbEntity
  8
0
  6
CONTINUOUS
 62
     7
100
AcDbLine
 10
835.007125
 20
155.384623
 30
0.0
 11
835.007125
 21
154.384621
 31
0.0
  0
LINE
  5
5F8
100
AcDbEntity
  8
0
  6
CONTINUOUS
 62
     7
100
AcDbLine
 10
835.007125
 20
155.384623
 30
0.0
 11
884.714727
 21
155.384623
 31
0.0
  0
LINE
  5
5F9
100
AcDbEntity
  8
0
  6
CONTINUOUS
 62
     7
100
AcDbLine
 10
905.299523
 20
155.384623
 30
0.0
 11
925.224581
 21
155.384623
 31
0.0
  0
LINE
  5
5FA
100
AcDbEntity
  8
0
  6
CONTINUOUS
 62
     7
100
AcDbLine
 10
939.789669
 20
155.384623
 30
0.0
 11
943.736936
 21
155.384622
 31
0.0
  0
LINE
  5
5FB
100
AcDbEntity
  8
0
  6
CONTINUOUS
 62
     7
100
AcDbLine
 10
835.007125
 20
155.384623
 30
0.0
 11
785.299522
 21
155.384623
 31
0.0
  0
LINE
  5
5FC
100
AcDbEntity
  8
0
  6
CONTINUOUS
 62
     7
100
AcDbLine
 10
764.714726
 20
155.384623
 30
0.0
 11
744.789669
 21
155.384623
 31
0.0
  0
LINE
  5
5FD
100
AcDbEntity
  8
0
  6
CONTINUOUS
 62
     7
100
AcDbLine
 10
730.224581
 20
155.384623
 30
0.0
 11
726.277314
 21
155.384622
 31
0.0
  0
LINE
  5
5FE
100
AcDbEntity
  8
0
  6
CONTINUOUS
 62
     7
100
AcDbLine
 10
905.27334
 20
156.884622
 30
0.0
 11
884.740909
 21
156.884622
 31
0.0
  0
LINE
  5
5FF
100
AcDbEntity
  8
0
  6
CONTINUOUS
 62
     7
100
AcDbLine
 10
775.007125
 20
156.884622
 30
0.0
 11
764.740909
 21
156.884622
 31
0.0
  0
LINE
  5
600
100
AcDbEntity
  8
0
  6
CONTINUOUS
 62
     7
100
AcDbLine
 10
785.27334
 20
156.884622
 30
0.0
 11
775.007125
 21
156.884622
 31
0.0
  0
LINE
  5
601
100
AcDbEntity
  8
0
  6
CONTINUOUS
 62
     7
100
AcDbLine
 10
979.507125
 20
157.384622
 30
0.0
 11
979.507125
 21
74.284622
 31
0.0
  0
LINE
  5
602
100
AcDbEntity
  8
0
  6
CONTINUOUS
 62
     7
100
AcDbLine
 10
690.507125
 20
157.384622
 30
0.0
 11
690.507125
 21
74.284622
 31
0.0
  0
LINE
  5
603
100
AcDbEntity
  8
0
  6
CONTINUOUS
 62
     7
100
AcDbLine
 10
690.507125
 20
74.284622
 30
0.0
 11
690.507125
 21
69.784622
 31
0.0
  0
LINE
  5
604
100
AcDbEntity
  8
0
  6
CONTINUOUS
 62
     7
100
AcDbLine
 10
979.507125
 20
74.284622
 30
0.0
 11
979.507125
 21
69.784622
 31
0.0
  0
INSERT
  5
60C
100
AcDbEntity
  8
0
  6
CONTINUOUS
 62
     7
100
AcDbBlockReference
  2
SW_CENTERMARKSYMBOL_4
 10
715.457125
 20
74.284622
 30
0.0
 41
5.0
 42
5.0
 43
5.0
  0
INSERT
  5
614
100
AcDbEntity
  8
0
  6
CONTINUOUS
 62
     7
100
AcDbBlockReference
  2
SW_CENTERMARKSYMBOL_5
 10
954.557125
 20
74.284622
 30
0.0
 41
5.0
 42
5.0
 43
5.0
  0
LINE
  5
61D
100
AcDbEntity
  8
0
  6
CONTINUOUS
 62
     7
100
AcDbLine
 10
1143.147833
 20
332.914864
 30
0.0
 11
1146.147834
 21
332.862498
 31
0.0
  0
LINE
  5
61E
100
AcDbEntity
  8
0
  6
CONTINUOUS
 62
     7
100
AcDbLine
 10
1146.147834
 20
623.462499
 30
0.0
 11
1143.147833
 21
623.410133
 31
0.0
  0
LINE
  5
61F
100
AcDbEntity
  8
0
  6
CONTINUOUS
 62
     7
100
AcDbLine
 10
1143.147833
 20
608.914864
 30
0.0
 11
1146.147834
 21
608.862506
 31
0.0
  0
LINE
  5
620
100
AcDbEntity
  8
0
  6
CONTINUOUS
 62
     7
100
AcDbLine
 10
1146.147834
 20
347.462491
 30
0.0
 11
1143.147833
 21
347.410133
 31
0.0
  0
LINE
  5
621
100
AcDbEntity
  8
0
  6
CONTINUOUS
 62
     7
100
AcDbLine
 10
1146.147834
 20
331.662492
 30
0.0
 11
1143.147833
 21
331.610133
 31
0.0
  0
LINE
  5
622
100
AcDbEntity
  8
0
  6
CONTINUOUS
 62
     7
100
AcDbLine
 10
1143.147833
 20
624.714864
 30
0.0
 11
1146.147834
 21
624.662505
 31
0.0
  0
LINE
  5
623
100
AcDbEntity
  8
0
  6
CONTINUOUS
 62
     7
100
AcDbLine
 10
1145.147832
 20
588.454896
 30
0.0
 11
1143.647833
 21
588.428714
 31
0.0
  0
LINE
  5
624
100
AcDbEntity
  8
0
  6
CONTINUOUS
 62
     7
100
AcDbLine
 10
1143.647833
 20
567.896283
 30
0.0
 11
1145.147832
 21
567.870097
 31
0.0
  0
LINE
  5
625
100
AcDbEntity
  8
0
  6
CONTINUOUS
 62
     7
100
AcDbLine
 10
1145.147832
 20
388.4549
 30
0.0
 11
1143.647833
 21
388.428714
 31
0.0
  0
LINE
  5
626
100
AcDbEntity
  8
0
  6
CONTINUOUS
 62
     7
100
AcDbLine
 10
1143.647833
 20
367.896283
 30
0.0
 11
1145.147832
 21
367.870101
 31
0.0
  0
LINE
  5
627
100
AcDbEntity
  8
0
  6
CONTINUOUS
 62
     7
100
AcDbLine
 10
1143.147835
 20
631.712497
 30
0.0
 11
1143.147833
 21
644.162498
 31
0.0
  0
LINE
  5
628
100
AcDbEntity
  8
0
  6
CONTINUOUS
 62
     7
100
AcDbLine
 10
1234.547833
 20
644.162498
 30
0.0
 11
1143.147833
 21
644.162498
 31
0.0
  0
LINE
  5
629
100
AcDbEntity
  8
0
  6
CONTINUOUS
 62
     7
100
AcDbLine
 10
1234.547833
 20
644.162498
 30
0.0
 11
1234.547833
 21
312.162498
 31
0.0
  0
LINE
  5
62A
100
AcDbEntity
  8
0
  6
CONTINUOUS
 62
     7
100
AcDbLine
 10
1143.147833
 20
312.162498
 30
0.0
 11
1234.547833
 21
312.162498
 31
0.0
  0
LINE
  5
62B
100
AcDbEntity
  8
0
  6
CONTINUOUS
 62
     7
100
AcDbLine
 10
1143.147835
 20
324.612499
 30
0.0
 11
1226.247833
 21
324.612498
 31
0.0
  0
ARC
  5
62C
100
AcDbEntity
  8
0
  6
CONTINUOUS
 62
     7
100
AcDbCircle
 10
1226.247833
 20
329.112498
 30
0.0
 40
4.5
100
AcDbArc
 50
270.0
 51
0.0
  0
LINE
  5
62D
100
AcDbEntity
  8
0
  6
CONTINUOUS
 62
     7
100
AcDbLine
 10
1230.747833
 20
329.112498
 30
0.0
 11
1230.747833
 21
627.212498
 31
0.0
  0
ARC
  5
62E
100
AcDbEntity
  8
0
  6
CONTINUOUS
 62
     7
100
AcDbCircle
 10
1226.247833
 20
627.212498
 30
0.0
 40
4.5
100
AcDbArc
 50
0.0
 51
90.0
  0
LINE
  5
62F
100
AcDbEntity
  8
0
  6
CONTINUOUS
 62
     7
100
AcDbLine
 10
1226.247833
 20
631.712498
 30
0.0
 11
1143.147835
 21
631.712497
 31
0.0
  0
LINE
  5
630
100
AcDbEntity
  8
0
  6
CONTINUOUS
 62
     7
100
AcDbLine
 10
1143.147833
 20
312.162498
 30
0.0
 11
1143.147835
 21
324.612499
 31
0.0
  0
LINE
  5
631
100
AcDbEntity
  8
0
  6
CONTINUOUS
 62
     7
100
AcDbLine
 10
1234.547833
 20
312.162498
 30
0.0
 11
1234.547833
 21
306.162498
 31
0.0
  0
LINE
  5
632
100
AcDbEntity
  8
0
  6
CONTINUOUS
 62
     7
100
AcDbLine
 10
1234.547833
 20
306.162498
 30
0.0
 11
1143.147833
 21
306.162498
 31
0.0
  0
LINE
  5
633
100
AcDbEntity
  8
0
  6
CONTINUOUS
 62
     7
100
AcDbLine
 10
1143.147833
 20
306.162498
 30
0.0
 11
1143.147833
 21
312.162498
 31
0.0
  0
LINE
  5
634
100
AcDbEntity
  8
0
  6
CONTINUOUS
 62
     7
100
AcDbLine
 10
1234.547833
 20
650.162498
 30
0.0
 11
1234.547833
 21
644.162498
 31
0.0
  0
LINE
  5
635
100
AcDbEntity
  8
0
  6
CONTINUOUS
 62
     7
100
AcDbLine
 10
1143.147833
 20
644.162498
 30
0.0
 11
1143.147833
 21
650.162498
 31
0.0
  0
LINE
  5
636
100
AcDbEntity
  8
0
  6
CONTINUOUS
 62
     7
100
AcDbLine
 10
1143.147833
 20
650.162498
 30
0.0
 11
1234.547833
 21
650.162498
 31
0.0
  0
LINE
  5
637
100
AcDbEntity
  8
0
  6
CONTINUOUS
 62
     7
100
AcDbLine
 10
1143.147833
 20
329.355526
 30
0.0
 11
1146.147834
 21
329.355524
 31
0.0
  0
LINE
  5
638
100
AcDbEntity
  8
0
  6
CONTINUOUS
 62
     7
100
AcDbLine
 10
1226.247833
 20
327.957378
 30
0.0
 11
1146.147834
 21
329.355524
 31
0.0
  0
LINE
  5
639
100
AcDbEntity
  8
0
  6
CONTINUOUS
 62
     7
100
AcDbLine
 10
1226.247833
 20
327.957378
 30
0.0
 11
1226.247833
 21
324.612498
 31
0.0
  0
LINE
  5
63A
100
AcDbEntity
  8
0
  6
CONTINUOUS
 62
     7
100
AcDbLine
 10
1143.147835
 20
324.612499
 30
0.0
 11
1143.147833
 21
329.355526
 31
0.0
  0
LINE
  5
63B
100
AcDbEntity
  8
0
  6
CONTINUOUS
 62
     7
100
AcDbLine
 10
1226.247833
 20
628.367619
 30
0.0
 11
1226.247833
 21
631.712498
 31
0.0
  0
LINE
  5
63C
100
AcDbEntity
  8
0
  6
CONTINUOUS
 62
     7
100
AcDbLine
 10
1226.247833
 20
628.367619
 30
0.0
 11
1146.147834
 21
626.969473
 31
0.0
  0
LINE
  5
63F
100
AcDbEntity
  8
0
  6
CONTINUOUS
 62
     7
100
AcDbLine
 10
1227.423477
 20
329.112501
 30
0.0
 11
1230.747833
 21
329.112498
 31
0.0
  0
LINE
  5
640
100
AcDbEntity
  8
0
  6
CONTINUOUS
 62
     7
100
AcDbLine
 10
1227.423477
 20
627.212496
 30
0.0
 11
1227.423477
 21
329.112501
 31
0.0
  0
LINE
  5
641
100
AcDbEntity
  8
0
  6
CONTINUOUS
 62
     7
100
AcDbLine
 10
1227.423477
 20
627.212496
 30
0.0
 11
1230.747833
 21
627.212498
 31
0.0
  0
ELLIPSE
  5
642
100
AcDbEntity
  8
0
  6
CONTINUOUS
 62
     7
100
AcDbEllipse
 10
1226.268002
 20
627.212498
 30
0.0
 11
1.155475010403677
 21
0.0
 31
0.0
210
0.0
220
0.0
230
1.0
 40
0.999848
 41
0.0
 42
1.588252278210616
  0
ELLIPSE
  5
643
100
AcDbEntity
  8
0
  6
CONTINUOUS
 62
     7
100
AcDbEllipse
 10
1226.268002
 20
329.112498
 30
0.0
 11
1.155475010403677
 21
0.0
 31
0.0
210
0.0
220
0.0
230
1.0
 40
0.999848
 41
4.694933028968736
 42
6.283185307179586
  0
LINE
  5
644
100
AcDbEntity
  8
0
  6
CONTINUOUS
 62
     7
100
AcDbLine
 10
1146.147834
 20
626.969473
 30
0.0
 11
1146.147834
 21
329.355524
 31
0.0
  0
LINE
  5
647
100
AcDbEntity
  8
0
  6
CONTINUOUS
 62
     7
100
AcDbLine
 10
1143.147833
 20
612.912498
 30
0.0
 11
1143.147833
 21
619.412498
 31
0.0
  0
LINE
  5
649
100
AcDbEntity
  8
0
  6
CONTINUOUS
 62
     7
100
AcDbLine
 10
1143.147833
 20
332.914864
 30
0.0
 11
1143.147833
 21
343.412498
 31
0.0
  0
LINE
  5
64A
100
AcDbEntity
  8
0
  6
CONTINUOUS
 62
     7
100
AcDbLine
 10
1143.147833
 20
619.412498
 30
0.0
 11
1143.147833
 21
623.410133
 31
0.0
  0
LINE
  5
64B
100
AcDbEntity
  8
0
  6
CONTINUOUS
 62
     7
100
AcDbLine
 10
1143.147833
 20
608.914864
 30
0.0
 11
1143.147833
 21
612.912498
 31
0.0
  0
LINE
  5
64C
100
AcDbEntity
  8
0
  6
CONTINUOUS
 62
     7
100
AcDbLine
 10
1143.147833
 20
343.412498
 30
0.0
 11
1143.147833
 21
347.410133
 31
0.0
  0
LINE
  5
64D
100
AcDbEntity
  8
0
  6
CONTINUOUS
 62
     7
100
AcDbLine
 10
1145.147832
 20
478.162498
 30
0.0
 11
1146.147834
 21
478.162498
 31
0.0
  0
LINE
  5
64E
100
AcDbEntity
  8
0
  6
CONTINUOUS
 62
     7
100
AcDbLine
 10
1145.147832
 20
347.445042
 30
0.0
 11
1145.147832
 21
478.162498
 31
0.0
  0
LINE
  5
64F
100
AcDbEntity
  8
0
  6
CONTINUOUS
 62
     7
100
AcDbLine
 10
1145.147832
 20
608.879955
 30
0.0
 11
1145.147832
 21
478.162498
 31
0.0
  0
LINE
  5
650
100
AcDbEntity
  8
0
  6
CONTINUOUS
 62
     7
100
AcDbLine
 10
1143.147833
 20
329.355526
 30
0.0
 11
1143.147833
 21
331.610133
 31
0.0
  0
LINE
  5
651
100
AcDbEntity
  8
0
  6
CONTINUOUS
 62
     7
100
AcDbLine
 10
1143.147833
 20
624.714864
 30
0.0
 11
1143.147835
 21
631.712497
 31
0.0
  0
LINE
  5
652
100
AcDbEntity
  8
0
  6
CONTINUOUS
 62
     7
100
AcDbLine
 10
1143.647833
 20
588.428714
 30
0.0
 11
1143.647833
 21
567.896283
 31
0.0
  0
LINE
  5
653
100
AcDbEntity
  8
0
  6
CONTINUOUS
 62
     7
100
AcDbLine
 10
1143.647833
 20
388.428714
 30
0.0
 11
1143.647833
 21
367.896283
 31
0.0
  0
LINE
  5
66E
100
AcDbEntity
  8
0
  6
HIDDEN
 62
     7
100
AcDbLine
 10
1234.547833
 20
644.162498
 30
0.0
 11
1220.047833
 21
644.162498
 31
0.0
  0
LINE
  5
673
100
AcDbEntity
  8
0
  6
HIDDEN
 62
     7
100
AcDbLine
 10
1220.047833
 20
312.162498
 30
0.0
 11
1234.547833
 21
312.162498
 31
0.0
  0
LINE
  5
696
100
AcDbEntity
  8
0
  6
HIDDEN
 62
     1
100
AcDbLine
 10
1148.447833
 20
334.267284
 30
0.0
 11
1148.447833
 21
331.472827
 31
0.0
  0
LINE
  5
697
100
AcDbEntity
  8
0
  6
HIDDEN
 62
     1
100
AcDbLine
 10
1148.447833
 20
622.057713
 30
0.0
 11
1148.447833
 21
334.267284
 31
0.0
  0
LINE
  5
698
100
AcDbEntity
  8
0
  6
HIDDEN
 62
     1
100
AcDbLine
 10
1148.447833
 20
622.057713
 30
0.0
 11
1148.447833
 21
624.85217
 31
0.0
  0
LINE
  5
69D
100
AcDbEntity
  8
0
  6
HIDDEN
 62
     1
100
AcDbLine
 10
1148.447833
 20
331.472827
 30
0.0
 11
1148.447833
 21
330.691592
 31
0.0
  0
LINE
  5
69F
100
AcDbEntity
  8
0
  6
HIDDEN
 62
     1
100
AcDbLine
 10
1148.447833
 20
624.85217
 30
0.0
 11
1148.447833
 21
625.633405
 31
0.0
  0
LINE
  5
6A2
100
AcDbEntity
  8
0
  6
HIDDEN
 62
     1
100
AcDbLine
 10
1154.647833
 20
612.810866
 30
0.0
 11
1154.647833
 21
617.27072
 31
0.0
  0
LINE
  5
6B1
100
AcDbEntity
  8
0
  6
HIDDEN
 62
     1
100
AcDbLine
 10
1155.947833
 20
418.947045
 30
0.0
 11
1155.947833
 21
412.377952
 31
0.0
  0
LINE
  5
6B4
100
AcDbEntity
  8
0
  6
HIDDEN
 62
     1
100
AcDbLine
 10
1155.947833
 20
543.947045
 30
0.0
 11
1155.947833
 21
537.377952
 31
0.0
  0
LINE
  5
6B7
100
AcDbEntity
  8
0
  6
HIDDEN
 62
     1
100
AcDbLine
 10
1155.947833
 20
481.447045
 30
0.0
 11
1155.947833
 21
474.877952
 31
0.0
  0
LINE
  5
6BA
100
AcDbEntity
  8
0
  6
HIDDEN
 62
     1
100
AcDbLine
 10
1155.947833
 20
606.447045
 30
0.0
 11
1155.947833
 21
599.877952
 31
0.0
  0
LINE
  5
6BB
100
AcDbEntity
  8
0
  6
HIDDEN
 62
     1
100
AcDbLine
 10
1148.447836
 20
349.775166
 30
0.0
 11
1155.947833
 21
349.877952
 31
0.0
  0
LWPOLYLINE
  5
6BC
100
AcDbEntity
  8
0
  6
HIDDEN
 62
     1
100
AcDbPolyline
 90
        3
 70
   128
 43
0.0
 10
1155.947836
 20
356.447042
 10
1149.327079
 20
356.537939
 10
1148.447836
 20
356.549823
  0
LINE
  5
6BD
100
AcDbEntity
  8
0
  6
HIDDEN
 62
     1
100
AcDbLine
 10
1155.947833
 20
356.447045
 30
0.0
 11
1155.947833
 21
349.877952
 31
0.0
  0
LINE
  5
6CA
100
AcDbEntity
  8
0
  6
HIDDEN
 62
     1
100
AcDbLine
 10
1148.447836
 20
547.293411
 30
0.0
 11
1155.947836
 21
547.162497
 31
0.0
  0
LINE
  5
6CB
100
AcDbEntity
  8
0
  6
HIDDEN
 62
     1
100
AcDbLine
 10
1155.947836
 20
547.162497
 30
0.0
 11
1155.947833
 21
543.947045
 31
0.0
  0
LINE
  5
6CC
100
AcDbEntity
  8
0
  6
HIDDEN
 62
     1
100
AcDbLine
 10
1148.447836
 20
409.031586
 30
0.0
 11
1155.947836
 21
409.1625
 31
0.0
  0
LINE
  5
6CD
100
AcDbEntity
  8
0
  6
HIDDEN
 62
     1
100
AcDbLine
 10
1155.947833
 20
412.377952
 30
0.0
 11
1155.947836
 21
409.1625
 31
0.0
  0
LINE
  5
6CE
100
AcDbEntity
  8
0
  6
HIDDEN
 62
     1
100
AcDbLine
 10
1148.447836
 20
422.293411
 30
0.0
 11
1155.947836
 21
422.162497
 31
0.0
  0
LINE
  5
6CF
100
AcDbEntity
  8
0
  6
HIDDEN
 62
     1
100
AcDbLine
 10
1155.947836
 20
422.162497
 30
0.0
 11
1155.947833
 21
418.947045
 31
0.0
  0
LINE
  5
6D0
100
AcDbEntity
  8
0
  6
HIDDEN
 62
     1
100
AcDbLine
 10
1148.447836
 20
534.031586
 30
0.0
 11
1155.947836
 21
534.1625
 31
0.0
  0
LINE
  5
6D1
100
AcDbEntity
  8
0
  6
HIDDEN
 62
     1
100
AcDbLine
 10
1155.947833
 20
537.377952
 30
0.0
 11
1155.947836
 21
534.1625
 31
0.0
  0
LINE
  5
6D2
100
AcDbEntity
  8
0
  6
HIDDEN
 62
     1
100
AcDbLine
 10
1148.447836
 20
484.793411
 30
0.0
 11
1155.947836
 21
484.662499
 31
0.0
  0
LINE
  5
6D3
100
AcDbEntity
  8
0
  6
HIDDEN
 62
     1
100
AcDbLine
 10
1155.947836
 20
484.662499
 30
0.0
 11
1155.947833
 21
481.447045
 31
0.0
  0
LINE
  5
6D4
100
AcDbEntity
  8
0
  6
HIDDEN
 62
     1
100
AcDbLine
 10
1148.447836
 20
346.531586
 30
0.0
 11
1155.947836
 21
346.662493
 31
0.0
  0
LINE
  5
6D5
100
AcDbEntity
  8
0
  6
HIDDEN
 62
     1
100
AcDbLine
 10
1155.947833
 20
349.877952
 30
0.0
 11
1155.947836
 21
346.662493
 31
0.0
  0
LINE
  5
6D6
100
AcDbEntity
  8
0
  6
HIDDEN
 62
     1
100
AcDbLine
 10
1148.447836
 20
471.531586
 30
0.0
 11
1155.947836
 21
471.662498
 31
0.0
  0
LINE
  5
6D7
100
AcDbEntity
  8
0
  6
HIDDEN
 62
     1
100
AcDbLine
 10
1155.947833
 20
474.877952
 30
0.0
 11
1155.947836
 21
471.662498
 31
0.0
  0
LINE
  5
6D9
100
AcDbEntity
  8
0
  6
HIDDEN
 62
     1
100
AcDbLine
 10
1155.947833
 20
599.877952
 30
0.0
 11
1155.947833
 21
596.662498
 31
0.0
  0
LINE
  5
6DA
100
AcDbEntity
  8
0
  6
HIDDEN
 62
     1
100
AcDbLine
 10
1148.447836
 20
359.793411
 30
0.0
 11
1155.947833
 21
359.662498
 31
0.0
  0
LINE
  5
6DB
100
AcDbEntity
  8
0
  6
HIDDEN
 62
     1
100
AcDbLine
 10
1155.947833
 20
359.662498
 30
0.0
 11
1155.947833
 21
356.447045
 31
0.0
  0
LINE
  5
6DC
100
AcDbEntity
  8
0
  6
HIDDEN
 62
     1
100
AcDbLine
 10
1148.447836
 20
609.793411
 30
0.0
 11
1155.947836
 21
609.662504
 31
0.0
  0
LINE
  5
6DD
100
AcDbEntity
  8
0
  6
HIDDEN
 62
     1
100
AcDbLine
 10
1155.947836
 20
609.662504
 30
0.0
 11
1155.947833
 21
606.447045
 31
0.0
  0
LINE
  5
6FA
100
AcDbEntity
  8
0
  6
HIDDEN
 62
     1
100
AcDbLine
 10
1155.947833
 20
624.031585
 30
0.0
 11
1155.947833
 21
617.293411
 31
0.0
  0
LINE
  5
6FB
100
AcDbEntity
  8
0
  6
HIDDEN
 62
     1
100
AcDbLine
 10
1155.947833
 20
339.031585
 30
0.0
 11
1155.947833
 21
332.293411
 31
0.0
  0
LINE
  5
71C
100
AcDbEntity
  8
0
  6
HIDDEN
 62
     1
100
AcDbLine
 10
1155.947833
 20
380.531585
 30
0.0
 11
1155.947833
 21
373.793411
 31
0.0
  0
LINE
  5
71D
100
AcDbEntity
  8
0
  6
HIDDEN
 62
     1
100
AcDbLine
 10
1155.947833
 20
582.531585
 30
0.0
 11
1155.947833
 21
575.793411
 31
0.0
  0
LINE
  5
72A
100
AcDbEntity
  8
0
  6
HIDDEN
 62
     1
100
AcDbLine
 10
1155.947833
 20
364.031585
 30
0.0
 11
1155.947833
 21
359.662498
 31
0.0
  0
LINE
  5
72B
100
AcDbEntity
  8
0
  6
HIDDEN
 62
     1
100
AcDbLine
 10
1155.947833
 20
596.662498
 30
0.0
 11
1155.947833
 21
592.293411
 31
0.0
  0
LINE
  5
730
100
AcDbEntity
  8
0
  6
HIDDEN
 62
     1
100
AcDbLine
 10
1155.947833
 20
371.031585
 30
0.0
 11
1155.947833
 21
364.293411
 31
0.0
  0
LINE
  5
731
100
AcDbEntity
  8
0
  6
HIDDEN
 62
     1
100
AcDbLine
 10
1155.947833
 20
592.031585
 30
0.0
 11
1155.947833
 21
585.293411
 31
0.0
  0
LINE
  5
736
100
AcDbEntity
  8
0
  6
HIDDEN
 62
     1
100
AcDbLine
 10
1153.247833
 20
588.428714
 30
0.0
 11
1153.247833
 21
567.896283
 31
0.0
  0
LINE
  5
737
100
AcDbEntity
  8
0
  6
HIDDEN
 62
     1
100
AcDbLine
 10
1153.247833
 20
388.428714
 30
0.0
 11
1153.247833
 21
367.896283
 31
0.0
  0
LINE
  5
765
100
AcDbEntity
  8
0
  6
HIDDEN
 62
     7
100
AcDbLine
 10
1145.147832
 20
483.601143
 30
0.0
 11
1146.147834
 21
484.518561
 31
0.0
  0
LINE
  5
767
100
AcDbEntity
  8
0
  6
HIDDEN
 62
     7
100
AcDbLine
 10
1145.147832
 20
472.723854
 30
0.0
 11
1146.147834
 21
471.806436
 31
0.0
  0
LINE
  5
79B
100
AcDbEntity
  8
0
  6
HIDDEN
 62
     7
100
AcDbLine
 10
1143.147833
 20
644.162498
 30
0.0
 11
1234.547833
 21
644.162498
 31
0.0
  0
LINE
  5
79C
100
AcDbEntity
  8
0
  6
HIDDEN
 62
     7
100
AcDbLine
 10
1234.547833
 20
312.162498
 30
0.0
 11
1143.147833
 21
312.162498
 31
0.0
  0
LINE
  5
79E
100
AcDbEntity
  8
0
  6
HIDDEN
 62
     7
100
AcDbLine
 10
1220.047833
 20
644.162498
 30
0.0
 11
1234.547833
 21
644.162498
 31
0.0
  0
LINE
  5
79F
100
AcDbEntity
  8
0
  6
HIDDEN
 62
     7
100
AcDbLine
 10
1234.547833
 20
312.162498
 30
0.0
 11
1220.047833
 21
312.162498
 31
0.0
  0
LINE
  5
7A2
100
AcDbEntity
  8
0
  6
HIDDEN
 62
     7
100
AcDbLine
 10
1226.247833
 20
628.367619
 30
0.0
 11
1226.247833
 21
631.712498
 31
0.0
  0
LINE
  5
7A3
100
AcDbEntity
  8
0
  6
HIDDEN
 62
     7
100
AcDbLine
 10
1226.247833
 20
327.957378
 30
0.0
 11
1226.247833
 21
324.612498
 31
0.0
  0
LINE
  5
7A4
100
AcDbEntity
  8
0
  6
HIDDEN
 62
     7
100
AcDbLine
 10
1227.423477
 20
329.112501
 30
0.0
 11
1230.747833
 21
329.112498
 31
0.0
  0
LINE
  5
7A5
100
AcDbEntity
  8
0
  6
HIDDEN
 62
     7
100
AcDbLine
 10
1227.423477
 20
627.212496
 30
0.0
 11
1230.747833
 21
627.212498
 31
0.0
  0
LINE
  5
7BB
100
AcDbEntity
  8
0
  6
HIDDEN
 62
     1
100
AcDbLine
 10
1154.647833
 20
343.51413
 30
0.0
 11
1148.447836
 21
343.622358
 31
0.0
  0
LINE
  5
7BC
100
AcDbEntity
  8
0
  6
HIDDEN
 62
     1
100
AcDbLine
 10
1148.447836
 20
612.702639
 30
0.0
 11
1154.647833
 21
612.810866
 31
0.0
  0
LINE
  5
7E6
100
AcDbEntity
  8
0
  6
HIDDEN
 62
     1
100
AcDbLine
 10
1148.447836
 20
617.162497
 30
0.0
 11
1155.947833
 21
617.293411
 31
0.0
  0
LINE
  5
7E7
100
AcDbEntity
  8
0
  6
HIDDEN
 62
     1
100
AcDbLine
 10
1155.947833
 20
624.031585
 30
0.0
 11
1148.447836
 21
624.162496
 31
0.0
  0
LINE
  5
7E8
100
AcDbEntity
  8
0
  6
HIDDEN
 62
     1
100
AcDbLine
 10
1148.447836
 20
332.162501
 30
0.0
 11
1155.947833
 21
332.293411
 31
0.0
  0
LINE
  5
7E9
100
AcDbEntity
  8
0
  6
HIDDEN
 62
     1
100
AcDbLine
 10
1155.947833
 20
339.031585
 30
0.0
 11
1148.447836
 21
339.1625
 31
0.0
  0
LINE
  5
7F6
100
AcDbEntity
  8
0
  6
HIDDEN
 62
     1
100
AcDbLine
 10
1148.447836
 20
349.662499
 30
0.0
 11
1155.947836
 21
349.793405
 31
0.0
  0
LINE
  5
7F7
100
AcDbEntity
  8
0
  6
HIDDEN
 62
     1
100
AcDbLine
 10
1155.947836
 20
356.531584
 30
0.0
 11
1148.447836
 21
356.662498
 31
0.0
  0
LINE
  5
7FA
100
AcDbEntity
  8
0
  6
HIDDEN
 62
     1
100
AcDbLine
 10
1148.447836
 20
373.662495
 30
0.0
 11
1155.947833
 21
373.793411
 31
0.0
  0
LINE
  5
7FB
100
AcDbEntity
  8
0
  6
HIDDEN
 62
     1
100
AcDbLine
 10
1155.947833
 20
380.531585
 30
0.0
 11
1148.447836
 21
380.662502
 31
0.0
  0
LINE
  5
7FC
100
AcDbEntity
  8
0
  6
HIDDEN
 62
     1
100
AcDbLine
 10
1148.447836
 20
575.662495
 30
0.0
 11
1155.947833
 21
575.793411
 31
0.0
  0
LINE
  5
7FD
100
AcDbEntity
  8
0
  6
HIDDEN
 62
     1
100
AcDbLine
 10
1155.947833
 20
582.531585
 30
0.0
 11
1148.447836
 21
582.662502
 31
0.0
  0
LINE
  5
81A
100
AcDbEntity
  8
0
  6
HIDDEN
 62
     1
100
AcDbLine
 10
1148.447836
 20
357.162499
 30
0.0
 11
1155.947836
 21
357.293413
 31
0.0
  0
LINE
  5
81B
100
AcDbEntity
  8
0
  6
HIDDEN
 62
     1
100
AcDbLine
 10
1155.947833
 20
364.031585
 30
0.0
 11
1148.447836
 21
364.162498
 31
0.0
  0
LINE
  5
81C
100
AcDbEntity
  8
0
  6
HIDDEN
 62
     1
100
AcDbLine
 10
1148.447836
 20
592.162498
 30
0.0
 11
1155.947833
 21
592.293411
 31
0.0
  0
LINE
  5
826
100
AcDbEntity
  8
0
  6
HIDDEN
 62
     1
100
AcDbLine
 10
1148.447836
 20
364.162498
 30
0.0
 11
1155.947833
 21
364.293411
 31
0.0
  0
LINE
  5
827
100
AcDbEntity
  8
0
  6
HIDDEN
 62
     1
100
AcDbLine
 10
1155.947833
 20
371.031585
 30
0.0
 11
1148.447836
 21
371.162498
 31
0.0
  0
LINE
  5
828
100
AcDbEntity
  8
0
  6
HIDDEN
 62
     1
100
AcDbLine
 10
1148.447836
 20
585.162499
 30
0.0
 11
1155.947833
 21
585.293411
 31
0.0
  0
LINE
  5
829
100
AcDbEntity
  8
0
  6
HIDDEN
 62
     1
100
AcDbLine
 10
1155.947833
 20
592.031585
 30
0.0
 11
1148.447836
 21
592.162498
 31
0.0
  0
LINE
  5
832
100
AcDbEntity
  8
0
  6
HIDDEN
 62
     1
100
AcDbLine
 10
1148.447836
 20
567.812496
 30
0.0
 11
1153.247833
 21
567.896283
 31
0.0
  0
LINE
  5
833
100
AcDbEntity
  8
0
  6
HIDDEN
 62
     1
100
AcDbLine
 10
1153.247833
 20
588.428714
 30
0.0
 11
1148.447836
 21
588.512496
 31
0.0
  0
LINE
  5
834
100
AcDbEntity
  8
0
  6
HIDDEN
 62
     1
100
AcDbLine
 10
1148.447836
 20
367.812501
 30
0.0
 11
1153.247833
 21
367.896283
 31
0.0
  0
LINE
  5
835
100
AcDbEntity
  8
0
  6
HIDDEN
 62
     1
100
AcDbLine
 10
1153.247833
 20
388.428714
 30
0.0
 11
1148.447836
 21
388.512501
 31
0.0
  0
LINE
  5
836
100
AcDbEntity
  8
0
  6
HIDDEN
 62
     7
100
AcDbLine
 10
1146.147834
 20
588.472353
 30
0.0
 11
1145.147832
 21
588.454896
 31
0.0
  0
LINE
  5
837
100
AcDbEntity
  8
0
  6
HIDDEN
 62
     7
100
AcDbLine
 10
1145.147832
 20
567.870097
 30
0.0
 11
1146.147834
 21
567.852647
 31
0.0
  0
LINE
  5
838
100
AcDbEntity
  8
0
  6
HIDDEN
 62
     7
100
AcDbLine
 10
1146.147834
 20
388.47235
 30
0.0
 11
1145.147832
 21
388.4549
 31
0.0
  0
LINE
  5
839
100
AcDbEntity
  8
0
  6
HIDDEN
 62
     7
100
AcDbLine
 10
1145.147832
 20
367.870101
 30
0.0
 11
1146.147834
 21
367.852644
 31
0.0
  0
TEXT
  5
8AE
100
AcDbEntity
  8
0
100
AcDbText
 10
21.555588
 20
818.494731
 30
0.0
 40
10.0
  1
FIBOX Tempo 3429 Base
100
AcDbText
  0
ENDSEC
  0
SECTION
  2
OBJECTS
  0
DICTIONARY
  5
C
100
AcDbDictionary
  3
ACAD_GROUP
350
D
  3
ACAD_PLOTSTYLENAME
350
E
  3
ACAD_MLINESTYLE
350
17
  3
ACAD_PLOTSETTINGS
350
19
  3
ACAD_LAYOUT
350
1A
  3
ACDBHEADERROUNDTRIPXREC
350
86F
  0
DICTIONARY
  5
8A1
100
AcDbDictionary
280
     1
  3
ACAD_XREC_ROUNDTRIP
360
8A2
  0
DICTIONARY
  5
8A3
100
AcDbDictionary
280
     1
  3
ACAD_XREC_ROUNDTRIP
360
8A4
  0
DICTIONARY
  5
8A5
100
AcDbDictionary
280
     1
  3
ACAD_XREC_ROUNDTRIP
360
8A6
  0
DICTIONARY
  5
89F
100
AcDbDictionary
280
     1
  3
ACAD_XREC_ROUNDTRIP
360
8A0
  0
DICTIONARY
  5
8A9
100
AcDbDictionary
280
     1
  3
ACAD_XREC_ROUNDTRIP
360
8AA
  0
DICTIONARY
  5
896
100
AcDbDictionary
280
     1
  3
ACAD_LAYOUTSELFREF
360
897
  3
ACAD_XREC_ROUNDTRIP
360
89C
  0
DICTIONARY
  5
894
100
AcDbDictionary
280
     1
  3
ACAD_LAYOUTSELFREF
360
895
  3
ACAD_XREC_ROUNDTRIP
360
89D
  0
DICTIONARY
  5
898
100
AcDbDictionary
280
     1
  3
ACAD_LAYOUTSELFREF
360
899
  3
ACAD_XREC_ROUNDTRIP
360
89E
  0
DICTIONARY
  5
D
102
{ACAD_REACTORS
330
C
102
}
100
AcDbDictionary
  0
ACAD_PROXY_OBJECT
  5
E
102
{ACAD_XDICTIONARY
360
890
102
}
102
{ACAD_REACTORS
330
C
102
}
100
AcDbProxyObject
 90
      499
 91
      500
 93
       86
310
4050100419393D49350533
350
F
340
F
 94
        0
  0
DICTIONARY
  5
17
102
{ACAD_XDICTIONARY
360
892
102
}
102
{ACAD_REACTORS
330
C
102
}
100
AcDbDictionary
  3
STANDARD
350
18
  0
DICTIONARY
  5
19
102
{ACAD_REACTORS
330
C
102
}
100
AcDbDictionary
  0
DICTIONARY
  5
1A
102
{ACAD_XDICTIONARY
360
89A
102
}
102
{ACAD_REACTORS
330
C
102
}
100
AcDbDictionary
  3
LAYOUT1
350
1E
  3
MODEL
350
22
  3
LAYOUT2
350
26
  0
DICTIONARY
  5
86F
102
{ACAD_REACTORS
330
C
102
}
100
AcDbDictionary
  3
TSTACKALIGN
350
870
  3
TSTACKSIZE
350
871
  3
HYPERLINKBASE
350
872
  3
STYLESHEET
350
873
  3
LAYOUTDICT
350
874
  3
PLOTSETDICT
350
875
  3
PLOTSTYLNAMDICT
350
876
  3
LWETCUNION
350
877
  3
INSUNITS
350
878
  3
CEPSNTYPE
350
879
  3
FINGERPRINTGUID
350
87A
  3
VERSIONGUID
350
87B
  3
PSVPSCALE
350
87C
  3
PUCSORTHOREF
350
87D
  3
PUCSORTHOVIEW
350
87E
  3
PUCSBASE
350
87F
  3
PUCSORGTOP
350
880
  3
PUCSORGBOTTOM
350
881
  3
PUCSORGLEFT
350
882
  3
PUCSORGRIGHT
350
883
  3
PUCSORGFRONT
350
884
  3
PUCSORGBACK
350
885
  3
UCSORTHOREF
350
886
  3
UCSORTHOVIEW
350
887
  3
UCSBASE
350
888
  3
UCSORGTOP
350
889
  3
UCSORGBOTTOM
350
88A
  3
UCSORGLEFT
350
88B
  3
UCSORGRIGHT
350
88C
  3
UCSORGFRONT
350
88D
  3
UCSORGBACK
350
88E
  3
DIMSTYLEDATA
350
88F
  0
XRECORD
  5
8A2
102
{ACAD_REACTORS
330
8A1
102
}
100
AcDbXrecord
102
EXTNAMES
  1
BYBLOCK
  2
ByBlock
  0
XRECORD
  5
8A4
102
{ACAD_REACTORS
330
8A3
102
}
100
AcDbXrecord
102
EXTNAMES
  1
BYLAYER
  2
ByLayer
  0
XRECORD
  5
8A6
102
{ACAD_REACTORS
330
8A5
102
}
100
AcDbXrecord
102
EXTNAMES
  1
CONTINUOUS
  2
Continuous
  0
XRECORD
  5
8A0
102
{ACAD_REACTORS
330
89F
102
}
100
AcDbXrecord
102
EXTNAMES
  1
STANDARD
  2
Standard
  0
XRECORD
  5
8AA
102
{ACAD_REACTORS
330
8A9
102
}
100
AcDbXrecord
102
ACADR14ROUNDTRIP
1000
DSTYLE
1002
{
1070
   278
 70
    44
1002
}
  0
XRECORD
  5
897
102
{ACAD_REACTORS
330
896
102
}
100
AcDbXrecord
340
1F
  0
XRECORD
  5
89C
102
{ACAD_REACTORS
330
896
102
}
100
AcDbXrecord
102
EXTNAMES
  1
*MODEL_SPACE
  2
*Model_Space
  0
XRECORD
  5
895
102
{ACAD_REACTORS
330
894
102
}
100
AcDbXrecord
340
1B
  0
XRECORD
  5
89D
102
{ACAD_REACTORS
330
894
102
}
100
AcDbXrecord
102
EXTNAMES
  1
*PAPER_SPACE
  2
*Paper_Space
  0
XRECORD
  5
899
102
{ACAD_REACTORS
330
898
102
}
100
AcDbXrecord
340
23
  0
XRECORD
  5
89E
102
{ACAD_REACTORS
330
898
102
}
100
AcDbXrecord
102
EXTNAMES
  1
*PAPER_SPACE
  2
*Paper_Space0
  0
DICTIONARY
  5
890
100
AcDbDictionary
280
     1
  3
ACAD_XREC_ROUNDTRIP
360
891
  0
ACAD_PROXY_OBJECT
  5
F
102
{ACAD_REACTORS
330
E
102
}
100
AcDbProxyObject
 90
      499
 91
      504
 93
        0
 94
        0
  0
DICTIONARY
  5
892
100
AcDbDictionary
280
     1
  3
ACAD_XREC_ROUNDTRIP
360
893
  0
MLINESTYLE
  5
18
102
{ACAD_REACTORS
330
17
102
}
100
AcDbMlineStyle
  2
STANDARD
 70
     0
  3

 62
   256
 51
90.0
 52
90.0
 71
     2
 49
0.5
 62
   256
  6
BYLAYER
 49
-0.5
 62
   256
  6
BYLAYER
  0
DICTIONARY
  5
89A
100
AcDbDictionary
280
     1
  3
ACAD_XREC_ROUNDTRIP
360
89B
  0
ACAD_PROXY_OBJECT
  5
1E
102
{ACAD_REACTORS
330
1A
102
}
100
AcDbProxyObject
 90
      499
 91
      505
 93
      468
310
A2C00AAAAAA416AA591069074C61796F75743140501A80000000000000000000000000000000000000000000000000000000000000002A6A6AAAAF
330
1B
330
0
340
0
340
0
 94
        0
  0
ACAD_PROXY_OBJECT
  5
22
102
{ACAD_REACTORS
330
1A
102
}
100
AcDbProxyObject
 90
      499
 91
      505
 93
      556
310
A2C01AAAAAAAAA5A69054D6F64656C901A80000000000000000000000000000000000000000000000000000000000000002A6A6AA80000000000407A400000000000241C9023
330
1F
330
0
340
0
340
0
 94
        0
  0
ACAD_PROXY_OBJECT
  5
26
102
{ACAD_REACTORS
330
1A
102
}
100
AcDbProxyObject
 90
      499
 91
      505
 93
      468
310
A2C00AAAAAA416AA591069074C61796F75743240901A80000000000000000000000000000000000000000000000000000000000000002A6A6AAAA0
330
23
330
0
340
0
340
0
 94
        0
  0
XRECORD
  5
870
102
{ACAD_REACTORS
330
86F
102
}
100
AcDbXrecord
 90
        1
  0
XRECORD
  5
871
102
{ACAD_REACTORS
330
86F
102
}
100
AcDbXrecord
 90
       70
  0
XRECORD
  5
872
102
{ACAD_REACTORS
330
86F
102
}
100
AcDbXrecord
  1

  0
XRECORD
  5
873
102
{ACAD_REACTORS
330
86F
102
}
100
AcDbXrecord
  1

  0
XRECORD
  5
874
102
{ACAD_REACTORS
330
86F
102
}
100
AcDbXrecord
340
1A
  0
XRECORD
  5
875
102
{ACAD_REACTORS
330
86F
102
}
100
AcDbXrecord
340
19
  0
XRECORD
  5
876
102
{ACAD_REACTORS
330
86F
102
}
100
AcDbXrecord
340
E
  0
XRECORD
  5
877
102
{ACAD_REACTORS
330
86F
102
}
100
AcDbXrecord
 90
    10269
  0
XRECORD
  5
878
102
{ACAD_REACTORS
330
86F
102
}
100
AcDbXrecord
 90
        4
  0
XRECORD
  5
879
102
{ACAD_REACTORS
330
86F
102
}
100
AcDbXrecord
 90
        0
  0
XRECORD
  5
87A
102
{ACAD_REACTORS
330
86F
102
}
100
AcDbXrecord
  1
{B169E5B5-9FCE-4062-868F-DC3A44E8E87C}
  0
XRECORD
  5
87B
102
{ACAD_REACTORS
330
86F
102
}
100
AcDbXrecord
  1
{FAEB1C32-E019-11D5-929B-00C0DF256EC4}
  0
XRECORD
  5
87C
102
{ACAD_REACTORS
330
86F
102
}
100
AcDbXrecord
 40
0.0
  0
XRECORD
  5
87D
102
{ACAD_REACTORS
330
86F
102
}
100
AcDbXrecord
340
0
  0
XRECORD
  5
87E
102
{ACAD_REACTORS
330
86F
102
}
100
AcDbXrecord
 70
     0
  0
XRECORD
  5
87F
102
{ACAD_REACTORS
330
86F
102
}
100
AcDbXrecord
340
0
  0
XRECORD
  5
880
102
{ACAD_REACTORS
330
86F
102
}
100
AcDbXrecord
 10
0.0
 20
0.0
 30
0.0
  0
XRECORD
  5
881
102
{ACAD_REACTORS
330
86F
102
}
100
AcDbXrecord
 10
0.0
 20
0.0
 30
0.0
  0
XRECORD
  5
882
102
{ACAD_REACTORS
330
86F
102
}
100
AcDbXrecord
 10
0.0
 20
0.0
 30
0.0
  0
XRECORD
  5
883
102
{ACAD_REACTORS
330
86F
102
}
100
AcDbXrecord
 10
0.0
 20
0.0
 30
0.0
  0
XRECORD
  5
884
102
{ACAD_REACTORS
330
86F
102
}
100
AcDbXrecord
 10
0.0
 20
0.0
 30
0.0
  0
XRECORD
  5
885
102
{ACAD_REACTORS
330
86F
102
}
100
AcDbXrecord
 10
0.0
 20
0.0
 30
0.0
  0
XRECORD
  5
886
102
{ACAD_REACTORS
330
86F
102
}
100
AcDbXrecord
340
0
  0
XRECORD
  5
887
102
{ACAD_REACTORS
330
86F
102
}
100
AcDbXrecord
 70
     0
  0
XRECORD
  5
888
102
{ACAD_REACTORS
330
86F
102
}
100
AcDbXrecord
340
0
  0
XRECORD
  5
889
102
{ACAD_REACTORS
330
86F
102
}
100
AcDbXrecord
 10
0.0
 20
0.0
 30
0.0
  0
XRECORD
  5
88A
102
{ACAD_REACTORS
330
86F
102
}
100
AcDbXrecord
 10
0.0
 20
0.0
 30
0.0
  0
XRECORD
  5
88B
102
{ACAD_REACTORS
330
86F
102
}
100
AcDbXrecord
 10
0.0
 20
0.0
 30
0.0
  0
XRECORD
  5
88C
102
{ACAD_REACTORS
330
86F
102
}
100
AcDbXrecord
 10
0.0
 20
0.0
 30
0.0
  0
XRECORD
  5
88D
102
{ACAD_REACTORS
330
86F
102
}
100
AcDbXrecord
 10
0.0
 20
0.0
 30
0.0
  0
XRECORD
  5
88E
102
{ACAD_REACTORS
330
86F
102
}
100
AcDbXrecord
 10
0.0
 20
0.0
 30
0.0
  0
XRECORD
  5
88F
102
{ACAD_REACTORS
330
86F
102
}
100
AcDbXrecord
1000
DSTYLE
1002
{
1070
   143
 40
0.03937
1070
    41
 40
6.0
1070
    44
 40
1.0
1070
    42
 40
1.0
1070
   147
 40
1.524
1070
   144
 40
5.0
1070
    73
 70
     1
1070
    74
 70
     1
1070
   340
340
11
1070
   140
 40
3.5
1070
   284
 70
     0
1070
    78
 70
     0
1002
}
  0
XRECORD
  5
891
102
{ACAD_REACTORS
330
890
102
}
100
AcDbXrecord
102
EXTNAMES
  1
NORMAL
  2
Normal
  0
XRECORD
  5
893
102
{ACAD_REACTORS
330
892
102
}
100
AcDbXrecord
102
EXTNAMES
  1
STANDARD
  2
Standard
  0
XRECORD
  5
89B
102
{ACAD_REACTORS
330
89A
102
}
100
AcDbXrecord
102
EXTNAMES
  1
LAYOUT1
  2
Layout1
  1
LAYOUT2
  2
Layout2
  1
MODEL
  2
Model
  0
ENDSEC
  0
EOF
