  0
SECTION
  2
HEADER
  9
$ACADVER
  1
AC1014
  9
$ACADMAINTVER
 70
     0
  9
$DWGCODEPAGE
  3
ANSI_1252
  9
$INSBASE
 10
0.0
 20
0.0
 30
0.0
  9
$EXTMIN
 10
60.544422
 20
75.287797
 30
-0.001526
  9
$EXTMAX
 10
1110.837709
 20
775.913408
 30
0.0
  9
$LIMMIN
 10
0.0
 20
0.0
  9
$LIMMAX
 10
0.0
 20
0.0
  9
$ORTHOMODE
 70
     0
  9
$REGENMODE
 70
     1
  9
$FILLMODE
 70
     1
  9
$QTEXTMODE
 70
     0
  9
$MIRRTEXT
 70
     1
  9
$DRAGMODE
 70
     2
  9
$LTSCALE
 40
1.0
  9
$OSMODE
 70
    37
  9
$ATTMODE
 70
     1
  9
$TEXTSIZE
 40
10.0
  9
$TRACEWID
 40
1.0
  9
$TEXTSTYLE
  7
STANDARD
  9
$CLAYER
  8
0
  9
$CELTYPE
  6
BYLAYER
  9
$CECOLOR
 62
   256
  9
$CELTSCALE
 40
1.0
  9
$DELOBJ
 70
     1
  9
$DISPSILH
 70
     0
  9
$DIMSCALE
 40
1.0
  9
$DIMASZ
 40
6.0
  9
$DIMEXO
 40
1.0
  9
$DIMDLI
 40
3.75
  9
$DIMRND
 40
0.0
  9
$DIMDLE
 40
0.0
  9
$DIMEXE
 40
1.0
  9
$DIMTP
 40
0.0
  9
$DIMTM
 40
0.0
  9
$DIMTXT
 40
3.5
  9
$DIMCEN
 40
2.5
  9
$DIMTSZ
 40
0.0
  9
$DIMTOL
 70
     0
  9
$DIMLIM
 70
     0
  9
$DIMTIH
 70
     1
  9
$DIMTOH
 70
     1
  9
$DIMSE1
 70
     0
  9
$DIMSE2
 70
     0
  9
$DIMTAD
 70
     1
  9
$DIMZIN
 70
     0
  9
$DIMBLK
  1

  9
$DIMASO
 70
     1
  9
$DIMSHO
 70
     1
  9
$DIMPOST
  1

  9
$DIMAPOST
  1

  9
$DIMALT
 70
     0
  9
$DIMALTD
 70
     3
  9
$DIMALTF
 40
0.03937
  9
$DIMLFAC
 40
1.0
  9
$DIMTOFL
 70
     1
  9
$DIMTVP
 40
0.0
  9
$DIMTIX
 70
     0
  9
$DIMSOXD
 70
     0
  9
$DIMSAH
 70
     0
  9
$DIMBLK1
  1

  9
$DIMBLK2
  1

  9
$DIMSTYLE
  2
ISO-25
  9
$DIMCLRD
 70
     0
  9
$DIMCLRE
 70
     0
  9
$DIMCLRT
 70
     0
  9
$DIMTFAC
 40
1.0
  9
$DIMGAP
 40
1.524
  9
$DIMJUST
 70
     0
  9
$DIMSD1
 70
     0
  9
$DIMSD2
 70
     0
  9
$DIMTOLJ
 70
     0
  9
$DIMTZIN
 70
     0
  9
$DIMALTZ
 70
     0
  9
$DIMALTTZ
 70
     0
  9
$DIMFIT
 70
     3
  9
$DIMUPT
 70
     0
  9
$DIMUNIT
 70
     2
  9
$DIMDEC
 70
     2
  9
$DIMTDEC
 70
     2
  9
$DIMALTU
 70
     2
  9
$DIMALTTD
 70
     3
  9
$DIMTXSTY
  7
STANDARD
  9
$DIMAUNIT
 70
     0
  9
$LUNITS
 70
     2
  9
$LUPREC
 70
     2
  9
$SKETCHINC
 40
1.0
  9
$FILLETRAD
 40
10.0
  9
$AUNITS
 70
     0
  9
$AUPREC
 70
     0
  9
$MENU
  1
.
  9
$ELEVATION
 40
0.0
  9
$PELEVATION
 40
0.0
  9
$THICKNESS
 40
0.0
  9
$LIMCHECK
 70
     0
  9
$BLIPMODE
 70
     0
  9
$CHAMFERA
 40
10.0
  9
$CHAMFERB
 40
10.0
  9
$CHAMFERC
 40
20.0
  9
$CHAMFERD
 40
0.0
  9
$SKPOLY
 70
     0
  9
$TDCREATE
 40
2454075.507149826
  9
$TDUPDATE
 40
2454075.644702280
  9
$TDINDWG
 40
0.0044796412
  9
$TDUSRTIMER
 40
0.0044796412
  9
$USRTIMER
 70
     1
  9
$ANGBASE
 50
0.0
  9
$ANGDIR
 70
     0
  9
$PDMODE
 70
     0
  9
$PDSIZE
 40
-1.0
  9
$PLINEWID
 40
0.0
  9
$COORDS
 70
     1
  9
$SPLFRAME
 70
     0
  9
$SPLINETYPE
 70
     6
  9
$SPLINESEGS
 70
     8
  9
$ATTDIA
 70
     0
  9
$ATTREQ
 70
     1
  9
$HANDLING
 70
     1
  9
$HANDSEED
  5
6ED
  9
$SURFTAB1
 70
     6
  9
$SURFTAB2
 70
     6
  9
$SURFTYPE
 70
     6
  9
$SURFU
 70
     6
  9
$SURFV
 70
     6
  9
$UCSNAME
  2

  9
$UCSORG
 10
0.0
 20
0.0
 30
0.0
  9
$UCSXDIR
 10
1.0
 20
0.0
 30
0.0
  9
$UCSYDIR
 10
0.0
 20
1.0
 30
0.0
  9
$PUCSNAME
  2

  9
$PUCSORG
 10
0.0
 20
0.0
 30
0.0
  9
$PUCSXDIR
 10
1.0
 20
0.0
 30
0.0
  9
$PUCSYDIR
 10
0.0
 20
1.0
 30
0.0
  9
$USERI1
 70
     0
  9
$USERI2
 70
     0
  9
$USERI3
 70
     0
  9
$USERI4
 70
     0
  9
$USERI5
 70
     0
  9
$USERR1
 40
0.0
  9
$USERR2
 40
0.0
  9
$USERR3
 40
0.0
  9
$USERR4
 40
0.0
  9
$USERR5
 40
0.0
  9
$WORLDVIEW
 70
     1
  9
$SHADEDGE
 70
     3
  9
$SHADEDIF
 70
    70
  9
$TILEMODE
 70
     1
  9
$MAXACTVP
 70
    64
  9
$PINSBASE
 10
0.0
 20
0.0
 30
0.0
  9
$PLIMCHECK
 70
     0
  9
$PEXTMIN
 10
1.000000E+20
 20
1.000000E+20
 30
1.000000E+20
  9
$PEXTMAX
 10
-1.000000E+20
 20
-1.000000E+20
 30
-1.000000E+20
  9
$PLIMMIN
 10
0.0
 20
0.0
  9
$PLIMMAX
 10
420.0
 20
297.0
  9
$UNITMODE
 70
     0
  9
$VISRETAIN
 70
     1
  9
$PLINEGEN
 70
     0
  9
$PSLTSCALE
 70
     1
  9
$TREEDEPTH
 70
  3020
  9
$PICKSTYLE
 70
     1
  9
$CMLSTYLE
  2
STANDARD
  9
$CMLJUST
 70
     0
  9
$CMLSCALE
 40
20.0
  9
$PROXYGRAPHICS
 70
     1
  9
$MEASUREMENT
 70
     1
  0
ENDSEC
  0
SECTION
  2
CLASSES
  0
CLASS
  1
ACDBDICTIONARYWDFLT
  2
AcDbDictionaryWithDefault
  3
ObjectDBX Classes
 90
        0
280
     0
281
     0
  0
CLASS
  1
XRECORD
  2
AcDbXrecord
  3
"<Built In>"
 90
        0
280
     0
281
     0
  0
CLASS
  1
LWPOLYLINE
  2
AcDbPolyline
  3
"AutoCAD"
 90
        0
280
     0
281
     1
  0
CLASS
  1
HATCH
  2
AcDbHatch
  3
"ACAD_SEDONA"
 90
        0
280
     0
281
     1
  0
CLASS
  1
ACDBPLACEHOLDER
  2
AcDbPlaceHolder
  3
ObjectDBX Classes
 90
        0
280
     0
281
     0
  0
CLASS
  1
LAYOUT
  2
AcDbLayout
  3
ObjectDBX Classes
 90
        0
280
     0
281
     0
  0
ENDSEC
  0
SECTION
  2
TABLES
  0
TABLE
  2
VPORT
  5
8
100
AcDbSymbolTable
 70
     2
  0
VPORT
  5
6EC
100
AcDbSymbolTableRecord
100
AcDbViewportTableRecord
  2
*ACTIVE
 70
     0
 10
0.0
 20
0.0
 11
1.0
 21
1.0
 12
555.418855
 22
387.956704
 13
0.0
 23
0.0
 14
10.0
 24
10.0
 15
10.0
 25
10.0
 16
0.0
 26
0.0
 36
1.0
 17
0.0
 27
0.0
 37
0.0
 40
781.590823
 41
1.440781
 42
50.0
 43
0.0
 44
0.0
 50
0.0
 51
0.0
 71
     0
 72
  2000
 73
     1
 74
     3
 75
     0
 76
     0
 77
     0
 78
     0
  0
ENDTAB
  0
TABLE
  2
LTYPE
  5
5
100
AcDbSymbolTable
 70
     6
  0
LTYPE
  5
14
102
{ACAD_XDICTIONARY
360
6DE
102
}
100
AcDbSymbolTableRecord
100
AcDbLinetypeTableRecord
  2
BYBLOCK
 70
     0
  3

 72
    65
 73
     0
 40
0.0
  0
LTYPE
  5
15
102
{ACAD_XDICTIONARY
360
6E0
102
}
100
AcDbSymbolTableRecord
100
AcDbLinetypeTableRecord
  2
BYLAYER
 70
     0
  3

 72
    65
 73
     0
 40
0.0
  0
LTYPE
  5
16
102
{ACAD_XDICTIONARY
360
6E2
102
}
100
AcDbSymbolTableRecord
100
AcDbLinetypeTableRecord
  2
CONTINUOUS
 70
     0
  3
Solid line
 72
    65
 73
     0
 40
0.0
  0
LTYPE
  5
2A
100
AcDbSymbolTableRecord
100
AcDbLinetypeTableRecord
  2
HIDDEN
 70
     0
  3
Hidden __ __ __ __ __ __ __ __ __ __ __ __ __ __
 72
    65
 73
     2
 40
1.905
 49
1.27
 74
     0
 49
-0.635
 74
     0
  0
LTYPE
  5
2B
100
AcDbSymbolTableRecord
100
AcDbLinetypeTableRecord
  2
PHANTOM
 70
     0
  3
Phantom ______  __  __  ______  __  __  ______
 72
    65
 73
     6
 40
12.7
 49
6.35
 74
     0
 49
-1.27
 74
     0
 49
1.27
 74
     0
 49
-1.27
 74
     0
 49
1.27
 74
     0
 49
-1.27
 74
     0
  0
LTYPE
  5
2C
100
AcDbSymbolTableRecord
100
AcDbLinetypeTableRecord
  2
CENTER
 70
     0
  3
Center ____ _ ____ _ ____ _ ____ _ ____ _ ____
 72
    65
 73
     4
 40
10.16
 49
6.35
 74
     0
 49
-1.27
 74
     0
 49
1.27
 74
     0
 49
-1.27
 74
     0
  0
LTYPE
  5
2D
100
AcDbSymbolTableRecord
100
AcDbLinetypeTableRecord
  2
CENTERX2
 70
     0
  3
Center (2x) ________  __  ________  __  _____
 72
    65
 73
     4
 40
20.32
 49
12.7
 74
     0
 49
-2.54
 74
     0
 49
2.54
 74
     0
 49
-2.54
 74
     0
  0
LTYPE
  5
2E
100
AcDbSymbolTableRecord
100
AcDbLinetypeTableRecord
  2
DOT2
 70
     0
  3
Dot (.5x) ........................................
 72
    65
 73
     2
 40
0.635
 49
0.0
 74
     0
 49
-0.635
 74
     0
  0
ENDTAB
  0
TABLE
  2
LAYER
  5
2
100
AcDbSymbolTable
 70
     1
  0
LAYER
  5
10
100
AcDbSymbolTableRecord
100
AcDbLayerTableRecord
  2
0
 70
     0
 62
     7
  6
CONTINUOUS
  0
ENDTAB
  0
TABLE
  2
STYLE
  5
3
100
AcDbSymbolTable
 70
     1
  0
STYLE
  5
11
102
{ACAD_XDICTIONARY
360
6DC
102
}
100
AcDbSymbolTableRecord
100
AcDbTextStyleTableRecord
  2
STANDARD
 70
     0
 40
0.0
 41
1.0
 50
0.0
 71
     0
 42
10.0
  3
txt
  4

  0
ENDTAB
  0
TABLE
  2
VIEW
  5
6
100
AcDbSymbolTable
 70
     0
  0
ENDTAB
  0
TABLE
  2
UCS
  5
7
100
AcDbSymbolTable
 70
     0
  0
ENDTAB
  0
TABLE
  2
APPID
  5
9
100
AcDbSymbolTable
 70
     1
  0
APPID
  5
12
100
AcDbSymbolTableRecord
100
AcDbRegAppTableRecord
  2
ACAD
 70
     0
  0
ENDTAB
  0
TABLE
  2
DIMSTYLE
  5
A
100
AcDbSymbolTable
 70
     1
  0
DIMSTYLE
105
27
102
{ACAD_XDICTIONARY
360
6E6
102
}
100
AcDbSymbolTableRecord
100
AcDbDimStyleTableRecord
  2
ISO-25
 70
     0
  3

  4

  5

  6

  7

 40
1.0
 41
2.5
 42
0.625
 43
3.75
 44
1.25
 45
0.0
 46
0.0
 47
0.0
 48
0.0
140
2.5
141
2.5
142
0.0
143
0.03937
144
1.0
145
0.0
146
1.0
147
0.625
 71
     0
 72
     0
 73
     0
 74
     0
 75
     0
 76
     0
 77
     1
 78
     8
170
     0
171
     3
172
     1
173
     0
174
     0
175
     0
176
     0
177
     0
178
     0
270
     2
271
     2
272
     2
273
     2
274
     3
340
11
275
     0
280
     0
281
     0
282
     0
283
     0
284
     8
285
     0
286
     0
287
     3
288
     0
  0
ENDTAB
  0
TABLE
  2
BLOCK_RECORD
  5
1
100
AcDbSymbolTable
 70
     9
  0
BLOCK_RECORD
  5
1F
102
{ACAD_XDICTIONARY
360
6D3
102
}
100
AcDbSymbolTableRecord
100
AcDbBlockTableRecord
  2
*MODEL_SPACE
  0
BLOCK_RECORD
  5
1B
102
{ACAD_XDICTIONARY
360
6D1
102
}
100
AcDbSymbolTableRecord
100
AcDbBlockTableRecord
  2
*PAPER_SPACE
  0
BLOCK_RECORD
  5
23
102
{ACAD_XDICTIONARY
360
6D5
102
}
100
AcDbSymbolTableRecord
100
AcDbBlockTableRecord
  2
*PAPER_SPACE0
  0
BLOCK_RECORD
  5
16A
100
AcDbSymbolTableRecord
100
AcDbBlockTableRecord
  2
SW_CENTERMARKSYMBOL_0
  0
BLOCK_RECORD
  5
172
100
AcDbSymbolTableRecord
100
AcDbBlockTableRecord
  2
SW_CENTERMARKSYMBOL_1
  0
BLOCK_RECORD
  5
45E
100
AcDbSymbolTableRecord
100
AcDbBlockTableRecord
  2
SW_CENTERMARKSYMBOL_2
  0
BLOCK_RECORD
  5
466
100
AcDbSymbolTableRecord
100
AcDbBlockTableRecord
  2
SW_CENTERMARKSYMBOL_3
  0
BLOCK_RECORD
  5
4BB
100
AcDbSymbolTableRecord
100
AcDbBlockTableRecord
  2
SW_CENTERMARKSYMBOL_4
  0
BLOCK_RECORD
  5
4C3
100
AcDbSymbolTableRecord
100
AcDbBlockTableRecord
  2
SW_CENTERMARKSYMBOL_5
  0
BLOCK_RECORD
  5
69B
100
AcDbSymbolTableRecord
100
AcDbBlockTableRecord
  2
SW_CENTERMARKSYMBOL_6
  0
BLOCK_RECORD
  5
6A3
100
AcDbSymbolTableRecord
100
AcDbBlockTableRecord
  2
SW_CENTERMARKSYMBOL_7
  0
ENDTAB
  0
ENDSEC
  0
SECTION
  2
BLOCKS
  0
BLOCK
  5
20
100
AcDbEntity
  8
0
100
AcDbBlockBegin
  2
*MODEL_SPACE
 70
     0
 10
0.0
 20
0.0
 30
0.0
  3
*MODEL_SPACE
  1

  0
ENDBLK
  5
21
100
AcDbEntity
  8
0
100
AcDbBlockEnd
  0
BLOCK
  5
1C
100
AcDbEntity
 67
     1
  8
0
100
AcDbBlockBegin
  2
*PAPER_SPACE
 70
     0
 10
0.0
 20
0.0
 30
0.0
  3
*PAPER_SPACE
  1

  0
ENDBLK
  5
1D
100
AcDbEntity
 67
     1
  8
0
100
AcDbBlockEnd
  0
BLOCK
  5
24
100
AcDbEntity
  8
0
100
AcDbBlockBegin
  2
*PAPER_SPACE0
 70
     0
 10
0.0
 20
0.0
 30
0.0
  3
*PAPER_SPACE0
  1

  0
ENDBLK
  5
25
100
AcDbEntity
  8
0
100
AcDbBlockEnd
  0
BLOCK
  5
16B
100
AcDbEntity
  8
0
100
AcDbBlockBegin
  2
SW_CENTERMARKSYMBOL_0
 70
     0
 10
0.0
 20
0.0
 30
0.0
  3
SW_CENTERMARKSYMBOL_0
  1

  0
LINE
  5
16D
100
AcDbEntity
  8
0
  6
CONTINUOUS
 62
     7
100
AcDbLine
 10
0.0
 20
0.0
 30
0.0
 11
0.0
 21
0.5
 31
0.0
  0
LINE
  5
16E
100
AcDbEntity
  8
0
  6
CONTINUOUS
 62
     7
100
AcDbLine
 10
0.0
 20
0.0
 30
0.0
 11
-0.5
 21
0.0
 31
0.0
  0
LINE
  5
16F
100
AcDbEntity
  8
0
  6
CONTINUOUS
 62
     7
100
AcDbLine
 10
0.0
 20
0.0
 30
0.0
 11
0.0
 21
-0.5
 31
0.0
  0
LINE
  5
170
100
AcDbEntity
  8
0
  6
CONTINUOUS
 62
     7
100
AcDbLine
 10
0.0
 20
0.0
 30
0.0
 11
0.5
 21
0.0
 31
0.0
  0
ENDBLK
  5
16C
100
AcDbEntity
  8
0
100
AcDbBlockEnd
  0
BLOCK
  5
173
100
AcDbEntity
  8
0
100
AcDbBlockBegin
  2
SW_CENTERMARKSYMBOL_1
 70
     0
 10
0.0
 20
0.0
 30
0.0
  3
SW_CENTERMARKSYMBOL_1
  1

  0
LINE
  5
175
100
AcDbEntity
  8
0
  6
CONTINUOUS
 62
     7
100
AcDbLine
 10
0.0
 20
0.0
 30
0.0
 11
0.0
 21
0.5
 31
0.0
  0
LINE
  5
176
100
AcDbEntity
  8
0
  6
CONTINUOUS
 62
     7
100
AcDbLine
 10
0.0
 20
0.0
 30
0.0
 11
-0.5
 21
0.0
 31
0.0
  0
LINE
  5
177
100
AcDbEntity
  8
0
  6
CONTINUOUS
 62
     7
100
AcDbLine
 10
0.0
 20
0.0
 30
0.0
 11
0.0
 21
-0.5
 31
0.0
  0
LINE
  5
178
100
AcDbEntity
  8
0
  6
CONTINUOUS
 62
     7
100
AcDbLine
 10
0.0
 20
0.0
 30
0.0
 11
0.5
 21
0.0
 31
0.0
  0
ENDBLK
  5
174
100
AcDbEntity
  8
0
100
AcDbBlockEnd
  0
BLOCK
  5
45F
100
AcDbEntity
  8
0
100
AcDbBlockBegin
  2
SW_CENTERMARKSYMBOL_2
 70
     0
 10
0.0
 20
0.0
 30
0.0
  3
SW_CENTERMARKSYMBOL_2
  1

  0
LINE
  5
461
100
AcDbEntity
  8
0
  6
CONTINUOUS
 62
     7
100
AcDbLine
 10
0.0
 20
0.0
 30
0.0
 11
0.0
 21
0.5
 31
0.0
  0
LINE
  5
462
100
AcDbEntity
  8
0
  6
CONTINUOUS
 62
     7
100
AcDbLine
 10
0.0
 20
0.0
 30
0.0
 11
-0.5
 21
0.0
 31
0.0
  0
LINE
  5
463
100
AcDbEntity
  8
0
  6
CONTINUOUS
 62
     7
100
AcDbLine
 10
0.0
 20
0.0
 30
0.0
 11
0.0
 21
-0.5
 31
0.0
  0
LINE
  5
464
100
AcDbEntity
  8
0
  6
CONTINUOUS
 62
     7
100
AcDbLine
 10
0.0
 20
0.0
 30
0.0
 11
0.5
 21
0.0
 31
0.0
  0
ENDBLK
  5
460
100
AcDbEntity
  8
0
100
AcDbBlockEnd
  0
BLOCK
  5
467
100
AcDbEntity
  8
0
100
AcDbBlockBegin
  2
SW_CENTERMARKSYMBOL_3
 70
     0
 10
0.0
 20
0.0
 30
0.0
  3
SW_CENTERMARKSYMBOL_3
  1

  0
LINE
  5
469
100
AcDbEntity
  8
0
  6
CONTINUOUS
 62
     7
100
AcDbLine
 10
0.0
 20
0.0
 30
0.0
 11
0.0
 21
0.5
 31
0.0
  0
LINE
  5
46A
100
AcDbEntity
  8
0
  6
CONTINUOUS
 62
     7
100
AcDbLine
 10
0.0
 20
0.0
 30
0.0
 11
-0.5
 21
0.0
 31
0.0
  0
LINE
  5
46B
100
AcDbEntity
  8
0
  6
CONTINUOUS
 62
     7
100
AcDbLine
 10
0.0
 20
0.0
 30
0.0
 11
0.0
 21
-0.5
 31
0.0
  0
LINE
  5
46C
100
AcDbEntity
  8
0
  6
CONTINUOUS
 62
     7
100
AcDbLine
 10
0.0
 20
0.0
 30
0.0
 11
0.5
 21
0.0
 31
0.0
  0
ENDBLK
  5
468
100
AcDbEntity
  8
0
100
AcDbBlockEnd
  0
BLOCK
  5
4BC
100
AcDbEntity
  8
0
100
AcDbBlockBegin
  2
SW_CENTERMARKSYMBOL_4
 70
     0
 10
0.0
 20
0.0
 30
0.0
  3
SW_CENTERMARKSYMBOL_4
  1

  0
LINE
  5
4BE
100
AcDbEntity
  8
0
  6
CONTINUOUS
 62
     7
100
AcDbLine
 10
0.0
 20
0.0
 30
0.0
 11
0.0
 21
0.5
 31
0.0
  0
LINE
  5
4BF
100
AcDbEntity
  8
0
  6
CONTINUOUS
 62
     7
100
AcDbLine
 10
0.0
 20
0.0
 30
0.0
 11
-0.5
 21
0.0
 31
0.0
  0
LINE
  5
4C0
100
AcDbEntity
  8
0
  6
CONTINUOUS
 62
     7
100
AcDbLine
 10
0.0
 20
0.0
 30
0.0
 11
0.0
 21
-0.5
 31
0.0
  0
LINE
  5
4C1
100
AcDbEntity
  8
0
  6
CONTINUOUS
 62
     7
100
AcDbLine
 10
0.0
 20
0.0
 30
0.0
 11
0.5
 21
0.0
 31
0.0
  0
ENDBLK
  5
4BD
100
AcDbEntity
  8
0
100
AcDbBlockEnd
  0
BLOCK
  5
4C4
100
AcDbEntity
  8
0
100
AcDbBlockBegin
  2
SW_CENTERMARKSYMBOL_5
 70
     0
 10
0.0
 20
0.0
 30
0.0
  3
SW_CENTERMARKSYMBOL_5
  1

  0
LINE
  5
4C6
100
AcDbEntity
  8
0
  6
CONTINUOUS
 62
     7
100
AcDbLine
 10
0.0
 20
0.0
 30
0.0
 11
0.0
 21
0.5
 31
0.0
  0
LINE
  5
4C7
100
AcDbEntity
  8
0
  6
CONTINUOUS
 62
     7
100
AcDbLine
 10
0.0
 20
0.0
 30
0.0
 11
-0.5
 21
0.0
 31
0.0
  0
LINE
  5
4C8
100
AcDbEntity
  8
0
  6
CONTINUOUS
 62
     7
100
AcDbLine
 10
0.0
 20
0.0
 30
0.0
 11
0.0
 21
-0.5
 31
0.0
  0
LINE
  5
4C9
100
AcDbEntity
  8
0
  6
CONTINUOUS
 62
     7
100
AcDbLine
 10
0.0
 20
0.0
 30
0.0
 11
0.5
 21
0.0
 31
0.0
  0
ENDBLK
  5
4C5
100
AcDbEntity
  8
0
100
AcDbBlockEnd
  0
BLOCK
  5
69C
100
AcDbEntity
  8
0
100
AcDbBlockBegin
  2
SW_CENTERMARKSYMBOL_6
 70
     0
 10
0.0
 20
0.0
 30
0.0
  3
SW_CENTERMARKSYMBOL_6
  1

  0
LINE
  5
69E
100
AcDbEntity
  8
0
  6
CONTINUOUS
 62
     7
100
AcDbLine
 10
0.0
 20
0.0
 30
0.0
 11
0.0
 21
0.5
 31
0.0
  0
LINE
  5
69F
100
AcDbEntity
  8
0
  6
CONTINUOUS
 62
     7
100
AcDbLine
 10
0.0
 20
0.0
 30
0.0
 11
-0.5
 21
0.0
 31
0.0
  0
LINE
  5
6A0
100
AcDbEntity
  8
0
  6
CONTINUOUS
 62
     7
100
AcDbLine
 10
0.0
 20
0.0
 30
0.0
 11
0.0
 21
-0.5
 31
0.0
  0
LINE
  5
6A1
100
AcDbEntity
  8
0
  6
CONTINUOUS
 62
     7
100
AcDbLine
 10
0.0
 20
0.0
 30
0.0
 11
0.5
 21
0.0
 31
0.0
  0
ENDBLK
  5
69D
100
AcDbEntity
  8
0
100
AcDbBlockEnd
  0
BLOCK
  5
6A4
100
AcDbEntity
  8
0
100
AcDbBlockBegin
  2
SW_CENTERMARKSYMBOL_7
 70
     0
 10
0.0
 20
0.0
 30
0.0
  3
SW_CENTERMARKSYMBOL_7
  1

  0
LINE
  5
6A6
100
AcDbEntity
  8
0
  6
CONTINUOUS
 62
     7
100
AcDbLine
 10
0.0
 20
0.0
 30
0.0
 11
0.0
 21
0.5
 31
0.0
  0
LINE
  5
6A7
100
AcDbEntity
  8
0
  6
CONTINUOUS
 62
     7
100
AcDbLine
 10
0.0
 20
0.0
 30
0.0
 11
-0.5
 21
0.0
 31
0.0
  0
LINE
  5
6A8
100
AcDbEntity
  8
0
  6
CONTINUOUS
 62
     7
100
AcDbLine
 10
0.0
 20
0.0
 30
0.0
 11
0.0
 21
-0.5
 31
0.0
  0
LINE
  5
6A9
100
AcDbEntity
  8
0
  6
CONTINUOUS
 62
     7
100
AcDbLine
 10
0.0
 20
0.0
 30
0.0
 11
0.5
 21
0.0
 31
0.0
  0
ENDBLK
  5
6A5
100
AcDbEntity
  8
0
100
AcDbBlockEnd
  0
ENDSEC
  0
SECTION
  2
ENTITIES
  0
CIRCLE
  5
2F
100
AcDbEntity
  8
0
  6
CONTINUOUS
 62
     7
100
AcDbCircle
 10
275.218229
 20
572.239429
 30
0.0
 40
2.1
  0
CIRCLE
  5
30
100
AcDbEntity
  8
0
  6
CONTINUOUS
 62
     7
100
AcDbCircle
 10
275.218229
 20
572.239429
 30
0.0
 40
4.342777
  0
CIRCLE
  5
31
100
AcDbEntity
  8
0
  6
CONTINUOUS
 62
     7
100
AcDbCircle
 10
87.418229
 20
304.239429
 30
0.0
 40
2.1
  0
CIRCLE
  5
32
100
AcDbEntity
  8
0
  6
CONTINUOUS
 62
     7
100
AcDbCircle
 10
87.418229
 20
304.239429
 30
0.0
 40
4.342777
  0
CIRCLE
  5
33
100
AcDbEntity
  8
0
  6
CONTINUOUS
 62
     7
100
AcDbCircle
 10
87.418229
 20
304.239429
 30
0.0
 40
4.5
  0
CIRCLE
  5
34
100
AcDbEntity
  8
0
  6
CONTINUOUS
 62
     7
100
AcDbCircle
 10
275.218229
 20
304.239429
 30
0.0
 40
2.1
  0
CIRCLE
  5
35
100
AcDbEntity
  8
0
  6
CONTINUOUS
 62
     7
100
AcDbCircle
 10
275.218229
 20
304.239429
 30
0.0
 40
4.342777
  0
CIRCLE
  5
36
100
AcDbEntity
  8
0
  6
CONTINUOUS
 62
     7
100
AcDbCircle
 10
275.218229
 20
304.239429
 30
0.0
 40
4.5
  0
CIRCLE
  5
37
100
AcDbEntity
  8
0
  6
CONTINUOUS
 62
     7
100
AcDbCircle
 10
76.018229
 20
327.739429
 30
0.0
 40
2.0
  0
CIRCLE
  5
38
100
AcDbEntity
  8
0
  6
CONTINUOUS
 62
     7
100
AcDbCircle
 10
76.018229
 20
327.739429
 30
0.0
 40
1.982545
  0
CIRCLE
  5
39
100
AcDbEntity
  8
0
  6
CONTINUOUS
 62
     7
100
AcDbCircle
 10
258.818229
 20
559.539429
 30
0.0
 40
2.3
  0
CIRCLE
  5
3A
100
AcDbEntity
  8
0
  6
CONTINUOUS
 62
     7
100
AcDbCircle
 10
258.818229
 20
559.539429
 30
0.0
 40
2.247635
  0
CIRCLE
  5
3B
100
AcDbEntity
  8
0
  6
CONTINUOUS
 62
     7
100
AcDbCircle
 10
248.818229
 20
559.539429
 30
0.0
 40
2.3
  0
CIRCLE
  5
3C
100
AcDbEntity
  8
0
  6
CONTINUOUS
 62
     7
100
AcDbCircle
 10
248.818229
 20
559.539429
 30
0.0
 40
2.247635
  0
CIRCLE
  5
3D
100
AcDbEntity
  8
0
  6
CONTINUOUS
 62
     7
100
AcDbCircle
 10
113.818229
 20
559.539429
 30
0.0
 40
2.3
  0
CIRCLE
  5
3E
100
AcDbEntity
  8
0
  6
CONTINUOUS
 62
     7
100
AcDbCircle
 10
113.818229
 20
559.539429
 30
0.0
 40
2.247635
  0
CIRCLE
  5
3F
100
AcDbEntity
  8
0
  6
CONTINUOUS
 62
     7
100
AcDbCircle
 10
103.818229
 20
559.539429
 30
0.0
 40
2.3
  0
CIRCLE
  5
40
100
AcDbEntity
  8
0
  6
CONTINUOUS
 62
     7
100
AcDbCircle
 10
103.818229
 20
559.539429
 30
0.0
 40
2.247635
  0
CIRCLE
  5
41
100
AcDbEntity
  8
0
  6
CONTINUOUS
 62
     7
100
AcDbCircle
 10
103.818229
 20
316.939429
 30
0.0
 40
2.3
  0
CIRCLE
  5
42
100
AcDbEntity
  8
0
  6
CONTINUOUS
 62
     7
100
AcDbCircle
 10
103.818229
 20
316.939429
 30
0.0
 40
2.247635
  0
CIRCLE
  5
43
100
AcDbEntity
  8
0
  6
CONTINUOUS
 62
     7
100
AcDbCircle
 10
113.818229
 20
316.939429
 30
0.0
 40
2.3
  0
CIRCLE
  5
44
100
AcDbEntity
  8
0
  6
CONTINUOUS
 62
     7
100
AcDbCircle
 10
113.818229
 20
316.939429
 30
0.0
 40
2.247635
  0
CIRCLE
  5
45
100
AcDbEntity
  8
0
  6
CONTINUOUS
 62
     7
100
AcDbCircle
 10
248.818229
 20
316.939429
 30
0.0
 40
2.3
  0
CIRCLE
  5
46
100
AcDbEntity
  8
0
  6
CONTINUOUS
 62
     7
100
AcDbCircle
 10
248.818229
 20
316.939429
 30
0.0
 40
2.247635
  0
CIRCLE
  5
47
100
AcDbEntity
  8
0
  6
CONTINUOUS
 62
     7
100
AcDbCircle
 10
258.818229
 20
316.939429
 30
0.0
 40
2.3
  0
CIRCLE
  5
48
100
AcDbEntity
  8
0
  6
CONTINUOUS
 62
     7
100
AcDbCircle
 10
258.818229
 20
316.939429
 30
0.0
 40
2.247635
  0
CIRCLE
  5
49
100
AcDbEntity
  8
0
  6
CONTINUOUS
 62
     7
100
AcDbCircle
 10
277.618229
 20
553.739429
 30
0.0
 40
2.3
  0
CIRCLE
  5
4A
100
AcDbEntity
  8
0
  6
CONTINUOUS
 62
     7
100
AcDbCircle
 10
277.618229
 20
553.739429
 30
0.0
 40
2.247635
  0
CIRCLE
  5
4B
100
AcDbEntity
  8
0
  6
CONTINUOUS
 62
     7
100
AcDbCircle
 10
277.618229
 20
543.739429
 30
0.0
 40
2.3
  0
CIRCLE
  5
4C
100
AcDbEntity
  8
0
  6
CONTINUOUS
 62
     7
100
AcDbCircle
 10
277.618229
 20
543.739429
 30
0.0
 40
2.247635
  0
CIRCLE
  5
4D
100
AcDbEntity
  8
0
  6
CONTINUOUS
 62
     7
100
AcDbCircle
 10
277.618229
 20
332.739429
 30
0.0
 40
2.3
  0
CIRCLE
  5
4E
100
AcDbEntity
  8
0
  6
CONTINUOUS
 62
     7
100
AcDbCircle
 10
277.618229
 20
332.739429
 30
0.0
 40
2.247635
  0
CIRCLE
  5
4F
100
AcDbEntity
  8
0
  6
CONTINUOUS
 62
     7
100
AcDbCircle
 10
277.618229
 20
322.739429
 30
0.0
 40
2.3
  0
CIRCLE
  5
50
100
AcDbEntity
  8
0
  6
CONTINUOUS
 62
     7
100
AcDbCircle
 10
277.618229
 20
322.739429
 30
0.0
 40
2.247635
  0
CIRCLE
  5
51
100
AcDbEntity
  8
0
  6
CONTINUOUS
 62
     7
100
AcDbCircle
 10
85.018229
 20
322.739429
 30
0.0
 40
2.3
  0
CIRCLE
  5
52
100
AcDbEntity
  8
0
  6
CONTINUOUS
 62
     7
100
AcDbCircle
 10
85.018229
 20
322.739429
 30
0.0
 40
2.247635
  0
CIRCLE
  5
53
100
AcDbEntity
  8
0
  6
CONTINUOUS
 62
     7
100
AcDbCircle
 10
85.018229
 20
332.739429
 30
0.0
 40
2.3
  0
CIRCLE
  5
54
100
AcDbEntity
  8
0
  6
CONTINUOUS
 62
     7
100
AcDbCircle
 10
85.018229
 20
332.739429
 30
0.0
 40
2.247635
  0
CIRCLE
  5
55
100
AcDbEntity
  8
0
  6
CONTINUOUS
 62
     7
100
AcDbCircle
 10
85.018229
 20
543.739429
 30
0.0
 40
2.3
  0
CIRCLE
  5
56
100
AcDbEntity
  8
0
  6
CONTINUOUS
 62
     7
100
AcDbCircle
 10
85.018229
 20
543.739429
 30
0.0
 40
2.247635
  0
CIRCLE
  5
57
100
AcDbEntity
  8
0
  6
CONTINUOUS
 62
     7
100
AcDbCircle
 10
85.018229
 20
553.739429
 30
0.0
 40
2.3
  0
CIRCLE
  5
58
100
AcDbEntity
  8
0
  6
CONTINUOUS
 62
     7
100
AcDbCircle
 10
85.018229
 20
553.739429
 30
0.0
 40
2.247635
  0
CIRCLE
  5
59
100
AcDbEntity
  8
0
  6
CONTINUOUS
 62
     7
100
AcDbCircle
 10
108.818229
 20
307.939429
 30
0.0
 40
3.25
  0
CIRCLE
  5
5A
100
AcDbEntity
  8
0
  6
CONTINUOUS
 62
     7
100
AcDbCircle
 10
108.818229
 20
307.939429
 30
0.0
 40
2.0
  0
CIRCLE
  5
5B
100
AcDbEntity
  8
0
  6
CONTINUOUS
 62
     7
100
AcDbCircle
 10
108.818229
 20
307.939429
 30
0.0
 40
1.982545
  0
CIRCLE
  5
5C
100
AcDbEntity
  8
0
  6
CONTINUOUS
 62
     7
100
AcDbCircle
 10
286.618229
 20
548.739429
 30
0.0
 40
2.0
  0
CIRCLE
  5
5D
100
AcDbEntity
  8
0
  6
CONTINUOUS
 62
     7
100
AcDbCircle
 10
286.618229
 20
548.739429
 30
0.0
 40
3.25
  0
CIRCLE
  5
5E
100
AcDbEntity
  8
0
  6
CONTINUOUS
 62
     7
100
AcDbCircle
 10
253.818229
 20
568.539429
 30
0.0
 40
2.0
  0
CIRCLE
  5
5F
100
AcDbEntity
  8
0
  6
CONTINUOUS
 62
     7
100
AcDbCircle
 10
253.818229
 20
568.539429
 30
0.0
 40
3.25
  0
CIRCLE
  5
60
100
AcDbEntity
  8
0
  6
CONTINUOUS
 62
     7
100
AcDbCircle
 10
108.818229
 20
568.539429
 30
0.0
 40
2.0
  0
CIRCLE
  5
61
100
AcDbEntity
  8
0
  6
CONTINUOUS
 62
     7
100
AcDbCircle
 10
108.818229
 20
568.539429
 30
0.0
 40
3.25
  0
CIRCLE
  5
62
100
AcDbEntity
  8
0
  6
CONTINUOUS
 62
     7
100
AcDbCircle
 10
76.018229
 20
548.739429
 30
0.0
 40
2.0
  0
CIRCLE
  5
63
100
AcDbEntity
  8
0
  6
CONTINUOUS
 62
     7
100
AcDbCircle
 10
76.018229
 20
548.739429
 30
0.0
 40
3.25
  0
CIRCLE
  5
64
100
AcDbEntity
  8
0
  6
CONTINUOUS
 62
     7
100
AcDbCircle
 10
76.018229
 20
327.739429
 30
0.0
 40
3.25
  0
LINE
  5
65
100
AcDbEntity
  8
0
  6
CONTINUOUS
 62
     7
100
AcDbLine
 10
294.818229
 20
582.739429
 30
0.0
 11
280.368229
 21
582.739429
 31
0.0
  0
ARC
  5
66
100
AcDbEntity
  8
0
  6
CONTINUOUS
 62
     7
100
AcDbCircle
 10
294.818229
 20
576.739429
 30
0.0
 40
6.0
100
AcDbArc
 50
0.0
 51
90.0
  0
LINE
  5
67
100
AcDbEntity
  8
0
  6
CONTINUOUS
 62
     7
100
AcDbLine
 10
300.818229
 20
564.289429
 30
0.0
 11
300.818229
 21
576.739429
 31
0.0
  0
LINE
  5
68
100
AcDbEntity
  8
0
  6
CONTINUOUS
 62
     7
100
AcDbLine
 10
275.799749
 20
578.170958
 30
0.0
 11
277.109062
 21
576.861638
 31
0.0
  0
LINE
  5
69
100
AcDbEntity
  8
0
  6
CONTINUOUS
 62
     7
100
AcDbLine
 10
277.109062
 20
576.861638
 30
0.0
 11
280.686846
 21
580.439422
 31
0.0
  0
LINE
  5
6A
100
AcDbEntity
  8
0
  6
CONTINUOUS
 62
     7
100
AcDbLine
 10
294.74975
 20
561.473641
 30
0.0
 11
296.249753
 21
559.720952
 31
0.0
  0
LINE
  5
6B
100
AcDbEntity
  8
0
  6
CONTINUOUS
 62
     7
100
AcDbLine
 10
296.249753
 20
559.720952
 30
0.0
 11
300.818229
 21
564.289429
 31
0.0
  0
ARC
  5
6C
100
AcDbEntity
  8
0
  6
CONTINUOUS
 62
     7
100
AcDbCircle
 10
294.818229
 20
576.739429
 30
0.0
 40
3.7
100
AcDbArc
 50
0.0
 51
90.0
  0
LINE
  5
6D
100
AcDbEntity
  8
0
  6
CONTINUOUS
 62
     7
100
AcDbLine
 10
298.518229
 20
576.739429
 30
0.0
 11
298.518231
 21
565.242115
 31
0.0
  0
LINE
  5
6E
100
AcDbEntity
  8
0
  6
CONTINUOUS
 62
     7
100
AcDbLine
 10
280.686846
 20
580.439422
 30
0.0
 11
294.818229
 21
580.439429
 31
0.0
  0
LINE
  5
6F
100
AcDbEntity
  8
0
  6
CONTINUOUS
 62
     7
100
AcDbLine
 10
298.518231
 20
565.242115
 30
0.0
 11
294.74975
 21
561.473641
 31
0.0
  0
LINE
  5
70
100
AcDbEntity
  8
0
  6
CONTINUOUS
 62
     7
100
AcDbLine
 10
280.368229
 20
582.739429
 30
0.0
 11
275.799749
 21
578.170958
 31
0.0
  0
CIRCLE
  5
71
100
AcDbEntity
  8
0
  6
CONTINUOUS
 62
     7
100
AcDbCircle
 10
253.818229
 20
307.939429
 30
0.0
 40
2.0
  0
CIRCLE
  5
72
100
AcDbEntity
  8
0
  6
CONTINUOUS
 62
     7
100
AcDbCircle
 10
253.818229
 20
307.939429
 30
0.0
 40
3.25
  0
CIRCLE
  5
73
100
AcDbEntity
  8
0
  6
CONTINUOUS
 62
     7
100
AcDbCircle
 10
286.618229
 20
327.739429
 30
0.0
 40
2.0
  0
CIRCLE
  5
74
100
AcDbEntity
  8
0
  6
CONTINUOUS
 62
     7
100
AcDbCircle
 10
286.618229
 20
327.739429
 30
0.0
 40
3.25
  0
CIRCLE
  5
75
100
AcDbEntity
  8
0
  6
CONTINUOUS
 62
     7
100
AcDbCircle
 10
253.818229
 20
307.939429
 30
0.0
 40
1.982545
  0
CIRCLE
  5
76
100
AcDbEntity
  8
0
  6
CONTINUOUS
 62
     7
100
AcDbCircle
 10
275.218229
 20
572.239429
 30
0.0
 40
4.5
  0
CIRCLE
  5
77
100
AcDbEntity
  8
0
  6
CONTINUOUS
 62
     7
100
AcDbCircle
 10
286.618229
 20
327.739429
 30
0.0
 40
1.982545
  0
CIRCLE
  5
78
100
AcDbEntity
  8
0
  6
CONTINUOUS
 62
     7
100
AcDbCircle
 10
286.618229
 20
548.739429
 30
0.0
 40
1.982545
  0
CIRCLE
  5
79
100
AcDbEntity
  8
0
  6
CONTINUOUS
 62
     7
100
AcDbCircle
 10
253.818229
 20
568.539429
 30
0.0
 40
1.982545
  0
CIRCLE
  5
7A
100
AcDbEntity
  8
0
  6
CONTINUOUS
 62
     7
100
AcDbCircle
 10
108.818229
 20
568.539429
 30
0.0
 40
1.982545
  0
CIRCLE
  5
7B
100
AcDbEntity
  8
0
  6
CONTINUOUS
 62
     7
100
AcDbCircle
 10
76.018229
 20
548.739429
 30
0.0
 40
1.982545
  0
LINE
  5
7C
100
AcDbEntity
  8
0
  6
CONTINUOUS
 62
     7
100
AcDbLine
 10
85.527396
 20
299.617219
 30
0.0
 11
81.949612
 21
296.039436
 31
0.0
  0
LINE
  5
7D
100
AcDbEntity
  8
0
  6
CONTINUOUS
 62
     7
100
AcDbLine
 10
86.836708
 20
298.307899
 30
0.0
 11
85.527396
 21
299.617219
 31
0.0
  0
LINE
  5
7E
100
AcDbEntity
  8
0
  6
CONTINUOUS
 62
     7
100
AcDbLine
 10
67.818229
 20
293.739429
 30
0.0
 11
82.268229
 21
293.739429
 31
0.0
  0
ARC
  5
7F
100
AcDbEntity
  8
0
  6
CONTINUOUS
 62
     7
100
AcDbCircle
 10
67.818229
 20
299.739429
 30
0.0
 40
6.0
100
AcDbArc
 50
180.0
 51
270.0
  0
LINE
  5
80
100
AcDbEntity
  8
0
  6
CONTINUOUS
 62
     7
100
AcDbLine
 10
82.268229
 20
293.739429
 30
0.0
 11
86.836708
 21
298.307899
 31
0.0
  0
LINE
  5
81
100
AcDbEntity
  8
0
  6
CONTINUOUS
 62
     7
100
AcDbLine
 10
61.818229
 20
312.189429
 30
0.0
 11
61.818229
 21
299.739429
 31
0.0
  0
LINE
  5
82
100
AcDbEntity
  8
0
  6
CONTINUOUS
 62
     7
100
AcDbLine
 10
67.886708
 20
315.005216
 30
0.0
 11
66.386705
 21
316.757906
 31
0.0
  0
LINE
  5
83
100
AcDbEntity
  8
0
  6
CONTINUOUS
 62
     7
100
AcDbLine
 10
66.386705
 20
316.757906
 30
0.0
 11
61.818229
 21
312.189429
 31
0.0
  0
ARC
  5
84
100
AcDbEntity
  8
0
  6
CONTINUOUS
 62
     7
100
AcDbCircle
 10
67.818229
 20
299.739429
 30
0.0
 40
3.7
100
AcDbArc
 50
180.0
 51
270.0
  0
LINE
  5
85
100
AcDbEntity
  8
0
  6
CONTINUOUS
 62
     7
100
AcDbLine
 10
64.118229
 20
299.739429
 30
0.0
 11
64.118227
 21
311.236742
 31
0.0
  0
LINE
  5
86
100
AcDbEntity
  8
0
  6
CONTINUOUS
 62
     7
100
AcDbLine
 10
81.949612
 20
296.039436
 30
0.0
 11
67.818229
 21
296.039429
 31
0.0
  0
LINE
  5
87
100
AcDbEntity
  8
0
  6
CONTINUOUS
 62
     7
100
AcDbLine
 10
64.118227
 20
311.236742
 30
0.0
 11
67.886708
 21
315.005216
 31
0.0
  0
LINE
  5
88
100
AcDbEntity
  8
0
  6
CONTINUOUS
 62
     7
100
AcDbLine
 10
82.268229
 20
582.739429
 30
0.0
 11
67.818229
 21
582.739429
 31
0.0
  0
ARC
  5
89
100
AcDbEntity
  8
0
  6
CONTINUOUS
 62
     7
100
AcDbCircle
 10
67.818229
 20
576.739429
 30
0.0
 40
3.7
100
AcDbArc
 50
90.0
 51
180.0
  0
LINE
  5
8A
100
AcDbEntity
  8
0
  6
CONTINUOUS
 62
     7
100
AcDbLine
 10
64.118227
 20
565.242115
 30
0.0
 11
64.118229
 21
576.739429
 31
0.0
  0
LINE
  5
8B
100
AcDbEntity
  8
0
  6
CONTINUOUS
 62
     7
100
AcDbLine
 10
67.886708
 20
561.473641
 30
0.0
 11
64.118227
 21
565.242115
 31
0.0
  0
ARC
  5
8C
100
AcDbEntity
  8
0
  6
CONTINUOUS
 62
     7
100
AcDbCircle
 10
67.818229
 20
576.739429
 30
0.0
 40
6.0
100
AcDbArc
 50
90.0
 51
180.0
  0
LINE
  5
8D
100
AcDbEntity
  8
0
  6
CONTINUOUS
 62
     7
100
AcDbLine
 10
81.949612
 20
580.439422
 30
0.0
 11
85.527396
 21
576.861638
 31
0.0
  0
LINE
  5
8E
100
AcDbEntity
  8
0
  6
CONTINUOUS
 62
     7
100
AcDbLine
 10
61.818229
 20
576.739429
 30
0.0
 11
61.818229
 21
564.289429
 31
0.0
  0
LINE
  5
8F
100
AcDbEntity
  8
0
  6
CONTINUOUS
 62
     7
100
AcDbLine
 10
67.818229
 20
580.439429
 30
0.0
 11
81.949612
 21
580.439422
 31
0.0
  0
LINE
  5
90
100
AcDbEntity
  8
0
  6
CONTINUOUS
 62
     7
100
AcDbLine
 10
85.527396
 20
576.861638
 30
0.0
 11
86.836708
 21
578.170958
 31
0.0
  0
LINE
  5
91
100
AcDbEntity
  8
0
  6
CONTINUOUS
 62
     7
100
AcDbLine
 10
61.818229
 20
564.289429
 30
0.0
 11
66.386705
 21
559.720952
 31
0.0
  0
LINE
  5
92
100
AcDbEntity
  8
0
  6
CONTINUOUS
 62
     7
100
AcDbLine
 10
66.386705
 20
559.720952
 30
0.0
 11
67.886708
 21
561.473641
 31
0.0
  0
LINE
  5
93
100
AcDbEntity
  8
0
  6
CONTINUOUS
 62
     7
100
AcDbLine
 10
86.836708
 20
578.170958
 30
0.0
 11
82.268229
 21
582.739429
 31
0.0
  0
CIRCLE
  5
94
100
AcDbEntity
  8
0
  6
CONTINUOUS
 62
     7
100
AcDbCircle
 10
87.418229
 20
572.239429
 30
0.0
 40
4.342777
  0
CIRCLE
  5
95
100
AcDbEntity
  8
0
  6
CONTINUOUS
 62
     7
100
AcDbCircle
 10
87.418229
 20
572.239429
 30
0.0
 40
2.1
  0
LINE
  5
96
100
AcDbEntity
  8
0
  6
CONTINUOUS
 62
     7
100
AcDbLine
 10
280.368229
 20
293.739429
 30
0.0
 11
294.818229
 21
293.739429
 31
0.0
  0
LINE
  5
97
100
AcDbEntity
  8
0
  6
CONTINUOUS
 62
     7
100
AcDbLine
 10
275.799749
 20
298.307899
 30
0.0
 11
280.368229
 21
293.739429
 31
0.0
  0
LINE
  5
98
100
AcDbEntity
  8
0
  6
CONTINUOUS
 62
     7
100
AcDbLine
 10
294.74975
 20
315.005216
 30
0.0
 11
298.518231
 21
311.236742
 31
0.0
  0
LINE
  5
99
100
AcDbEntity
  8
0
  6
CONTINUOUS
 62
     7
100
AcDbLine
 10
300.818229
 20
312.189429
 30
0.0
 11
296.249753
 21
316.757906
 31
0.0
  0
LINE
  5
9A
100
AcDbEntity
  8
0
  6
CONTINUOUS
 62
     7
100
AcDbLine
 10
300.818229
 20
299.739429
 30
0.0
 11
300.818229
 21
312.189429
 31
0.0
  0
ARC
  5
9B
100
AcDbEntity
  8
0
  6
CONTINUOUS
 62
     7
100
AcDbCircle
 10
294.818229
 20
299.739429
 30
0.0
 40
6.0
100
AcDbArc
 50
270.0
 51
0.0
  0
LINE
  5
9C
100
AcDbEntity
  8
0
  6
CONTINUOUS
 62
     7
100
AcDbLine
 10
277.109062
 20
299.617219
 30
0.0
 11
275.799749
 21
298.307899
 31
0.0
  0
ARC
  5
9D
100
AcDbEntity
  8
0
  6
CONTINUOUS
 62
     7
100
AcDbCircle
 10
294.818229
 20
299.739429
 30
0.0
 40
3.7
100
AcDbArc
 50
270.0
 51
0.0
  0
LINE
  5
9E
100
AcDbEntity
  8
0
  6
CONTINUOUS
 62
     7
100
AcDbLine
 10
298.518231
 20
311.236742
 30
0.0
 11
298.518229
 21
299.739429
 31
0.0
  0
LINE
  5
9F
100
AcDbEntity
  8
0
  6
CONTINUOUS
 62
     7
100
AcDbLine
 10
280.686846
 20
296.039436
 30
0.0
 11
277.109062
 21
299.617219
 31
0.0
  0
LINE
  5
A0
100
AcDbEntity
  8
0
  6
CONTINUOUS
 62
     7
100
AcDbLine
 10
296.249753
 20
316.757906
 30
0.0
 11
294.74975
 21
315.005216
 31
0.0
  0
LINE
  5
A1
100
AcDbEntity
  8
0
  6
CONTINUOUS
 62
     7
100
AcDbLine
 10
294.818229
 20
296.039429
 30
0.0
 11
280.686846
 21
296.039436
 31
0.0
  0
CIRCLE
  5
A2
100
AcDbEntity
  8
0
  6
CONTINUOUS
 62
     7
100
AcDbCircle
 10
87.418229
 20
572.239429
 30
0.0
 40
4.5
  0
CIRCLE
  5
A3
100
AcDbEntity
  8
0
  6
CONTINUOUS
 62
     7
100
AcDbCircle
 10
241.318229
 20
538.239429
 30
0.0
 40
10.266216
  0
CIRCLE
  5
A4
100
AcDbEntity
  8
0
  6
CONTINUOUS
 62
     7
100
AcDbCircle
 10
241.318229
 20
338.239429
 30
0.0
 40
10.266216
  0
ARC
  5
A5
100
AcDbEntity
  8
0
  6
CONTINUOUS
 62
     7
100
AcDbCircle
 10
241.318229
 20
538.239429
 30
0.0
 40
10.309853
100
AcDbArc
 50
325.938725
 51
318.061275
  0
ELLIPSE
  5
A6
100
AcDbEntity
  8
0
  6
CONTINUOUS
 62
     7
100
AcDbEllipse
 10
241.064967
 20
538.437298
 30
0.0
 11
8.376973738458701
 21
-6.544809175483833
 31
0.0
210
0.0
220
0.0
230
1.0
 40
0.999543
 41
6.216487898348938
 42
6.349882716010531
  0
ELLIPSE
  5
A7
100
AcDbEntity
  8
0
  6
CONTINUOUS
 62
     7
100
AcDbEllipse
 10
121.57149
 20
538.437298
 30
0.0
 11
8.376973738459129
 21
6.544809175483409
 31
0.0
210
0.0
220
0.0
230
1.0
 40
0.999543
 41
3.07489524475903
 42
3.208290062420421
  0
ARC
  5
A8
100
AcDbEntity
  8
0
  6
CONTINUOUS
 62
     7
100
AcDbCircle
 10
121.318229
 20
538.239429
 30
0.0
 40
10.309853
100
AcDbArc
 50
221.938725
 51
214.061275
  0
CIRCLE
  5
A9
100
AcDbEntity
  8
0
  6
CONTINUOUS
 62
     7
100
AcDbCircle
 10
121.318229
 20
538.239429
 30
0.0
 40
10.266216
  0
CIRCLE
  5
AA
100
AcDbEntity
  8
0
  6
CONTINUOUS
 62
     7
100
AcDbCircle
 10
121.318229
 20
338.239429
 30
0.0
 40
10.266216
  0
ARC
  5
AB
100
AcDbEntity
  8
0
  6
CONTINUOUS
 62
     7
100
AcDbCircle
 10
121.318229
 20
338.239429
 30
0.0
 40
10.309853
100
AcDbArc
 50
145.938725
 51
138.061275
  0
ELLIPSE
  5
AC
100
AcDbEntity
  8
0
  6
CONTINUOUS
 62
     7
100
AcDbEllipse
 10
121.57149
 20
338.041559
 30
0.0
 11
8.376973738459836
 21
-6.544809175482412
 31
0.0
210
0.0
220
0.0
230
1.0
 40
0.999543
 41
3.074895244758997
 42
3.208290062420526
  0
ELLIPSE
  5
AD
100
AcDbEntity
  8
0
  6
CONTINUOUS
 62
     7
100
AcDbEllipse
 10
241.064967
 20
338.041559
 30
0.0
 11
8.376973738459128
 21
6.544809175483337
 31
0.0
210
0.0
220
0.0
230
1.0
 40
0.999543
 41
6.216487898348789
 42
6.34988271601027
  0
ARC
  5
AE
100
AcDbEntity
  8
0
  6
CONTINUOUS
 62
     7
100
AcDbCircle
 10
241.318229
 20
338.239429
 30
0.0
 40
10.309853
100
AcDbArc
 50
41.938725
 51
34.061275
  0
CIRCLE
  5
AF
100
AcDbEntity
  8
0
  6
CONTINUOUS
 62
     7
100
AcDbCircle
 10
76.018229
 20
327.739429
 30
0.0
 40
1.6
  0
CIRCLE
  5
B0
100
AcDbEntity
  8
0
  6
CONTINUOUS
 62
     7
100
AcDbCircle
 10
253.818229
 20
307.939429
 30
0.0
 40
1.6
  0
CIRCLE
  5
B1
100
AcDbEntity
  8
0
  6
CONTINUOUS
 62
     7
100
AcDbCircle
 10
76.018229
 20
548.739429
 30
0.0
 40
1.558548
  0
CIRCLE
  5
B2
100
AcDbEntity
  8
0
  6
CONTINUOUS
 62
     7
100
AcDbCircle
 10
76.018229
 20
548.739429
 30
0.0
 40
1.6
  0
CIRCLE
  5
B3
100
AcDbEntity
  8
0
  6
CONTINUOUS
 62
     7
100
AcDbCircle
 10
286.618229
 20
548.739429
 30
0.0
 40
1.558548
  0
CIRCLE
  5
B4
100
AcDbEntity
  8
0
  6
CONTINUOUS
 62
     7
100
AcDbCircle
 10
286.618229
 20
548.739429
 30
0.0
 40
1.6
  0
ARC
  5
B5
100
AcDbEntity
  8
0
  6
CONTINUOUS
 62
     7
100
AcDbCircle
 10
253.818229
 20
307.939429
 30
0.0
 40
1.581238
100
AcDbArc
 50
98.183456
 51
184.496927
  0
ARC
  5
B6
100
AcDbEntity
  8
0
  6
CONTINUOUS
 62
     7
100
AcDbCircle
 10
253.818229
 20
307.939429
 30
0.0
 40
1.558548
100
AcDbArc
 50
184.032449
 51
98.647935
  0
CIRCLE
  5
B7
100
AcDbEntity
  8
0
  6
CONTINUOUS
 62
     7
100
AcDbCircle
 10
108.818229
 20
307.939429
 30
0.0
 40
1.6
  0
ARC
  5
B8
100
AcDbEntity
  8
0
  6
CONTINUOUS
 62
     7
100
AcDbCircle
 10
253.818229
 20
568.539429
 30
0.0
 40
1.581238
100
AcDbArc
 50
175.503073
 51
261.816544
  0
ARC
  5
B9
100
AcDbEntity
  8
0
  6
CONTINUOUS
 62
     7
100
AcDbCircle
 10
253.818229
 20
568.539429
 30
0.0
 40
1.558548
100
AcDbArc
 50
261.352065
 51
175.967551
  0
CIRCLE
  5
BA
100
AcDbEntity
  8
0
  6
CONTINUOUS
 62
     7
100
AcDbCircle
 10
253.818229
 20
568.539429
 30
0.0
 40
1.6
  0
CIRCLE
  5
BB
100
AcDbEntity
  8
0
  6
CONTINUOUS
 62
     7
100
AcDbCircle
 10
286.618229
 20
327.739429
 30
0.0
 40
1.558548
  0
CIRCLE
  5
BC
100
AcDbEntity
  8
0
  6
CONTINUOUS
 62
     7
100
AcDbCircle
 10
286.618229
 20
327.739429
 30
0.0
 40
1.6
  0
ARC
  5
BD
100
AcDbEntity
  8
0
  6
CONTINUOUS
 62
     7
100
AcDbCircle
 10
108.818229
 20
307.939429
 30
0.0
 40
1.581238
100
AcDbArc
 50
355.503073
 51
81.816544
  0
ARC
  5
BE
100
AcDbEntity
  8
0
  6
CONTINUOUS
 62
     7
100
AcDbCircle
 10
108.818229
 20
307.939429
 30
0.0
 40
1.558548
100
AcDbArc
 50
81.352065
 51
355.967551
  0
CIRCLE
  5
BF
100
AcDbEntity
  8
0
  6
CONTINUOUS
 62
     7
100
AcDbCircle
 10
76.018229
 20
327.739429
 30
0.0
 40
1.558548
  0
CIRCLE
  5
C0
100
AcDbEntity
  8
0
  6
CONTINUOUS
 62
     7
100
AcDbCircle
 10
108.818229
 20
568.539429
 30
0.0
 40
1.6
  0
ARC
  5
C1
100
AcDbEntity
  8
0
  6
CONTINUOUS
 62
     7
100
AcDbCircle
 10
108.818229
 20
568.539429
 30
0.0
 40
1.581238
100
AcDbArc
 50
278.183456
 51
4.496927
  0
ARC
  5
C2
100
AcDbEntity
  8
0
  6
CONTINUOUS
 62
     7
100
AcDbCircle
 10
108.818229
 20
568.539429
 30
0.0
 40
1.558548
100
AcDbArc
 50
4.032449
 51
278.647935
  0
CIRCLE
  5
C3
100
AcDbEntity
  8
0
  6
CONTINUOUS
 62
     7
100
AcDbCircle
 10
76.018229
 20
327.739429
 30
0.0
 40
5.0
  0
CIRCLE
  5
C4
100
AcDbEntity
  8
0
  6
CONTINUOUS
 62
     7
100
AcDbCircle
 10
76.018229
 20
327.739429
 30
0.0
 40
4.947592
  0
CIRCLE
  5
C5
100
AcDbEntity
  8
0
  6
CONTINUOUS
 62
     7
100
AcDbCircle
 10
76.018229
 20
548.739429
 30
0.0
 40
5.0
  0
CIRCLE
  5
C6
100
AcDbEntity
  8
0
  6
CONTINUOUS
 62
     7
100
AcDbCircle
 10
76.018229
 20
548.739429
 30
0.0
 40
4.947592
  0
CIRCLE
  5
C7
100
AcDbEntity
  8
0
  6
CONTINUOUS
 62
     7
100
AcDbCircle
 10
253.818229
 20
568.539429
 30
0.0
 40
5.0
  0
CIRCLE
  5
C8
100
AcDbEntity
  8
0
  6
CONTINUOUS
 62
     7
100
AcDbCircle
 10
253.818229
 20
568.539429
 30
0.0
 40
4.947592
  0
LINE
  5
C9
100
AcDbEntity
  8
0
  6
CONTINUOUS
 62
     7
100
AcDbLine
 10
95.506845
 20
333.965171
 30
0.0
 11
176.974824
 21
438.239429
 31
0.0
  0
LINE
  5
CA
100
AcDbEntity
  8
0
  6
CONTINUOUS
 62
     7
100
AcDbLine
 10
95.506845
 20
333.965171
 30
0.0
 11
95.051887
 21
334.320623
 31
0.0
  0
LINE
  5
CB
100
AcDbEntity
  8
0
  6
CONTINUOUS
 62
     7
100
AcDbLine
 10
95.051887
 20
334.320623
 30
0.0
 11
176.242156
 21
438.239429
 31
0.0
  0
LINE
  5
CC
100
AcDbEntity
  8
0
  6
CONTINUOUS
 62
     7
100
AcDbLine
 10
176.242156
 20
438.239429
 30
0.0
 11
176.974824
 21
438.239429
 31
0.0
  0
LINE
  5
CD
100
AcDbEntity
  8
0
  6
CONTINUOUS
 62
     7
100
AcDbLine
 10
100.901014
 20
329.750783
 30
0.0
 11
101.355973
 21
329.395331
 31
0.0
  0
LINE
  5
CE
100
AcDbEntity
  8
0
  6
CONTINUOUS
 62
     7
100
AcDbLine
 10
181.318229
 20
432.680124
 30
0.0
 11
100.901014
 21
329.750783
 31
0.0
  0
LINE
  5
CF
100
AcDbEntity
  8
0
  6
CONTINUOUS
 62
     7
100
AcDbLine
 10
181.318229
 20
432.680124
 30
0.0
 11
181.318229
 21
431.742351
 31
0.0
  0
LINE
  5
D0
100
AcDbEntity
  8
0
  6
CONTINUOUS
 62
     7
100
AcDbLine
 10
181.318229
 20
431.742351
 30
0.0
 11
113.649141
 21
345.129869
 31
0.0
  0
LINE
  5
D1
100
AcDbEntity
  8
0
  6
CONTINUOUS
 62
     7
100
AcDbLine
 10
112.777143
 20
344.013763
 30
0.0
 11
101.355973
 21
329.395331
 31
0.0
  0
LINE
  5
D2
100
AcDbEntity
  8
0
  6
CONTINUOUS
 62
     7
100
AcDbLine
 10
100.901014
 20
546.728074
 30
0.0
 11
101.355973
 21
547.083526
 31
0.0
  0
ARC
  5
D3
100
AcDbEntity
  8
0
  6
CONTINUOUS
 62
     7
100
AcDbCircle
 10
98.20393
 20
544.62088
 30
0.0
 40
3.42265
100
AcDbArc
 50
38.0
 51
218.0
  0
LINE
  5
D4
100
AcDbEntity
  8
0
  6
CONTINUOUS
 62
     7
100
AcDbLine
 10
95.506845
 20
542.513687
 30
0.0
 11
95.051887
 21
542.158235
 31
0.0
  0
ARC
  5
D5
100
AcDbEntity
  8
0
  6
CONTINUOUS
 62
     7
100
AcDbCircle
 10
98.20393
 20
544.62088
 30
0.0
 40
4.0
100
AcDbArc
 50
38.0
 51
218.0
  0
CIRCLE
  5
D6
100
AcDbEntity
  8
0
  6
CONTINUOUS
 62
     7
100
AcDbCircle
 10
286.618229
 20
548.739429
 30
0.0
 40
5.0
  0
CIRCLE
  5
D7
100
AcDbEntity
  8
0
  6
CONTINUOUS
 62
     7
100
AcDbCircle
 10
286.618229
 20
548.739429
 30
0.0
 40
4.947592
  0
LINE
  5
D8
100
AcDbEntity
  8
0
  6
CONTINUOUS
 62
     7
100
AcDbLine
 10
181.318229
 20
443.798733
 30
0.0
 11
100.901014
 21
546.728074
 31
0.0
  0
LINE
  5
D9
100
AcDbEntity
  8
0
  6
CONTINUOUS
 62
     7
100
AcDbLine
 10
181.318229
 20
443.798733
 30
0.0
 11
261.735443
 21
546.728074
 31
0.0
  0
ARC
  5
DA
100
AcDbEntity
  8
0
  6
CONTINUOUS
 62
     7
100
AcDbCircle
 10
264.432528
 20
544.62088
 30
0.0
 40
3.42265
100
AcDbArc
 50
322.0
 51
142.0
  0
LINE
  5
DB
100
AcDbEntity
  8
0
  6
CONTINUOUS
 62
     7
100
AcDbLine
 10
267.129613
 20
542.513687
 30
0.0
 11
185.661634
 21
438.239429
 31
0.0
  0
LINE
  5
DC
100
AcDbEntity
  8
0
  6
CONTINUOUS
 62
     7
100
AcDbLine
 10
267.129613
 20
333.965171
 30
0.0
 11
185.661634
 21
438.239429
 31
0.0
  0
ARC
  5
DD
100
AcDbEntity
  8
0
  6
CONTINUOUS
 62
     7
100
AcDbCircle
 10
264.432528
 20
331.857977
 30
0.0
 40
3.42265
100
AcDbArc
 50
218.0
 51
38.0
  0
LINE
  5
DE
100
AcDbEntity
  8
0
  6
CONTINUOUS
 62
     7
100
AcDbLine
 10
181.318229
 20
432.680124
 30
0.0
 11
261.735443
 21
329.750783
 31
0.0
  0
ARC
  5
DF
100
AcDbEntity
  8
0
  6
CONTINUOUS
 62
     7
100
AcDbCircle
 10
98.20393
 20
331.857977
 30
0.0
 40
3.42265
100
AcDbArc
 50
142.0
 51
322.0
  0
LINE
  5
E0
100
AcDbEntity
  8
0
  6
CONTINUOUS
 62
     7
100
AcDbLine
 10
95.506845
 20
542.513687
 30
0.0
 11
176.974824
 21
438.239429
 31
0.0
  0
ARC
  5
E1
100
AcDbEntity
  8
0
  6
CONTINUOUS
 62
     7
100
AcDbCircle
 10
98.20393
 20
331.857977
 30
0.0
 40
4.0
100
AcDbArc
 50
142.0
 51
322.0
  0
CIRCLE
  5
E2
100
AcDbEntity
  8
0
  6
CONTINUOUS
 62
     7
100
AcDbCircle
 10
108.818229
 20
568.539429
 30
0.0
 40
5.0
  0
CIRCLE
  5
E3
100
AcDbEntity
  8
0
  6
CONTINUOUS
 62
     7
100
AcDbCircle
 10
108.818229
 20
568.539429
 30
0.0
 40
4.947592
  0
CIRCLE
  5
E4
100
AcDbEntity
  8
0
  6
CONTINUOUS
 62
     7
100
AcDbCircle
 10
108.818229
 20
307.939429
 30
0.0
 40
5.0
  0
CIRCLE
  5
E5
100
AcDbEntity
  8
0
  6
CONTINUOUS
 62
     7
100
AcDbCircle
 10
108.818229
 20
307.939429
 30
0.0
 40
4.947592
  0
LINE
  5
E6
100
AcDbEntity
  8
0
  6
CONTINUOUS
 62
     7
100
AcDbLine
 10
267.584571
 20
334.320623
 30
0.0
 11
186.394301
 21
438.239429
 31
0.0
  0
LINE
  5
E7
100
AcDbEntity
  8
0
  6
CONTINUOUS
 62
     7
100
AcDbLine
 10
267.129613
 20
333.965171
 30
0.0
 11
267.584571
 21
334.320623
 31
0.0
  0
LINE
  5
E8
100
AcDbEntity
  8
0
  6
CONTINUOUS
 62
     7
100
AcDbLine
 10
185.661634
 20
438.239429
 30
0.0
 11
186.394301
 21
438.239429
 31
0.0
  0
LINE
  5
E9
100
AcDbEntity
  8
0
  6
CONTINUOUS
 62
     7
100
AcDbLine
 10
112.777143
 20
532.465094
 30
0.0
 11
101.355973
 21
547.083526
 31
0.0
  0
LINE
  5
EA
100
AcDbEntity
  8
0
  6
CONTINUOUS
 62
     7
100
AcDbLine
 10
181.318229
 20
444.736506
 30
0.0
 11
113.649141
 21
531.348988
 31
0.0
  0
LINE
  5
EB
100
AcDbEntity
  8
0
  6
CONTINUOUS
 62
     7
100
AcDbLine
 10
181.318229
 20
443.798733
 30
0.0
 11
181.318229
 21
444.736506
 31
0.0
  0
CIRCLE
  5
EC
100
AcDbEntity
  8
0
  6
CONTINUOUS
 62
     7
100
AcDbCircle
 10
286.618229
 20
327.739429
 30
0.0
 40
4.947592
  0
CIRCLE
  5
ED
100
AcDbEntity
  8
0
  6
CONTINUOUS
 62
     7
100
AcDbCircle
 10
286.618229
 20
327.739429
 30
0.0
 40
5.0
  0
CIRCLE
  5
EE
100
AcDbEntity
  8
0
  6
CONTINUOUS
 62
     7
100
AcDbCircle
 10
253.818229
 20
307.939429
 30
0.0
 40
4.947592
  0
LINE
  5
EF
100
AcDbEntity
  8
0
  6
CONTINUOUS
 62
     7
100
AcDbLine
 10
261.735443
 20
329.750783
 30
0.0
 11
261.280485
 21
329.395331
 31
0.0
  0
LINE
  5
F0
100
AcDbEntity
  8
0
  6
CONTINUOUS
 62
     7
100
AcDbLine
 10
249.859314
 20
344.013763
 30
0.0
 11
261.280485
 21
329.395331
 31
0.0
  0
LINE
  5
F1
100
AcDbEntity
  8
0
  6
CONTINUOUS
 62
     7
100
AcDbLine
 10
181.318229
 20
431.742351
 30
0.0
 11
248.987316
 21
345.129869
 31
0.0
  0
CIRCLE
  5
F2
100
AcDbEntity
  8
0
  6
CONTINUOUS
 62
     7
100
AcDbCircle
 10
253.818229
 20
307.939429
 30
0.0
 40
5.0
  0
ARC
  5
F3
100
AcDbEntity
  8
0
  6
CONTINUOUS
 62
     7
100
AcDbCircle
 10
264.432528
 20
331.857977
 30
0.0
 40
4.0
100
AcDbArc
 50
218.0
 51
38.0
  0
LINE
  5
F4
100
AcDbEntity
  8
0
  6
CONTINUOUS
 62
     7
100
AcDbLine
 10
267.129613
 20
542.513687
 30
0.0
 11
267.584571
 21
542.158235
 31
0.0
  0
LINE
  5
F5
100
AcDbEntity
  8
0
  6
CONTINUOUS
 62
     7
100
AcDbLine
 10
267.584571
 20
542.158235
 30
0.0
 11
186.394301
 21
438.239429
 31
0.0
  0
LINE
  5
F6
100
AcDbEntity
  8
0
  6
CONTINUOUS
 62
     7
100
AcDbLine
 10
261.735443
 20
546.728074
 30
0.0
 11
261.280485
 21
547.083526
 31
0.0
  0
ARC
  5
F7
100
AcDbEntity
  8
0
  6
CONTINUOUS
 62
     7
100
AcDbCircle
 10
264.432528
 20
544.62088
 30
0.0
 40
4.0
100
AcDbArc
 50
322.0
 51
142.0
  0
LINE
  5
F8
100
AcDbEntity
  8
0
  6
CONTINUOUS
 62
     7
100
AcDbLine
 10
181.318229
 20
444.736506
 30
0.0
 11
248.987316
 21
531.348988
 31
0.0
  0
LINE
  5
F9
100
AcDbEntity
  8
0
  6
CONTINUOUS
 62
     7
100
AcDbLine
 10
249.859314
 20
532.465094
 30
0.0
 11
261.280485
 21
547.083526
 31
0.0
  0
LINE
  5
FA
100
AcDbEntity
  8
0
  6
CONTINUOUS
 62
     7
100
AcDbLine
 10
95.051887
 20
542.158235
 30
0.0
 11
176.242156
 21
438.239429
 31
0.0
  0
ELLIPSE
  5
FB
100
AcDbEntity
  8
0
  6
CONTINUOUS
 62
     7
100
AcDbEllipse
 10
86.768229
 20
579.394904
 30
0.0
 11
1.155298972339799
 21
0.0
 31
0.0
210
0.0
220
0.0
230
1.0
 40
0.017458
 41
1.570796326794896
 42
3.159048605013093
  0
LINE
  5
FC
100
AcDbEntity
  8
0
  6
CONTINUOUS
 62
     7
100
AcDbLine
 10
86.76823
 20
579.415071
 30
0.0
 11
275.868227
 21
579.415071
 31
0.0
  0
ELLIPSE
  5
FD
100
AcDbEntity
  8
0
  6
CONTINUOUS
 62
     7
100
AcDbEllipse
 10
275.868229
 20
579.394904
 30
0.0
 11
1.155298972339835
 21
0.0
 31
0.0
210
0.0
220
0.0
230
1.0
 40
0.017458
 41
6.265729355757916
 42
7.853981633974482
  0
LINE
  5
FE
100
AcDbEntity
  8
0
  6
CONTINUOUS
 62
     7
100
AcDbLine
 10
86.836708
 20
578.170958
 30
0.0
 11
275.799749
 21
578.170958
 31
0.0
  0
LINE
  5
FF
100
AcDbEntity
  8
0
  6
CONTINUOUS
 62
     7
100
AcDbLine
 10
86.836708
 20
298.307899
 30
0.0
 11
275.799749
 21
298.307899
 31
0.0
  0
LINE
  5
100
100
AcDbEntity
  8
0
  6
CONTINUOUS
 62
     7
100
AcDbLine
 10
66.386705
 20
559.720952
 30
0.0
 11
66.386705
 21
316.757906
 31
0.0
  0
LINE
  5
101
100
AcDbEntity
  8
0
  6
CONTINUOUS
 62
     7
100
AcDbLine
 10
296.249753
 20
559.720952
 30
0.0
 11
296.249753
 21
316.757906
 31
0.0
  0
CIRCLE
  5
102
100
AcDbEntity
  8
0
  6
CONTINUOUS
 62
     7
100
AcDbCircle
 10
181.318229
 20
378.239429
 30
0.0
 40
10.4
  0
CIRCLE
  5
103
100
AcDbEntity
  8
0
  6
CONTINUOUS
 62
     7
100
AcDbCircle
 10
181.318229
 20
498.239429
 30
0.0
 40
10.4
  0
CIRCLE
  5
104
100
AcDbEntity
  8
0
  6
CONTINUOUS
 62
     7
100
AcDbCircle
 10
181.318229
 20
378.239429
 30
0.0
 40
10.379958
  0
CIRCLE
  5
105
100
AcDbEntity
  8
0
  6
CONTINUOUS
 62
     7
100
AcDbCircle
 10
181.318229
 20
498.239429
 30
0.0
 40
10.379958
  0
ELLIPSE
  5
106
100
AcDbEntity
  8
0
  6
CONTINUOUS
 62
     7
100
AcDbEllipse
 10
65.162754
 20
316.689429
 30
0.0
 11
0.0
 21
1.155298972339764
 31
0.0
210
0.0
220
0.0
230
1.0
 40
0.017458
 41
1.570796326794896
 42
3.15904860500611
  0
LINE
  5
107
100
AcDbEntity
  8
0
  6
CONTINUOUS
 62
     7
100
AcDbLine
 10
65.142585
 20
559.78943
 30
0.0
 11
65.142585
 21
316.689427
 31
0.0
  0
ELLIPSE
  5
108
100
AcDbEntity
  8
0
  6
CONTINUOUS
 62
     7
100
AcDbEllipse
 10
65.162754
 20
559.789429
 30
0.0
 11
0.0
 21
1.155298972339835
 31
0.0
210
0.0
220
0.0
230
1.0
 40
0.017458
 41
6.265729355764873
 42
7.853981633974482
  0
ELLIPSE
  5
109
100
AcDbEntity
  8
0
  6
CONTINUOUS
 62
     7
100
AcDbEllipse
 10
275.868229
 20
297.083954
 30
0.0
 11
1.155298972339764
 21
0.0
 31
0.0
210
0.0
220
0.0
230
1.0
 40
0.017458
 41
4.712388980384689
 42
6.300641258599344
  0
LINE
  5
10A
100
AcDbEntity
  8
0
  6
CONTINUOUS
 62
     7
100
AcDbLine
 10
86.76823
 20
297.063786
 30
0.0
 11
275.868227
 21
297.063786
 31
0.0
  0
ELLIPSE
  5
10B
100
AcDbEntity
  8
0
  6
CONTINUOUS
 62
     7
100
AcDbEllipse
 10
86.768229
 20
297.083954
 30
0.0
 11
1.155298972339764
 21
0.0
 31
0.0
210
0.0
220
0.0
230
1.0
 40
0.017458
 41
3.124136702170827
 42
4.712388980384689
  0
CIRCLE
  5
10C
100
AcDbEntity
  8
0
  6
CONTINUOUS
 62
     7
100
AcDbCircle
 10
181.318229
 20
378.239429
 30
0.0
 40
10.159169
  0
CIRCLE
  5
10D
100
AcDbEntity
  8
0
  6
CONTINUOUS
 62
     7
100
AcDbCircle
 10
181.318229
 20
498.239429
 30
0.0
 40
10.159169
  0
ELLIPSE
  5
10E
100
AcDbEntity
  8
0
  6
CONTINUOUS
 62
     7
100
AcDbEllipse
 10
297.473704
 20
559.789429
 30
0.0
 11
0.0
 21
1.155298972339835
 31
0.0
210
0.0
220
0.0
230
1.0
 40
0.017458
 41
4.712388980384689
 42
6.300641258599407
  0
LINE
  5
10F
100
AcDbEntity
  8
0
  6
CONTINUOUS
 62
     7
100
AcDbLine
 10
297.493873
 20
559.78943
 30
0.0
 11
297.493873
 21
316.689427
 31
0.0
  0
ELLIPSE
  5
110
100
AcDbEntity
  8
0
  6
CONTINUOUS
 62
     7
100
AcDbEllipse
 10
297.473704
 20
316.689429
 30
0.0
 11
0.0
 21
1.155298972339835
 31
0.0
210
0.0
220
0.0
230
1.0
 40
0.017458
 41
3.124136702170765
 42
4.712388980384689
  0
ARC
  5
111
100
AcDbEntity
  8
0
  6
CONTINUOUS
 62
     7
100
AcDbCircle
 10
112.318229
 20
565.739429
 30
0.0
 40
3.5
100
AcDbArc
 50
123.340167
 51
159.340216
  0
ARC
  5
112
100
AcDbEntity
  8
0
  6
CONTINUOUS
 62
     7
100
AcDbCircle
 10
112.318229
 20
310.739429
 30
0.0
 40
3.5
100
AcDbArc
 50
200.659784
 51
236.659833
  0
ARC
  5
113
100
AcDbEntity
  8
0
  6
CONTINUOUS
 62
     7
100
AcDbCircle
 10
250.318229
 20
310.739429
 30
0.0
 40
3.5
100
AcDbArc
 50
303.340167
 51
339.340216
  0
ARC
  5
114
100
AcDbEntity
  8
0
  6
CONTINUOUS
 62
     7
100
AcDbCircle
 10
250.318229
 20
565.739429
 30
0.0
 40
3.5
100
AcDbArc
 50
20.659784
 51
56.659833
  0
LINE
  5
115
100
AcDbEntity
  8
0
  6
CONTINUOUS
 62
     7
100
AcDbLine
 10
275.868227
 20
579.415071
 30
0.0
 11
275.868229
 21
582.739429
 31
0.0
  0
LINE
  5
116
100
AcDbEntity
  8
0
  6
CONTINUOUS
 62
     7
100
AcDbLine
 10
280.368229
 20
582.739429
 30
0.0
 11
275.868229
 21
582.739429
 31
0.0
  0
LINE
  5
117
100
AcDbEntity
  8
0
  6
CONTINUOUS
 62
     7
100
AcDbLine
 10
275.868227
 20
297.063786
 30
0.0
 11
275.868229
 21
293.739429
 31
0.0
  0
LINE
  5
118
100
AcDbEntity
  8
0
  6
CONTINUOUS
 62
     7
100
AcDbLine
 10
280.368229
 20
293.739429
 30
0.0
 11
275.868229
 21
293.739429
 31
0.0
  0
LINE
  5
119
100
AcDbEntity
  8
0
  6
CONTINUOUS
 62
     7
100
AcDbLine
 10
65.142585
 20
316.689427
 30
0.0
 11
61.818229
 21
316.689429
 31
0.0
  0
LINE
  5
11A
100
AcDbEntity
  8
0
  6
CONTINUOUS
 62
     7
100
AcDbLine
 10
61.818229
 20
312.189429
 30
0.0
 11
61.818229
 21
316.689429
 31
0.0
  0
LINE
  5
11B
100
AcDbEntity
  8
0
  6
CONTINUOUS
 62
     7
100
AcDbLine
 10
297.493873
 20
559.78943
 30
0.0
 11
300.818229
 21
559.789429
 31
0.0
  0
LINE
  5
11C
100
AcDbEntity
  8
0
  6
CONTINUOUS
 62
     7
100
AcDbLine
 10
300.818229
 20
559.789429
 30
0.0
 11
300.818229
 21
564.289429
 31
0.0
  0
LINE
  5
11D
100
AcDbEntity
  8
0
  6
CONTINUOUS
 62
     7
100
AcDbLine
 10
86.76823
 20
297.063786
 30
0.0
 11
86.768229
 21
293.739429
 31
0.0
  0
LINE
  5
11E
100
AcDbEntity
  8
0
  6
CONTINUOUS
 62
     7
100
AcDbLine
 10
86.768229
 20
293.739429
 30
0.0
 11
82.268229
 21
293.739429
 31
0.0
  0
LINE
  5
11F
100
AcDbEntity
  8
0
  6
CONTINUOUS
 62
     7
100
AcDbLine
 10
86.76823
 20
579.415071
 30
0.0
 11
86.768229
 21
582.739429
 31
0.0
  0
LINE
  5
120
100
AcDbEntity
  8
0
  6
CONTINUOUS
 62
     7
100
AcDbLine
 10
86.768229
 20
582.739429
 30
0.0
 11
82.268229
 21
582.739429
 31
0.0
  0
LINE
  5
121
100
AcDbEntity
  8
0
  6
CONTINUOUS
 62
     7
100
AcDbLine
 10
297.493873
 20
316.689427
 30
0.0
 11
300.818229
 21
316.689429
 31
0.0
  0
LINE
  5
122
100
AcDbEntity
  8
0
  6
CONTINUOUS
 62
     7
100
AcDbLine
 10
300.818229
 20
312.189429
 30
0.0
 11
300.818229
 21
316.689429
 31
0.0
  0
LINE
  5
123
100
AcDbEntity
  8
0
  6
CONTINUOUS
 62
     7
100
AcDbLine
 10
65.142585
 20
559.78943
 30
0.0
 11
61.818229
 21
559.789429
 31
0.0
  0
LINE
  5
124
100
AcDbEntity
  8
0
  6
CONTINUOUS
 62
     7
100
AcDbLine
 10
61.818229
 20
559.789429
 30
0.0
 11
61.818229
 21
564.289429
 31
0.0
  0
LINE
  5
125
100
AcDbEntity
  8
0
  6
CONTINUOUS
 62
     7
100
AcDbLine
 10
275.868229
 20
293.739429
 30
0.0
 11
86.768229
 21
293.739429
 31
0.0
  0
LINE
  5
126
100
AcDbEntity
  8
0
  6
CONTINUOUS
 62
     7
100
AcDbLine
 10
61.818229
 20
316.689429
 30
0.0
 11
61.818229
 21
559.789429
 31
0.0
  0
LINE
  5
127
100
AcDbEntity
  8
0
  6
CONTINUOUS
 62
     7
100
AcDbLine
 10
300.818229
 20
316.689429
 30
0.0
 11
300.818229
 21
559.789429
 31
0.0
  0
LINE
  5
128
100
AcDbEntity
  8
0
  6
CONTINUOUS
 62
     7
100
AcDbLine
 10
275.868229
 20
582.739429
 30
0.0
 11
86.768229
 21
582.739429
 31
0.0
  0
LINE
  5
129
100
AcDbEntity
  8
0
  6
CONTINUOUS
 62
     7
100
AcDbLine
 10
515.991681
 20
322.739426
 30
0.0
 11
516.99168
 21
322.791836
 31
0.0
  0
LINE
  5
12A
100
AcDbEntity
  8
0
  6
CONTINUOUS
 62
     7
100
AcDbLine
 10
516.99168
 20
332.687021
 30
0.0
 11
515.991681
 21
332.739431
 31
0.0
  0
LINE
  5
12B
100
AcDbEntity
  8
0
  6
CONTINUOUS
 62
     7
100
AcDbLine
 10
515.991681
 20
543.739426
 30
0.0
 11
516.99168
 21
543.791836
 31
0.0
  0
LINE
  5
12C
100
AcDbEntity
  8
0
  6
CONTINUOUS
 62
     7
100
AcDbLine
 10
516.99168
 20
553.687021
 30
0.0
 11
515.991681
 21
553.739432
 31
0.0
  0
LINE
  5
12D
100
AcDbEntity
  8
0
  6
CONTINUOUS
 62
     7
100
AcDbLine
 10
516.991683
 20
324.489425
 30
0.0
 11
518.99168
 21
324.489429
 31
0.0
  0
LINE
  5
12E
100
AcDbEntity
  8
0
  6
CONTINUOUS
 62
     7
100
AcDbLine
 10
518.99168
 20
330.989429
 30
0.0
 11
516.991683
 21
330.989431
 31
0.0
  0
LINE
  5
12F
100
AcDbEntity
  8
0
  6
CONTINUOUS
 62
     7
100
AcDbLine
 10
516.991683
 20
545.489426
 30
0.0
 11
518.99168
 21
545.489429
 31
0.0
  0
LINE
  5
130
100
AcDbEntity
  8
0
  6
CONTINUOUS
 62
     7
100
AcDbLine
 10
518.99168
 20
551.989429
 30
0.0
 11
516.991683
 21
551.989432
 31
0.0
  0
LINE
  5
131
100
AcDbEntity
  8
0
  6
CONTINUOUS
 62
     7
100
AcDbLine
 10
515.991681
 20
541.439432
 30
0.0
 11
518.99168
 21
541.491794
 31
0.0
  0
LINE
  5
132
100
AcDbEntity
  8
0
  6
CONTINUOUS
 62
     7
100
AcDbLine
 10
515.991681
 20
320.439431
 30
0.0
 11
518.99168
 21
320.491794
 31
0.0
  0
LINE
  5
133
100
AcDbEntity
  8
0
  6
CONTINUOUS
 62
     7
100
AcDbLine
 10
518.99168
 20
555.987063
 30
0.0
 11
515.991681
 21
556.039426
 31
0.0
  0
LINE
  5
134
100
AcDbEntity
  8
0
  6
CONTINUOUS
 62
     7
100
AcDbLine
 10
518.99168
 20
334.987063
 30
0.0
 11
515.991681
 21
335.039425
 31
0.0
  0
LINE
  5
135
100
AcDbEntity
  8
0
  6
CONTINUOUS
 62
     7
100
AcDbLine
 10
518.99168
 20
319.187063
 30
0.0
 11
515.991681
 21
319.239426
 31
0.0
  0
LINE
  5
136
100
AcDbEntity
  8
0
  6
CONTINUOUS
 62
     7
100
AcDbLine
 10
515.991681
 20
557.239431
 30
0.0
 11
518.99168
 21
557.291794
 31
0.0
  0
LINE
  5
137
100
AcDbEntity
  8
0
  6
CONTINUOUS
 62
     7
100
AcDbLine
 10
518.49168
 20
348.505644
 30
0.0
 11
516.991683
 21
348.531831
 31
0.0
  0
LINE
  5
138
100
AcDbEntity
  8
0
  6
CONTINUOUS
 62
     7
100
AcDbLine
 10
516.991683
 20
527.947027
 30
0.0
 11
518.49168
 21
527.973213
 31
0.0
  0
LINE
  5
139
100
AcDbEntity
  8
0
  6
CONTINUOUS
 62
     7
100
AcDbLine
 10
437.59168
 20
576.739429
 30
0.0
 11
437.59168
 21
582.739429
 31
0.0
  0
LINE
  5
13A
100
AcDbEntity
  8
0
  6
CONTINUOUS
 62
     7
100
AcDbLine
 10
437.59168
 20
582.739429
 30
0.0
 11
518.99168
 21
582.739429
 31
0.0
  0
LINE
  5
13B
100
AcDbEntity
  8
0
  6
CONTINUOUS
 62
     7
100
AcDbLine
 10
518.99168
 20
582.739429
 30
0.0
 11
518.99168
 21
576.739429
 31
0.0
  0
LINE
  5
13C
100
AcDbEntity
  8
0
  6
CONTINUOUS
 62
     7
100
AcDbLine
 10
518.99168
 20
576.739429
 30
0.0
 11
437.59168
 21
576.739429
 31
0.0
  0
LINE
  5
13D
100
AcDbEntity
  8
0
  6
CONTINUOUS
 62
     7
100
AcDbLine
 10
518.99168
 20
576.739429
 30
0.0
 11
518.99168
 21
564.289424
 31
0.0
  0
LINE
  5
13E
100
AcDbEntity
  8
0
  6
CONTINUOUS
 62
     7
100
AcDbLine
 10
445.89168
 20
564.289429
 30
0.0
 11
518.99168
 21
564.289424
 31
0.0
  0
ARC
  5
13F
100
AcDbEntity
  8
0
  6
CONTINUOUS
 62
     7
100
AcDbCircle
 10
445.89168
 20
559.789429
 30
0.0
 40
4.5
100
AcDbArc
 50
90.0
 51
180.0
  0
LINE
  5
140
100
AcDbEntity
  8
0
  6
CONTINUOUS
 62
     7
100
AcDbLine
 10
441.39168
 20
316.689429
 30
0.0
 11
441.39168
 21
559.789429
 31
0.0
  0
ARC
  5
141
100
AcDbEntity
  8
0
  6
CONTINUOUS
 62
     7
100
AcDbCircle
 10
445.89168
 20
316.689429
 30
0.0
 40
4.5
100
AcDbArc
 50
180.0
 51
270.0
  0
LINE
  5
142
100
AcDbEntity
  8
0
  6
CONTINUOUS
 62
     7
100
AcDbLine
 10
518.99168
 20
312.189433
 30
0.0
 11
445.89168
 21
312.189429
 31
0.0
  0
LINE
  5
143
100
AcDbEntity
  8
0
  6
CONTINUOUS
 62
     7
100
AcDbLine
 10
518.99168
 20
312.189433
 30
0.0
 11
518.99168
 21
299.739429
 31
0.0
  0
LINE
  5
144
100
AcDbEntity
  8
0
  6
CONTINUOUS
 62
     7
100
AcDbLine
 10
437.59168
 20
299.739429
 30
0.0
 11
518.99168
 21
299.739429
 31
0.0
  0
LINE
  5
145
100
AcDbEntity
  8
0
  6
CONTINUOUS
 62
     7
100
AcDbLine
 10
437.59168
 20
299.739429
 30
0.0
 11
437.59168
 21
576.739429
 31
0.0
  0
LINE
  5
146
100
AcDbEntity
  8
0
  6
CONTINUOUS
 62
     7
100
AcDbLine
 10
518.99168
 20
299.739429
 30
0.0
 11
518.99168
 21
293.739429
 31
0.0
  0
LINE
  5
147
100
AcDbEntity
  8
0
  6
CONTINUOUS
 62
     7
100
AcDbLine
 10
518.99168
 20
293.739429
 30
0.0
 11
437.59168
 21
293.739429
 31
0.0
  0
LINE
  5
148
100
AcDbEntity
  8
0
  6
CONTINUOUS
 62
     7
100
AcDbLine
 10
437.59168
 20
293.739429
 30
0.0
 11
437.59168
 21
299.739429
 31
0.0
  0
LINE
  5
149
100
AcDbEntity
  8
0
  6
CONTINUOUS
 62
     7
100
AcDbLine
 10
444.716036
 20
559.78943
 30
0.0
 11
444.716036
 21
316.689427
 31
0.0
  0
LINE
  5
14A
100
AcDbEntity
  8
0
  6
CONTINUOUS
 62
     7
100
AcDbLine
 10
444.716036
 20
316.689427
 30
0.0
 11
441.39168
 21
316.689429
 31
0.0
  0
LINE
  5
14B
100
AcDbEntity
  8
0
  6
CONTINUOUS
 62
     7
100
AcDbLine
 10
444.716036
 20
559.78943
 30
0.0
 11
441.39168
 21
559.789429
 31
0.0
  0
ELLIPSE
  5
14C
100
AcDbEntity
  8
0
  6
CONTINUOUS
 62
     7
100
AcDbEllipse
 10
445.871511
 20
316.689429
 30
0.0
 11
1.155475010403534
 21
0.0
 31
0.0
210
0.0
220
0.0
230
1.0
 40
0.999848
 41
3.141592653589793
 42
4.729844931800548
  0
LINE
  5
14D
100
AcDbEntity
  8
0
  6
CONTINUOUS
 62
     7
100
AcDbLine
 10
445.89168
 20
315.534304
 30
0.0
 11
445.89168
 21
312.189429
 31
0.0
  0
ELLIPSE
  5
14E
100
AcDbEntity
  8
0
  6
CONTINUOUS
 62
     7
100
AcDbEllipse
 10
445.871511
 20
559.789429
 30
0.0
 11
1.155475010403534
 21
0.0
 31
0.0
210
0.0
220
0.0
230
1.0
 40
0.999848
 41
1.553340375379049
 42
3.141592653589793
  0
LINE
  5
14F
100
AcDbEntity
  8
0
  6
CONTINUOUS
 62
     7
100
AcDbLine
 10
445.89168
 20
560.944553
 30
0.0
 11
445.89168
 21
564.289429
 31
0.0
  0
LINE
  5
150
100
AcDbEntity
  8
0
  6
CONTINUOUS
 62
     7
100
AcDbLine
 10
518.99168
 20
564.289424
 30
0.0
 11
518.99168
 21
559.720952
 31
0.0
  0
LINE
  5
151
100
AcDbEntity
  8
0
  6
CONTINUOUS
 62
     7
100
AcDbLine
 10
518.99168
 20
559.720952
 30
0.0
 11
515.991681
 21
559.720952
 31
0.0
  0
LINE
  5
152
100
AcDbEntity
  8
0
  6
CONTINUOUS
 62
     7
100
AcDbLine
 10
445.89168
 20
560.944553
 30
0.0
 11
515.991681
 21
559.720952
 31
0.0
  0
LINE
  5
153
100
AcDbEntity
  8
0
  6
CONTINUOUS
 62
     7
100
AcDbLine
 10
445.89168
 20
315.534304
 30
0.0
 11
515.991681
 21
316.757906
 31
0.0
  0
LINE
  5
154
100
AcDbEntity
  8
0
  6
CONTINUOUS
 62
     7
100
AcDbLine
 10
518.99168
 20
316.757906
 30
0.0
 11
515.991681
 21
316.757906
 31
0.0
  0
LINE
  5
155
100
AcDbEntity
  8
0
  6
CONTINUOUS
 62
     7
100
AcDbLine
 10
518.99168
 20
316.757906
 30
0.0
 11
518.99168
 21
312.189433
 31
0.0
  0
LINE
  5
156
100
AcDbEntity
  8
0
  6
CONTINUOUS
 62
     7
100
AcDbLine
 10
515.991681
 20
559.720952
 30
0.0
 11
515.991681
 21
316.757906
 31
0.0
  0
LINE
  5
157
100
AcDbEntity
  8
0
  6
CONTINUOUS
 62
     7
100
AcDbLine
 10
516.99168
 20
332.687021
 30
0.0
 11
516.99168
 21
322.791836
 31
0.0
  0
LINE
  5
158
100
AcDbEntity
  8
0
  6
CONTINUOUS
 62
     7
100
AcDbLine
 10
516.99168
 20
553.687021
 30
0.0
 11
516.99168
 21
543.791836
 31
0.0
  0
LINE
  5
159
100
AcDbEntity
  8
0
  6
CONTINUOUS
 62
     7
100
AcDbLine
 10
518.99168
 20
330.989429
 30
0.0
 11
518.99168
 21
324.489429
 31
0.0
  0
LINE
  5
15A
100
AcDbEntity
  8
0
  6
CONTINUOUS
 62
     7
100
AcDbLine
 10
518.99168
 20
551.989429
 30
0.0
 11
518.99168
 21
545.489429
 31
0.0
  0
LINE
  5
15B
100
AcDbEntity
  8
0
  6
CONTINUOUS
 62
     7
100
AcDbLine
 10
518.99168
 20
545.489429
 30
0.0
 11
518.99168
 21
541.491794
 31
0.0
  0
LINE
  5
15C
100
AcDbEntity
  8
0
  6
CONTINUOUS
 62
     7
100
AcDbLine
 10
518.99168
 20
324.489429
 30
0.0
 11
518.99168
 21
320.491794
 31
0.0
  0
LINE
  5
15D
100
AcDbEntity
  8
0
  6
CONTINUOUS
 62
     7
100
AcDbLine
 10
518.99168
 20
555.987063
 30
0.0
 11
518.99168
 21
551.989429
 31
0.0
  0
LINE
  5
15E
100
AcDbEntity
  8
0
  6
CONTINUOUS
 62
     7
100
AcDbLine
 10
518.99168
 20
334.987063
 30
0.0
 11
518.99168
 21
330.989429
 31
0.0
  0
LINE
  5
15F
100
AcDbEntity
  8
0
  6
CONTINUOUS
 62
     7
100
AcDbLine
 10
515.991681
 20
438.239429
 30
0.0
 11
516.991683
 21
438.239429
 31
0.0
  0
LINE
  5
160
100
AcDbEntity
  8
0
  6
CONTINUOUS
 62
     7
100
AcDbLine
 10
516.991683
 20
541.456881
 30
0.0
 11
516.991683
 21
438.239429
 31
0.0
  0
LINE
  5
161
100
AcDbEntity
  8
0
  6
CONTINUOUS
 62
     7
100
AcDbLine
 10
516.991683
 20
335.021976
 30
0.0
 11
516.991683
 21
438.239429
 31
0.0
  0
LINE
  5
162
100
AcDbEntity
  8
0
  6
CONTINUOUS
 62
     7
100
AcDbLine
 10
518.99168
 20
319.187063
 30
0.0
 11
518.99168
 21
316.757906
 31
0.0
  0
LINE
  5
163
100
AcDbEntity
  8
0
  6
CONTINUOUS
 62
     7
100
AcDbLine
 10
518.99168
 20
559.720952
 30
0.0
 11
518.99168
 21
557.291794
 31
0.0
  0
LINE
  5
164
100
AcDbEntity
  8
0
  6
CONTINUOUS
 62
     7
100
AcDbLine
 10
518.49168
 20
334.995791
 30
0.0
 11
518.49168
 21
348.505644
 31
0.0
  0
LINE
  5
165
100
AcDbEntity
  8
0
  6
CONTINUOUS
 62
     7
100
AcDbLine
 10
518.49168
 20
527.973213
 30
0.0
 11
518.49168
 21
541.483066
 31
0.0
  0
LINE
  5
166
100
AcDbEntity
  8
0
  6
CONTINUOUS
 62
     7
100
AcDbLine
 10
518.99168
 20
582.739429
 30
0.0
 11
445.89168
 21
582.739429
 31
0.0
  0
LINE
  5
167
100
AcDbEntity
  8
0
  6
CONTINUOUS
 62
     7
100
AcDbLine
 10
518.99168
 20
293.739429
 30
0.0
 11
445.89168
 21
293.739429
 31
0.0
  0
LINE
  5
168
100
AcDbEntity
  8
0
  6
CONTINUOUS
 62
     7
100
AcDbLine
 10
445.89168
 20
582.739429
 30
0.0
 11
441.39168
 21
582.739429
 31
0.0
  0
LINE
  5
169
100
AcDbEntity
  8
0
  6
CONTINUOUS
 62
     7
100
AcDbLine
 10
445.89168
 20
293.739429
 30
0.0
 11
441.39168
 21
293.739429
 31
0.0
  0
INSERT
  5
171
100
AcDbEntity
  8
0
  6
CONTINUOUS
 62
     7
100
AcDbBlockReference
  2
SW_CENTERMARKSYMBOL_0
 10
445.89168
 20
559.789429
 30
0.0
 41
5.0
 42
5.0
 43
5.0
  0
INSERT
  5
179
100
AcDbEntity
  8
0
  6
CONTINUOUS
 62
     7
100
AcDbBlockReference
  2
SW_CENTERMARKSYMBOL_1
 10
445.89168
 20
316.689429
 30
0.0
 41
5.0
 42
5.0
 43
5.0
  0
CIRCLE
  5
17A
100
AcDbEntity
  8
0
  6
CONTINUOUS
 62
     7
100
AcDbCircle
 10
890.68991
 20
306.239429
 30
0.0
 40
5.4
  0
ARC
  5
17B
100
AcDbEntity
  8
0
  6
CONTINUOUS
 62
     7
100
AcDbCircle
 10
875.98991
 20
305.711713
 30
0.0
 40
3.7
100
AcDbArc
 50
97.8
 51
180.0
  0
LINE
  5
17C
100
AcDbEntity
  8
0
  6
CONTINUOUS
 62
     7
100
AcDbLine
 10
872.28991
 20
305.711713
 30
0.0
 11
872.28991
 21
303.639429
 31
0.0
  0
ARC
  5
17D
100
AcDbEntity
  8
0
  6
CONTINUOUS
 62
     7
100
AcDbCircle
 10
862.38991
 20
303.639429
 30
0.0
 40
9.9
100
AcDbArc
 50
309.854279
 51
0.0
  0
LINE
  5
17E
100
AcDbEntity
  8
0
  6
CONTINUOUS
 62
     7
100
AcDbLine
 10
868.734199
 20
296.039429
 30
0.0
 11
897.18991
 21
296.039429
 31
0.0
  0
ARC
  5
17F
100
AcDbEntity
  8
0
  6
CONTINUOUS
 62
     7
100
AcDbCircle
 10
897.18991
 20
299.739429
 30
0.0
 40
3.7
100
AcDbArc
 50
270.0
 51
0.0
  0
LINE
  5
180
100
AcDbEntity
  8
0
  6
CONTINUOUS
 62
     7
100
AcDbLine
 10
900.88991
 20
299.739429
 30
0.0
 11
900.88991
 21
315.464234
 31
0.0
  0
ARC
  5
181
100
AcDbEntity
  8
0
  6
CONTINUOUS
 62
     7
100
AcDbCircle
 10
893.28991
 20
321.808523
 30
0.0
 40
9.9
100
AcDbArc
 50
277.8
 51
320.145721
  0
LINE
  5
182
100
AcDbEntity
  8
0
  6
CONTINUOUS
 62
     7
100
AcDbLine
 10
894.633494
 20
312.000119
 30
0.0
 11
893.464204
 21
311.839946
 31
0.0
  0
ARC
  5
183
100
AcDbEntity
  8
0
  6
CONTINUOUS
 62
     7
100
AcDbCircle
 10
890.68991
 20
306.239429
 30
0.0
 40
6.25
100
AcDbArc
 50
131.952149
 51
63.647851
  0
LINE
  5
184
100
AcDbEntity
  8
0
  6
CONTINUOUS
 62
     7
100
AcDbLine
 10
886.511724
 20
310.887575
 30
0.0
 11
875.487763
 21
309.37748
 31
0.0
  0
CIRCLE
  5
185
100
AcDbEntity
  8
0
  6
CONTINUOUS
 62
     7
100
AcDbCircle
 10
676.68991
 20
306.239429
 30
0.0
 40
5.4
  0
LINE
  5
186
100
AcDbEntity
  8
0
  6
CONTINUOUS
 62
     7
100
AcDbLine
 10
672.746326
 20
312.000119
 30
0.0
 11
673.915617
 21
311.839946
 31
0.0
  0
ARC
  5
187
100
AcDbEntity
  8
0
  6
CONTINUOUS
 62
     7
100
AcDbCircle
 10
674.08991
 20
321.808523
 30
0.0
 40
9.9
100
AcDbArc
 50
219.854279
 51
262.2
  0
LINE
  5
188
100
AcDbEntity
  8
0
  6
CONTINUOUS
 62
     7
100
AcDbLine
 10
666.48991
 20
315.464234
 30
0.0
 11
666.48991
 21
299.739429
 31
0.0
  0
ARC
  5
189
100
AcDbEntity
  8
0
  6
CONTINUOUS
 62
     7
100
AcDbCircle
 10
670.18991
 20
299.739429
 30
0.0
 40
3.7
100
AcDbArc
 50
180.0
 51
270.0
  0
LINE
  5
18A
100
AcDbEntity
  8
0
  6
CONTINUOUS
 62
     7
100
AcDbLine
 10
670.18991
 20
296.039429
 30
0.0
 11
698.645621
 21
296.039429
 31
0.0
  0
ARC
  5
18B
100
AcDbEntity
  8
0
  6
CONTINUOUS
 62
     7
100
AcDbCircle
 10
704.98991
 20
303.639429
 30
0.0
 40
9.9
100
AcDbArc
 50
180.0
 51
230.145721
  0
LINE
  5
18C
100
AcDbEntity
  8
0
  6
CONTINUOUS
 62
     7
100
AcDbLine
 10
695.08991
 20
305.711713
 30
0.0
 11
695.08991
 21
303.639429
 31
0.0
  0
ARC
  5
18D
100
AcDbEntity
  8
0
  6
CONTINUOUS
 62
     7
100
AcDbCircle
 10
691.38991
 20
305.711713
 30
0.0
 40
3.7
100
AcDbArc
 50
0.0
 51
82.2
  0
LINE
  5
18E
100
AcDbEntity
  8
0
  6
CONTINUOUS
 62
     7
100
AcDbLine
 10
680.868096
 20
310.887575
 30
0.0
 11
691.892058
 21
309.37748
 31
0.0
  0
ARC
  5
18F
100
AcDbEntity
  8
0
  6
CONTINUOUS
 62
     7
100
AcDbCircle
 10
676.68991
 20
306.239429
 30
0.0
 40
6.25
100
AcDbArc
 50
116.352149
 51
48.047851
  0
CIRCLE
  5
190
100
AcDbEntity
  8
0
  6
CONTINUOUS
 62
     7
100
AcDbCircle
 10
676.68991
 20
570.239429
 30
0.0
 40
5.4
  0
ARC
  5
191
100
AcDbEntity
  8
0
  6
CONTINUOUS
 62
     7
100
AcDbCircle
 10
691.38991
 20
570.767144
 30
0.0
 40
3.7
100
AcDbArc
 50
277.8
 51
0.0
  0
LINE
  5
192
100
AcDbEntity
  8
0
  6
CONTINUOUS
 62
     7
100
AcDbLine
 10
695.08991
 20
570.767144
 30
0.0
 11
695.08991
 21
572.839429
 31
0.0
  0
ARC
  5
193
100
AcDbEntity
  8
0
  6
CONTINUOUS
 62
     7
100
AcDbCircle
 10
704.98991
 20
572.839429
 30
0.0
 40
9.9
100
AcDbArc
 50
129.854279
 51
180.0
  0
LINE
  5
194
100
AcDbEntity
  8
0
  6
CONTINUOUS
 62
     7
100
AcDbLine
 10
698.645621
 20
580.439429
 30
0.0
 11
670.18991
 21
580.439429
 31
0.0
  0
ARC
  5
195
100
AcDbEntity
  8
0
  6
CONTINUOUS
 62
     7
100
AcDbCircle
 10
670.18991
 20
576.739429
 30
0.0
 40
3.7
100
AcDbArc
 50
90.0
 51
180.0
  0
LINE
  5
196
100
AcDbEntity
  8
0
  6
CONTINUOUS
 62
     7
100
AcDbLine
 10
666.48991
 20
576.739429
 30
0.0
 11
666.48991
 21
561.014624
 31
0.0
  0
ARC
  5
197
100
AcDbEntity
  8
0
  6
CONTINUOUS
 62
     7
100
AcDbCircle
 10
674.08991
 20
554.670335
 30
0.0
 40
9.9
100
AcDbArc
 50
97.8
 51
140.145721
  0
LINE
  5
198
100
AcDbEntity
  8
0
  6
CONTINUOUS
 62
     7
100
AcDbLine
 10
672.746326
 20
564.478738
 30
0.0
 11
673.915617
 21
564.638911
 31
0.0
  0
ARC
  5
199
100
AcDbEntity
  8
0
  6
CONTINUOUS
 62
     7
100
AcDbCircle
 10
676.68991
 20
570.239429
 30
0.0
 40
6.25
100
AcDbArc
 50
311.952149
 51
243.647851
  0
LINE
  5
19A
100
AcDbEntity
  8
0
  6
CONTINUOUS
 62
     7
100
AcDbLine
 10
680.868096
 20
565.591282
 30
0.0
 11
691.892058
 21
567.101377
 31
0.0
  0
CIRCLE
  5
19B
100
AcDbEntity
  8
0
  6
CONTINUOUS
 62
     7
100
AcDbCircle
 10
890.68991
 20
570.239429
 30
0.0
 40
5.4
  0
LINE
  5
19C
100
AcDbEntity
  8
0
  6
CONTINUOUS
 62
     7
100
AcDbLine
 10
700.68991
 20
572.839429
 30
0.0
 11
700.68991
 21
570.767144
 31
0.0
  0
ARC
  5
19D
100
AcDbEntity
  8
0
  6
CONTINUOUS
 62
     7
100
AcDbCircle
 10
691.38991
 20
570.767144
 30
0.0
 40
9.3
100
AcDbArc
 50
277.8
 51
0.0
  0
LINE
  5
19E
100
AcDbEntity
  8
0
  6
CONTINUOUS
 62
     7
100
AcDbLine
 10
692.652065
 20
561.553189
 30
0.0
 11
673.506333
 21
558.93055
 31
0.0
  0
ARC
  5
19F
100
AcDbEntity
  8
0
  6
CONTINUOUS
 62
     7
100
AcDbCircle
 10
674.08991
 20
554.670335
 30
0.0
 40
4.3
100
AcDbArc
 50
97.8
 51
180.0
  0
LINE
  5
1A0
100
AcDbEntity
  8
0
  6
CONTINUOUS
 62
     7
100
AcDbLine
 10
669.78991
 20
321.808523
 30
0.0
 11
669.78991
 21
554.670335
 31
0.0
  0
ARC
  5
1A1
100
AcDbEntity
  8
0
  6
CONTINUOUS
 62
     7
100
AcDbCircle
 10
674.08991
 20
321.808523
 30
0.0
 40
4.3
100
AcDbArc
 50
180.0
 51
262.2
  0
LINE
  5
1A2
100
AcDbEntity
  8
0
  6
CONTINUOUS
 62
     7
100
AcDbLine
 10
692.652065
 20
314.925668
 30
0.0
 11
673.506333
 21
317.548307
 31
0.0
  0
ARC
  5
1A3
100
AcDbEntity
  8
0
  6
CONTINUOUS
 62
     7
100
AcDbCircle
 10
691.38991
 20
305.711713
 30
0.0
 40
9.3
100
AcDbArc
 50
0.0
 51
82.2
  0
LINE
  5
1A4
100
AcDbEntity
  8
0
  6
CONTINUOUS
 62
     7
100
AcDbLine
 10
700.68991
 20
303.639429
 30
0.0
 11
700.68991
 21
305.711713
 31
0.0
  0
ARC
  5
1A5
100
AcDbEntity
  8
0
  6
CONTINUOUS
 62
     7
100
AcDbCircle
 10
704.98991
 20
303.639429
 30
0.0
 40
4.3
100
AcDbArc
 50
180.0
 51
270.0
  0
LINE
  5
1A6
100
AcDbEntity
  8
0
  6
CONTINUOUS
 62
     7
100
AcDbLine
 10
704.98991
 20
299.339429
 30
0.0
 11
862.38991
 21
299.339429
 31
0.0
  0
ARC
  5
1A7
100
AcDbEntity
  8
0
  6
CONTINUOUS
 62
     7
100
AcDbCircle
 10
862.38991
 20
303.639429
 30
0.0
 40
4.3
100
AcDbArc
 50
270.0
 51
0.0
  0
LINE
  5
1A8
100
AcDbEntity
  8
0
  6
CONTINUOUS
 62
     7
100
AcDbLine
 10
866.68991
 20
303.639429
 30
0.0
 11
866.68991
 21
305.711713
 31
0.0
  0
ARC
  5
1A9
100
AcDbEntity
  8
0
  6
CONTINUOUS
 62
     7
100
AcDbCircle
 10
875.98991
 20
305.711713
 30
0.0
 40
9.3
100
AcDbArc
 50
97.8
 51
180.0
  0
LINE
  5
1AA
100
AcDbEntity
  8
0
  6
CONTINUOUS
 62
     7
100
AcDbLine
 10
874.727755
 20
314.925668
 30
0.0
 11
893.873487
 21
317.548307
 31
0.0
  0
ARC
  5
1AB
100
AcDbEntity
  8
0
  6
CONTINUOUS
 62
     7
100
AcDbCircle
 10
893.28991
 20
321.808523
 30
0.0
 40
4.3
100
AcDbArc
 50
277.8
 51
0.0
  0
LINE
  5
1AC
100
AcDbEntity
  8
0
  6
CONTINUOUS
 62
     7
100
AcDbLine
 10
897.58991
 20
554.670335
 30
0.0
 11
897.58991
 21
321.808523
 31
0.0
  0
ARC
  5
1AD
100
AcDbEntity
  8
0
  6
CONTINUOUS
 62
     7
100
AcDbCircle
 10
893.28991
 20
554.670335
 30
0.0
 40
4.3
100
AcDbArc
 50
0.0
 51
82.2
  0
LINE
  5
1AE
100
AcDbEntity
  8
0
  6
CONTINUOUS
 62
     7
100
AcDbLine
 10
874.727755
 20
561.553189
 30
0.0
 11
893.873487
 21
558.93055
 31
0.0
  0
ARC
  5
1AF
100
AcDbEntity
  8
0
  6
CONTINUOUS
 62
     7
100
AcDbCircle
 10
875.98991
 20
570.767144
 30
0.0
 40
9.3
100
AcDbArc
 50
180.0
 51
262.2
  0
LINE
  5
1B0
100
AcDbEntity
  8
0
  6
CONTINUOUS
 62
     7
100
AcDbLine
 10
866.68991
 20
572.839429
 30
0.0
 11
866.68991
 21
570.767144
 31
0.0
  0
ARC
  5
1B1
100
AcDbEntity
  8
0
  6
CONTINUOUS
 62
     7
100
AcDbCircle
 10
862.38991
 20
572.839429
 30
0.0
 40
4.3
100
AcDbArc
 50
0.0
 51
90.0
  0
LINE
  5
1B2
100
AcDbEntity
  8
0
  6
CONTINUOUS
 62
     7
100
AcDbLine
 10
704.98991
 20
577.139429
 30
0.0
 11
862.38991
 21
577.139429
 31
0.0
  0
ARC
  5
1B3
100
AcDbEntity
  8
0
  6
CONTINUOUS
 62
     7
100
AcDbCircle
 10
704.98991
 20
572.839429
 30
0.0
 40
4.3
100
AcDbArc
 50
90.0
 51
180.0
  0
ARC
  5
1B4
100
AcDbEntity
  8
0
  6
CONTINUOUS
 62
     7
100
AcDbCircle
 10
897.18991
 20
576.739429
 30
0.0
 40
3.7
100
AcDbArc
 50
0.0
 51
90.0
  0
LINE
  5
1B5
100
AcDbEntity
  8
0
  6
CONTINUOUS
 62
     7
100
AcDbLine
 10
897.18991
 20
580.439429
 30
0.0
 11
868.734199
 21
580.439429
 31
0.0
  0
ARC
  5
1B6
100
AcDbEntity
  8
0
  6
CONTINUOUS
 62
     7
100
AcDbCircle
 10
862.38991
 20
572.839429
 30
0.0
 40
9.9
100
AcDbArc
 50
0.0
 51
50.145721
  0
LINE
  5
1B7
100
AcDbEntity
  8
0
  6
CONTINUOUS
 62
     7
100
AcDbLine
 10
872.28991
 20
570.767144
 30
0.0
 11
872.28991
 21
572.839429
 31
0.0
  0
ARC
  5
1B8
100
AcDbEntity
  8
0
  6
CONTINUOUS
 62
     7
100
AcDbCircle
 10
875.98991
 20
570.767144
 30
0.0
 40
3.7
100
AcDbArc
 50
180.0
 51
262.2
  0
LINE
  5
1B9
100
AcDbEntity
  8
0
  6
CONTINUOUS
 62
     7
100
AcDbLine
 10
886.511724
 20
565.591282
 30
0.0
 11
875.487763
 21
567.101377
 31
0.0
  0
ARC
  5
1BA
100
AcDbEntity
  8
0
  6
CONTINUOUS
 62
     7
100
AcDbCircle
 10
890.68991
 20
570.239429
 30
0.0
 40
6.25
100
AcDbArc
 50
296.352149
 51
228.047851
  0
LINE
  5
1BB
100
AcDbEntity
  8
0
  6
CONTINUOUS
 62
     7
100
AcDbLine
 10
894.633494
 20
564.478738
 30
0.0
 11
893.464204
 21
564.638911
 31
0.0
  0
ARC
  5
1BC
100
AcDbEntity
  8
0
  6
CONTINUOUS
 62
     7
100
AcDbCircle
 10
893.28991
 20
554.670335
 30
0.0
 40
9.9
100
AcDbArc
 50
39.854279
 51
82.2
  0
LINE
  5
1BD
100
AcDbEntity
  8
0
  6
CONTINUOUS
 62
     7
100
AcDbLine
 10
900.88991
 20
561.014624
 30
0.0
 11
900.88991
 21
576.739429
 31
0.0
  0
ARC
  5
1BE
100
AcDbEntity
  8
0
  6
CONTINUOUS
 62
     7
100
AcDbCircle
 10
670.18991
 20
299.739429
 30
0.0
 40
6.0
100
AcDbArc
 50
180.0
 51
270.0
  0
LINE
  5
1BF
100
AcDbEntity
  8
0
  6
CONTINUOUS
 62
     7
100
AcDbLine
 10
664.18991
 20
576.739429
 30
0.0
 11
664.18991
 21
299.739429
 31
0.0
  0
LINE
  5
1C0
100
AcDbEntity
  8
0
  6
CONTINUOUS
 62
     7
100
AcDbLine
 10
897.18991
 20
582.739429
 30
0.0
 11
670.18991
 21
582.739429
 31
0.0
  0
ARC
  5
1C1
100
AcDbEntity
  8
0
  6
CONTINUOUS
 62
     7
100
AcDbCircle
 10
897.18991
 20
576.739429
 30
0.0
 40
6.0
100
AcDbArc
 50
0.0
 51
90.0
  0
LINE
  5
1C2
100
AcDbEntity
  8
0
  6
CONTINUOUS
 62
     7
100
AcDbLine
 10
903.18991
 20
299.739429
 30
0.0
 11
903.18991
 21
576.739429
 31
0.0
  0
ARC
  5
1C3
100
AcDbEntity
  8
0
  6
CONTINUOUS
 62
     7
100
AcDbCircle
 10
897.18991
 20
299.739429
 30
0.0
 40
6.0
100
AcDbArc
 50
270.0
 51
0.0
  0
LINE
  5
1C4
100
AcDbEntity
  8
0
  6
CONTINUOUS
 62
     7
100
AcDbLine
 10
670.18991
 20
293.739429
 30
0.0
 11
897.18991
 21
293.739429
 31
0.0
  0
ARC
  5
1C5
100
AcDbEntity
  8
0
  6
CONTINUOUS
 62
     7
100
AcDbCircle
 10
670.18991
 20
576.739429
 30
0.0
 40
6.0
100
AcDbArc
 50
90.0
 51
180.0
  0
LINE
  5
1C6
100
AcDbEntity
  8
0
  6
CONTINUOUS
 62
     7
100
AcDbLine
 10
672.711977
 20
564.729495
 30
0.0
 11
672.746326
 21
564.478738
 31
0.0
  0
ARC
  5
1C7
100
AcDbEntity
  8
0
  6
CONTINUOUS
 62
     7
100
AcDbCircle
 10
679.336802
 20
549.532006
 30
0.0
 40
17.285061
100
AcDbArc
 50
128.273488
 51
138.00788
  0
ARC
  5
1C8
100
AcDbEntity
  8
0
  6
CONTINUOUS
 62
     7
100
AcDbCircle
 10
674.08991
 20
554.670335
 30
0.0
 40
10.153098
100
AcDbArc
 50
97.8
 51
123.055255
  0
ARC
  5
1C9
100
AcDbEntity
  8
0
  6
CONTINUOUS
 62
     7
100
AcDbCircle
 10
679.336802
 20
326.946852
 30
0.0
 40
17.285061
100
AcDbArc
 50
221.99212
 51
231.726512
  0
LINE
  5
1CA
100
AcDbEntity
  8
0
  6
CONTINUOUS
 62
     7
100
AcDbLine
 10
672.711977
 20
311.749362
 30
0.0
 11
672.746326
 21
312.000119
 31
0.0
  0
ARC
  5
1CB
100
AcDbEntity
  8
0
  6
CONTINUOUS
 62
     7
100
AcDbCircle
 10
674.08991
 20
321.808523
 30
0.0
 40
10.153098
100
AcDbArc
 50
236.944745
 51
262.2
  0
LINE
  5
1CC
100
AcDbEntity
  8
0
  6
CONTINUOUS
 62
     7
100
AcDbLine
 10
673.686608
 20
318.864347
 30
0.0
 11
673.506333
 21
317.548307
 31
0.0
  0
LINE
  5
1CD
100
AcDbEntity
  8
0
  6
CONTINUOUS
 62
     7
100
AcDbLine
 10
671.118241
 20
321.808523
 30
0.0
 11
669.78991
 21
321.808523
 31
0.0
  0
ARC
  5
1CE
100
AcDbEntity
  8
0
  6
CONTINUOUS
 62
     7
100
AcDbCircle
 10
674.08991
 20
321.808523
 30
0.0
 40
2.97167
100
AcDbArc
 50
180.0
 51
262.2
  0
LINE
  5
1CF
100
AcDbEntity
  8
0
  6
CONTINUOUS
 62
     7
100
AcDbLine
 10
673.686608
 20
557.61451
 30
0.0
 11
673.506333
 21
558.93055
 31
0.0
  0
ARC
  5
1D0
100
AcDbEntity
  8
0
  6
CONTINUOUS
 62
     7
100
AcDbCircle
 10
674.08991
 20
554.670335
 30
0.0
 40
2.97167
100
AcDbArc
 50
97.8
 51
180.0
  0
LINE
  5
1D1
100
AcDbEntity
  8
0
  6
CONTINUOUS
 62
     7
100
AcDbLine
 10
671.118241
 20
554.670335
 30
0.0
 11
669.78991
 21
554.670335
 31
0.0
  0
LINE
  5
1D2
100
AcDbEntity
  8
0
  6
CONTINUOUS
 62
     7
100
AcDbLine
 10
671.118241
 20
554.670335
 30
0.0
 11
671.118241
 21
321.808523
 31
0.0
  0
CIRCLE
  5
1D3
100
AcDbEntity
  8
0
  6
CONTINUOUS
 62
     7
100
AcDbCircle
 10
676.68991
 20
306.239429
 30
0.0
 40
4.467385
  0
CIRCLE
  5
1D4
100
AcDbEntity
  8
0
  6
CONTINUOUS
 62
     7
100
AcDbCircle
 10
676.68991
 20
570.239429
 30
0.0
 40
4.467385
  0
LINE
  5
1D5
100
AcDbEntity
  8
0
  6
CONTINUOUS
 62
     7
100
AcDbLine
 10
672.711977
 20
564.729495
 30
0.0
 11
673.537651
 21
564.8426
 31
0.0
  0
LINE
  5
1D6
100
AcDbEntity
  8
0
  6
CONTINUOUS
 62
     7
100
AcDbLine
 10
672.711977
 20
311.749362
 30
0.0
 11
673.537651
 21
311.636257
 31
0.0
  0
LINE
  5
1D7
100
AcDbEntity
  8
0
  6
CONTINUOUS
 62
     7
100
AcDbLine
 10
692.83234
 20
560.237149
 30
0.0
 11
692.652065
 21
561.553189
 31
0.0
  0
LINE
  5
1D8
100
AcDbEntity
  8
0
  6
CONTINUOUS
 62
     7
100
AcDbLine
 10
673.686608
 20
557.61451
 30
0.0
 11
692.83234
 21
560.237149
 31
0.0
  0
LINE
  5
1D9
100
AcDbEntity
  8
0
  6
CONTINUOUS
 62
     7
100
AcDbLine
 10
692.83234
 20
316.241708
 30
0.0
 11
692.652065
 21
314.925668
 31
0.0
  0
LINE
  5
1DA
100
AcDbEntity
  8
0
  6
CONTINUOUS
 62
     7
100
AcDbLine
 10
673.686608
 20
318.864347
 30
0.0
 11
692.83234
 21
316.241708
 31
0.0
  0
LINE
  5
1DB
100
AcDbEntity
  8
0
  6
CONTINUOUS
 62
     7
100
AcDbLine
 10
684.231804
 20
310.143146
 30
0.0
 11
684.18991
 21
310.177076
 31
0.0
  0
LINE
  5
1DC
100
AcDbEntity
  8
0
  6
CONTINUOUS
 62
     7
100
AcDbLine
 10
681.177364
 20
310.589749
 30
0.0
 11
684.18991
 21
310.177076
 31
0.0
  0
LINE
  5
1DD
100
AcDbEntity
  8
0
  6
CONTINUOUS
 62
     7
100
AcDbLine
 10
691.712256
 20
308.064898
 30
0.0
 11
691.892058
 21
309.37748
 31
0.0
  0
LINE
  5
1DE
100
AcDbEntity
  8
0
  6
CONTINUOUS
 62
     7
100
AcDbLine
 10
685.797723
 20
308.875087
 30
0.0
 11
691.712256
 21
308.064898
 31
0.0
  0
LINE
  5
1DF
100
AcDbEntity
  8
0
  6
CONTINUOUS
 62
     7
100
AcDbLine
 10
685.797723
 20
308.875087
 30
0.0
 11
684.321293
 21
310.070682
 31
0.0
  0
LINE
  5
1E0
100
AcDbEntity
  8
0
  6
CONTINUOUS
 62
     7
100
AcDbLine
 10
684.321293
 20
310.130897
 30
0.0
 11
684.231804
 21
310.143146
 31
0.0
  0
LINE
  5
1E1
100
AcDbEntity
  8
0
  6
CONTINUOUS
 62
     7
100
AcDbLine
 10
684.321293
 20
566.408176
 30
0.0
 11
685.797723
 21
567.60377
 31
0.0
  0
LINE
  5
1E2
100
AcDbEntity
  8
0
  6
CONTINUOUS
 62
     7
100
AcDbLine
 10
685.797723
 20
567.60377
 30
0.0
 11
691.712256
 21
568.413959
 31
0.0
  0
LINE
  5
1E3
100
AcDbEntity
  8
0
  6
CONTINUOUS
 62
     7
100
AcDbLine
 10
691.712256
 20
568.413959
 30
0.0
 11
691.892058
 21
567.101377
 31
0.0
  0
LINE
  5
1E4
100
AcDbEntity
  8
0
  6
CONTINUOUS
 62
     7
100
AcDbLine
 10
681.177364
 20
565.889108
 30
0.0
 11
684.18991
 21
566.301781
 31
0.0
  0
LINE
  5
1E5
100
AcDbEntity
  8
0
  6
CONTINUOUS
 62
     7
100
AcDbLine
 10
684.18991
 20
566.301781
 30
0.0
 11
684.231804
 21
566.335711
 31
0.0
  0
LINE
  5
1E6
100
AcDbEntity
  8
0
  6
CONTINUOUS
 62
     7
100
AcDbLine
 10
684.321293
 20
566.34796
 30
0.0
 11
684.231804
 21
566.335711
 31
0.0
  0
LINE
  5
1E7
100
AcDbEntity
  8
0
  6
CONTINUOUS
 62
     7
100
AcDbLine
 10
693.765071
 20
305.711713
 30
0.0
 11
695.08991
 21
305.711713
 31
0.0
  0
ARC
  5
1E8
100
AcDbEntity
  8
0
  6
CONTINUOUS
 62
     7
100
AcDbCircle
 10
691.38991
 20
305.711713
 30
0.0
 40
2.375161
100
AcDbArc
 50
0.0
 51
82.2
  0
LINE
  5
1E9
100
AcDbEntity
  8
0
  6
CONTINUOUS
 62
     7
100
AcDbLine
 10
693.765071
 20
570.767144
 30
0.0
 11
695.08991
 21
570.767144
 31
0.0
  0
ARC
  5
1EA
100
AcDbEntity
  8
0
  6
CONTINUOUS
 62
     7
100
AcDbCircle
 10
691.38991
 20
570.767144
 30
0.0
 40
2.375161
100
AcDbArc
 50
277.8
 51
0.0
  0
LINE
  5
1EB
100
AcDbEntity
  8
0
  6
CONTINUOUS
 62
     7
100
AcDbLine
 10
702.018241
 20
305.711713
 30
0.0
 11
700.68991
 21
305.711713
 31
0.0
  0
ARC
  5
1EC
100
AcDbEntity
  8
0
  6
CONTINUOUS
 62
     7
100
AcDbCircle
 10
691.38991
 20
305.711713
 30
0.0
 40
10.62833
100
AcDbArc
 50
0.0
 51
82.2
  0
LINE
  5
1ED
100
AcDbEntity
  8
0
  6
CONTINUOUS
 62
     7
100
AcDbLine
 10
702.018241
 20
570.767144
 30
0.0
 11
700.68991
 21
570.767144
 31
0.0
  0
ARC
  5
1EE
100
AcDbEntity
  8
0
  6
CONTINUOUS
 62
     7
100
AcDbCircle
 10
691.38991
 20
570.767144
 30
0.0
 40
10.62833
100
AcDbArc
 50
277.8
 51
0.0
  0
ELLIPSE
  5
1EF
100
AcDbEntity
  8
0
  6
CONTINUOUS
 62
     7
100
AcDbEllipse
 10
704.98991
 20
303.815471
 30
0.0
 11
-0.0000000002310685
 21
10.08543127560031
 31
0.0
210
0.0
220
0.0
230
1.0
 40
0.999848
 41
2.02978361657197
 42
2.451233399628913
  0
LWPOLYLINE
  5
1F0
100
AcDbEntity
  8
0
  6
CONTINUOUS
 62
     7
100
AcDbPolyline
 90
        3
 70
   128
 43
0.0
 10
694.194423
 20
300.56462
 10
694.712305
 20
300.183016
 10
695.949683
 20
299.34721
  0
ARC
  5
1F1
100
AcDbEntity
  8
0
  6
CONTINUOUS
 62
     7
100
AcDbCircle
 10
704.98991
 20
303.639429
 30
0.0
 40
11.224839
100
AcDbArc
 50
180.0
 51
195.898206
  0
LINE
  5
1F2
100
AcDbEntity
  8
0
  6
CONTINUOUS
 62
     7
100
AcDbLine
 10
693.765071
 20
303.639429
 30
0.0
 11
695.08991
 21
303.639429
 31
0.0
  0
LINE
  5
1F3
100
AcDbEntity
  8
0
  6
CONTINUOUS
 62
     7
100
AcDbLine
 10
693.765071
 20
572.839429
 30
0.0
 11
695.08991
 21
572.839429
 31
0.0
  0
LINE
  5
1F4
100
AcDbEntity
  8
0
  6
CONTINUOUS
 62
     7
100
AcDbLine
 10
693.765071
 20
570.767144
 30
0.0
 11
693.765071
 21
572.839429
 31
0.0
  0
LINE
  5
1F5
100
AcDbEntity
  8
0
  6
CONTINUOUS
 62
     7
100
AcDbLine
 10
693.765071
 20
305.711713
 30
0.0
 11
693.765071
 21
303.639429
 31
0.0
  0
LWPOLYLINE
  5
1F6
100
AcDbEntity
  8
0
  6
CONTINUOUS
 62
     7
100
AcDbPolyline
 90
        3
 70
   128
 43
0.0
 10
694.194423
 20
575.914237
 10
694.712305
 20
576.295841
 10
695.949683
 20
577.131647
  0
ELLIPSE
  5
1F7
100
AcDbEntity
  8
0
  6
CONTINUOUS
 62
     7
100
AcDbEllipse
 10
704.98991
 20
572.663387
 30
0.0
 11
0.0000000002312106
 21
10.08543127560045
 31
0.0
210
0.0
220
0.0
230
1.0
 40
0.999848
 41
0.6903592539608919
 42
1.111809037017823
  0
ARC
  5
1F8
100
AcDbEntity
  8
0
  6
CONTINUOUS
 62
     7
100
AcDbCircle
 10
704.98991
 20
572.839429
 30
0.0
 40
11.224839
100
AcDbArc
 50
164.101794
 51
180.0
  0
LINE
  5
1F9
100
AcDbEntity
  8
0
  6
CONTINUOUS
 62
     7
100
AcDbLine
 10
704.98991
 20
575.811098
 30
0.0
 11
704.98991
 21
577.139429
 31
0.0
  0
ARC
  5
1FA
100
AcDbEntity
  8
0
  6
CONTINUOUS
 62
     7
100
AcDbCircle
 10
704.98991
 20
572.839429
 30
0.0
 40
2.97167
100
AcDbArc
 50
90.0
 51
180.0
  0
LINE
  5
1FB
100
AcDbEntity
  8
0
  6
CONTINUOUS
 62
     7
100
AcDbLine
 10
702.018241
 20
572.839429
 30
0.0
 11
700.68991
 21
572.839429
 31
0.0
  0
LINE
  5
1FC
100
AcDbEntity
  8
0
  6
CONTINUOUS
 62
     7
100
AcDbLine
 10
702.018241
 20
570.767144
 30
0.0
 11
702.018241
 21
572.839429
 31
0.0
  0
LINE
  5
1FD
100
AcDbEntity
  8
0
  6
CONTINUOUS
 62
     7
100
AcDbLine
 10
702.018241
 20
303.639429
 30
0.0
 11
700.68991
 21
303.639429
 31
0.0
  0
LINE
  5
1FE
100
AcDbEntity
  8
0
  6
CONTINUOUS
 62
     7
100
AcDbLine
 10
702.018241
 20
305.711713
 30
0.0
 11
702.018241
 21
303.639429
 31
0.0
  0
LINE
  5
1FF
100
AcDbEntity
  8
0
  6
CONTINUOUS
 62
     7
100
AcDbLine
 10
704.98991
 20
300.667759
 30
0.0
 11
704.98991
 21
299.339429
 31
0.0
  0
ARC
  5
200
100
AcDbEntity
  8
0
  6
CONTINUOUS
 62
     7
100
AcDbCircle
 10
704.98991
 20
303.639429
 30
0.0
 40
2.97167
100
AcDbArc
 50
180.0
 51
270.0
  0
LINE
  5
201
100
AcDbEntity
  8
0
  6
CONTINUOUS
 62
     7
100
AcDbLine
 10
862.38991
 20
300.667759
 30
0.0
 11
704.98991
 21
300.667759
 31
0.0
  0
LINE
  5
202
100
AcDbEntity
  8
0
  6
CONTINUOUS
 62
     7
100
AcDbLine
 10
862.38991
 20
300.667759
 30
0.0
 11
862.38991
 21
299.339429
 31
0.0
  0
LINE
  5
203
100
AcDbEntity
  8
0
  6
CONTINUOUS
 62
     7
100
AcDbLine
 10
862.38991
 20
575.811098
 30
0.0
 11
862.38991
 21
577.139429
 31
0.0
  0
LINE
  5
204
100
AcDbEntity
  8
0
  6
CONTINUOUS
 62
     7
100
AcDbLine
 10
862.38991
 20
575.811098
 30
0.0
 11
704.98991
 21
575.811098
 31
0.0
  0
ARC
  5
205
100
AcDbEntity
  8
0
  6
CONTINUOUS
 62
     7
100
AcDbCircle
 10
862.38991
 20
303.639429
 30
0.0
 40
2.97167
100
AcDbArc
 50
270.0
 51
0.0
  0
LINE
  5
206
100
AcDbEntity
  8
0
  6
CONTINUOUS
 62
     7
100
AcDbLine
 10
865.36158
 20
303.639429
 30
0.0
 11
866.68991
 21
303.639429
 31
0.0
  0
LINE
  5
207
100
AcDbEntity
  8
0
  6
CONTINUOUS
 62
     7
100
AcDbLine
 10
865.36158
 20
572.839429
 30
0.0
 11
866.68991
 21
572.839429
 31
0.0
  0
ARC
  5
208
100
AcDbEntity
  8
0
  6
CONTINUOUS
 62
     7
100
AcDbCircle
 10
862.38991
 20
572.839429
 30
0.0
 40
2.97167
100
AcDbArc
 50
0.0
 51
90.0
  0
LINE
  5
209
100
AcDbEntity
  8
0
  6
CONTINUOUS
 62
     7
100
AcDbLine
 10
865.36158
 20
305.711713
 30
0.0
 11
865.36158
 21
303.639429
 31
0.0
  0
LINE
  5
20A
100
AcDbEntity
  8
0
  6
CONTINUOUS
 62
     7
100
AcDbLine
 10
865.36158
 20
305.711713
 30
0.0
 11
866.68991
 21
305.711713
 31
0.0
  0
ARC
  5
20B
100
AcDbEntity
  8
0
  6
CONTINUOUS
 62
     7
100
AcDbCircle
 10
875.98991
 20
305.711713
 30
0.0
 40
10.62833
100
AcDbArc
 50
97.8
 51
180.0
  0
LINE
  5
20C
100
AcDbEntity
  8
0
  6
CONTINUOUS
 62
     7
100
AcDbLine
 10
874.54748
 20
316.241708
 30
0.0
 11
874.727755
 21
314.925668
 31
0.0
  0
LINE
  5
20D
100
AcDbEntity
  8
0
  6
CONTINUOUS
 62
     7
100
AcDbLine
 10
865.36158
 20
570.767144
 30
0.0
 11
866.68991
 21
570.767144
 31
0.0
  0
LINE
  5
20E
100
AcDbEntity
  8
0
  6
CONTINUOUS
 62
     7
100
AcDbLine
 10
865.36158
 20
570.767144
 30
0.0
 11
865.36158
 21
572.839429
 31
0.0
  0
LINE
  5
20F
100
AcDbEntity
  8
0
  6
CONTINUOUS
 62
     7
100
AcDbLine
 10
874.54748
 20
560.237149
 30
0.0
 11
874.727755
 21
561.553189
 31
0.0
  0
ARC
  5
210
100
AcDbEntity
  8
0
  6
CONTINUOUS
 62
     7
100
AcDbCircle
 10
875.98991
 20
570.767144
 30
0.0
 40
10.62833
100
AcDbArc
 50
180.0
 51
262.2
  0
ELLIPSE
  5
211
100
AcDbEntity
  8
0
  6
CONTINUOUS
 62
     7
100
AcDbEllipse
 10
862.38991
 20
572.663387
 30
0.0
 11
0.0000000002312106
 21
10.08543127560045
 31
0.0
210
0.0
220
0.0
230
1.0
 40
0.999848
 41
5.171376270207622
 42
5.592826053264555
  0
LWPOLYLINE
  5
212
100
AcDbEntity
  8
0
  6
CONTINUOUS
 62
     7
100
AcDbPolyline
 90
        3
 70
   128
 43
0.0
 10
873.185398
 20
575.914237
 10
872.667515
 20
576.295841
 10
871.430138
 20
577.131647
  0
ARC
  5
213
100
AcDbEntity
  8
0
  6
CONTINUOUS
 62
     7
100
AcDbCircle
 10
862.38991
 20
572.839429
 30
0.0
 40
11.224839
100
AcDbArc
 50
0.0
 51
15.898206
  0
LINE
  5
214
100
AcDbEntity
  8
0
  6
CONTINUOUS
 62
     7
100
AcDbLine
 10
873.61475
 20
572.839429
 30
0.0
 11
872.28991
 21
572.839429
 31
0.0
  0
LWPOLYLINE
  5
215
100
AcDbEntity
  8
0
  6
CONTINUOUS
 62
     7
100
AcDbPolyline
 90
        3
 70
   128
 43
0.0
 10
873.185398
 20
300.56462
 10
872.667515
 20
300.183016
 10
871.430138
 20
299.34721
  0
ELLIPSE
  5
216
100
AcDbEntity
  8
0
  6
CONTINUOUS
 62
     7
100
AcDbEllipse
 10
862.38991
 20
303.815471
 30
0.0
 11
-0.0000000002310685
 21
10.08543127560031
 31
0.0
210
0.0
220
0.0
230
1.0
 40
0.999848
 41
3.831951907504866
 42
4.253401690561813
  0
LINE
  5
217
100
AcDbEntity
  8
0
  6
CONTINUOUS
 62
     7
100
AcDbLine
 10
873.61475
 20
303.639429
 30
0.0
 11
872.28991
 21
303.639429
 31
0.0
  0
ARC
  5
218
100
AcDbEntity
  8
0
  6
CONTINUOUS
 62
     7
100
AcDbCircle
 10
862.38991
 20
303.639429
 30
0.0
 40
11.224839
100
AcDbArc
 50
344.101794
 51
0.0
  0
LINE
  5
219
100
AcDbEntity
  8
0
  6
CONTINUOUS
 62
     7
100
AcDbLine
 10
873.61475
 20
570.767144
 30
0.0
 11
873.61475
 21
572.839429
 31
0.0
  0
LINE
  5
21A
100
AcDbEntity
  8
0
  6
CONTINUOUS
 62
     7
100
AcDbLine
 10
873.61475
 20
570.767144
 30
0.0
 11
872.28991
 21
570.767144
 31
0.0
  0
ARC
  5
21B
100
AcDbEntity
  8
0
  6
CONTINUOUS
 62
     7
100
AcDbCircle
 10
875.98991
 20
570.767144
 30
0.0
 40
2.375161
100
AcDbArc
 50
180.0
 51
262.2
  0
LINE
  5
21C
100
AcDbEntity
  8
0
  6
CONTINUOUS
 62
     7
100
AcDbLine
 10
875.667564
 20
568.413959
 30
0.0
 11
875.487763
 21
567.101377
 31
0.0
  0
LINE
  5
21D
100
AcDbEntity
  8
0
  6
CONTINUOUS
 62
     7
100
AcDbLine
 10
873.61475
 20
305.711713
 30
0.0
 11
872.28991
 21
305.711713
 31
0.0
  0
LINE
  5
21E
100
AcDbEntity
  8
0
  6
CONTINUOUS
 62
     7
100
AcDbLine
 10
875.667564
 20
308.064898
 30
0.0
 11
875.487763
 21
309.37748
 31
0.0
  0
ARC
  5
21F
100
AcDbEntity
  8
0
  6
CONTINUOUS
 62
     7
100
AcDbCircle
 10
875.98991
 20
305.711713
 30
0.0
 40
2.375161
100
AcDbArc
 50
97.8
 51
180.0
  0
LINE
  5
220
100
AcDbEntity
  8
0
  6
CONTINUOUS
 62
     7
100
AcDbLine
 10
873.61475
 20
305.711713
 30
0.0
 11
873.61475
 21
303.639429
 31
0.0
  0
LINE
  5
221
100
AcDbEntity
  8
0
  6
CONTINUOUS
 62
     7
100
AcDbLine
 10
893.693212
 20
318.864347
 30
0.0
 11
874.54748
 21
316.241708
 31
0.0
  0
LINE
  5
222
100
AcDbEntity
  8
0
  6
CONTINUOUS
 62
     7
100
AcDbLine
 10
893.693212
 20
318.864347
 30
0.0
 11
893.873487
 21
317.548307
 31
0.0
  0
LINE
  5
223
100
AcDbEntity
  8
0
  6
CONTINUOUS
 62
     7
100
AcDbLine
 10
893.693212
 20
557.61451
 30
0.0
 11
893.873487
 21
558.93055
 31
0.0
  0
LINE
  5
224
100
AcDbEntity
  8
0
  6
CONTINUOUS
 62
     7
100
AcDbLine
 10
893.693212
 20
557.61451
 30
0.0
 11
874.54748
 21
560.237149
 31
0.0
  0
LINE
  5
225
100
AcDbEntity
  8
0
  6
CONTINUOUS
 62
     7
100
AcDbLine
 10
883.148016
 20
566.335711
 30
0.0
 11
883.189911
 21
566.301781
 31
0.0
  0
LINE
  5
226
100
AcDbEntity
  8
0
  6
CONTINUOUS
 62
     7
100
AcDbLine
 10
886.202456
 20
565.889108
 30
0.0
 11
883.189911
 21
566.301781
 31
0.0
  0
LINE
  5
227
100
AcDbEntity
  8
0
  6
CONTINUOUS
 62
     7
100
AcDbLine
 10
881.582098
 20
567.60377
 30
0.0
 11
875.667564
 21
568.413959
 31
0.0
  0
LINE
  5
228
100
AcDbEntity
  8
0
  6
CONTINUOUS
 62
     7
100
AcDbLine
 10
881.582098
 20
567.60377
 30
0.0
 11
883.058527
 21
566.408176
 31
0.0
  0
LINE
  5
229
100
AcDbEntity
  8
0
  6
CONTINUOUS
 62
     7
100
AcDbLine
 10
883.058527
 20
566.34796
 30
0.0
 11
883.148016
 21
566.335711
 31
0.0
  0
LINE
  5
22A
100
AcDbEntity
  8
0
  6
CONTINUOUS
 62
     7
100
AcDbLine
 10
883.058527
 20
310.070682
 30
0.0
 11
881.582098
 21
308.875087
 31
0.0
  0
LINE
  5
22B
100
AcDbEntity
  8
0
  6
CONTINUOUS
 62
     7
100
AcDbLine
 10
881.582098
 20
308.875087
 30
0.0
 11
875.667564
 21
308.064898
 31
0.0
  0
LINE
  5
22C
100
AcDbEntity
  8
0
  6
CONTINUOUS
 62
     7
100
AcDbLine
 10
886.202456
 20
310.589749
 30
0.0
 11
883.189911
 21
310.177076
 31
0.0
  0
LINE
  5
22D
100
AcDbEntity
  8
0
  6
CONTINUOUS
 62
     7
100
AcDbLine
 10
883.189911
 20
310.177076
 30
0.0
 11
883.148016
 21
310.143146
 31
0.0
  0
LINE
  5
22E
100
AcDbEntity
  8
0
  6
CONTINUOUS
 62
     7
100
AcDbLine
 10
883.058527
 20
310.130897
 30
0.0
 11
883.148016
 21
310.143146
 31
0.0
  0
CIRCLE
  5
22F
100
AcDbEntity
  8
0
  6
CONTINUOUS
 62
     7
100
AcDbCircle
 10
890.68991
 20
570.239429
 30
0.0
 40
4.467385
  0
CIRCLE
  5
230
100
AcDbEntity
  8
0
  6
CONTINUOUS
 62
     7
100
AcDbCircle
 10
890.68991
 20
306.239429
 30
0.0
 40
4.467385
  0
LINE
  5
231
100
AcDbEntity
  8
0
  6
CONTINUOUS
 62
     7
100
AcDbLine
 10
894.667844
 20
311.749362
 30
0.0
 11
894.633494
 21
312.000119
 31
0.0
  0
LINE
  5
232
100
AcDbEntity
  8
0
  6
CONTINUOUS
 62
     7
100
AcDbLine
 10
894.667844
 20
311.749362
 30
0.0
 11
893.84217
 21
311.636257
 31
0.0
  0
LINE
  5
233
100
AcDbEntity
  8
0
  6
CONTINUOUS
 62
     7
100
AcDbLine
 10
894.667844
 20
564.729495
 30
0.0
 11
893.84217
 21
564.8426
 31
0.0
  0
LINE
  5
234
100
AcDbEntity
  8
0
  6
CONTINUOUS
 62
     7
100
AcDbLine
 10
894.667844
 20
564.729495
 30
0.0
 11
894.633494
 21
564.478738
 31
0.0
  0
LINE
  5
235
100
AcDbEntity
  8
0
  6
CONTINUOUS
 62
     7
100
AcDbLine
 10
896.26158
 20
554.670335
 30
0.0
 11
897.58991
 21
554.670335
 31
0.0
  0
ARC
  5
236
100
AcDbEntity
  8
0
  6
CONTINUOUS
 62
     7
100
AcDbCircle
 10
893.28991
 20
554.670335
 30
0.0
 40
2.97167
100
AcDbArc
 50
0.0
 51
82.2
  0
ARC
  5
237
100
AcDbEntity
  8
0
  6
CONTINUOUS
 62
     7
100
AcDbCircle
 10
893.28991
 20
321.808523
 30
0.0
 40
2.97167
100
AcDbArc
 50
277.8
 51
0.0
  0
LINE
  5
238
100
AcDbEntity
  8
0
  6
CONTINUOUS
 62
     7
100
AcDbLine
 10
896.26158
 20
321.808523
 30
0.0
 11
897.58991
 21
321.808523
 31
0.0
  0
ARC
  5
239
100
AcDbEntity
  8
0
  6
CONTINUOUS
 62
     7
100
AcDbCircle
 10
882.866545
 20
544.008173
 30
0.0
 40
24.836314
100
AcDbArc
 50
43.47405
 51
50.244583
  0
ARC
  5
23A
100
AcDbEntity
  8
0
  6
CONTINUOUS
 62
     7
100
AcDbCircle
 10
893.28991
 20
554.670335
 30
0.0
 40
10.153098
100
AcDbArc
 50
56.944745
 51
82.2
  0
ARC
  5
23B
100
AcDbEntity
  8
0
  6
CONTINUOUS
 62
     7
100
AcDbCircle
 10
882.866545
 20
332.470685
 30
0.0
 40
24.836314
100
AcDbArc
 50
309.755417
 51
316.52595
  0
ARC
  5
23C
100
AcDbEntity
  8
0
  6
CONTINUOUS
 62
     7
100
AcDbCircle
 10
893.28991
 20
321.808523
 30
0.0
 40
10.153098
100
AcDbArc
 50
277.8
 51
303.055255
  0
LINE
  5
23D
100
AcDbEntity
  8
0
  6
CONTINUOUS
 62
     7
100
AcDbLine
 10
896.26158
 20
321.808523
 30
0.0
 11
896.26158
 21
554.670335
 31
0.0
  0
ELLIPSE
  5
23E
100
AcDbEntity
  8
0
  6
CONTINUOUS
 62
     7
100
AcDbEllipse
 10
689.13991
 20
577.094844
 30
0.0
 11
2.107784923723556
 21
0.0
 31
0.0
210
0.0
220
0.0
230
1.0
 40
0.017458
 41
1.570796326794896
 42
3.159048605002158
  0
LINE
  5
23F
100
AcDbEntity
  8
0
  6
CONTINUOUS
 62
     7
100
AcDbLine
 10
687.032448
 20
577.094201
 30
0.0
 11
683.687219
 21
580.439422
 31
0.0
  0
LINE
  5
240
100
AcDbEntity
  8
0
  6
CONTINUOUS
 62
     7
100
AcDbLine
 10
689.139912
 20
577.131647
 30
0.0
 11
689.139912
 21
580.439422
 31
0.0
  0
LINE
  5
241
100
AcDbEntity
  8
0
  6
CONTINUOUS
 62
     7
100
AcDbLine
 10
687.032448
 20
299.384657
 30
0.0
 11
683.687219
 21
296.039436
 31
0.0
  0
ELLIPSE
  5
242
100
AcDbEntity
  8
0
  6
CONTINUOUS
 62
     7
100
AcDbEllipse
 10
689.13991
 20
299.384014
 30
0.0
 11
2.107784923723556
 21
0.0
 31
0.0
210
0.0
220
0.0
230
1.0
 40
0.017458
 41
3.124136702174295
 42
4.712388980384689
  0
LINE
  5
243
100
AcDbEntity
  8
0
  6
CONTINUOUS
 62
     7
100
AcDbLine
 10
689.139912
 20
299.34721
 30
0.0
 11
689.139912
 21
296.039436
 31
0.0
  0
LINE
  5
244
100
AcDbEntity
  8
0
  6
CONTINUOUS
 62
     7
100
AcDbLine
 10
695.949683
 20
577.131647
 30
0.0
 11
689.139912
 21
577.131647
 31
0.0
  0
LINE
  5
245
100
AcDbEntity
  8
0
  6
CONTINUOUS
 62
     7
100
AcDbLine
 10
695.949683
 20
299.34721
 30
0.0
 11
689.139912
 21
299.34721
 31
0.0
  0
LINE
  5
246
100
AcDbEntity
  8
0
  6
CONTINUOUS
 62
     7
100
AcDbLine
 10
878.239909
 20
577.131647
 30
0.0
 11
878.239909
 21
580.439422
 31
0.0
  0
LINE
  5
247
100
AcDbEntity
  8
0
  6
CONTINUOUS
 62
     7
100
AcDbLine
 10
878.239909
 20
577.131647
 30
0.0
 11
871.430138
 21
577.131647
 31
0.0
  0
LINE
  5
248
100
AcDbEntity
  8
0
  6
CONTINUOUS
 62
     7
100
AcDbLine
 10
878.239909
 20
299.34721
 30
0.0
 11
871.430138
 21
299.34721
 31
0.0
  0
LINE
  5
249
100
AcDbEntity
  8
0
  6
CONTINUOUS
 62
     7
100
AcDbLine
 10
878.239909
 20
299.34721
 30
0.0
 11
878.239909
 21
296.039436
 31
0.0
  0
ELLIPSE
  5
24A
100
AcDbEntity
  8
0
  6
CONTINUOUS
 62
     7
100
AcDbEllipse
 10
878.23991
 20
577.094844
 30
0.0
 11
2.107784923723556
 21
0.0
 31
0.0
210
0.0
220
0.0
230
1.0
 40
0.017458
 41
6.265729355768802
 42
7.853981633974482
  0
LINE
  5
24B
100
AcDbEntity
  8
0
  6
CONTINUOUS
 62
     7
100
AcDbLine
 10
880.347373
 20
577.094201
 30
0.0
 11
883.692601
 21
580.439422
 31
0.0
  0
ELLIPSE
  5
24C
100
AcDbEntity
  8
0
  6
CONTINUOUS
 62
     7
100
AcDbEllipse
 10
878.23991
 20
299.384014
 30
0.0
 11
2.107784923723556
 21
0.0
 31
0.0
210
0.0
220
0.0
230
1.0
 40
0.017458
 41
4.712388980384689
 42
6.300641258595902
  0
LINE
  5
24D
100
AcDbEntity
  8
0
  6
CONTINUOUS
 62
     7
100
AcDbLine
 10
880.347373
 20
299.384657
 30
0.0
 11
883.692601
 21
296.039436
 31
0.0
  0
LINE
  5
24E
100
AcDbEntity
  8
0
  6
CONTINUOUS
 62
     7
100
AcDbLine
 10
668.630162
 20
313.376989
 30
0.0
 11
666.489908
 21
311.236742
 31
0.0
  0
LINE
  5
24F
100
AcDbEntity
  8
0
  6
CONTINUOUS
 62
     7
100
AcDbLine
 10
668.630162
 20
563.101869
 30
0.0
 11
666.489908
 21
565.242115
 31
0.0
  0
LINE
  5
250
100
AcDbEntity
  8
0
  6
CONTINUOUS
 62
     7
100
AcDbLine
 10
898.749658
 20
313.376989
 30
0.0
 11
900.889912
 21
311.236742
 31
0.0
  0
LINE
  5
251
100
AcDbEntity
  8
0
  6
CONTINUOUS
 62
     7
100
AcDbLine
 10
898.749658
 20
563.101869
 30
0.0
 11
900.889912
 21
565.242115
 31
0.0
  0
LINE
  5
252
100
AcDbEntity
  8
0
  6
CONTINUOUS
 62
     7
100
AcDbLine
 10
687.032448
 20
577.094201
 30
0.0
 11
688.212411
 21
575.914237
 31
0.0
  0
LINE
  5
253
100
AcDbEntity
  8
0
  6
CONTINUOUS
 62
     7
100
AcDbLine
 10
694.194422
 20
575.914239
 30
0.0
 11
688.212411
 21
575.914237
 31
0.0
  0
LINE
  5
254
100
AcDbEntity
  8
0
  6
CONTINUOUS
 62
     7
100
AcDbLine
 10
687.032448
 20
299.384657
 30
0.0
 11
688.212411
 21
300.56462
 31
0.0
  0
LINE
  5
255
100
AcDbEntity
  8
0
  6
CONTINUOUS
 62
     7
100
AcDbLine
 10
688.212411
 20
300.56462
 30
0.0
 11
694.194422
 21
300.564618
 31
0.0
  0
LINE
  5
256
100
AcDbEntity
  8
0
  6
CONTINUOUS
 62
     7
100
AcDbLine
 10
880.347373
 20
577.094201
 30
0.0
 11
879.167409
 21
575.914237
 31
0.0
  0
LINE
  5
257
100
AcDbEntity
  8
0
  6
CONTINUOUS
 62
     7
100
AcDbLine
 10
879.167409
 20
575.914237
 30
0.0
 11
873.185398
 21
575.914239
 31
0.0
  0
LINE
  5
258
100
AcDbEntity
  8
0
  6
CONTINUOUS
 62
     7
100
AcDbLine
 10
880.347373
 20
299.384657
 30
0.0
 11
879.167409
 21
300.56462
 31
0.0
  0
LINE
  5
259
100
AcDbEntity
  8
0
  6
CONTINUOUS
 62
     7
100
AcDbLine
 10
873.185398
 20
300.564618
 30
0.0
 11
879.167409
 21
300.56462
 31
0.0
  0
LINE
  5
25A
100
AcDbEntity
  8
0
  6
CONTINUOUS
 62
     7
100
AcDbLine
 10
684.18991
 20
310.177076
 30
0.0
 11
684.18991
 21
296.542126
 31
0.0
  0
LINE
  5
25B
100
AcDbEntity
  8
0
  6
CONTINUOUS
 62
     7
100
AcDbLine
 10
671.277249
 20
309.364426
 30
0.0
 11
669.718406
 21
310.264429
 31
0.0
  0
ARC
  5
25C
100
AcDbEntity
  8
0
  6
CONTINUOUS
 62
     7
100
AcDbCircle
 10
676.68991
 20
306.239429
 30
0.0
 40
8.05
100
AcDbArc
 50
150.0
 51
300.0
  0
LINE
  5
25D
100
AcDbEntity
  8
0
  6
CONTINUOUS
 62
     7
100
AcDbLine
 10
680.71491
 20
299.267924
 30
0.0
 11
679.814914
 21
300.826776
 31
0.0
  0
LINE
  5
25E
100
AcDbEntity
  8
0
  6
CONTINUOUS
 62
     7
100
AcDbLine
 10
684.18991
 20
566.301781
 30
0.0
 11
684.18991
 21
579.936731
 31
0.0
  0
LINE
  5
25F
100
AcDbEntity
  8
0
  6
CONTINUOUS
 62
     7
100
AcDbLine
 10
680.71491
 20
577.210933
 30
0.0
 11
679.814914
 21
575.652081
 31
0.0
  0
ARC
  5
260
100
AcDbEntity
  8
0
  6
CONTINUOUS
 62
     7
100
AcDbCircle
 10
676.68991
 20
570.239429
 30
0.0
 40
8.05
100
AcDbArc
 50
60.0
 51
210.0
  0
LINE
  5
261
100
AcDbEntity
  8
0
  6
CONTINUOUS
 62
     7
100
AcDbLine
 10
671.277249
 20
567.114431
 30
0.0
 11
669.718406
 21
566.214429
 31
0.0
  0
LINE
  5
262
100
AcDbEntity
  8
0
  6
CONTINUOUS
 62
     7
100
AcDbLine
 10
684.231804
 20
310.143146
 30
0.0
 11
684.231804
 21
296.584013
 31
0.0
  0
LINE
  5
263
100
AcDbEntity
  8
0
  6
CONTINUOUS
 62
     7
100
AcDbLine
 10
684.231804
 20
566.335711
 30
0.0
 11
684.231804
 21
579.894844
 31
0.0
  0
LINE
  5
264
100
AcDbEntity
  8
0
  6
CONTINUOUS
 62
     7
100
AcDbLine
 10
883.189911
 20
566.301781
 30
0.0
 11
883.189911
 21
579.936731
 31
0.0
  0
LINE
  5
265
100
AcDbEntity
  8
0
  6
CONTINUOUS
 62
     7
100
AcDbLine
 10
883.148016
 20
566.335711
 30
0.0
 11
883.148016
 21
579.894844
 31
0.0
  0
LINE
  5
266
100
AcDbEntity
  8
0
  6
CONTINUOUS
 62
     7
100
AcDbLine
 10
883.189911
 20
310.177076
 30
0.0
 11
883.189911
 21
296.542126
 31
0.0
  0
LINE
  5
267
100
AcDbEntity
  8
0
  6
CONTINUOUS
 62
     7
100
AcDbLine
 10
883.148016
 20
310.143146
 30
0.0
 11
883.148016
 21
296.584013
 31
0.0
  0
LINE
  5
268
100
AcDbEntity
  8
0
  6
CONTINUOUS
 62
     7
100
AcDbLine
 10
896.102571
 20
567.114431
 30
0.0
 11
897.661415
 21
566.214429
 31
0.0
  0
ARC
  5
269
100
AcDbEntity
  8
0
  6
CONTINUOUS
 62
     7
100
AcDbCircle
 10
890.68991
 20
570.239429
 30
0.0
 40
8.05
100
AcDbArc
 50
330.0
 51
120.0
  0
LINE
  5
26A
100
AcDbEntity
  8
0
  6
CONTINUOUS
 62
     7
100
AcDbLine
 10
886.66491
 20
577.210933
 30
0.0
 11
887.564906
 21
575.652081
 31
0.0
  0
LINE
  5
26B
100
AcDbEntity
  8
0
  6
CONTINUOUS
 62
     7
100
AcDbLine
 10
886.66491
 20
299.267924
 30
0.0
 11
887.564906
 21
300.826776
 31
0.0
  0
ARC
  5
26C
100
AcDbEntity
  8
0
  6
CONTINUOUS
 62
     7
100
AcDbCircle
 10
890.68991
 20
306.239429
 30
0.0
 40
8.05
100
AcDbArc
 50
240.0
 51
30.0
  0
LINE
  5
26D
100
AcDbEntity
  8
0
  6
CONTINUOUS
 62
     7
100
AcDbLine
 10
896.102571
 20
309.364426
 30
0.0
 11
897.661415
 21
310.264429
 31
0.0
  0
LINE
  5
26E
100
AcDbEntity
  8
0
  6
CONTINUOUS
 62
     7
100
AcDbLine
 10
684.321293
 20
310.130897
 30
0.0
 11
684.321293
 21
296.67351
 31
0.0
  0
LINE
  5
26F
100
AcDbEntity
  8
0
  6
CONTINUOUS
 62
     7
100
AcDbLine
 10
684.321293
 20
579.805348
 30
0.0
 11
684.321293
 21
566.34796
 31
0.0
  0
LINE
  5
270
100
AcDbEntity
  8
0
  6
CONTINUOUS
 62
     7
100
AcDbLine
 10
883.058527
 20
566.34796
 30
0.0
 11
883.058527
 21
579.805348
 31
0.0
  0
LINE
  5
271
100
AcDbEntity
  8
0
  6
CONTINUOUS
 62
     7
100
AcDbLine
 10
883.058527
 20
296.67351
 30
0.0
 11
883.058527
 21
310.130897
 31
0.0
  0
LINE
  5
272
100
AcDbEntity
  8
0
  6
CONTINUOUS
 62
     7
100
AcDbLine
 10
685.797723
 20
578.328926
 30
0.0
 11
685.797723
 21
567.60377
 31
0.0
  0
LINE
  5
273
100
AcDbEntity
  8
0
  6
CONTINUOUS
 62
     7
100
AcDbLine
 10
881.582098
 20
578.328926
 30
0.0
 11
881.582098
 21
567.60377
 31
0.0
  0
LINE
  5
274
100
AcDbEntity
  8
0
  6
CONTINUOUS
 62
     7
100
AcDbLine
 10
685.797723
 20
298.149932
 30
0.0
 11
685.797723
 21
308.875087
 31
0.0
  0
LINE
  5
275
100
AcDbEntity
  8
0
  6
CONTINUOUS
 62
     7
100
AcDbLine
 10
881.582098
 20
298.149932
 30
0.0
 11
881.582098
 21
308.875087
 31
0.0
  0
CIRCLE
  5
276
100
AcDbEntity
  8
0
  6
CONTINUOUS
 62
     7
100
AcDbCircle
 10
681.18991
 20
438.239429
 30
0.0
 40
2.0
  0
CIRCLE
  5
277
100
AcDbEntity
  8
0
  6
CONTINUOUS
 62
     7
100
AcDbCircle
 10
681.18991
 20
438.239429
 30
0.0
 40
1.982545
  0
LINE
  5
278
100
AcDbEntity
  8
0
  6
CONTINUOUS
 62
     7
100
AcDbLine
 10
680.308997
 20
434.8521
 30
0.0
 11
680.43991
 21
434.954882
 31
0.0
  0
ARC
  5
279
100
AcDbEntity
  8
0
  6
CONTINUOUS
 62
     7
100
AcDbCircle
 10
681.18991
 20
438.239429
 30
0.0
 40
3.5
100
AcDbArc
 50
104.577506
 51
255.422494
  0
LWPOLYLINE
  5
27A
100
AcDbEntity
  8
0
  6
CONTINUOUS
 62
     7
100
AcDbPolyline
 90
        3
 70
   128
 43
0.0
 10
680.439913
 20
441.523975
 10
680.324347
 20
441.61487
 10
680.308999
 20
441.626757
  0
ARC
  5
27B
100
AcDbEntity
  8
0
  6
CONTINUOUS
 62
     7
100
AcDbCircle
 10
681.18991
 20
438.239429
 30
0.0
 40
3.369087
100
AcDbArc
 50
102.862509
 51
257.137491
  0
LINE
  5
27C
100
AcDbEntity
  8
0
  6
CONTINUOUS
 62
     7
100
AcDbLine
 10
680.439913
 20
382.239427
 30
0.0
 11
680.43991
 21
379.023975
 31
0.0
  0
LINE
  5
27D
100
AcDbEntity
  8
0
  6
CONTINUOUS
 62
     7
100
AcDbLine
 10
681.939909
 20
382.239427
 30
0.0
 11
680.439913
 21
382.239427
 31
0.0
  0
LINE
  5
27E
100
AcDbEntity
  8
0
  6
CONTINUOUS
 62
     7
100
AcDbLine
 10
681.93991
 20
379.023975
 30
0.0
 11
681.939909
 21
382.239427
 31
0.0
  0
ARC
  5
27F
100
AcDbEntity
  8
0
  6
CONTINUOUS
 62
     7
100
AcDbCircle
 10
681.18991
 20
375.739429
 30
0.0
 40
3.369087
100
AcDbArc
 50
282.862509
 51
77.137491
  0
LINE
  5
280
100
AcDbEntity
  8
0
  6
CONTINUOUS
 62
     7
100
AcDbLine
 10
681.939909
 20
369.23943
 30
0.0
 11
681.93991
 21
372.454882
 31
0.0
  0
LINE
  5
281
100
AcDbEntity
  8
0
  6
CONTINUOUS
 62
     7
100
AcDbLine
 10
680.439913
 20
369.23943
 30
0.0
 11
681.939909
 21
369.23943
 31
0.0
  0
LINE
  5
282
100
AcDbEntity
  8
0
  6
CONTINUOUS
 62
     7
100
AcDbLine
 10
680.43991
 20
372.454882
 30
0.0
 11
680.439913
 21
369.23943
 31
0.0
  0
ARC
  5
283
100
AcDbEntity
  8
0
  6
CONTINUOUS
 62
     7
100
AcDbCircle
 10
681.18991
 20
375.739429
 30
0.0
 40
3.369087
100
AcDbArc
 50
102.862509
 51
257.137491
  0
CIRCLE
  5
284
100
AcDbEntity
  8
0
  6
CONTINUOUS
 62
     7
100
AcDbCircle
 10
681.18991
 20
375.739429
 30
0.0
 40
2.0
  0
CIRCLE
  5
285
100
AcDbEntity
  8
0
  6
CONTINUOUS
 62
     7
100
AcDbCircle
 10
681.18991
 20
375.739429
 30
0.0
 40
1.982545
  0
CIRCLE
  5
286
100
AcDbEntity
  8
0
  6
CONTINUOUS
 62
     7
100
AcDbCircle
 10
681.18991
 20
500.739429
 30
0.0
 40
2.0
  0
CIRCLE
  5
287
100
AcDbEntity
  8
0
  6
CONTINUOUS
 62
     7
100
AcDbCircle
 10
681.18991
 20
500.739429
 30
0.0
 40
1.982545
  0
LINE
  5
288
100
AcDbEntity
  8
0
  6
CONTINUOUS
 62
     7
100
AcDbLine
 10
681.939909
 20
494.23943
 30
0.0
 11
681.93991
 21
497.454882
 31
0.0
  0
LINE
  5
289
100
AcDbEntity
  8
0
  6
CONTINUOUS
 62
     7
100
AcDbLine
 10
680.439913
 20
494.23943
 30
0.0
 11
681.939909
 21
494.23943
 31
0.0
  0
LINE
  5
28A
100
AcDbEntity
  8
0
  6
CONTINUOUS
 62
     7
100
AcDbLine
 10
680.43991
 20
497.454882
 30
0.0
 11
680.439913
 21
494.23943
 31
0.0
  0
ARC
  5
28B
100
AcDbEntity
  8
0
  6
CONTINUOUS
 62
     7
100
AcDbCircle
 10
681.18991
 20
500.739429
 30
0.0
 40
3.369087
100
AcDbArc
 50
102.862509
 51
257.137491
  0
LINE
  5
28C
100
AcDbEntity
  8
0
  6
CONTINUOUS
 62
     7
100
AcDbLine
 10
680.439913
 20
507.239427
 30
0.0
 11
680.43991
 21
504.023975
 31
0.0
  0
LINE
  5
28D
100
AcDbEntity
  8
0
  6
CONTINUOUS
 62
     7
100
AcDbLine
 10
681.939909
 20
507.239427
 30
0.0
 11
680.439913
 21
507.239427
 31
0.0
  0
LINE
  5
28E
100
AcDbEntity
  8
0
  6
CONTINUOUS
 62
     7
100
AcDbLine
 10
681.93991
 20
504.023975
 30
0.0
 11
681.939909
 21
507.239427
 31
0.0
  0
ARC
  5
28F
100
AcDbEntity
  8
0
  6
CONTINUOUS
 62
     7
100
AcDbCircle
 10
681.18991
 20
500.739429
 30
0.0
 40
3.369087
100
AcDbArc
 50
282.862509
 51
77.137491
  0
LINE
  5
290
100
AcDbEntity
  8
0
  6
CONTINUOUS
 62
     7
100
AcDbLine
 10
680.308997
 20
497.3521
 30
0.0
 11
680.43991
 21
497.454882
 31
0.0
  0
ARC
  5
291
100
AcDbEntity
  8
0
  6
CONTINUOUS
 62
     7
100
AcDbCircle
 10
681.18991
 20
500.739429
 30
0.0
 40
3.5
100
AcDbArc
 50
104.577506
 51
255.422494
  0
LWPOLYLINE
  5
292
100
AcDbEntity
  8
0
  6
CONTINUOUS
 62
     7
100
AcDbPolyline
 90
        3
 70
   128
 43
0.0
 10
680.439913
 20
504.023972
 10
680.324347
 20
504.11487
 10
680.308999
 20
504.126753
  0
LINE
  5
293
100
AcDbEntity
  8
0
  6
CONTINUOUS
 62
     7
100
AcDbLine
 10
680.308997
 20
372.3521
 30
0.0
 11
680.43991
 21
372.454882
 31
0.0
  0
ARC
  5
294
100
AcDbEntity
  8
0
  6
CONTINUOUS
 62
     7
100
AcDbCircle
 10
681.18991
 20
375.739429
 30
0.0
 40
3.5
100
AcDbArc
 50
104.577506
 51
255.422494
  0
LWPOLYLINE
  5
295
100
AcDbEntity
  8
0
  6
CONTINUOUS
 62
     7
100
AcDbPolyline
 90
        3
 70
   128
 43
0.0
 10
680.439913
 20
379.023976
 10
680.324347
 20
379.11487
 10
680.308999
 20
379.126757
  0
LINE
  5
296
100
AcDbEntity
  8
0
  6
CONTINUOUS
 62
     7
100
AcDbLine
 10
681.939909
 20
431.739429
 30
0.0
 11
681.93991
 21
434.954882
 31
0.0
  0
LINE
  5
297
100
AcDbEntity
  8
0
  6
CONTINUOUS
 62
     7
100
AcDbLine
 10
680.439913
 20
431.739429
 30
0.0
 11
681.939909
 21
431.739429
 31
0.0
  0
LINE
  5
298
100
AcDbEntity
  8
0
  6
CONTINUOUS
 62
     7
100
AcDbLine
 10
680.43991
 20
434.954882
 30
0.0
 11
680.439913
 21
431.739429
 31
0.0
  0
LINE
  5
299
100
AcDbEntity
  8
0
  6
CONTINUOUS
 62
     7
100
AcDbLine
 10
680.439913
 20
444.739429
 30
0.0
 11
680.43991
 21
441.523975
 31
0.0
  0
LINE
  5
29A
100
AcDbEntity
  8
0
  6
CONTINUOUS
 62
     7
100
AcDbLine
 10
681.939909
 20
444.739429
 30
0.0
 11
680.439913
 21
444.739429
 31
0.0
  0
LINE
  5
29B
100
AcDbEntity
  8
0
  6
CONTINUOUS
 62
     7
100
AcDbLine
 10
681.93991
 20
441.523975
 30
0.0
 11
681.939909
 21
444.739429
 31
0.0
  0
ARC
  5
29C
100
AcDbEntity
  8
0
  6
CONTINUOUS
 62
     7
100
AcDbCircle
 10
681.18991
 20
438.239429
 30
0.0
 40
3.369087
100
AcDbArc
 50
282.862509
 51
77.137491
  0
LINE
  5
29D
100
AcDbEntity
  8
0
  6
CONTINUOUS
 62
     7
100
AcDbLine
 10
680.308997
 20
504.126757
 30
0.0
 11
680.308999
 21
507.370341
 31
0.0
  0
LINE
  5
29E
100
AcDbEntity
  8
0
  6
CONTINUOUS
 62
     7
100
AcDbLine
 10
680.308999
 20
507.370341
 30
0.0
 11
680.439913
 21
507.239427
 31
0.0
  0
LINE
  5
29F
100
AcDbEntity
  8
0
  6
CONTINUOUS
 62
     7
100
AcDbLine
 10
682.070823
 20
444.870342
 30
0.0
 11
681.939909
 21
444.739429
 31
0.0
  0
LINE
  5
2A0
100
AcDbEntity
  8
0
  6
CONTINUOUS
 62
     7
100
AcDbLine
 10
680.308999
 20
444.870342
 30
0.0
 11
680.439913
 21
444.739429
 31
0.0
  0
LINE
  5
2A1
100
AcDbEntity
  8
0
  6
CONTINUOUS
 62
     7
100
AcDbLine
 10
680.308999
 20
444.870342
 30
0.0
 11
682.070823
 21
444.870342
 31
0.0
  0
LINE
  5
2A2
100
AcDbEntity
  8
0
  6
CONTINUOUS
 62
     7
100
AcDbLine
 10
680.308999
 20
494.108516
 30
0.0
 11
680.439913
 21
494.23943
 31
0.0
  0
LINE
  5
2A3
100
AcDbEntity
  8
0
  6
CONTINUOUS
 62
     7
100
AcDbLine
 10
682.070823
 20
494.108516
 30
0.0
 11
681.939909
 21
494.23943
 31
0.0
  0
LINE
  5
2A4
100
AcDbEntity
  8
0
  6
CONTINUOUS
 62
     7
100
AcDbLine
 10
682.070823
 20
494.108516
 30
0.0
 11
680.308999
 21
494.108516
 31
0.0
  0
LINE
  5
2A5
100
AcDbEntity
  8
0
  6
CONTINUOUS
 62
     7
100
AcDbLine
 10
682.070823
 20
382.370341
 30
0.0
 11
681.939909
 21
382.239427
 31
0.0
  0
LINE
  5
2A6
100
AcDbEntity
  8
0
  6
CONTINUOUS
 62
     7
100
AcDbLine
 10
680.308999
 20
382.370341
 30
0.0
 11
680.439913
 21
382.239427
 31
0.0
  0
LINE
  5
2A7
100
AcDbEntity
  8
0
  6
CONTINUOUS
 62
     7
100
AcDbLine
 10
680.308999
 20
382.370341
 30
0.0
 11
682.070823
 21
382.370341
 31
0.0
  0
LINE
  5
2A8
100
AcDbEntity
  8
0
  6
CONTINUOUS
 62
     7
100
AcDbLine
 10
680.308999
 20
369.108516
 30
0.0
 11
680.439913
 21
369.23943
 31
0.0
  0
LINE
  5
2A9
100
AcDbEntity
  8
0
  6
CONTINUOUS
 62
     7
100
AcDbLine
 10
680.308999
 20
369.108516
 30
0.0
 11
680.308997
 21
372.3521
 31
0.0
  0
LINE
  5
2AA
100
AcDbEntity
  8
0
  6
CONTINUOUS
 62
     7
100
AcDbLine
 10
680.308997
 20
441.626757
 30
0.0
 11
680.308999
 21
444.870342
 31
0.0
  0
LINE
  5
2AB
100
AcDbEntity
  8
0
  6
CONTINUOUS
 62
     7
100
AcDbLine
 10
680.308999
 20
431.608516
 30
0.0
 11
680.439913
 21
431.739429
 31
0.0
  0
LINE
  5
2AC
100
AcDbEntity
  8
0
  6
CONTINUOUS
 62
     7
100
AcDbLine
 10
682.070823
 20
431.608516
 30
0.0
 11
681.939909
 21
431.739429
 31
0.0
  0
LINE
  5
2AD
100
AcDbEntity
  8
0
  6
CONTINUOUS
 62
     7
100
AcDbLine
 10
682.070823
 20
431.608516
 30
0.0
 11
680.308999
 21
431.608516
 31
0.0
  0
LINE
  5
2AE
100
AcDbEntity
  8
0
  6
CONTINUOUS
 62
     7
100
AcDbLine
 10
680.308997
 20
379.126757
 30
0.0
 11
680.308999
 21
382.370341
 31
0.0
  0
LINE
  5
2AF
100
AcDbEntity
  8
0
  6
CONTINUOUS
 62
     7
100
AcDbLine
 10
682.070823
 20
369.108516
 30
0.0
 11
681.939909
 21
369.23943
 31
0.0
  0
LINE
  5
2B0
100
AcDbEntity
  8
0
  6
CONTINUOUS
 62
     7
100
AcDbLine
 10
682.070823
 20
369.108516
 30
0.0
 11
680.308999
 21
369.108516
 31
0.0
  0
LINE
  5
2B1
100
AcDbEntity
  8
0
  6
CONTINUOUS
 62
     7
100
AcDbLine
 10
680.308999
 20
431.608516
 30
0.0
 11
680.308997
 21
434.8521
 31
0.0
  0
LINE
  5
2B2
100
AcDbEntity
  8
0
  6
CONTINUOUS
 62
     7
100
AcDbLine
 10
680.308999
 20
494.108516
 30
0.0
 11
680.308997
 21
497.3521
 31
0.0
  0
LINE
  5
2B3
100
AcDbEntity
  8
0
  6
CONTINUOUS
 62
     7
100
AcDbLine
 10
682.070823
 20
507.370341
 30
0.0
 11
681.939909
 21
507.239427
 31
0.0
  0
LINE
  5
2B4
100
AcDbEntity
  8
0
  6
CONTINUOUS
 62
     7
100
AcDbLine
 10
680.308999
 20
507.370341
 30
0.0
 11
682.070823
 21
507.370341
 31
0.0
  0
LINE
  5
2B5
100
AcDbEntity
  8
0
  6
CONTINUOUS
 62
     7
100
AcDbLine
 10
682.070823
 20
382.370341
 30
0.0
 11
682.070823
 21
379.126757
 31
0.0
  0
LINE
  5
2B6
100
AcDbEntity
  8
0
  6
CONTINUOUS
 62
     7
100
AcDbLine
 10
682.070823
 20
379.126757
 30
0.0
 11
681.93991
 21
379.023975
 31
0.0
  0
LINE
  5
2B7
100
AcDbEntity
  8
0
  6
CONTINUOUS
 62
     7
100
AcDbLine
 10
682.070823
 20
434.8521
 30
0.0
 11
682.070823
 21
431.608516
 31
0.0
  0
LWPOLYLINE
  5
2B8
100
AcDbEntity
  8
0
  6
CONTINUOUS
 62
     7
100
AcDbPolyline
 90
        3
 70
   128
 43
0.0
 10
681.939909
 20
434.954882
 10
682.055475
 20
434.863988
 10
682.070823
 20
434.8521
  0
LINE
  5
2B9
100
AcDbEntity
  8
0
  6
CONTINUOUS
 62
     7
100
AcDbLine
 10
682.070823
 20
497.3521
 30
0.0
 11
682.070823
 21
494.108516
 31
0.0
  0
LWPOLYLINE
  5
2BA
100
AcDbEntity
  8
0
  6
CONTINUOUS
 62
     7
100
AcDbPolyline
 90
        3
 70
   128
 43
0.0
 10
681.939909
 20
497.454881
 10
682.055475
 20
497.363988
 10
682.070823
 20
497.3521
  0
ARC
  5
2BB
100
AcDbEntity
  8
0
  6
CONTINUOUS
 62
     7
100
AcDbCircle
 10
681.18991
 20
375.739429
 30
0.0
 40
3.5
100
AcDbArc
 50
284.577506
 51
75.422494
  0
LWPOLYLINE
  5
2BC
100
AcDbEntity
  8
0
  6
CONTINUOUS
 62
     7
100
AcDbPolyline
 90
        3
 70
   128
 43
0.0
 10
681.939909
 20
372.454885
 10
682.055475
 20
372.363988
 10
682.070823
 20
372.352104
  0
LINE
  5
2BD
100
AcDbEntity
  8
0
  6
CONTINUOUS
 62
     7
100
AcDbLine
 10
682.070823
 20
444.870342
 30
0.0
 11
682.070823
 21
441.626757
 31
0.0
  0
LINE
  5
2BE
100
AcDbEntity
  8
0
  6
CONTINUOUS
 62
     7
100
AcDbLine
 10
682.070823
 20
441.626757
 30
0.0
 11
681.93991
 21
441.523975
 31
0.0
  0
LINE
  5
2BF
100
AcDbEntity
  8
0
  6
CONTINUOUS
 62
     7
100
AcDbLine
 10
682.070823
 20
507.370341
 30
0.0
 11
682.070823
 21
504.126757
 31
0.0
  0
LINE
  5
2C0
100
AcDbEntity
  8
0
  6
CONTINUOUS
 62
     7
100
AcDbLine
 10
682.070823
 20
504.126757
 30
0.0
 11
681.93991
 21
504.023975
 31
0.0
  0
ARC
  5
2C1
100
AcDbEntity
  8
0
  6
CONTINUOUS
 62
     7
100
AcDbCircle
 10
681.18991
 20
438.239429
 30
0.0
 40
3.5
100
AcDbArc
 50
284.577506
 51
75.422494
  0
LINE
  5
2C2
100
AcDbEntity
  8
0
  6
CONTINUOUS
 62
     7
100
AcDbLine
 10
682.070823
 20
372.3521
 30
0.0
 11
682.070823
 21
369.108516
 31
0.0
  0
ARC
  5
2C3
100
AcDbEntity
  8
0
  6
CONTINUOUS
 62
     7
100
AcDbCircle
 10
681.18991
 20
500.739429
 30
0.0
 40
3.5
100
AcDbArc
 50
284.577506
 51
75.422494
  0
CIRCLE
  5
2C4
100
AcDbEntity
  8
0
  6
CONTINUOUS
 62
     7
100
AcDbCircle
 10
703.18991
 20
548.739429
 30
0.0
 40
2.0
  0
CIRCLE
  5
2C5
100
AcDbEntity
  8
0
  6
CONTINUOUS
 62
     7
100
AcDbCircle
 10
703.18991
 20
548.739429
 30
0.0
 40
1.982545
  0
CIRCLE
  5
2C6
100
AcDbEntity
  8
0
  6
CONTINUOUS
 62
     7
100
AcDbCircle
 10
703.18991
 20
327.739429
 30
0.0
 40
3.5
  0
CIRCLE
  5
2C7
100
AcDbEntity
  8
0
  6
CONTINUOUS
 62
     7
100
AcDbCircle
 10
703.18991
 20
327.739429
 30
0.0
 40
3.369087
  0
CIRCLE
  5
2C8
100
AcDbEntity
  8
0
  6
CONTINUOUS
 62
     7
100
AcDbCircle
 10
703.18991
 20
327.739429
 30
0.0
 40
2.0
  0
CIRCLE
  5
2C9
100
AcDbEntity
  8
0
  6
CONTINUOUS
 62
     7
100
AcDbCircle
 10
703.18991
 20
327.739429
 30
0.0
 40
1.982545
  0
CIRCLE
  5
2CA
100
AcDbEntity
  8
0
  6
CONTINUOUS
 62
     7
100
AcDbCircle
 10
703.18991
 20
548.739429
 30
0.0
 40
3.5
  0
CIRCLE
  5
2CB
100
AcDbEntity
  8
0
  6
CONTINUOUS
 62
     7
100
AcDbCircle
 10
703.18991
 20
548.739429
 30
0.0
 40
3.369087
  0
CIRCLE
  5
2CC
100
AcDbEntity
  8
0
  6
CONTINUOUS
 62
     7
100
AcDbCircle
 10
714.68991
 20
310.739429
 30
0.0
 40
2.0
  0
CIRCLE
  5
2CD
100
AcDbEntity
  8
0
  6
CONTINUOUS
 62
     7
100
AcDbCircle
 10
714.68991
 20
310.739429
 30
0.0
 40
1.982545
  0
CIRCLE
  5
2CE
100
AcDbEntity
  8
0
  6
CONTINUOUS
 62
     7
100
AcDbCircle
 10
714.68991
 20
565.739429
 30
0.0
 40
3.369087
  0
ARC
  5
2CF
100
AcDbEntity
  8
0
  6
CONTINUOUS
 62
     7
100
AcDbCircle
 10
714.68991
 20
565.739429
 30
0.0
 40
3.5
100
AcDbArc
 50
190.857524
 51
91.822859
  0
LINE
  5
2D0
100
AcDbEntity
  8
0
  6
CONTINUOUS
 62
     7
100
AcDbLine
 10
711.252565
 20
565.080143
 30
0.0
 11
711.342718
 21
565.191282
 31
0.0
  0
ARC
  5
2D1
100
AcDbEntity
  8
0
  6
CONTINUOUS
 62
     7
100
AcDbCircle
 10
714.68991
 20
565.739429
 30
0.0
 40
3.391779
100
AcDbArc
 50
93.380001
 51
189.300383
  0
LINE
  5
2D2
100
AcDbEntity
  8
0
  6
CONTINUOUS
 62
     7
100
AcDbLine
 10
714.489938
 20
569.125307
 30
0.0
 11
714.578577
 21
569.237657
 31
0.0
  0
CIRCLE
  5
2D3
100
AcDbEntity
  8
0
  6
CONTINUOUS
 62
     7
100
AcDbCircle
 10
714.68991
 20
310.739429
 30
0.0
 40
3.369087
  0
ARC
  5
2D4
100
AcDbEntity
  8
0
  6
CONTINUOUS
 62
     7
100
AcDbCircle
 10
714.68991
 20
310.739429
 30
0.0
 40
3.5
100
AcDbArc
 50
268.177141
 51
169.142476
  0
LINE
  5
2D5
100
AcDbEntity
  8
0
  6
CONTINUOUS
 62
     7
100
AcDbLine
 10
714.578577
 20
307.2412
 30
0.0
 11
714.489938
 21
307.35355
 31
0.0
  0
ARC
  5
2D6
100
AcDbEntity
  8
0
  6
CONTINUOUS
 62
     7
100
AcDbCircle
 10
714.68991
 20
310.739429
 30
0.0
 40
3.391779
100
AcDbArc
 50
170.699617
 51
266.619999
  0
LINE
  5
2D7
100
AcDbEntity
  8
0
  6
CONTINUOUS
 62
     7
100
AcDbLine
 10
711.342718
 20
311.287575
 30
0.0
 11
711.252565
 21
311.398715
 31
0.0
  0
CIRCLE
  5
2D8
100
AcDbEntity
  8
0
  6
CONTINUOUS
 62
     7
100
AcDbCircle
 10
714.68991
 20
565.739429
 30
0.0
 40
2.0
  0
CIRCLE
  5
2D9
100
AcDbEntity
  8
0
  6
CONTINUOUS
 62
     7
100
AcDbCircle
 10
714.68991
 20
565.739429
 30
0.0
 40
1.982545
  0
LINE
  5
2DA
100
AcDbEntity
  8
0
  6
CONTINUOUS
 62
     7
100
AcDbLine
 10
777.058997
 20
311.620343
 30
0.0
 11
777.18991
 21
311.489421
 31
0.0
  0
LINE
  5
2DB
100
AcDbEntity
  8
0
  6
CONTINUOUS
 62
     7
100
AcDbLine
 10
777.18991
 20
311.489421
 30
0.0
 11
777.18991
 21
309.989426
 31
0.0
  0
LINE
  5
2DC
100
AcDbEntity
  8
0
  6
CONTINUOUS
 62
     7
100
AcDbLine
 10
777.058997
 20
309.858519
 30
0.0
 11
777.18991
 21
309.989426
 31
0.0
  0
LINE
  5
2DD
100
AcDbEntity
  8
0
  6
CONTINUOUS
 62
     7
100
AcDbLine
 10
777.058997
 20
309.858519
 30
0.0
 11
777.058997
 21
311.620343
 31
0.0
  0
LINE
  5
2DE
100
AcDbEntity
  8
0
  6
CONTINUOUS
 62
     7
100
AcDbLine
 10
777.18991
 20
564.989436
 30
0.0
 11
780.405363
 21
564.989429
 31
0.0
  0
LINE
  5
2DF
100
AcDbEntity
  8
0
  6
CONTINUOUS
 62
     7
100
AcDbLine
 10
777.18991
 20
566.489432
 30
0.0
 11
777.18991
 21
564.989436
 31
0.0
  0
LINE
  5
2E0
100
AcDbEntity
  8
0
  6
CONTINUOUS
 62
     7
100
AcDbLine
 10
780.405363
 20
566.489429
 30
0.0
 11
777.18991
 21
566.489432
 31
0.0
  0
ARC
  5
2E1
100
AcDbEntity
  8
0
  6
CONTINUOUS
 62
     7
100
AcDbCircle
 10
783.68991
 20
565.739429
 30
0.0
 40
3.369087
100
AcDbArc
 50
12.862509
 51
167.137491
  0
LINE
  5
2E2
100
AcDbEntity
  8
0
  6
CONTINUOUS
 62
     7
100
AcDbLine
 10
790.18991
 20
566.489432
 30
0.0
 11
786.974457
 21
566.489429
 31
0.0
  0
LINE
  5
2E3
100
AcDbEntity
  8
0
  6
CONTINUOUS
 62
     7
100
AcDbLine
 10
790.18991
 20
564.989436
 30
0.0
 11
790.18991
 21
566.489432
 31
0.0
  0
LINE
  5
2E4
100
AcDbEntity
  8
0
  6
CONTINUOUS
 62
     7
100
AcDbLine
 10
786.974457
 20
564.989429
 30
0.0
 11
790.18991
 21
564.989436
 31
0.0
  0
ARC
  5
2E5
100
AcDbEntity
  8
0
  6
CONTINUOUS
 62
     7
100
AcDbCircle
 10
783.68991
 20
565.739429
 30
0.0
 40
3.369087
100
AcDbArc
 50
192.862509
 51
347.137491
  0
CIRCLE
  5
2E6
100
AcDbEntity
  8
0
  6
CONTINUOUS
 62
     7
100
AcDbCircle
 10
783.68991
 20
565.739429
 30
0.0
 40
2.0
  0
LINE
  5
2E7
100
AcDbEntity
  8
0
  6
CONTINUOUS
 62
     7
100
AcDbLine
 10
777.058997
 20
566.620338
 30
0.0
 11
777.18991
 21
566.489432
 31
0.0
  0
LINE
  5
2E8
100
AcDbEntity
  8
0
  6
CONTINUOUS
 62
     7
100
AcDbLine
 10
777.058997
 20
564.858514
 30
0.0
 11
777.18991
 21
564.989436
 31
0.0
  0
LINE
  5
2E9
100
AcDbEntity
  8
0
  6
CONTINUOUS
 62
     7
100
AcDbLine
 10
777.058997
 20
564.858514
 30
0.0
 11
777.058997
 21
566.620338
 31
0.0
  0
LINE
  5
2EA
100
AcDbEntity
  8
0
  6
CONTINUOUS
 62
     7
100
AcDbLine
 10
780.405363
 20
311.489429
 30
0.0
 11
777.18991
 21
311.489421
 31
0.0
  0
LINE
  5
2EB
100
AcDbEntity
  8
0
  6
CONTINUOUS
 62
     7
100
AcDbLine
 10
777.058997
 20
311.620343
 30
0.0
 11
780.302582
 21
311.620342
 31
0.0
  0
LINE
  5
2EC
100
AcDbEntity
  8
0
  6
CONTINUOUS
 62
     7
100
AcDbLine
 10
780.302582
 20
311.620342
 30
0.0
 11
780.405363
 21
311.489429
 31
0.0
  0
LINE
  5
2ED
100
AcDbEntity
  8
0
  6
CONTINUOUS
 62
     7
100
AcDbLine
 10
780.302582
 20
309.858516
 30
0.0
 11
777.058997
 21
309.858519
 31
0.0
  0
LINE
  5
2EE
100
AcDbEntity
  8
0
  6
CONTINUOUS
 62
     7
100
AcDbLine
 10
777.18991
 20
309.989426
 30
0.0
 11
780.405363
 21
309.989429
 31
0.0
  0
LWPOLYLINE
  5
2EF
100
AcDbEntity
  8
0
  6
CONTINUOUS
 62
     7
100
AcDbPolyline
 90
        3
 70
   128
 43
0.0
 10
780.405363
 20
309.989426
 10
780.314469
 20
309.873867
 10
780.302582
 20
309.858519
  0
LINE
  5
2F0
100
AcDbEntity
  8
0
  6
CONTINUOUS
 62
     7
100
AcDbLine
 10
777.058997
 20
566.620338
 30
0.0
 11
780.302582
 21
566.620342
 31
0.0
  0
LINE
  5
2F1
100
AcDbEntity
  8
0
  6
CONTINUOUS
 62
     7
100
AcDbLine
 10
780.302582
 20
566.620342
 30
0.0
 11
780.405363
 21
566.489429
 31
0.0
  0
ARC
  5
2F2
100
AcDbEntity
  8
0
  6
CONTINUOUS
 62
     7
100
AcDbCircle
 10
783.68991
 20
310.739429
 30
0.0
 40
3.369087
100
AcDbArc
 50
12.862509
 51
167.137491
  0
LINE
  5
2F3
100
AcDbEntity
  8
0
  6
CONTINUOUS
 62
     7
100
AcDbLine
 10
790.18991
 20
311.489421
 30
0.0
 11
786.974457
 21
311.489429
 31
0.0
  0
LINE
  5
2F4
100
AcDbEntity
  8
0
  6
CONTINUOUS
 62
     7
100
AcDbLine
 10
790.18991
 20
309.989426
 30
0.0
 11
790.18991
 21
311.489421
 31
0.0
  0
LINE
  5
2F5
100
AcDbEntity
  8
0
  6
CONTINUOUS
 62
     7
100
AcDbLine
 10
786.974457
 20
309.989429
 30
0.0
 11
790.18991
 21
309.989426
 31
0.0
  0
ARC
  5
2F6
100
AcDbEntity
  8
0
  6
CONTINUOUS
 62
     7
100
AcDbCircle
 10
783.68991
 20
310.739429
 30
0.0
 40
3.369087
100
AcDbArc
 50
192.862509
 51
347.137491
  0
CIRCLE
  5
2F7
100
AcDbEntity
  8
0
  6
CONTINUOUS
 62
     7
100
AcDbCircle
 10
783.68991
 20
310.739429
 30
0.0
 40
2.0
  0
LINE
  5
2F8
100
AcDbEntity
  8
0
  6
CONTINUOUS
 62
     7
100
AcDbLine
 10
780.302582
 20
564.858516
 30
0.0
 11
777.058997
 21
564.858514
 31
0.0
  0
LWPOLYLINE
  5
2F9
100
AcDbEntity
  8
0
  6
CONTINUOUS
 62
     7
100
AcDbPolyline
 90
        3
 70
   128
 43
0.0
 10
780.405363
 20
564.989436
 10
780.314469
 20
564.873863
 10
780.302582
 20
564.858514
  0
ARC
  5
2FA
100
AcDbEntity
  8
0
  6
CONTINUOUS
 62
     7
100
AcDbCircle
 10
783.68991
 20
565.739429
 30
0.0
 40
3.5
100
AcDbArc
 50
14.577506
 51
165.422494
  0
LWPOLYLINE
  5
2FB
100
AcDbEntity
  8
0
  6
CONTINUOUS
 62
     7
100
AcDbPolyline
 90
        3
 70
   128
 43
0.0
 10
786.974457
 20
566.489432
 10
787.065351
 20
566.60499
 10
787.077238
 20
566.620338
  0
ARC
  5
2FC
100
AcDbEntity
  8
0
  6
CONTINUOUS
 62
     7
100
AcDbCircle
 10
783.68991
 20
310.739429
 30
0.0
 40
3.5
100
AcDbArc
 50
14.577506
 51
165.422494
  0
LWPOLYLINE
  5
2FD
100
AcDbEntity
  8
0
  6
CONTINUOUS
 62
     7
100
AcDbPolyline
 90
        3
 70
   128
 43
0.0
 10
786.974457
 20
311.489421
 10
787.065351
 20
311.604995
 10
787.077238
 20
311.620343
  0
LINE
  5
2FE
100
AcDbEntity
  8
0
  6
CONTINUOUS
 62
     7
100
AcDbLine
 10
787.077238
 20
564.858516
 30
0.0
 11
786.974457
 21
564.989429
 31
0.0
  0
ARC
  5
2FF
100
AcDbEntity
  8
0
  6
CONTINUOUS
 62
     7
100
AcDbCircle
 10
783.68991
 20
565.739429
 30
0.0
 40
3.5
100
AcDbArc
 50
194.577506
 51
345.422494
  0
LINE
  5
300
100
AcDbEntity
  8
0
  6
CONTINUOUS
 62
     7
100
AcDbLine
 10
787.077238
 20
309.858516
 30
0.0
 11
786.974457
 21
309.989429
 31
0.0
  0
ARC
  5
301
100
AcDbEntity
  8
0
  6
CONTINUOUS
 62
     7
100
AcDbCircle
 10
783.68991
 20
310.739429
 30
0.0
 40
3.5
100
AcDbArc
 50
194.577506
 51
345.422494
  0
CIRCLE
  5
302
100
AcDbEntity
  8
0
  6
CONTINUOUS
 62
     7
100
AcDbCircle
 10
783.68991
 20
310.739429
 30
0.0
 40
1.982545
  0
CIRCLE
  5
303
100
AcDbEntity
  8
0
  6
CONTINUOUS
 62
     7
100
AcDbCircle
 10
783.68991
 20
565.739429
 30
0.0
 40
1.982545
  0
LINE
  5
304
100
AcDbEntity
  8
0
  6
CONTINUOUS
 62
     7
100
AcDbLine
 10
790.320823
 20
564.858514
 30
0.0
 11
790.18991
 21
564.989436
 31
0.0
  0
LINE
  5
305
100
AcDbEntity
  8
0
  6
CONTINUOUS
 62
     7
100
AcDbLine
 10
790.320823
 20
564.858514
 30
0.0
 11
787.077238
 21
564.858516
 31
0.0
  0
LINE
  5
306
100
AcDbEntity
  8
0
  6
CONTINUOUS
 62
     7
100
AcDbLine
 10
787.077238
 20
311.620342
 30
0.0
 11
790.320823
 21
311.620343
 31
0.0
  0
LINE
  5
307
100
AcDbEntity
  8
0
  6
CONTINUOUS
 62
     7
100
AcDbLine
 10
790.320823
 20
311.620343
 30
0.0
 11
790.18991
 21
311.489421
 31
0.0
  0
LINE
  5
308
100
AcDbEntity
  8
0
  6
CONTINUOUS
 62
     7
100
AcDbLine
 10
790.320823
 20
309.858519
 30
0.0
 11
790.18991
 21
309.989426
 31
0.0
  0
LINE
  5
309
100
AcDbEntity
  8
0
  6
CONTINUOUS
 62
     7
100
AcDbLine
 10
790.320823
 20
309.858519
 30
0.0
 11
787.077238
 21
309.858516
 31
0.0
  0
LINE
  5
30A
100
AcDbEntity
  8
0
  6
CONTINUOUS
 62
     7
100
AcDbLine
 10
787.077238
 20
566.620342
 30
0.0
 11
790.320823
 21
566.620338
 31
0.0
  0
LINE
  5
30B
100
AcDbEntity
  8
0
  6
CONTINUOUS
 62
     7
100
AcDbLine
 10
790.320823
 20
566.620338
 30
0.0
 11
790.18991
 21
566.489432
 31
0.0
  0
LINE
  5
30C
100
AcDbEntity
  8
0
  6
CONTINUOUS
 62
     7
100
AcDbLine
 10
790.320823
 20
311.620343
 30
0.0
 11
790.320823
 21
309.858519
 31
0.0
  0
LINE
  5
30D
100
AcDbEntity
  8
0
  6
CONTINUOUS
 62
     7
100
AcDbLine
 10
790.320823
 20
566.620338
 30
0.0
 11
790.320823
 21
564.858514
 31
0.0
  0
CIRCLE
  5
30E
100
AcDbEntity
  8
0
  6
CONTINUOUS
 62
     7
100
AcDbCircle
 10
852.68991
 20
310.739429
 30
0.0
 40
3.369087
  0
ARC
  5
30F
100
AcDbEntity
  8
0
  6
CONTINUOUS
 62
     7
100
AcDbCircle
 10
852.68991
 20
310.739429
 30
0.0
 40
3.5
100
AcDbArc
 50
10.857524
 51
271.822859
  0
LINE
  5
310
100
AcDbEntity
  8
0
  6
CONTINUOUS
 62
     7
100
AcDbLine
 10
856.127255
 20
311.398715
 30
0.0
 11
856.037103
 21
311.287575
 31
0.0
  0
ARC
  5
311
100
AcDbEntity
  8
0
  6
CONTINUOUS
 62
     7
100
AcDbCircle
 10
852.68991
 20
310.739429
 30
0.0
 40
3.391779
100
AcDbArc
 50
273.380001
 51
9.300383
  0
LINE
  5
312
100
AcDbEntity
  8
0
  6
CONTINUOUS
 62
     7
100
AcDbLine
 10
852.889882
 20
307.35355
 30
0.0
 11
852.801244
 21
307.2412
 31
0.0
  0
CIRCLE
  5
313
100
AcDbEntity
  8
0
  6
CONTINUOUS
 62
     7
100
AcDbCircle
 10
852.68991
 20
565.739429
 30
0.0
 40
3.369087
  0
ARC
  5
314
100
AcDbEntity
  8
0
  6
CONTINUOUS
 62
     7
100
AcDbCircle
 10
852.68991
 20
565.739429
 30
0.0
 40
3.5
100
AcDbArc
 50
88.177141
 51
349.142476
  0
LINE
  5
315
100
AcDbEntity
  8
0
  6
CONTINUOUS
 62
     7
100
AcDbLine
 10
852.801244
 20
569.237657
 30
0.0
 11
852.889882
 21
569.125307
 31
0.0
  0
ARC
  5
316
100
AcDbEntity
  8
0
  6
CONTINUOUS
 62
     7
100
AcDbCircle
 10
852.68991
 20
565.739429
 30
0.0
 40
3.391779
100
AcDbArc
 50
350.699617
 51
86.619999
  0
LINE
  5
317
100
AcDbEntity
  8
0
  6
CONTINUOUS
 62
     7
100
AcDbLine
 10
856.037103
 20
565.191282
 30
0.0
 11
856.127255
 21
565.080143
 31
0.0
  0
CIRCLE
  5
318
100
AcDbEntity
  8
0
  6
CONTINUOUS
 62
     7
100
AcDbCircle
 10
852.68991
 20
565.739429
 30
0.0
 40
2.0
  0
CIRCLE
  5
319
100
AcDbEntity
  8
0
  6
CONTINUOUS
 62
     7
100
AcDbCircle
 10
852.68991
 20
310.739429
 30
0.0
 40
2.0
  0
CIRCLE
  5
31A
100
AcDbEntity
  8
0
  6
CONTINUOUS
 62
     7
100
AcDbCircle
 10
852.68991
 20
565.739429
 30
0.0
 40
1.982545
  0
CIRCLE
  5
31B
100
AcDbEntity
  8
0
  6
CONTINUOUS
 62
     7
100
AcDbCircle
 10
852.68991
 20
310.739429
 30
0.0
 40
1.982545
  0
CIRCLE
  5
31C
100
AcDbEntity
  8
0
  6
CONTINUOUS
 62
     7
100
AcDbCircle
 10
864.18991
 20
548.739429
 30
0.0
 40
3.5
  0
CIRCLE
  5
31D
100
AcDbEntity
  8
0
  6
CONTINUOUS
 62
     7
100
AcDbCircle
 10
864.18991
 20
548.739429
 30
0.0
 40
3.369087
  0
CIRCLE
  5
31E
100
AcDbEntity
  8
0
  6
CONTINUOUS
 62
     7
100
AcDbCircle
 10
864.18991
 20
327.739429
 30
0.0
 40
3.369087
  0
CIRCLE
  5
31F
100
AcDbEntity
  8
0
  6
CONTINUOUS
 62
     7
100
AcDbCircle
 10
864.18991
 20
327.739429
 30
0.0
 40
2.0
  0
CIRCLE
  5
320
100
AcDbEntity
  8
0
  6
CONTINUOUS
 62
     7
100
AcDbCircle
 10
864.18991
 20
327.739429
 30
0.0
 40
3.5
  0
CIRCLE
  5
321
100
AcDbEntity
  8
0
  6
CONTINUOUS
 62
     7
100
AcDbCircle
 10
864.18991
 20
548.739429
 30
0.0
 40
2.0
  0
CIRCLE
  5
322
100
AcDbEntity
  8
0
  6
CONTINUOUS
 62
     7
100
AcDbCircle
 10
864.18991
 20
548.739429
 30
0.0
 40
1.982545
  0
CIRCLE
  5
323
100
AcDbEntity
  8
0
  6
CONTINUOUS
 62
     7
100
AcDbCircle
 10
864.18991
 20
327.739429
 30
0.0
 40
1.982545
  0
LINE
  5
324
100
AcDbEntity
  8
0
  6
CONTINUOUS
 62
     7
100
AcDbLine
 10
885.308997
 20
497.3521
 30
0.0
 11
885.43991
 21
497.454882
 31
0.0
  0
ARC
  5
325
100
AcDbEntity
  8
0
  6
CONTINUOUS
 62
     7
100
AcDbCircle
 10
886.18991
 20
500.739429
 30
0.0
 40
3.5
100
AcDbArc
 50
104.577506
 51
255.422494
  0
LWPOLYLINE
  5
326
100
AcDbEntity
  8
0
  6
CONTINUOUS
 62
     7
100
AcDbPolyline
 90
        3
 70
   128
 43
0.0
 10
885.439911
 20
504.023972
 10
885.324346
 20
504.11487
 10
885.308997
 20
504.126753
  0
ARC
  5
327
100
AcDbEntity
  8
0
  6
CONTINUOUS
 62
     7
100
AcDbCircle
 10
886.18991
 20
500.739429
 30
0.0
 40
3.369087
100
AcDbArc
 50
102.862509
 51
257.137491
  0
LINE
  5
328
100
AcDbEntity
  8
0
  6
CONTINUOUS
 62
     7
100
AcDbLine
 10
886.939907
 20
494.23943
 30
0.0
 11
886.93991
 21
497.454882
 31
0.0
  0
LINE
  5
329
100
AcDbEntity
  8
0
  6
CONTINUOUS
 62
     7
100
AcDbLine
 10
885.439911
 20
494.23943
 30
0.0
 11
886.939907
 21
494.23943
 31
0.0
  0
LINE
  5
32A
100
AcDbEntity
  8
0
  6
CONTINUOUS
 62
     7
100
AcDbLine
 10
885.43991
 20
497.454882
 30
0.0
 11
885.439911
 21
494.23943
 31
0.0
  0
LINE
  5
32B
100
AcDbEntity
  8
0
  6
CONTINUOUS
 62
     7
100
AcDbLine
 10
885.439911
 20
507.239427
 30
0.0
 11
885.43991
 21
504.023975
 31
0.0
  0
LINE
  5
32C
100
AcDbEntity
  8
0
  6
CONTINUOUS
 62
     7
100
AcDbLine
 10
886.939907
 20
507.239427
 30
0.0
 11
885.439911
 21
507.239427
 31
0.0
  0
LINE
  5
32D
100
AcDbEntity
  8
0
  6
CONTINUOUS
 62
     7
100
AcDbLine
 10
886.93991
 20
504.023975
 30
0.0
 11
886.939907
 21
507.239427
 31
0.0
  0
ARC
  5
32E
100
AcDbEntity
  8
0
  6
CONTINUOUS
 62
     7
100
AcDbCircle
 10
886.18991
 20
500.739429
 30
0.0
 40
3.369087
100
AcDbArc
 50
282.862509
 51
77.137491
  0
CIRCLE
  5
32F
100
AcDbEntity
  8
0
  6
CONTINUOUS
 62
     7
100
AcDbCircle
 10
886.18991
 20
500.739429
 30
0.0
 40
2.0
  0
LINE
  5
330
100
AcDbEntity
  8
0
  6
CONTINUOUS
 62
     7
100
AcDbLine
 10
885.439911
 20
382.239427
 30
0.0
 11
885.43991
 21
379.023975
 31
0.0
  0
LINE
  5
331
100
AcDbEntity
  8
0
  6
CONTINUOUS
 62
     7
100
AcDbLine
 10
886.939907
 20
382.239427
 30
0.0
 11
885.439911
 21
382.239427
 31
0.0
  0
LINE
  5
332
100
AcDbEntity
  8
0
  6
CONTINUOUS
 62
     7
100
AcDbLine
 10
886.93991
 20
379.023975
 30
0.0
 11
886.939907
 21
382.239427
 31
0.0
  0
ARC
  5
333
100
AcDbEntity
  8
0
  6
CONTINUOUS
 62
     7
100
AcDbCircle
 10
886.18991
 20
375.739429
 30
0.0
 40
3.369087
100
AcDbArc
 50
282.862509
 51
77.137491
  0
LINE
  5
334
100
AcDbEntity
  8
0
  6
CONTINUOUS
 62
     7
100
AcDbLine
 10
886.939907
 20
369.23943
 30
0.0
 11
886.93991
 21
372.454882
 31
0.0
  0
LINE
  5
335
100
AcDbEntity
  8
0
  6
CONTINUOUS
 62
     7
100
AcDbLine
 10
885.439911
 20
369.23943
 30
0.0
 11
886.939907
 21
369.23943
 31
0.0
  0
LINE
  5
336
100
AcDbEntity
  8
0
  6
CONTINUOUS
 62
     7
100
AcDbLine
 10
885.43991
 20
372.454882
 30
0.0
 11
885.439911
 21
369.23943
 31
0.0
  0
ARC
  5
337
100
AcDbEntity
  8
0
  6
CONTINUOUS
 62
     7
100
AcDbCircle
 10
886.18991
 20
375.739429
 30
0.0
 40
3.369087
100
AcDbArc
 50
102.862509
 51
257.137491
  0
CIRCLE
  5
338
100
AcDbEntity
  8
0
  6
CONTINUOUS
 62
     7
100
AcDbCircle
 10
886.18991
 20
375.739429
 30
0.0
 40
2.0
  0
LINE
  5
339
100
AcDbEntity
  8
0
  6
CONTINUOUS
 62
     7
100
AcDbLine
 10
885.308997
 20
434.8521
 30
0.0
 11
885.43991
 21
434.954882
 31
0.0
  0
ARC
  5
33A
100
AcDbEntity
  8
0
  6
CONTINUOUS
 62
     7
100
AcDbCircle
 10
886.18991
 20
438.239429
 30
0.0
 40
3.5
100
AcDbArc
 50
104.577506
 51
255.422494
  0
LWPOLYLINE
  5
33B
100
AcDbEntity
  8
0
  6
CONTINUOUS
 62
     7
100
AcDbPolyline
 90
        3
 70
   128
 43
0.0
 10
885.439911
 20
441.523975
 10
885.324346
 20
441.61487
 10
885.308997
 20
441.626757
  0
ARC
  5
33C
100
AcDbEntity
  8
0
  6
CONTINUOUS
 62
     7
100
AcDbCircle
 10
886.18991
 20
438.239429
 30
0.0
 40
3.369087
100
AcDbArc
 50
102.862509
 51
257.137491
  0
LINE
  5
33D
100
AcDbEntity
  8
0
  6
CONTINUOUS
 62
     7
100
AcDbLine
 10
885.308997
 20
372.3521
 30
0.0
 11
885.43991
 21
372.454882
 31
0.0
  0
ARC
  5
33E
100
AcDbEntity
  8
0
  6
CONTINUOUS
 62
     7
100
AcDbCircle
 10
886.18991
 20
375.739429
 30
0.0
 40
3.5
100
AcDbArc
 50
104.577506
 51
255.422494
  0
LWPOLYLINE
  5
33F
100
AcDbEntity
  8
0
  6
CONTINUOUS
 62
     7
100
AcDbPolyline
 90
        3
 70
   128
 43
0.0
 10
885.439911
 20
379.023976
 10
885.324346
 20
379.11487
 10
885.308997
 20
379.126757
  0
LINE
  5
340
100
AcDbEntity
  8
0
  6
CONTINUOUS
 62
     7
100
AcDbLine
 10
886.939907
 20
431.739429
 30
0.0
 11
886.93991
 21
434.954882
 31
0.0
  0
LINE
  5
341
100
AcDbEntity
  8
0
  6
CONTINUOUS
 62
     7
100
AcDbLine
 10
885.439911
 20
431.739429
 30
0.0
 11
886.939907
 21
431.739429
 31
0.0
  0
LINE
  5
342
100
AcDbEntity
  8
0
  6
CONTINUOUS
 62
     7
100
AcDbLine
 10
885.43991
 20
434.954882
 30
0.0
 11
885.439911
 21
431.739429
 31
0.0
  0
LINE
  5
343
100
AcDbEntity
  8
0
  6
CONTINUOUS
 62
     7
100
AcDbLine
 10
885.439911
 20
444.739429
 30
0.0
 11
885.43991
 21
441.523975
 31
0.0
  0
LINE
  5
344
100
AcDbEntity
  8
0
  6
CONTINUOUS
 62
     7
100
AcDbLine
 10
886.939907
 20
444.739429
 30
0.0
 11
885.439911
 21
444.739429
 31
0.0
  0
LINE
  5
345
100
AcDbEntity
  8
0
  6
CONTINUOUS
 62
     7
100
AcDbLine
 10
886.93991
 20
441.523975
 30
0.0
 11
886.939907
 21
444.739429
 31
0.0
  0
ARC
  5
346
100
AcDbEntity
  8
0
  6
CONTINUOUS
 62
     7
100
AcDbCircle
 10
886.18991
 20
438.239429
 30
0.0
 40
3.369087
100
AcDbArc
 50
282.862509
 51
77.137491
  0
CIRCLE
  5
347
100
AcDbEntity
  8
0
  6
CONTINUOUS
 62
     7
100
AcDbCircle
 10
886.18991
 20
438.239429
 30
0.0
 40
2.0
  0
LINE
  5
348
100
AcDbEntity
  8
0
  6
CONTINUOUS
 62
     7
100
AcDbLine
 10
887.070821
 20
382.370341
 30
0.0
 11
886.939907
 21
382.239427
 31
0.0
  0
LINE
  5
349
100
AcDbEntity
  8
0
  6
CONTINUOUS
 62
     7
100
AcDbLine
 10
885.308997
 20
382.370341
 30
0.0
 11
885.439911
 21
382.239427
 31
0.0
  0
LINE
  5
34A
100
AcDbEntity
  8
0
  6
CONTINUOUS
 62
     7
100
AcDbLine
 10
885.308997
 20
382.370341
 30
0.0
 11
887.070821
 21
382.370341
 31
0.0
  0
LINE
  5
34B
100
AcDbEntity
  8
0
  6
CONTINUOUS
 62
     7
100
AcDbLine
 10
887.070821
 20
507.370341
 30
0.0
 11
886.939907
 21
507.239427
 31
0.0
  0
LINE
  5
34C
100
AcDbEntity
  8
0
  6
CONTINUOUS
 62
     7
100
AcDbLine
 10
885.308997
 20
507.370341
 30
0.0
 11
885.439911
 21
507.239427
 31
0.0
  0
LINE
  5
34D
100
AcDbEntity
  8
0
  6
CONTINUOUS
 62
     7
100
AcDbLine
 10
885.308997
 20
507.370341
 30
0.0
 11
887.070821
 21
507.370341
 31
0.0
  0
LINE
  5
34E
100
AcDbEntity
  8
0
  6
CONTINUOUS
 62
     7
100
AcDbLine
 10
885.308997
 20
504.126757
 30
0.0
 11
885.308997
 21
507.370341
 31
0.0
  0
LINE
  5
34F
100
AcDbEntity
  8
0
  6
CONTINUOUS
 62
     7
100
AcDbLine
 10
885.308997
 20
431.608516
 30
0.0
 11
885.439911
 21
431.739429
 31
0.0
  0
LINE
  5
350
100
AcDbEntity
  8
0
  6
CONTINUOUS
 62
     7
100
AcDbLine
 10
887.070821
 20
431.608516
 30
0.0
 11
886.939907
 21
431.739429
 31
0.0
  0
LINE
  5
351
100
AcDbEntity
  8
0
  6
CONTINUOUS
 62
     7
100
AcDbLine
 10
887.070821
 20
431.608516
 30
0.0
 11
885.308997
 21
431.608516
 31
0.0
  0
LINE
  5
352
100
AcDbEntity
  8
0
  6
CONTINUOUS
 62
     7
100
AcDbLine
 10
887.070821
 20
444.870342
 30
0.0
 11
886.939907
 21
444.739429
 31
0.0
  0
LINE
  5
353
100
AcDbEntity
  8
0
  6
CONTINUOUS
 62
     7
100
AcDbLine
 10
885.308997
 20
444.870342
 30
0.0
 11
885.439911
 21
444.739429
 31
0.0
  0
LINE
  5
354
100
AcDbEntity
  8
0
  6
CONTINUOUS
 62
     7
100
AcDbLine
 10
885.308997
 20
444.870342
 30
0.0
 11
887.070821
 21
444.870342
 31
0.0
  0
LINE
  5
355
100
AcDbEntity
  8
0
  6
CONTINUOUS
 62
     7
100
AcDbLine
 10
885.308997
 20
369.108516
 30
0.0
 11
885.439911
 21
369.23943
 31
0.0
  0
LINE
  5
356
100
AcDbEntity
  8
0
  6
CONTINUOUS
 62
     7
100
AcDbLine
 10
885.308997
 20
369.108516
 30
0.0
 11
885.308997
 21
372.3521
 31
0.0
  0
LINE
  5
357
100
AcDbEntity
  8
0
  6
CONTINUOUS
 62
     7
100
AcDbLine
 10
885.308997
 20
431.608516
 30
0.0
 11
885.308997
 21
434.8521
 31
0.0
  0
LINE
  5
358
100
AcDbEntity
  8
0
  6
CONTINUOUS
 62
     7
100
AcDbLine
 10
887.070821
 20
369.108516
 30
0.0
 11
886.939907
 21
369.23943
 31
0.0
  0
LINE
  5
359
100
AcDbEntity
  8
0
  6
CONTINUOUS
 62
     7
100
AcDbLine
 10
887.070821
 20
369.108516
 30
0.0
 11
885.308997
 21
369.108516
 31
0.0
  0
LINE
  5
35A
100
AcDbEntity
  8
0
  6
CONTINUOUS
 62
     7
100
AcDbLine
 10
885.308997
 20
494.108516
 30
0.0
 11
885.439911
 21
494.23943
 31
0.0
  0
LINE
  5
35B
100
AcDbEntity
  8
0
  6
CONTINUOUS
 62
     7
100
AcDbLine
 10
887.070821
 20
494.108516
 30
0.0
 11
886.939907
 21
494.23943
 31
0.0
  0
LINE
  5
35C
100
AcDbEntity
  8
0
  6
CONTINUOUS
 62
     7
100
AcDbLine
 10
887.070821
 20
494.108516
 30
0.0
 11
885.308997
 21
494.108516
 31
0.0
  0
CIRCLE
  5
35D
100
AcDbEntity
  8
0
  6
CONTINUOUS
 62
     7
100
AcDbCircle
 10
886.18991
 20
438.239429
 30
0.0
 40
1.982545
  0
LINE
  5
35E
100
AcDbEntity
  8
0
  6
CONTINUOUS
 62
     7
100
AcDbLine
 10
885.308997
 20
494.108516
 30
0.0
 11
885.308997
 21
497.3521
 31
0.0
  0
LINE
  5
35F
100
AcDbEntity
  8
0
  6
CONTINUOUS
 62
     7
100
AcDbLine
 10
885.308997
 20
379.126757
 30
0.0
 11
885.308997
 21
382.370341
 31
0.0
  0
CIRCLE
  5
360
100
AcDbEntity
  8
0
  6
CONTINUOUS
 62
     7
100
AcDbCircle
 10
886.18991
 20
500.739429
 30
0.0
 40
1.982545
  0
LINE
  5
361
100
AcDbEntity
  8
0
  6
CONTINUOUS
 62
     7
100
AcDbLine
 10
885.308997
 20
441.626757
 30
0.0
 11
885.308997
 21
444.870342
 31
0.0
  0
CIRCLE
  5
362
100
AcDbEntity
  8
0
  6
CONTINUOUS
 62
     7
100
AcDbCircle
 10
886.18991
 20
375.739429
 30
0.0
 40
1.982545
  0
LINE
  5
363
100
AcDbEntity
  8
0
  6
CONTINUOUS
 62
     7
100
AcDbLine
 10
887.070823
 20
379.126757
 30
0.0
 11
886.93991
 21
379.023975
 31
0.0
  0
ARC
  5
364
100
AcDbEntity
  8
0
  6
CONTINUOUS
 62
     7
100
AcDbCircle
 10
886.18991
 20
375.739429
 30
0.0
 40
3.5
100
AcDbArc
 50
284.577506
 51
75.422494
  0
LWPOLYLINE
  5
365
100
AcDbEntity
  8
0
  6
CONTINUOUS
 62
     7
100
AcDbPolyline
 90
        3
 70
   128
 43
0.0
 10
886.939907
 20
372.454885
 10
887.055473
 20
372.363988
 10
887.070821
 20
372.352104
  0
LINE
  5
366
100
AcDbEntity
  8
0
  6
CONTINUOUS
 62
     7
100
AcDbLine
 10
887.070823
 20
441.626757
 30
0.0
 11
886.93991
 21
441.523975
 31
0.0
  0
ARC
  5
367
100
AcDbEntity
  8
0
  6
CONTINUOUS
 62
     7
100
AcDbCircle
 10
886.18991
 20
438.239429
 30
0.0
 40
3.5
100
AcDbArc
 50
284.577506
 51
75.422494
  0
LWPOLYLINE
  5
368
100
AcDbEntity
  8
0
  6
CONTINUOUS
 62
     7
100
AcDbPolyline
 90
        3
 70
   128
 43
0.0
 10
886.939907
 20
434.954882
 10
887.055473
 20
434.863988
 10
887.070821
 20
434.8521
  0
LINE
  5
369
100
AcDbEntity
  8
0
  6
CONTINUOUS
 62
     7
100
AcDbLine
 10
887.070823
 20
372.3521
 30
0.0
 11
887.070821
 21
369.108516
 31
0.0
  0
LINE
  5
36A
100
AcDbEntity
  8
0
  6
CONTINUOUS
 62
     7
100
AcDbLine
 10
887.070821
 20
382.370341
 30
0.0
 11
887.070823
 21
379.126757
 31
0.0
  0
LINE
  5
36B
100
AcDbEntity
  8
0
  6
CONTINUOUS
 62
     7
100
AcDbLine
 10
887.070823
 20
434.8521
 30
0.0
 11
887.070821
 21
431.608516
 31
0.0
  0
LINE
  5
36C
100
AcDbEntity
  8
0
  6
CONTINUOUS
 62
     7
100
AcDbLine
 10
887.070823
 20
504.126757
 30
0.0
 11
886.93991
 21
504.023975
 31
0.0
  0
ARC
  5
36D
100
AcDbEntity
  8
0
  6
CONTINUOUS
 62
     7
100
AcDbCircle
 10
886.18991
 20
500.739429
 30
0.0
 40
3.5
100
AcDbArc
 50
284.577506
 51
75.422494
  0
LWPOLYLINE
  5
36E
100
AcDbEntity
  8
0
  6
CONTINUOUS
 62
     7
100
AcDbPolyline
 90
        3
 70
   128
 43
0.0
 10
886.939907
 20
497.454881
 10
887.055473
 20
497.363988
 10
887.070821
 20
497.3521
  0
LINE
  5
36F
100
AcDbEntity
  8
0
  6
CONTINUOUS
 62
     7
100
AcDbLine
 10
887.070823
 20
497.3521
 30
0.0
 11
887.070821
 21
494.108516
 31
0.0
  0
LINE
  5
370
100
AcDbEntity
  8
0
  6
CONTINUOUS
 62
     7
100
AcDbLine
 10
887.070821
 20
444.870342
 30
0.0
 11
887.070823
 21
441.626757
 31
0.0
  0
LINE
  5
371
100
AcDbEntity
  8
0
  6
CONTINUOUS
 62
     7
100
AcDbLine
 10
887.070821
 20
507.370341
 30
0.0
 11
887.070823
 21
504.126757
 31
0.0
  0
CIRCLE
  5
372
100
AcDbEntity
  8
0
  6
CONTINUOUS
 62
     7
100
AcDbCircle
 10
681.18991
 20
500.739429
 30
0.0
 40
1.6
  0
CIRCLE
  5
373
100
AcDbEntity
  8
0
  6
CONTINUOUS
 62
     7
100
AcDbCircle
 10
681.18991
 20
375.739429
 30
0.0
 40
1.6
  0
CIRCLE
  5
374
100
AcDbEntity
  8
0
  6
CONTINUOUS
 62
     7
100
AcDbCircle
 10
681.18991
 20
438.239429
 30
0.0
 40
1.6
  0
CIRCLE
  5
375
100
AcDbEntity
  8
0
  6
CONTINUOUS
 62
     7
100
AcDbCircle
 10
681.18991
 20
375.739429
 30
0.0
 40
1.564657
  0
CIRCLE
  5
376
100
AcDbEntity
  8
0
  6
CONTINUOUS
 62
     7
100
AcDbCircle
 10
681.18991
 20
438.239429
 30
0.0
 40
1.564657
  0
CIRCLE
  5
377
100
AcDbEntity
  8
0
  6
CONTINUOUS
 62
     7
100
AcDbCircle
 10
681.18991
 20
500.739429
 30
0.0
 40
1.564657
  0
CIRCLE
  5
378
100
AcDbEntity
  8
0
  6
CONTINUOUS
 62
     7
100
AcDbCircle
 10
703.18991
 20
548.739429
 30
0.0
 40
1.6
  0
CIRCLE
  5
379
100
AcDbEntity
  8
0
  6
CONTINUOUS
 62
     7
100
AcDbCircle
 10
703.18991
 20
327.739429
 30
0.0
 40
1.6
  0
CIRCLE
  5
37A
100
AcDbEntity
  8
0
  6
CONTINUOUS
 62
     7
100
AcDbCircle
 10
703.18991
 20
327.739429
 30
0.0
 40
1.564657
  0
CIRCLE
  5
37B
100
AcDbEntity
  8
0
  6
CONTINUOUS
 62
     7
100
AcDbCircle
 10
703.18991
 20
548.739429
 30
0.0
 40
1.564657
  0
CIRCLE
  5
37C
100
AcDbEntity
  8
0
  6
CONTINUOUS
 62
     7
100
AcDbCircle
 10
714.68991
 20
565.739429
 30
0.0
 40
1.6
  0
CIRCLE
  5
37D
100
AcDbEntity
  8
0
  6
CONTINUOUS
 62
     7
100
AcDbCircle
 10
714.68991
 20
310.739429
 30
0.0
 40
1.6
  0
CIRCLE
  5
37E
100
AcDbEntity
  8
0
  6
CONTINUOUS
 62
     7
100
AcDbCircle
 10
714.68991
 20
310.739429
 30
0.0
 40
1.564657
  0
CIRCLE
  5
37F
100
AcDbEntity
  8
0
  6
CONTINUOUS
 62
     7
100
AcDbCircle
 10
714.68991
 20
565.739429
 30
0.0
 40
1.564657
  0
CIRCLE
  5
380
100
AcDbEntity
  8
0
  6
CONTINUOUS
 62
     7
100
AcDbCircle
 10
783.68991
 20
565.739429
 30
0.0
 40
1.6
  0
CIRCLE
  5
381
100
AcDbEntity
  8
0
  6
CONTINUOUS
 62
     7
100
AcDbCircle
 10
783.68991
 20
565.739429
 30
0.0
 40
1.564657
  0
CIRCLE
  5
382
100
AcDbEntity
  8
0
  6
CONTINUOUS
 62
     7
100
AcDbCircle
 10
783.68991
 20
310.739429
 30
0.0
 40
1.6
  0
CIRCLE
  5
383
100
AcDbEntity
  8
0
  6
CONTINUOUS
 62
     7
100
AcDbCircle
 10
783.68991
 20
310.739429
 30
0.0
 40
1.564657
  0
CIRCLE
  5
384
100
AcDbEntity
  8
0
  6
CONTINUOUS
 62
     7
100
AcDbCircle
 10
852.68991
 20
310.739429
 30
0.0
 40
1.6
  0
CIRCLE
  5
385
100
AcDbEntity
  8
0
  6
CONTINUOUS
 62
     7
100
AcDbCircle
 10
852.68991
 20
310.739429
 30
0.0
 40
1.564657
  0
CIRCLE
  5
386
100
AcDbEntity
  8
0
  6
CONTINUOUS
 62
     7
100
AcDbCircle
 10
852.68991
 20
565.739429
 30
0.0
 40
1.6
  0
CIRCLE
  5
387
100
AcDbEntity
  8
0
  6
CONTINUOUS
 62
     7
100
AcDbCircle
 10
852.68991
 20
565.739429
 30
0.0
 40
1.564657
  0
CIRCLE
  5
388
100
AcDbEntity
  8
0
  6
CONTINUOUS
 62
     7
100
AcDbCircle
 10
864.18991
 20
548.739429
 30
0.0
 40
1.6
  0
CIRCLE
  5
389
100
AcDbEntity
  8
0
  6
CONTINUOUS
 62
     7
100
AcDbCircle
 10
864.18991
 20
548.739429
 30
0.0
 40
1.564657
  0
CIRCLE
  5
38A
100
AcDbEntity
  8
0
  6
CONTINUOUS
 62
     7
100
AcDbCircle
 10
864.18991
 20
327.739429
 30
0.0
 40
1.6
  0
CIRCLE
  5
38B
100
AcDbEntity
  8
0
  6
CONTINUOUS
 62
     7
100
AcDbCircle
 10
864.18991
 20
327.739429
 30
0.0
 40
1.564657
  0
CIRCLE
  5
38C
100
AcDbEntity
  8
0
  6
CONTINUOUS
 62
     7
100
AcDbCircle
 10
886.18991
 20
438.239429
 30
0.0
 40
1.6
  0
CIRCLE
  5
38D
100
AcDbEntity
  8
0
  6
CONTINUOUS
 62
     7
100
AcDbCircle
 10
886.18991
 20
438.239429
 30
0.0
 40
1.564657
  0
CIRCLE
  5
38E
100
AcDbEntity
  8
0
  6
CONTINUOUS
 62
     7
100
AcDbCircle
 10
886.18991
 20
500.739429
 30
0.0
 40
1.6
  0
CIRCLE
  5
38F
100
AcDbEntity
  8
0
  6
CONTINUOUS
 62
     7
100
AcDbCircle
 10
886.18991
 20
500.739429
 30
0.0
 40
1.564657
  0
CIRCLE
  5
390
100
AcDbEntity
  8
0
  6
CONTINUOUS
 62
     7
100
AcDbCircle
 10
886.18991
 20
375.739429
 30
0.0
 40
1.6
  0
CIRCLE
  5
391
100
AcDbEntity
  8
0
  6
CONTINUOUS
 62
     7
100
AcDbCircle
 10
886.18991
 20
375.739429
 30
0.0
 40
1.564657
  0
CIRCLE
  5
392
100
AcDbEntity
  8
0
  6
CONTINUOUS
 62
     7
100
AcDbCircle
 10
678.38991
 20
327.739429
 30
0.0
 40
3.351632
  0
CIRCLE
  5
393
100
AcDbEntity
  8
0
  6
CONTINUOUS
 62
     7
100
AcDbCircle
 10
678.38991
 20
548.739429
 30
0.0
 40
3.351632
  0
CIRCLE
  5
394
100
AcDbEntity
  8
0
  6
CONTINUOUS
 62
     7
100
AcDbCircle
 10
678.38991
 20
548.739429
 30
0.0
 40
3.459853
  0
CIRCLE
  5
395
100
AcDbEntity
  8
0
  6
CONTINUOUS
 62
     7
100
AcDbCircle
 10
678.38991
 20
327.739429
 30
0.0
 40
3.459853
  0
ARC
  5
396
100
AcDbEntity
  8
0
  6
CONTINUOUS
 62
     7
100
AcDbCircle
 10
711.18991
 20
568.539429
 30
0.0
 40
3.459853
100
AcDbArc
 50
11.642752
 51
271.037631
  0
ARC
  5
397
100
AcDbEntity
  8
0
  6
CONTINUOUS
 62
     7
100
AcDbCircle
 10
711.18991
 20
568.539429
 30
0.0
 40
3.351632
100
AcDbArc
 50
10.067249
 51
272.613134
  0
ARC
  5
398
100
AcDbEntity
  8
0
  6
CONTINUOUS
 62
     7
100
AcDbCircle
 10
711.18991
 20
307.939429
 30
0.0
 40
3.351632
100
AcDbArc
 50
87.386866
 51
349.932751
  0
ARC
  5
399
100
AcDbEntity
  8
0
  6
CONTINUOUS
 62
     7
100
AcDbCircle
 10
711.18991
 20
307.939429
 30
0.0
 40
3.459853
100
AcDbArc
 50
88.962369
 51
348.357248
  0
ARC
  5
39A
100
AcDbEntity
  8
0
  6
CONTINUOUS
 62
     7
100
AcDbCircle
 10
856.18991
 20
307.939429
 30
0.0
 40
3.351632
100
AcDbArc
 50
190.067249
 51
92.613134
  0
ARC
  5
39B
100
AcDbEntity
  8
0
  6
CONTINUOUS
 62
     7
100
AcDbCircle
 10
856.18991
 20
568.539429
 30
0.0
 40
3.351632
100
AcDbArc
 50
267.386866
 51
169.932751
  0
ARC
  5
39C
100
AcDbEntity
  8
0
  6
CONTINUOUS
 62
     7
100
AcDbCircle
 10
856.18991
 20
307.939429
 30
0.0
 40
3.459853
100
AcDbArc
 50
191.642752
 51
91.037631
  0
ARC
  5
39D
100
AcDbEntity
  8
0
  6
CONTINUOUS
 62
     7
100
AcDbCircle
 10
856.18991
 20
568.539429
 30
0.0
 40
3.459853
100
AcDbArc
 50
268.962369
 51
168.357248
  0
CIRCLE
  5
39E
100
AcDbEntity
  8
0
  6
CONTINUOUS
 62
     7
100
AcDbCircle
 10
888.98991
 20
548.739429
 30
0.0
 40
3.351632
  0
CIRCLE
  5
39F
100
AcDbEntity
  8
0
  6
CONTINUOUS
 62
     7
100
AcDbCircle
 10
888.98991
 20
327.739429
 30
0.0
 40
3.351632
  0
CIRCLE
  5
3A0
100
AcDbEntity
  8
0
  6
CONTINUOUS
 62
     7
100
AcDbCircle
 10
888.98991
 20
327.739429
 30
0.0
 40
3.459853
  0
CIRCLE
  5
3A1
100
AcDbEntity
  8
0
  6
CONTINUOUS
 62
     7
100
AcDbCircle
 10
888.98991
 20
548.739429
 30
0.0
 40
3.459853
  0
CIRCLE
  5
3A2
100
AcDbEntity
  8
0
  6
CONTINUOUS
 62
     7
100
AcDbCircle
 10
723.68991
 20
538.239429
 30
0.0
 40
8.65
  0
CIRCLE
  5
3A3
100
AcDbEntity
  8
0
  6
CONTINUOUS
 62
     7
100
AcDbCircle
 10
723.68991
 20
538.239429
 30
0.0
 40
8.520833
  0
CIRCLE
  5
3A4
100
AcDbEntity
  8
0
  6
CONTINUOUS
 62
     7
100
AcDbCircle
 10
723.68991
 20
338.239429
 30
0.0
 40
8.65
  0
CIRCLE
  5
3A5
100
AcDbEntity
  8
0
  6
CONTINUOUS
 62
     7
100
AcDbCircle
 10
723.68991
 20
338.239429
 30
0.0
 40
8.520833
  0
CIRCLE
  5
3A6
100
AcDbEntity
  8
0
  6
CONTINUOUS
 62
     7
100
AcDbCircle
 10
723.68991
 20
338.239429
 30
0.0
 40
10.266216
  0
CIRCLE
  5
3A7
100
AcDbEntity
  8
0
  6
CONTINUOUS
 62
     7
100
AcDbCircle
 10
723.68991
 20
538.239429
 30
0.0
 40
10.35
  0
CIRCLE
  5
3A8
100
AcDbEntity
  8
0
  6
CONTINUOUS
 62
     7
100
AcDbCircle
 10
723.68991
 20
538.239429
 30
0.0
 40
10.266216
  0
CIRCLE
  5
3A9
100
AcDbEntity
  8
0
  6
CONTINUOUS
 62
     7
100
AcDbCircle
 10
723.68991
 20
338.239429
 30
0.0
 40
10.35
  0
CIRCLE
  5
3AA
100
AcDbEntity
  8
0
  6
CONTINUOUS
 62
     7
100
AcDbCircle
 10
843.68991
 20
338.239429
 30
0.0
 40
10.266216
  0
CIRCLE
  5
3AB
100
AcDbEntity
  8
0
  6
CONTINUOUS
 62
     7
100
AcDbCircle
 10
843.68991
 20
338.239429
 30
0.0
 40
8.65
  0
CIRCLE
  5
3AC
100
AcDbEntity
  8
0
  6
CONTINUOUS
 62
     7
100
AcDbCircle
 10
843.68991
 20
538.239429
 30
0.0
 40
10.35
  0
CIRCLE
  5
3AD
100
AcDbEntity
  8
0
  6
CONTINUOUS
 62
     7
100
AcDbCircle
 10
843.68991
 20
538.239429
 30
0.0
 40
10.266216
  0
CIRCLE
  5
3AE
100
AcDbEntity
  8
0
  6
CONTINUOUS
 62
     7
100
AcDbCircle
 10
843.68991
 20
338.239429
 30
0.0
 40
10.35
  0
CIRCLE
  5
3AF
100
AcDbEntity
  8
0
  6
CONTINUOUS
 62
     7
100
AcDbCircle
 10
843.68991
 20
538.239429
 30
0.0
 40
8.65
  0
CIRCLE
  5
3B0
100
AcDbEntity
  8
0
  6
CONTINUOUS
 62
     7
100
AcDbCircle
 10
843.68991
 20
338.239429
 30
0.0
 40
8.520833
  0
CIRCLE
  5
3B1
100
AcDbEntity
  8
0
  6
CONTINUOUS
 62
     7
100
AcDbCircle
 10
843.68991
 20
538.239429
 30
0.0
 40
8.520833
  0
CIRCLE
  5
3B2
100
AcDbEntity
  8
0
  6
CONTINUOUS
 62
     7
100
AcDbCircle
 10
689.78991
 20
572.239429
 30
0.0
 40
2.196003
  0
CIRCLE
  5
3B3
100
AcDbEntity
  8
0
  6
CONTINUOUS
 62
     7
100
AcDbCircle
 10
689.78991
 20
304.239429
 30
0.0
 40
2.196003
  0
CIRCLE
  5
3B4
100
AcDbEntity
  8
0
  6
CONTINUOUS
 62
     7
100
AcDbCircle
 10
689.78991
 20
304.239429
 30
0.0
 40
2.1
  0
CIRCLE
  5
3B5
100
AcDbEntity
  8
0
  6
CONTINUOUS
 62
     7
100
AcDbCircle
 10
689.78991
 20
572.239429
 30
0.0
 40
2.1
  0
CIRCLE
  5
3B6
100
AcDbEntity
  8
0
  6
CONTINUOUS
 62
     7
100
AcDbCircle
 10
877.58991
 20
572.239429
 30
0.0
 40
2.196003
  0
CIRCLE
  5
3B7
100
AcDbEntity
  8
0
  6
CONTINUOUS
 62
     7
100
AcDbCircle
 10
877.58991
 20
304.239429
 30
0.0
 40
2.196003
  0
CIRCLE
  5
3B8
100
AcDbEntity
  8
0
  6
CONTINUOUS
 62
     7
100
AcDbCircle
 10
877.58991
 20
572.239429
 30
0.0
 40
2.1
  0
CIRCLE
  5
3B9
100
AcDbEntity
  8
0
  6
CONTINUOUS
 62
     7
100
AcDbCircle
 10
877.58991
 20
304.239429
 30
0.0
 40
2.1
  0
LINE
  5
3BA
100
AcDbEntity
  8
0
  6
CONTINUOUS
 62
     7
100
AcDbLine
 10
726.68991
 20
341.239429
 30
0.0
 11
720.68991
 21
341.239429
 31
0.0
  0
ARC
  5
3BB
100
AcDbEntity
  8
0
  6
CONTINUOUS
 62
     7
100
AcDbCircle
 10
720.68991
 20
338.239429
 30
0.0
 40
3.0
100
AcDbArc
 50
90.0
 51
270.0
  0
LINE
  5
3BC
100
AcDbEntity
  8
0
  6
CONTINUOUS
 62
     7
100
AcDbLine
 10
720.68991
 20
335.239429
 30
0.0
 11
726.68991
 21
335.239429
 31
0.0
  0
ARC
  5
3BD
100
AcDbEntity
  8
0
  6
CONTINUOUS
 62
     7
100
AcDbCircle
 10
726.68991
 20
338.239429
 30
0.0
 40
3.0
100
AcDbArc
 50
270.0
 51
90.0
  0
LINE
  5
3BE
100
AcDbEntity
  8
0
  6
CONTINUOUS
 62
     7
100
AcDbLine
 10
726.68991
 20
535.239429
 30
0.0
 11
726.68991
 21
541.239429
 31
0.0
  0
ARC
  5
3BF
100
AcDbEntity
  8
0
  6
CONTINUOUS
 62
     7
100
AcDbCircle
 10
723.68991
 20
541.239429
 30
0.0
 40
3.0
100
AcDbArc
 50
0.0
 51
180.0
  0
LINE
  5
3C0
100
AcDbEntity
  8
0
  6
CONTINUOUS
 62
     7
100
AcDbLine
 10
720.68991
 20
541.239429
 30
0.0
 11
720.68991
 21
535.239429
 31
0.0
  0
ARC
  5
3C1
100
AcDbEntity
  8
0
  6
CONTINUOUS
 62
     7
100
AcDbCircle
 10
723.68991
 20
535.239429
 30
0.0
 40
3.0
100
AcDbArc
 50
180.0
 51
0.0
  0
LINE
  5
3C2
100
AcDbEntity
  8
0
  6
CONTINUOUS
 62
     7
100
AcDbLine
 10
720.68991
 20
335.248974
 30
0.0
 11
720.68991
 21
335.239429
 31
0.0
  0
LINE
  5
3C3
100
AcDbEntity
  8
0
  6
CONTINUOUS
 62
     7
100
AcDbLine
 10
720.68991
 20
341.229883
 30
0.0
 11
720.68991
 21
341.239429
 31
0.0
  0
ARC
  5
3C4
100
AcDbEntity
  8
0
  6
CONTINUOUS
 62
     7
100
AcDbCircle
 10
720.68991
 20
338.239429
 30
0.0
 40
2.990455
100
AcDbArc
 50
90.0
 51
270.0
  0
ARC
  5
3C5
100
AcDbEntity
  8
0
  6
CONTINUOUS
 62
     7
100
AcDbCircle
 10
720.68991
 20
338.239429
 30
0.0
 40
2.832637
100
AcDbArc
 50
90.0
 51
270.0
  0
LINE
  5
3C6
100
AcDbEntity
  8
0
  6
CONTINUOUS
 62
     7
100
AcDbLine
 10
726.68991
 20
341.072066
 30
0.0
 11
720.68991
 21
341.072066
 31
0.0
  0
ARC
  5
3C7
100
AcDbEntity
  8
0
  6
CONTINUOUS
 62
     7
100
AcDbCircle
 10
726.68991
 20
338.239429
 30
0.0
 40
2.832637
100
AcDbArc
 50
270.0
 51
90.0
  0
LINE
  5
3C8
100
AcDbEntity
  8
0
  6
CONTINUOUS
 62
     7
100
AcDbLine
 10
720.68991
 20
335.406791
 30
0.0
 11
726.68991
 21
335.406791
 31
0.0
  0
LINE
  5
3C9
100
AcDbEntity
  8
0
  6
CONTINUOUS
 62
     7
100
AcDbLine
 10
720.68991
 20
335.406791
 30
0.0
 11
720.68991
 21
335.248974
 31
0.0
  0
LINE
  5
3CA
100
AcDbEntity
  8
0
  6
CONTINUOUS
 62
     7
100
AcDbLine
 10
720.68991
 20
341.072066
 30
0.0
 11
720.68991
 21
341.229883
 31
0.0
  0
ARC
  5
3CB
100
AcDbEntity
  8
0
  6
CONTINUOUS
 62
     7
100
AcDbCircle
 10
723.68991
 20
541.239429
 30
0.0
 40
2.832637
100
AcDbArc
 50
0.0
 51
180.0
  0
LINE
  5
3CC
100
AcDbEntity
  8
0
  6
CONTINUOUS
 62
     7
100
AcDbLine
 10
720.857273
 20
541.239429
 30
0.0
 11
720.699456
 21
541.239429
 31
0.0
  0
ARC
  5
3CD
100
AcDbEntity
  8
0
  6
CONTINUOUS
 62
     7
100
AcDbCircle
 10
723.68991
 20
541.239429
 30
0.0
 40
2.990455
100
AcDbArc
 50
0.0
 51
180.0
  0
LINE
  5
3CE
100
AcDbEntity
  8
0
  6
CONTINUOUS
 62
     7
100
AcDbLine
 10
726.522548
 20
541.239429
 30
0.0
 11
726.680365
 21
541.239429
 31
0.0
  0
LINE
  5
3CF
100
AcDbEntity
  8
0
  6
CONTINUOUS
 62
     7
100
AcDbLine
 10
720.699456
 20
541.239429
 30
0.0
 11
720.68991
 21
541.239429
 31
0.0
  0
LINE
  5
3D0
100
AcDbEntity
  8
0
  6
CONTINUOUS
 62
     7
100
AcDbLine
 10
726.680365
 20
541.239429
 30
0.0
 11
726.68991
 21
541.239429
 31
0.0
  0
LINE
  5
3D1
100
AcDbEntity
  8
0
  6
CONTINUOUS
 62
     7
100
AcDbLine
 10
726.68991
 20
335.248974
 30
0.0
 11
726.68991
 21
335.239429
 31
0.0
  0
LINE
  5
3D2
100
AcDbEntity
  8
0
  6
CONTINUOUS
 62
     7
100
AcDbLine
 10
720.68991
 20
335.248974
 30
0.0
 11
726.68991
 21
335.248974
 31
0.0
  0
LINE
  5
3D3
100
AcDbEntity
  8
0
  6
CONTINUOUS
 62
     7
100
AcDbLine
 10
726.68991
 20
335.406791
 30
0.0
 11
726.68991
 21
335.248974
 31
0.0
  0
LINE
  5
3D4
100
AcDbEntity
  8
0
  6
CONTINUOUS
 62
     7
100
AcDbLine
 10
726.68991
 20
341.229883
 30
0.0
 11
720.68991
 21
341.229883
 31
0.0
  0
LINE
  5
3D5
100
AcDbEntity
  8
0
  6
CONTINUOUS
 62
     7
100
AcDbLine
 10
726.68991
 20
341.072066
 30
0.0
 11
726.68991
 21
341.229883
 31
0.0
  0
LINE
  5
3D6
100
AcDbEntity
  8
0
  6
CONTINUOUS
 62
     7
100
AcDbLine
 10
726.522548
 20
535.239429
 30
0.0
 11
726.522548
 21
541.239429
 31
0.0
  0
ARC
  5
3D7
100
AcDbEntity
  8
0
  6
CONTINUOUS
 62
     7
100
AcDbCircle
 10
723.68991
 20
535.239429
 30
0.0
 40
2.832637
100
AcDbArc
 50
180.0
 51
0.0
  0
LINE
  5
3D8
100
AcDbEntity
  8
0
  6
CONTINUOUS
 62
     7
100
AcDbLine
 10
720.857273
 20
541.239429
 30
0.0
 11
720.857273
 21
535.239429
 31
0.0
  0
LINE
  5
3D9
100
AcDbEntity
  8
0
  6
CONTINUOUS
 62
     7
100
AcDbLine
 10
726.522548
 20
535.239429
 30
0.0
 11
726.680365
 21
535.239429
 31
0.0
  0
ARC
  5
3DA
100
AcDbEntity
  8
0
  6
CONTINUOUS
 62
     7
100
AcDbCircle
 10
723.68991
 20
535.239429
 30
0.0
 40
2.990455
100
AcDbArc
 50
180.0
 51
0.0
  0
LINE
  5
3DB
100
AcDbEntity
  8
0
  6
CONTINUOUS
 62
     7
100
AcDbLine
 10
720.857273
 20
535.239429
 30
0.0
 11
720.699456
 21
535.239429
 31
0.0
  0
LINE
  5
3DC
100
AcDbEntity
  8
0
  6
CONTINUOUS
 62
     7
100
AcDbLine
 10
720.699456
 20
541.239429
 30
0.0
 11
720.699456
 21
535.239429
 31
0.0
  0
LINE
  5
3DD
100
AcDbEntity
  8
0
  6
CONTINUOUS
 62
     7
100
AcDbLine
 10
726.680365
 20
535.239429
 30
0.0
 11
726.68991
 21
535.239429
 31
0.0
  0
LINE
  5
3DE
100
AcDbEntity
  8
0
  6
CONTINUOUS
 62
     7
100
AcDbLine
 10
720.699456
 20
535.239429
 30
0.0
 11
720.68991
 21
535.239429
 31
0.0
  0
LINE
  5
3DF
100
AcDbEntity
  8
0
  6
CONTINUOUS
 62
     7
100
AcDbLine
 10
726.68991
 20
341.229883
 30
0.0
 11
726.68991
 21
341.239429
 31
0.0
  0
LINE
  5
3E0
100
AcDbEntity
  8
0
  6
CONTINUOUS
 62
     7
100
AcDbLine
 10
726.680365
 20
535.239429
 30
0.0
 11
726.680365
 21
541.239429
 31
0.0
  0
ARC
  5
3E1
100
AcDbEntity
  8
0
  6
CONTINUOUS
 62
     7
100
AcDbCircle
 10
726.68991
 20
338.239429
 30
0.0
 40
2.990455
100
AcDbArc
 50
270.0
 51
90.0
  0
LINE
  5
3E2
100
AcDbEntity
  8
0
  6
CONTINUOUS
 62
     7
100
AcDbLine
 10
846.68991
 20
335.239429
 30
0.0
 11
846.68991
 21
341.239429
 31
0.0
  0
ARC
  5
3E3
100
AcDbEntity
  8
0
  6
CONTINUOUS
 62
     7
100
AcDbCircle
 10
843.68991
 20
341.239429
 30
0.0
 40
3.0
100
AcDbArc
 50
0.0
 51
180.0
  0
LINE
  5
3E4
100
AcDbEntity
  8
0
  6
CONTINUOUS
 62
     7
100
AcDbLine
 10
840.68991
 20
341.239429
 30
0.0
 11
840.68991
 21
335.239429
 31
0.0
  0
ARC
  5
3E5
100
AcDbEntity
  8
0
  6
CONTINUOUS
 62
     7
100
AcDbCircle
 10
843.68991
 20
335.239429
 30
0.0
 40
3.0
100
AcDbArc
 50
180.0
 51
0.0
  0
LINE
  5
3E6
100
AcDbEntity
  8
0
  6
CONTINUOUS
 62
     7
100
AcDbLine
 10
846.68991
 20
541.239429
 30
0.0
 11
840.68991
 21
541.239429
 31
0.0
  0
ARC
  5
3E7
100
AcDbEntity
  8
0
  6
CONTINUOUS
 62
     7
100
AcDbCircle
 10
840.68991
 20
538.239429
 30
0.0
 40
3.0
100
AcDbArc
 50
90.0
 51
270.0
  0
LINE
  5
3E8
100
AcDbEntity
  8
0
  6
CONTINUOUS
 62
     7
100
AcDbLine
 10
840.68991
 20
535.239429
 30
0.0
 11
846.68991
 21
535.239429
 31
0.0
  0
ARC
  5
3E9
100
AcDbEntity
  8
0
  6
CONTINUOUS
 62
     7
100
AcDbCircle
 10
846.68991
 20
538.239429
 30
0.0
 40
3.0
100
AcDbArc
 50
270.0
 51
90.0
  0
ARC
  5
3EA
100
AcDbEntity
  8
0
  6
CONTINUOUS
 62
     7
100
AcDbCircle
 10
840.68991
 20
538.239429
 30
0.0
 40
2.832637
100
AcDbArc
 50
90.0
 51
270.0
  0
LINE
  5
3EB
100
AcDbEntity
  8
0
  6
CONTINUOUS
 62
     7
100
AcDbLine
 10
846.68991
 20
541.072066
 30
0.0
 11
840.68991
 21
541.072066
 31
0.0
  0
ARC
  5
3EC
100
AcDbEntity
  8
0
  6
CONTINUOUS
 62
     7
100
AcDbCircle
 10
846.68991
 20
538.239429
 30
0.0
 40
2.832637
100
AcDbArc
 50
270.0
 51
90.0
  0
LINE
  5
3ED
100
AcDbEntity
  8
0
  6
CONTINUOUS
 62
     7
100
AcDbLine
 10
840.68991
 20
535.406791
 30
0.0
 11
846.68991
 21
535.406791
 31
0.0
  0
LINE
  5
3EE
100
AcDbEntity
  8
0
  6
CONTINUOUS
 62
     7
100
AcDbLine
 10
840.68991
 20
535.248974
 30
0.0
 11
840.68991
 21
535.239429
 31
0.0
  0
LINE
  5
3EF
100
AcDbEntity
  8
0
  6
CONTINUOUS
 62
     7
100
AcDbLine
 10
840.68991
 20
541.229883
 30
0.0
 11
840.68991
 21
541.239429
 31
0.0
  0
ARC
  5
3F0
100
AcDbEntity
  8
0
  6
CONTINUOUS
 62
     7
100
AcDbCircle
 10
840.68991
 20
538.239429
 30
0.0
 40
2.990455
100
AcDbArc
 50
90.0
 51
270.0
  0
LINE
  5
3F1
100
AcDbEntity
  8
0
  6
CONTINUOUS
 62
     7
100
AcDbLine
 10
840.68991
 20
535.406791
 30
0.0
 11
840.68991
 21
535.248974
 31
0.0
  0
LINE
  5
3F2
100
AcDbEntity
  8
0
  6
CONTINUOUS
 62
     7
100
AcDbLine
 10
840.68991
 20
541.072066
 30
0.0
 11
840.68991
 21
541.229883
 31
0.0
  0
LINE
  5
3F3
100
AcDbEntity
  8
0
  6
CONTINUOUS
 62
     7
100
AcDbLine
 10
846.68991
 20
541.229883
 30
0.0
 11
840.68991
 21
541.229883
 31
0.0
  0
LINE
  5
3F4
100
AcDbEntity
  8
0
  6
CONTINUOUS
 62
     7
100
AcDbLine
 10
846.68991
 20
541.072066
 30
0.0
 11
846.68991
 21
541.229883
 31
0.0
  0
LINE
  5
3F5
100
AcDbEntity
  8
0
  6
CONTINUOUS
 62
     7
100
AcDbLine
 10
846.68991
 20
535.406791
 30
0.0
 11
846.68991
 21
535.248974
 31
0.0
  0
LINE
  5
3F6
100
AcDbEntity
  8
0
  6
CONTINUOUS
 62
     7
100
AcDbLine
 10
840.68991
 20
535.248974
 30
0.0
 11
846.68991
 21
535.248974
 31
0.0
  0
LINE
  5
3F7
100
AcDbEntity
  8
0
  6
CONTINUOUS
 62
     7
100
AcDbLine
 10
846.68991
 20
535.248974
 30
0.0
 11
846.68991
 21
535.239429
 31
0.0
  0
LINE
  5
3F8
100
AcDbEntity
  8
0
  6
CONTINUOUS
 62
     7
100
AcDbLine
 10
841.257273
 20
335.239429
 30
0.0
 11
840.910863
 21
335.239429
 31
0.0
  0
LINE
  5
3F9
100
AcDbEntity
  8
0
  6
CONTINUOUS
 62
     7
100
AcDbLine
 10
840.910863
 20
341.239429
 30
0.0
 11
840.910863
 21
335.239429
 31
0.0
  0
LINE
  5
3FA
100
AcDbEntity
  8
0
  6
CONTINUOUS
 62
     7
100
AcDbLine
 10
841.257273
 20
341.239429
 30
0.0
 11
840.910863
 21
341.239429
 31
0.0
  0
LINE
  5
3FB
100
AcDbEntity
  8
0
  6
CONTINUOUS
 62
     7
100
AcDbLine
 10
841.257273
 20
341.239429
 30
0.0
 11
841.257273
 21
335.239429
 31
0.0
  0
ARC
  5
3FC
100
AcDbEntity
  8
0
  6
CONTINUOUS
 62
     7
100
AcDbCircle
 10
843.68991
 20
341.239429
 30
0.0
 40
2.779048
100
AcDbArc
 50
0.0
 51
180.0
  0
LINE
  5
3FD
100
AcDbEntity
  8
0
  6
CONTINUOUS
 62
     7
100
AcDbLine
 10
846.122548
 20
341.239429
 30
0.0
 11
846.468958
 21
341.239429
 31
0.0
  0
ARC
  5
3FE
100
AcDbEntity
  8
0
  6
CONTINUOUS
 62
     7
100
AcDbCircle
 10
843.68991
 20
341.239429
 30
0.0
 40
2.432637
100
AcDbArc
 50
0.0
 51
180.0
  0
LINE
  5
3FF
100
AcDbEntity
  8
0
  6
CONTINUOUS
 62
     7
100
AcDbLine
 10
846.122548
 20
335.239429
 30
0.0
 11
846.122548
 21
341.239429
 31
0.0
  0
ARC
  5
400
100
AcDbEntity
  8
0
  6
CONTINUOUS
 62
     7
100
AcDbCircle
 10
843.68991
 20
335.239429
 30
0.0
 40
2.432637
100
AcDbArc
 50
180.0
 51
0.0
  0
LINE
  5
401
100
AcDbEntity
  8
0
  6
CONTINUOUS
 62
     7
100
AcDbLine
 10
846.122548
 20
335.239429
 30
0.0
 11
846.468958
 21
335.239429
 31
0.0
  0
ARC
  5
402
100
AcDbEntity
  8
0
  6
CONTINUOUS
 62
     7
100
AcDbCircle
 10
843.68991
 20
335.239429
 30
0.0
 40
2.779048
100
AcDbArc
 50
180.0
 51
0.0
  0
LINE
  5
403
100
AcDbEntity
  8
0
  6
CONTINUOUS
 62
     7
100
AcDbLine
 10
840.710863
 20
335.239429
 30
0.0
 11
840.68991
 21
335.239429
 31
0.0
  0
ARC
  5
404
100
AcDbEntity
  8
0
  6
CONTINUOUS
 62
     7
100
AcDbCircle
 10
843.68991
 20
335.239429
 30
0.0
 40
2.979048
100
AcDbArc
 50
180.0
 51
0.0
  0
LINE
  5
405
100
AcDbEntity
  8
0
  6
CONTINUOUS
 62
     7
100
AcDbLine
 10
846.668958
 20
335.239429
 30
0.0
 11
846.68991
 21
335.239429
 31
0.0
  0
LINE
  5
406
100
AcDbEntity
  8
0
  6
CONTINUOUS
 62
     7
100
AcDbLine
 10
846.668958
 20
341.239429
 30
0.0
 11
846.68991
 21
341.239429
 31
0.0
  0
ARC
  5
407
100
AcDbEntity
  8
0
  6
CONTINUOUS
 62
     7
100
AcDbCircle
 10
843.68991
 20
341.239429
 30
0.0
 40
2.979048
100
AcDbArc
 50
0.0
 51
180.0
  0
LINE
  5
408
100
AcDbEntity
  8
0
  6
CONTINUOUS
 62
     7
100
AcDbLine
 10
840.710863
 20
341.239429
 30
0.0
 11
840.68991
 21
341.239429
 31
0.0
  0
LINE
  5
409
100
AcDbEntity
  8
0
  6
CONTINUOUS
 62
     7
100
AcDbLine
 10
846.68991
 20
541.229883
 30
0.0
 11
846.68991
 21
541.239429
 31
0.0
  0
LINE
  5
40A
100
AcDbEntity
  8
0
  6
CONTINUOUS
 62
     7
100
AcDbLine
 10
840.710863
 20
341.239429
 30
0.0
 11
840.710863
 21
335.239429
 31
0.0
  0
LINE
  5
40B
100
AcDbEntity
  8
0
  6
CONTINUOUS
 62
     7
100
AcDbLine
 10
846.468958
 20
335.239429
 30
0.0
 11
846.468958
 21
341.239429
 31
0.0
  0
ARC
  5
40C
100
AcDbEntity
  8
0
  6
CONTINUOUS
 62
     7
100
AcDbCircle
 10
846.68991
 20
538.239429
 30
0.0
 40
2.990455
100
AcDbArc
 50
270.0
 51
90.0
  0
LINE
  5
40D
100
AcDbEntity
  8
0
  6
CONTINUOUS
 62
     7
100
AcDbLine
 10
846.668958
 20
335.239429
 30
0.0
 11
846.668958
 21
341.239429
 31
0.0
  0
LINE
  5
40E
100
AcDbEntity
  8
0
  6
CONTINUOUS
 62
     7
100
AcDbLine
 10
694.132687
 20
694.51288
 30
0.0
 11
694.289909
 21
697.512879
 31
0.0
  0
LINE
  5
40F
100
AcDbEntity
  8
0
  6
CONTINUOUS
 62
     7
100
AcDbLine
 10
873.089911
 20
697.512879
 30
0.0
 11
873.247134
 21
694.51288
 31
0.0
  0
LINE
  5
410
100
AcDbEntity
  8
0
  6
CONTINUOUS
 62
     7
100
AcDbLine
 10
706.18991
 20
697.512879
 30
0.0
 11
706.242318
 21
696.51288
 31
0.0
  0
LINE
  5
411
100
AcDbEntity
  8
0
  6
CONTINUOUS
 62
     7
100
AcDbLine
 10
716.137502
 20
696.51288
 30
0.0
 11
716.189907
 21
697.512879
 31
0.0
  0
LINE
  5
412
100
AcDbEntity
  8
0
  6
CONTINUOUS
 62
     7
100
AcDbLine
 10
851.189913
 20
697.512879
 30
0.0
 11
851.242318
 21
696.51288
 31
0.0
  0
LINE
  5
413
100
AcDbEntity
  8
0
  6
CONTINUOUS
 62
     7
100
AcDbLine
 10
861.137502
 20
696.51288
 30
0.0
 11
861.189911
 21
697.512879
 31
0.0
  0
LINE
  5
414
100
AcDbEntity
  8
0
  6
CONTINUOUS
 62
     7
100
AcDbLine
 10
852.939913
 20
696.512877
 30
0.0
 11
852.93991
 21
694.51288
 31
0.0
  0
LINE
  5
415
100
AcDbEntity
  8
0
  6
CONTINUOUS
 62
     7
100
AcDbLine
 10
859.43991
 20
694.51288
 30
0.0
 11
859.439911
 21
696.512877
 31
0.0
  0
LINE
  5
416
100
AcDbEntity
  8
0
  6
CONTINUOUS
 62
     7
100
AcDbLine
 10
707.939909
 20
696.512877
 30
0.0
 11
707.93991
 21
694.51288
 31
0.0
  0
LINE
  5
417
100
AcDbEntity
  8
0
  6
CONTINUOUS
 62
     7
100
AcDbLine
 10
714.43991
 20
694.51288
 30
0.0
 11
714.439908
 21
696.512877
 31
0.0
  0
LINE
  5
418
100
AcDbEntity
  8
0
  6
CONTINUOUS
 62
     7
100
AcDbLine
 10
848.889911
 20
697.512879
 30
0.0
 11
848.942275
 21
694.51288
 31
0.0
  0
LINE
  5
419
100
AcDbEntity
  8
0
  6
CONTINUOUS
 62
     7
100
AcDbLine
 10
863.437545
 20
694.51288
 30
0.0
 11
863.489912
 21
697.512879
 31
0.0
  0
LINE
  5
41A
100
AcDbEntity
  8
0
  6
CONTINUOUS
 62
     7
100
AcDbLine
 10
718.437545
 20
694.51288
 30
0.0
 11
718.489909
 21
697.512879
 31
0.0
  0
LINE
  5
41B
100
AcDbEntity
  8
0
  6
CONTINUOUS
 62
     7
100
AcDbLine
 10
703.889908
 20
697.512879
 30
0.0
 11
703.942275
 21
694.51288
 31
0.0
  0
LINE
  5
41C
100
AcDbEntity
  8
0
  6
CONTINUOUS
 62
     7
100
AcDbLine
 10
870.226859
 20
696.51288
 30
0.0
 11
870.804207
 21
697.512879
 31
0.0
  0
LINE
  5
41D
100
AcDbEntity
  8
0
  6
CONTINUOUS
 62
     7
100
AcDbLine
 10
696.575613
 20
697.512879
 30
0.0
 11
697.152961
 21
696.51288
 31
0.0
  0
LINE
  5
41E
100
AcDbEntity
  8
0
  6
CONTINUOUS
 62
     7
100
AcDbLine
 10
833.380056
 20
697.512879
 30
0.0
 11
833.423694
 21
695.01288
 31
0.0
  0
LINE
  5
41F
100
AcDbEntity
  8
0
  6
CONTINUOUS
 62
     7
100
AcDbLine
 10
733.956126
 20
695.01288
 30
0.0
 11
733.999764
 21
697.512879
 31
0.0
  0
LINE
  5
420
100
AcDbEntity
  8
0
  6
CONTINUOUS
 62
     7
100
AcDbLine
 10
664.18991
 20
775.91288
 30
0.0
 11
670.18991
 21
775.91288
 31
0.0
  0
LINE
  5
421
100
AcDbEntity
  8
0
  6
CONTINUOUS
 62
     7
100
AcDbLine
 10
670.18991
 20
775.91288
 30
0.0
 11
670.18991
 21
694.51288
 31
0.0
  0
LINE
  5
422
100
AcDbEntity
  8
0
  6
CONTINUOUS
 62
     7
100
AcDbLine
 10
670.18991
 20
694.51288
 30
0.0
 11
664.18991
 21
694.51288
 31
0.0
  0
LINE
  5
423
100
AcDbEntity
  8
0
  6
CONTINUOUS
 62
     7
100
AcDbLine
 10
664.18991
 20
694.51288
 30
0.0
 11
664.18991
 21
775.91288
 31
0.0
  0
LINE
  5
424
100
AcDbEntity
  8
0
  6
CONTINUOUS
 62
     7
100
AcDbLine
 10
879.395032
 20
767.61288
 30
0.0
 11
882.73991
 21
767.61288
 31
0.0
  0
LINE
  5
425
100
AcDbEntity
  8
0
  6
CONTINUOUS
 62
     7
100
AcDbLine
 10
882.73991
 20
767.61288
 30
0.0
 11
882.73991
 21
694.51288
 31
0.0
  0
LINE
  5
426
100
AcDbEntity
  8
0
  6
CONTINUOUS
 62
     7
100
AcDbLine
 10
882.73991
 20
694.51288
 30
0.0
 11
878.171433
 21
694.51288
 31
0.0
  0
LINE
  5
427
100
AcDbEntity
  8
0
  6
CONTINUOUS
 62
     7
100
AcDbLine
 10
878.171433
 20
694.51288
 30
0.0
 11
878.171431
 21
697.512879
 31
0.0
  0
LINE
  5
428
100
AcDbEntity
  8
0
  6
CONTINUOUS
 62
     7
100
AcDbLine
 10
879.395032
 20
767.61288
 30
0.0
 11
878.171431
 21
697.512879
 31
0.0
  0
LINE
  5
429
100
AcDbEntity
  8
0
  6
CONTINUOUS
 62
     7
100
AcDbLine
 10
670.18991
 20
775.91288
 30
0.0
 11
897.18991
 21
775.91288
 31
0.0
  0
LINE
  5
42A
100
AcDbEntity
  8
0
  6
CONTINUOUS
 62
     7
100
AcDbLine
 10
897.18991
 20
694.51288
 30
0.0
 11
897.18991
 21
775.91288
 31
0.0
  0
LINE
  5
42B
100
AcDbEntity
  8
0
  6
CONTINUOUS
 62
     7
100
AcDbLine
 10
897.18991
 20
694.51288
 30
0.0
 11
882.73991
 21
694.51288
 31
0.0
  0
ARC
  5
42C
100
AcDbEntity
  8
0
  6
CONTINUOUS
 62
     7
100
AcDbCircle
 10
878.23991
 20
767.61288
 30
0.0
 40
4.5
100
AcDbArc
 50
0.0
 51
90.0
  0
LINE
  5
42D
100
AcDbEntity
  8
0
  6
CONTINUOUS
 62
     7
100
AcDbLine
 10
689.13991
 20
772.11288
 30
0.0
 11
878.23991
 21
772.11288
 31
0.0
  0
ARC
  5
42E
100
AcDbEntity
  8
0
  6
CONTINUOUS
 62
     7
100
AcDbCircle
 10
689.13991
 20
767.61288
 30
0.0
 40
4.5
100
AcDbArc
 50
90.0
 51
180.0
  0
LINE
  5
42F
100
AcDbEntity
  8
0
  6
CONTINUOUS
 62
     7
100
AcDbLine
 10
684.63991
 20
694.51288
 30
0.0
 11
684.63991
 21
767.61288
 31
0.0
  0
LINE
  5
430
100
AcDbEntity
  8
0
  6
CONTINUOUS
 62
     7
100
AcDbLine
 10
684.63991
 20
694.51288
 30
0.0
 11
670.18991
 21
694.51288
 31
0.0
  0
LINE
  5
431
100
AcDbEntity
  8
0
  6
CONTINUOUS
 62
     7
100
AcDbLine
 10
687.984788
 20
767.61288
 30
0.0
 11
689.20839
 21
697.512879
 31
0.0
  0
LINE
  5
432
100
AcDbEntity
  8
0
  6
CONTINUOUS
 62
     7
100
AcDbLine
 10
689.208387
 20
694.51288
 30
0.0
 11
689.20839
 21
697.512879
 31
0.0
  0
LINE
  5
433
100
AcDbEntity
  8
0
  6
CONTINUOUS
 62
     7
100
AcDbLine
 10
689.208387
 20
694.51288
 30
0.0
 11
684.63991
 21
694.51288
 31
0.0
  0
LINE
  5
434
100
AcDbEntity
  8
0
  6
CONTINUOUS
 62
     7
100
AcDbLine
 10
687.984788
 20
767.61288
 30
0.0
 11
684.63991
 21
767.61288
 31
0.0
  0
LINE
  5
435
100
AcDbEntity
  8
0
  6
CONTINUOUS
 62
     7
100
AcDbLine
 10
897.18991
 20
775.91288
 30
0.0
 11
903.18991
 21
775.91288
 31
0.0
  0
LINE
  5
436
100
AcDbEntity
  8
0
  6
CONTINUOUS
 62
     7
100
AcDbLine
 10
903.18991
 20
775.91288
 30
0.0
 11
903.18991
 21
694.51288
 31
0.0
  0
LINE
  5
437
100
AcDbEntity
  8
0
  6
CONTINUOUS
 62
     7
100
AcDbLine
 10
903.18991
 20
694.51288
 30
0.0
 11
897.18991
 21
694.51288
 31
0.0
  0
LINE
  5
438
100
AcDbEntity
  8
0
  6
CONTINUOUS
 62
     7
100
AcDbLine
 10
878.239909
 20
768.788524
 30
0.0
 11
689.139912
 21
768.788524
 31
0.0
  0
LINE
  5
439
100
AcDbEntity
  8
0
  6
CONTINUOUS
 62
     7
100
AcDbLine
 10
689.139912
 20
768.788524
 30
0.0
 11
689.13991
 21
772.11288
 31
0.0
  0
LINE
  5
43A
100
AcDbEntity
  8
0
  6
CONTINUOUS
 62
     7
100
AcDbLine
 10
878.239909
 20
768.788524
 30
0.0
 11
878.23991
 21
772.11288
 31
0.0
  0
ELLIPSE
  5
43B
100
AcDbEntity
  8
0
  6
CONTINUOUS
 62
     7
100
AcDbEllipse
 10
878.23991
 20
767.633049
 30
0.0
 11
0.0
 21
1.155475010403392
 31
0.0
210
0.0
220
0.0
230
1.0
 40
0.999848
 41
4.694933028968733
 42
6.283185307179586
  0
ELLIPSE
  5
43C
100
AcDbEntity
  8
0
  6
CONTINUOUS
 62
     7
100
AcDbEllipse
 10
689.13991
 20
767.633049
 30
0.0
 11
0.0
 21
1.155475010403392
 31
0.0
210
0.0
220
0.0
230
1.0
 40
0.999848
 41
0.0
 42
1.588252278210866
  0
LINE
  5
43D
100
AcDbEntity
  8
0
  6
CONTINUOUS
 62
     7
100
AcDbLine
 10
878.171431
 20
697.512879
 30
0.0
 11
689.20839
 21
697.512879
 31
0.0
  0
LINE
  5
43E
100
AcDbEntity
  8
0
  6
CONTINUOUS
 62
     7
100
AcDbLine
 10
689.78991
 20
694.51288
 30
0.0
 11
689.208387
 21
694.51288
 31
0.0
  0
LINE
  5
43F
100
AcDbEntity
  8
0
  6
CONTINUOUS
 62
     7
100
AcDbLine
 10
694.132687
 20
694.51288
 30
0.0
 11
689.78991
 21
694.51288
 31
0.0
  0
LINE
  5
440
100
AcDbEntity
  8
0
  6
CONTINUOUS
 62
     7
100
AcDbLine
 10
878.171433
 20
694.51288
 30
0.0
 11
873.247134
 21
694.51288
 31
0.0
  0
LINE
  5
441
100
AcDbEntity
  8
0
  6
CONTINUOUS
 62
     7
100
AcDbLine
 10
716.137502
 20
696.51288
 30
0.0
 11
706.242318
 21
696.51288
 31
0.0
  0
LINE
  5
442
100
AcDbEntity
  8
0
  6
CONTINUOUS
 62
     7
100
AcDbLine
 10
856.18991
 20
696.51288
 30
0.0
 11
851.242318
 21
696.51288
 31
0.0
  0
LINE
  5
443
100
AcDbEntity
  8
0
  6
CONTINUOUS
 62
     7
100
AcDbLine
 10
861.137502
 20
696.51288
 30
0.0
 11
856.18991
 21
696.51288
 31
0.0
  0
LINE
  5
444
100
AcDbEntity
  8
0
  6
CONTINUOUS
 62
     7
100
AcDbLine
 10
856.18991
 20
694.51288
 30
0.0
 11
852.93991
 21
694.51288
 31
0.0
  0
LINE
  5
445
100
AcDbEntity
  8
0
  6
CONTINUOUS
 62
     7
100
AcDbLine
 10
859.43991
 20
694.51288
 30
0.0
 11
856.18991
 21
694.51288
 31
0.0
  0
LINE
  5
446
100
AcDbEntity
  8
0
  6
CONTINUOUS
 62
     7
100
AcDbLine
 10
711.18991
 20
694.51288
 30
0.0
 11
707.93991
 21
694.51288
 31
0.0
  0
LINE
  5
447
100
AcDbEntity
  8
0
  6
CONTINUOUS
 62
     7
100
AcDbLine
 10
714.43991
 20
694.51288
 30
0.0
 11
711.18991
 21
694.51288
 31
0.0
  0
LINE
  5
448
100
AcDbEntity
  8
0
  6
CONTINUOUS
 62
     7
100
AcDbLine
 10
851.18991
 20
694.51288
 30
0.0
 11
848.942275
 21
694.51288
 31
0.0
  0
LINE
  5
449
100
AcDbEntity
  8
0
  6
CONTINUOUS
 62
     7
100
AcDbLine
 10
852.93991
 20
694.51288
 30
0.0
 11
851.18991
 21
694.51288
 31
0.0
  0
LINE
  5
44A
100
AcDbEntity
  8
0
  6
CONTINUOUS
 62
     7
100
AcDbLine
 10
861.18991
 20
694.51288
 30
0.0
 11
859.43991
 21
694.51288
 31
0.0
  0
LINE
  5
44B
100
AcDbEntity
  8
0
  6
CONTINUOUS
 62
     7
100
AcDbLine
 10
863.437545
 20
694.51288
 30
0.0
 11
861.18991
 21
694.51288
 31
0.0
  0
LINE
  5
44C
100
AcDbEntity
  8
0
  6
CONTINUOUS
 62
     7
100
AcDbLine
 10
718.437545
 20
694.51288
 30
0.0
 11
714.43991
 21
694.51288
 31
0.0
  0
LINE
  5
44D
100
AcDbEntity
  8
0
  6
CONTINUOUS
 62
     7
100
AcDbLine
 10
707.93991
 20
694.51288
 30
0.0
 11
703.942275
 21
694.51288
 31
0.0
  0
LINE
  5
44E
100
AcDbEntity
  8
0
  6
CONTINUOUS
 62
     7
100
AcDbLine
 10
864.107125
 20
696.51288
 30
0.0
 11
870.226859
 21
696.51288
 31
0.0
  0
LINE
  5
44F
100
AcDbEntity
  8
0
  6
CONTINUOUS
 62
     7
100
AcDbLine
 10
864.107125
 20
696.51288
 30
0.0
 11
863.652164
 21
697.512879
 31
0.0
  0
LINE
  5
450
100
AcDbEntity
  8
0
  6
CONTINUOUS
 62
     7
100
AcDbLine
 10
703.272696
 20
696.51288
 30
0.0
 11
703.727657
 21
697.512879
 31
0.0
  0
LINE
  5
451
100
AcDbEntity
  8
0
  6
CONTINUOUS
 62
     7
100
AcDbLine
 10
703.272696
 20
696.51288
 30
0.0
 11
697.152961
 21
696.51288
 31
0.0
  0
LINE
  5
452
100
AcDbEntity
  8
0
  6
CONTINUOUS
 62
     7
100
AcDbLine
 10
833.423694
 20
695.01288
 30
0.0
 11
848.933548
 21
695.01288
 31
0.0
  0
LINE
  5
453
100
AcDbEntity
  8
0
  6
CONTINUOUS
 62
     7
100
AcDbLine
 10
723.68991
 20
695.01288
 30
0.0
 11
733.956126
 21
695.01288
 31
0.0
  0
LINE
  5
454
100
AcDbEntity
  8
0
  6
CONTINUOUS
 62
     7
100
AcDbLine
 10
718.446273
 20
695.01288
 30
0.0
 11
723.68991
 21
695.01288
 31
0.0
  0
LINE
  5
455
100
AcDbEntity
  8
0
  6
CONTINUOUS
 62
     7
100
AcDbLine
 10
783.68991
 20
696.512877
 30
0.0
 11
783.68991
 21
697.512879
 31
0.0
  0
LINE
  5
456
100
AcDbEntity
  8
0
  6
CONTINUOUS
 62
     7
100
AcDbLine
 10
783.68991
 20
696.512877
 30
0.0
 11
733.982307
 21
696.512877
 31
0.0
  0
LINE
  5
457
100
AcDbEntity
  8
0
  6
CONTINUOUS
 62
     7
100
AcDbLine
 10
703.907365
 20
696.512877
 30
0.0
 11
703.272696
 21
696.51288
 31
0.0
  0
LINE
  5
458
100
AcDbEntity
  8
0
  6
CONTINUOUS
 62
     7
100
AcDbLine
 10
783.68991
 20
696.512877
 30
0.0
 11
833.397513
 21
696.512877
 31
0.0
  0
LINE
  5
459
100
AcDbEntity
  8
0
  6
CONTINUOUS
 62
     7
100
AcDbLine
 10
863.472456
 20
696.512877
 30
0.0
 11
864.107125
 21
696.51288
 31
0.0
  0
LINE
  5
45A
100
AcDbEntity
  8
0
  6
CONTINUOUS
 62
     7
100
AcDbLine
 10
903.18991
 20
767.61288
 30
0.0
 11
903.18991
 21
694.51288
 31
0.0
  0
LINE
  5
45B
100
AcDbEntity
  8
0
  6
CONTINUOUS
 62
     7
100
AcDbLine
 10
664.18991
 20
767.61288
 30
0.0
 11
664.18991
 21
694.51288
 31
0.0
  0
LINE
  5
45C
100
AcDbEntity
  8
0
  6
CONTINUOUS
 62
     7
100
AcDbLine
 10
664.18991
 20
772.11288
 30
0.0
 11
664.18991
 21
767.61288
 31
0.0
  0
LINE
  5
45D
100
AcDbEntity
  8
0
  6
CONTINUOUS
 62
     7
100
AcDbLine
 10
903.18991
 20
772.11288
 30
0.0
 11
903.18991
 21
767.61288
 31
0.0
  0
INSERT
  5
465
100
AcDbEntity
  8
0
  6
CONTINUOUS
 62
     7
100
AcDbBlockReference
  2
SW_CENTERMARKSYMBOL_2
 10
689.13991
 20
767.61288
 30
0.0
 41
5.0
 42
5.0
 43
5.0
  0
INSERT
  5
46D
100
AcDbEntity
  8
0
  6
CONTINUOUS
 62
     7
100
AcDbBlockReference
  2
SW_CENTERMARKSYMBOL_3
 10
878.23991
 20
767.61288
 30
0.0
 41
5.0
 42
5.0
 43
5.0
  0
LINE
  5
46E
100
AcDbEntity
  8
0
  6
CONTINUOUS
 62
     7
100
AcDbLine
 10
873.247134
 20
156.691641
 30
0.0
 11
873.089911
 21
153.691642
 31
0.0
  0
LINE
  5
46F
100
AcDbEntity
  8
0
  6
CONTINUOUS
 62
     7
100
AcDbLine
 10
694.289909
 20
153.691642
 30
0.0
 11
694.132687
 21
156.691641
 31
0.0
  0
LINE
  5
470
100
AcDbEntity
  8
0
  6
CONTINUOUS
 62
     7
100
AcDbLine
 10
861.189911
 20
153.691642
 30
0.0
 11
861.137502
 21
154.691641
 31
0.0
  0
LINE
  5
471
100
AcDbEntity
  8
0
  6
CONTINUOUS
 62
     7
100
AcDbLine
 10
851.242318
 20
154.691641
 30
0.0
 11
851.189913
 21
153.691642
 31
0.0
  0
LINE
  5
472
100
AcDbEntity
  8
0
  6
CONTINUOUS
 62
     7
100
AcDbLine
 10
716.189907
 20
153.691642
 30
0.0
 11
716.137502
 21
154.691641
 31
0.0
  0
LINE
  5
473
100
AcDbEntity
  8
0
  6
CONTINUOUS
 62
     7
100
AcDbLine
 10
706.242318
 20
154.691641
 30
0.0
 11
706.18991
 21
153.691642
 31
0.0
  0
LINE
  5
474
100
AcDbEntity
  8
0
  6
CONTINUOUS
 62
     7
100
AcDbLine
 10
859.439911
 20
154.691644
 30
0.0
 11
859.43991
 21
156.691641
 31
0.0
  0
LINE
  5
475
100
AcDbEntity
  8
0
  6
CONTINUOUS
 62
     7
100
AcDbLine
 10
852.93991
 20
156.691641
 30
0.0
 11
852.939913
 21
154.691644
 31
0.0
  0
LINE
  5
476
100
AcDbEntity
  8
0
  6
CONTINUOUS
 62
     7
100
AcDbLine
 10
714.439908
 20
154.691644
 30
0.0
 11
714.43991
 21
156.691641
 31
0.0
  0
LINE
  5
477
100
AcDbEntity
  8
0
  6
CONTINUOUS
 62
     7
100
AcDbLine
 10
707.93991
 20
156.691641
 30
0.0
 11
707.939909
 21
154.691644
 31
0.0
  0
LINE
  5
478
100
AcDbEntity
  8
0
  6
CONTINUOUS
 62
     7
100
AcDbLine
 10
863.489912
 20
153.691642
 30
0.0
 11
863.437545
 21
156.691641
 31
0.0
  0
LINE
  5
479
100
AcDbEntity
  8
0
  6
CONTINUOUS
 62
     7
100
AcDbLine
 10
718.489909
 20
153.691642
 30
0.0
 11
718.437545
 21
156.691641
 31
0.0
  0
LINE
  5
47A
100
AcDbEntity
  8
0
  6
CONTINUOUS
 62
     7
100
AcDbLine
 10
848.942275
 20
156.691641
 30
0.0
 11
848.889911
 21
153.691642
 31
0.0
  0
LINE
  5
47B
100
AcDbEntity
  8
0
  6
CONTINUOUS
 62
     7
100
AcDbLine
 10
703.942275
 20
156.691641
 30
0.0
 11
703.889908
 21
153.691642
 31
0.0
  0
LINE
  5
47C
100
AcDbEntity
  8
0
  6
CONTINUOUS
 62
     7
100
AcDbLine
 10
697.152961
 20
154.691641
 30
0.0
 11
696.575613
 21
153.691642
 31
0.0
  0
LINE
  5
47D
100
AcDbEntity
  8
0
  6
CONTINUOUS
 62
     7
100
AcDbLine
 10
870.804207
 20
153.691642
 30
0.0
 11
870.226859
 21
154.691641
 31
0.0
  0
LINE
  5
47E
100
AcDbEntity
  8
0
  6
CONTINUOUS
 62
     7
100
AcDbLine
 10
833.423694
 20
156.191641
 30
0.0
 11
833.380056
 21
153.691642
 31
0.0
  0
LINE
  5
47F
100
AcDbEntity
  8
0
  6
CONTINUOUS
 62
     7
100
AcDbLine
 10
733.999764
 20
153.691642
 30
0.0
 11
733.956126
 21
156.191641
 31
0.0
  0
LINE
  5
480
100
AcDbEntity
  8
0
  6
CONTINUOUS
 62
     7
100
AcDbLine
 10
670.18991
 20
75.291641
 30
0.0
 11
664.18991
 21
75.291641
 31
0.0
  0
LINE
  5
481
100
AcDbEntity
  8
0
  6
CONTINUOUS
 62
     7
100
AcDbLine
 10
664.18991
 20
75.291641
 30
0.0
 11
664.18991
 21
156.691641
 31
0.0
  0
LINE
  5
482
100
AcDbEntity
  8
0
  6
CONTINUOUS
 62
     7
100
AcDbLine
 10
664.18991
 20
156.691641
 30
0.0
 11
670.18991
 21
156.691641
 31
0.0
  0
LINE
  5
483
100
AcDbEntity
  8
0
  6
CONTINUOUS
 62
     7
100
AcDbLine
 10
670.18991
 20
156.691641
 30
0.0
 11
670.18991
 21
75.291641
 31
0.0
  0
LINE
  5
484
100
AcDbEntity
  8
0
  6
CONTINUOUS
 62
     7
100
AcDbLine
 10
684.63991
 20
156.691641
 30
0.0
 11
684.63991
 21
83.591641
 31
0.0
  0
LINE
  5
485
100
AcDbEntity
  8
0
  6
CONTINUOUS
 62
     7
100
AcDbLine
 10
684.63991
 20
156.691641
 30
0.0
 11
689.208387
 21
156.691641
 31
0.0
  0
LINE
  5
486
100
AcDbEntity
  8
0
  6
CONTINUOUS
 62
     7
100
AcDbLine
 10
689.208387
 20
156.691641
 30
0.0
 11
689.20839
 21
153.691642
 31
0.0
  0
LINE
  5
487
100
AcDbEntity
  8
0
  6
CONTINUOUS
 62
     7
100
AcDbLine
 10
687.984788
 20
83.591641
 30
0.0
 11
689.20839
 21
153.691642
 31
0.0
  0
LINE
  5
488
100
AcDbEntity
  8
0
  6
CONTINUOUS
 62
     7
100
AcDbLine
 10
687.984788
 20
83.591641
 30
0.0
 11
684.63991
 21
83.591641
 31
0.0
  0
LINE
  5
489
100
AcDbEntity
  8
0
  6
CONTINUOUS
 62
     7
100
AcDbLine
 10
903.18991
 20
75.291641
 30
0.0
 11
897.18991
 21
75.291641
 31
0.0
  0
LINE
  5
48A
100
AcDbEntity
  8
0
  6
CONTINUOUS
 62
     7
100
AcDbLine
 10
897.18991
 20
75.291641
 30
0.0
 11
897.18991
 21
156.691641
 31
0.0
  0
LINE
  5
48B
100
AcDbEntity
  8
0
  6
CONTINUOUS
 62
     7
100
AcDbLine
 10
897.18991
 20
156.691641
 30
0.0
 11
903.18991
 21
156.691641
 31
0.0
  0
LINE
  5
48C
100
AcDbEntity
  8
0
  6
CONTINUOUS
 62
     7
100
AcDbLine
 10
903.18991
 20
156.691641
 30
0.0
 11
903.18991
 21
75.291641
 31
0.0
  0
LINE
  5
48D
100
AcDbEntity
  8
0
  6
CONTINUOUS
 62
     7
100
AcDbLine
 10
879.395032
 20
83.591641
 30
0.0
 11
882.73991
 21
83.591641
 31
0.0
  0
LINE
  5
48E
100
AcDbEntity
  8
0
  6
CONTINUOUS
 62
     7
100
AcDbLine
 10
879.395032
 20
83.591641
 30
0.0
 11
878.171431
 21
153.691642
 31
0.0
  0
LINE
  5
48F
100
AcDbEntity
  8
0
  6
CONTINUOUS
 62
     7
100
AcDbLine
 10
878.171433
 20
156.691641
 30
0.0
 11
878.171431
 21
153.691642
 31
0.0
  0
LINE
  5
490
100
AcDbEntity
  8
0
  6
CONTINUOUS
 62
     7
100
AcDbLine
 10
878.171433
 20
156.691641
 30
0.0
 11
882.73991
 21
156.691641
 31
0.0
  0
LINE
  5
491
100
AcDbEntity
  8
0
  6
CONTINUOUS
 62
     7
100
AcDbLine
 10
882.73991
 20
83.591641
 30
0.0
 11
882.73991
 21
156.691641
 31
0.0
  0
LINE
  5
492
100
AcDbEntity
  8
0
  6
CONTINUOUS
 62
     7
100
AcDbLine
 10
897.18991
 20
75.291641
 30
0.0
 11
670.18991
 21
75.291641
 31
0.0
  0
ARC
  5
493
100
AcDbEntity
  8
0
  6
CONTINUOUS
 62
     7
100
AcDbCircle
 10
689.13991
 20
83.591641
 30
0.0
 40
4.5
100
AcDbArc
 50
180.0
 51
270.0
  0
LINE
  5
494
100
AcDbEntity
  8
0
  6
CONTINUOUS
 62
     7
100
AcDbLine
 10
689.13991
 20
79.091641
 30
0.0
 11
878.23991
 21
79.091641
 31
0.0
  0
ARC
  5
495
100
AcDbEntity
  8
0
  6
CONTINUOUS
 62
     7
100
AcDbCircle
 10
878.23991
 20
83.591641
 30
0.0
 40
4.5
100
AcDbArc
 50
270.0
 51
0.0
  0
LINE
  5
496
100
AcDbEntity
  8
0
  6
CONTINUOUS
 62
     7
100
AcDbLine
 10
882.73991
 20
156.691641
 30
0.0
 11
897.18991
 21
156.691641
 31
0.0
  0
LINE
  5
497
100
AcDbEntity
  8
0
  6
CONTINUOUS
 62
     7
100
AcDbLine
 10
670.18991
 20
156.691641
 30
0.0
 11
684.63991
 21
156.691641
 31
0.0
  0
LINE
  5
498
100
AcDbEntity
  8
0
  6
CONTINUOUS
 62
     7
100
AcDbLine
 10
878.239909
 20
82.415997
 30
0.0
 11
878.23991
 21
79.091641
 31
0.0
  0
ELLIPSE
  5
499
100
AcDbEntity
  8
0
  6
CONTINUOUS
 62
     7
100
AcDbEllipse
 10
878.23991
 20
83.571472
 30
0.0
 11
0.0
 21
1.155475010403463
 31
0.0
210
0.0
220
0.0
230
1.0
 40
0.999848
 41
3.141592653589793
 42
4.729844931800552
  0
ELLIPSE
  5
49A
100
AcDbEntity
  8
0
  6
CONTINUOUS
 62
     7
100
AcDbEllipse
 10
689.13991
 20
83.571472
 30
0.0
 11
0.0
 21
1.155475010403534
 31
0.0
210
0.0
220
0.0
230
1.0
 40
0.999848
 41
1.553340375378985
 42
3.141592653589793
  0
LINE
  5
49B
100
AcDbEntity
  8
0
  6
CONTINUOUS
 62
     7
100
AcDbLine
 10
689.139912
 20
82.415997
 30
0.0
 11
689.13991
 21
79.091641
 31
0.0
  0
LINE
  5
49C
100
AcDbEntity
  8
0
  6
CONTINUOUS
 62
     7
100
AcDbLine
 10
878.239909
 20
82.415997
 30
0.0
 11
689.139912
 21
82.415997
 31
0.0
  0
LINE
  5
49D
100
AcDbEntity
  8
0
  6
CONTINUOUS
 62
     7
100
AcDbLine
 10
878.171431
 20
153.691642
 30
0.0
 11
689.20839
 21
153.691642
 31
0.0
  0
LINE
  5
49E
100
AcDbEntity
  8
0
  6
CONTINUOUS
 62
     7
100
AcDbLine
 10
873.247134
 20
156.691641
 30
0.0
 11
878.171433
 21
156.691641
 31
0.0
  0
LINE
  5
49F
100
AcDbEntity
  8
0
  6
CONTINUOUS
 62
     7
100
AcDbLine
 10
689.208387
 20
156.691641
 30
0.0
 11
694.132687
 21
156.691641
 31
0.0
  0
LINE
  5
4A0
100
AcDbEntity
  8
0
  6
CONTINUOUS
 62
     7
100
AcDbLine
 10
856.18991
 20
154.691641
 30
0.0
 11
861.137502
 21
154.691641
 31
0.0
  0
LINE
  5
4A1
100
AcDbEntity
  8
0
  6
CONTINUOUS
 62
     7
100
AcDbLine
 10
851.242318
 20
154.691641
 30
0.0
 11
856.18991
 21
154.691641
 31
0.0
  0
LINE
  5
4A2
100
AcDbEntity
  8
0
  6
CONTINUOUS
 62
     7
100
AcDbLine
 10
706.242318
 20
154.691641
 30
0.0
 11
716.137502
 21
154.691641
 31
0.0
  0
LINE
  5
4A3
100
AcDbEntity
  8
0
  6
CONTINUOUS
 62
     7
100
AcDbLine
 10
852.93991
 20
156.691641
 30
0.0
 11
859.43991
 21
156.691641
 31
0.0
  0
LINE
  5
4A4
100
AcDbEntity
  8
0
  6
CONTINUOUS
 62
     7
100
AcDbLine
 10
707.93991
 20
156.691641
 30
0.0
 11
714.43991
 21
156.691641
 31
0.0
  0
LINE
  5
4A5
100
AcDbEntity
  8
0
  6
CONTINUOUS
 62
     7
100
AcDbLine
 10
861.18991
 20
156.691641
 30
0.0
 11
863.437545
 21
156.691641
 31
0.0
  0
LINE
  5
4A6
100
AcDbEntity
  8
0
  6
CONTINUOUS
 62
     7
100
AcDbLine
 10
859.43991
 20
156.691641
 30
0.0
 11
861.18991
 21
156.691641
 31
0.0
  0
LINE
  5
4A7
100
AcDbEntity
  8
0
  6
CONTINUOUS
 62
     7
100
AcDbLine
 10
714.43991
 20
156.691641
 30
0.0
 11
718.437545
 21
156.691641
 31
0.0
  0
LINE
  5
4A8
100
AcDbEntity
  8
0
  6
CONTINUOUS
 62
     7
100
AcDbLine
 10
851.18991
 20
156.691641
 30
0.0
 11
852.93991
 21
156.691641
 31
0.0
  0
LINE
  5
4A9
100
AcDbEntity
  8
0
  6
CONTINUOUS
 62
     7
100
AcDbLine
 10
848.942275
 20
156.691641
 30
0.0
 11
851.18991
 21
156.691641
 31
0.0
  0
LINE
  5
4AA
100
AcDbEntity
  8
0
  6
CONTINUOUS
 62
     7
100
AcDbLine
 10
703.942275
 20
156.691641
 30
0.0
 11
707.93991
 21
156.691641
 31
0.0
  0
LINE
  5
4AB
100
AcDbEntity
  8
0
  6
CONTINUOUS
 62
     7
100
AcDbLine
 10
703.272696
 20
154.691641
 30
0.0
 11
697.152961
 21
154.691641
 31
0.0
  0
LINE
  5
4AC
100
AcDbEntity
  8
0
  6
CONTINUOUS
 62
     7
100
AcDbLine
 10
703.272696
 20
154.691641
 30
0.0
 11
703.727657
 21
153.691642
 31
0.0
  0
LINE
  5
4AD
100
AcDbEntity
  8
0
  6
CONTINUOUS
 62
     7
100
AcDbLine
 10
864.107125
 20
154.691641
 30
0.0
 11
863.652164
 21
153.691642
 31
0.0
  0
LINE
  5
4AE
100
AcDbEntity
  8
0
  6
CONTINUOUS
 62
     7
100
AcDbLine
 10
864.107125
 20
154.691641
 30
0.0
 11
870.226859
 21
154.691641
 31
0.0
  0
LINE
  5
4AF
100
AcDbEntity
  8
0
  6
CONTINUOUS
 62
     7
100
AcDbLine
 10
848.933548
 20
156.191641
 30
0.0
 11
833.423694
 21
156.191641
 31
0.0
  0
LINE
  5
4B0
100
AcDbEntity
  8
0
  6
CONTINUOUS
 62
     7
100
AcDbLine
 10
723.68991
 20
156.191641
 30
0.0
 11
718.446273
 21
156.191641
 31
0.0
  0
LINE
  5
4B1
100
AcDbEntity
  8
0
  6
CONTINUOUS
 62
     7
100
AcDbLine
 10
733.956126
 20
156.191641
 30
0.0
 11
723.68991
 21
156.191641
 31
0.0
  0
LINE
  5
4B2
100
AcDbEntity
  8
0
  6
CONTINUOUS
 62
     7
100
AcDbLine
 10
783.68991
 20
154.691644
 30
0.0
 11
783.68991
 21
153.691642
 31
0.0
  0
LINE
  5
4B3
100
AcDbEntity
  8
0
  6
CONTINUOUS
 62
     7
100
AcDbLine
 10
783.68991
 20
154.691644
 30
0.0
 11
833.397513
 21
154.691644
 31
0.0
  0
LINE
  5
4B4
100
AcDbEntity
  8
0
  6
CONTINUOUS
 62
     7
100
AcDbLine
 10
863.472456
 20
154.691644
 30
0.0
 11
864.107125
 21
154.691641
 31
0.0
  0
LINE
  5
4B5
100
AcDbEntity
  8
0
  6
CONTINUOUS
 62
     7
100
AcDbLine
 10
783.68991
 20
154.691644
 30
0.0
 11
733.982307
 21
154.691644
 31
0.0
  0
LINE
  5
4B6
100
AcDbEntity
  8
0
  6
CONTINUOUS
 62
     7
100
AcDbLine
 10
703.907365
 20
154.691644
 30
0.0
 11
703.272696
 21
154.691641
 31
0.0
  0
LINE
  5
4B7
100
AcDbEntity
  8
0
  6
CONTINUOUS
 62
     7
100
AcDbLine
 10
903.18991
 20
156.691641
 30
0.0
 11
903.18991
 21
83.591641
 31
0.0
  0
LINE
  5
4B8
100
AcDbEntity
  8
0
  6
CONTINUOUS
 62
     7
100
AcDbLine
 10
664.18991
 20
156.691641
 30
0.0
 11
664.18991
 21
83.591641
 31
0.0
  0
LINE
  5
4B9
100
AcDbEntity
  8
0
  6
CONTINUOUS
 62
     7
100
AcDbLine
 10
903.18991
 20
83.591641
 30
0.0
 11
903.18991
 21
79.091641
 31
0.0
  0
LINE
  5
4BA
100
AcDbEntity
  8
0
  6
CONTINUOUS
 62
     7
100
AcDbLine
 10
664.18991
 20
83.591641
 30
0.0
 11
664.18991
 21
79.091641
 31
0.0
  0
INSERT
  5
4C2
100
AcDbEntity
  8
0
  6
CONTINUOUS
 62
     7
100
AcDbBlockReference
  2
SW_CENTERMARKSYMBOL_4
 10
689.13991
 20
83.591641
 30
0.0
 41
5.0
 42
5.0
 43
5.0
  0
INSERT
  5
4CA
100
AcDbEntity
  8
0
  6
CONTINUOUS
 62
     7
100
AcDbBlockReference
  2
SW_CENTERMARKSYMBOL_5
 10
878.23991
 20
83.591641
 30
0.0
 41
5.0
 42
5.0
 43
5.0
  0
LINE
  5
4CE
100
AcDbEntity
  8
0
  6
CONTINUOUS
 62
     7
100
AcDbLine
 10
1031.432388
 20
322.791836
 30
0.0
 11
1032.432387
 21
322.739426
 31
0.0
  0
LINE
  5
4D3
100
AcDbEntity
  8
0
  6
CONTINUOUS
 62
     7
100
AcDbLine
 10
1032.432387
 20
335.039425
 30
0.0
 11
1029.432388
 21
334.987063
 31
0.0
  0
LINE
  5
4D4
100
AcDbEntity
  8
0
  6
CONTINUOUS
 62
     7
100
AcDbLine
 10
1032.432387
 20
556.039426
 30
0.0
 11
1029.432388
 21
555.987063
 31
0.0
  0
LINE
  5
4D5
100
AcDbEntity
  8
0
  6
CONTINUOUS
 62
     7
100
AcDbLine
 10
1029.432388
 20
541.491794
 30
0.0
 11
1032.432387
 21
541.439432
 31
0.0
  0
LINE
  5
4D6
100
AcDbEntity
  8
0
  6
CONTINUOUS
 62
     7
100
AcDbLine
 10
1029.432388
 20
320.491794
 30
0.0
 11
1032.432387
 21
320.439431
 31
0.0
  0
LINE
  5
4D7
100
AcDbEntity
  8
0
  6
CONTINUOUS
 62
     7
100
AcDbLine
 10
1032.432387
 20
319.239426
 30
0.0
 11
1029.432388
 21
319.187063
 31
0.0
  0
LINE
  5
4D8
100
AcDbEntity
  8
0
  6
CONTINUOUS
 62
     7
100
AcDbLine
 10
1029.432388
 20
557.291794
 30
0.0
 11
1032.432387
 21
557.239431
 31
0.0
  0
LINE
  5
4D9
100
AcDbEntity
  8
0
  6
CONTINUOUS
 62
     7
100
AcDbLine
 10
1029.932388
 20
527.973213
 30
0.0
 11
1031.432385
 21
527.947027
 31
0.0
  0
LINE
  5
4DA
100
AcDbEntity
  8
0
  6
CONTINUOUS
 62
     7
100
AcDbLine
 10
1031.432385
 20
348.531831
 30
0.0
 11
1029.932388
 21
348.505644
 31
0.0
  0
LINE
  5
4DB
100
AcDbEntity
  8
0
  6
CONTINUOUS
 62
     7
100
AcDbLine
 10
1110.832388
 20
582.739429
 30
0.0
 11
1110.832388
 21
576.739429
 31
0.0
  0
LINE
  5
4DC
100
AcDbEntity
  8
0
  6
CONTINUOUS
 62
     7
100
AcDbLine
 10
1110.832388
 20
576.739429
 30
0.0
 11
1029.432388
 21
576.739429
 31
0.0
  0
LINE
  5
4DD
100
AcDbEntity
  8
0
  6
CONTINUOUS
 62
     7
100
AcDbLine
 10
1029.432388
 20
576.739429
 30
0.0
 11
1029.432388
 21
582.739429
 31
0.0
  0
LINE
  5
4DE
100
AcDbEntity
  8
0
  6
CONTINUOUS
 62
     7
100
AcDbLine
 10
1029.432388
 20
582.739429
 30
0.0
 11
1110.832388
 21
582.739429
 31
0.0
  0
LINE
  5
4DF
100
AcDbEntity
  8
0
  6
CONTINUOUS
 62
     7
100
AcDbLine
 10
1110.832388
 20
299.739429
 30
0.0
 11
1110.832388
 21
293.739429
 31
0.0
  0
LINE
  5
4E0
100
AcDbEntity
  8
0
  6
CONTINUOUS
 62
     7
100
AcDbLine
 10
1110.832388
 20
293.739429
 30
0.0
 11
1029.432388
 21
293.739429
 31
0.0
  0
LINE
  5
4E1
100
AcDbEntity
  8
0
  6
CONTINUOUS
 62
     7
100
AcDbLine
 10
1029.432388
 20
293.739429
 30
0.0
 11
1029.432388
 21
299.739429
 31
0.0
  0
LINE
  5
4E2
100
AcDbEntity
  8
0
  6
CONTINUOUS
 62
     7
100
AcDbLine
 10
1029.432388
 20
299.739429
 30
0.0
 11
1110.832388
 21
299.739429
 31
0.0
  0
LINE
  5
4E3
100
AcDbEntity
  8
0
  6
CONTINUOUS
 62
     7
100
AcDbLine
 10
1029.432388
 20
564.289424
 30
0.0
 11
1029.432388
 21
576.739429
 31
0.0
  0
LINE
  5
4E4
100
AcDbEntity
  8
0
  6
CONTINUOUS
 62
     7
100
AcDbLine
 10
1110.832388
 20
576.739429
 30
0.0
 11
1110.832388
 21
299.739429
 31
0.0
  0
LINE
  5
4E5
100
AcDbEntity
  8
0
  6
CONTINUOUS
 62
     7
100
AcDbLine
 10
1029.432388
 20
299.739429
 30
0.0
 11
1029.432388
 21
312.189433
 31
0.0
  0
LINE
  5
4E6
100
AcDbEntity
  8
0
  6
CONTINUOUS
 62
     7
100
AcDbLine
 10
1029.432388
 20
312.189433
 30
0.0
 11
1102.532388
 21
312.189429
 31
0.0
  0
ARC
  5
4E7
100
AcDbEntity
  8
0
  6
CONTINUOUS
 62
     7
100
AcDbCircle
 10
1102.532388
 20
316.689429
 30
0.0
 40
4.5
100
AcDbArc
 50
270.0
 51
0.0
  0
LINE
  5
4E8
100
AcDbEntity
  8
0
  6
CONTINUOUS
 62
     7
100
AcDbLine
 10
1107.032388
 20
316.689429
 30
0.0
 11
1107.032388
 21
559.789429
 31
0.0
  0
ARC
  5
4E9
100
AcDbEntity
  8
0
  6
CONTINUOUS
 62
     7
100
AcDbCircle
 10
1102.532388
 20
559.789429
 30
0.0
 40
4.5
100
AcDbArc
 50
0.0
 51
90.0
  0
LINE
  5
4EA
100
AcDbEntity
  8
0
  6
CONTINUOUS
 62
     7
100
AcDbLine
 10
1102.532388
 20
564.289429
 30
0.0
 11
1029.432388
 21
564.289424
 31
0.0
  0
LINE
  5
4EB
100
AcDbEntity
  8
0
  6
CONTINUOUS
 62
     7
100
AcDbLine
 10
1029.432388
 20
312.189433
 30
0.0
 11
1029.432388
 21
316.757906
 31
0.0
  0
LINE
  5
4EC
100
AcDbEntity
  8
0
  6
CONTINUOUS
 62
     7
100
AcDbLine
 10
1029.432388
 20
316.757906
 30
0.0
 11
1032.432387
 21
316.757906
 31
0.0
  0
LINE
  5
4ED
100
AcDbEntity
  8
0
  6
CONTINUOUS
 62
     7
100
AcDbLine
 10
1102.532388
 20
315.534304
 30
0.0
 11
1032.432387
 21
316.757906
 31
0.0
  0
LINE
  5
4EE
100
AcDbEntity
  8
0
  6
CONTINUOUS
 62
     7
100
AcDbLine
 10
1102.532388
 20
315.534304
 30
0.0
 11
1102.532388
 21
312.189429
 31
0.0
  0
LINE
  5
4EF
100
AcDbEntity
  8
0
  6
CONTINUOUS
 62
     7
100
AcDbLine
 10
1102.532388
 20
560.944553
 30
0.0
 11
1102.532388
 21
564.289429
 31
0.0
  0
LINE
  5
4F0
100
AcDbEntity
  8
0
  6
CONTINUOUS
 62
     7
100
AcDbLine
 10
1102.532388
 20
560.944553
 30
0.0
 11
1032.432387
 21
559.720952
 31
0.0
  0
LINE
  5
4F1
100
AcDbEntity
  8
0
  6
CONTINUOUS
 62
     7
100
AcDbLine
 10
1029.432388
 20
559.720952
 30
0.0
 11
1032.432387
 21
559.720952
 31
0.0
  0
LINE
  5
4F2
100
AcDbEntity
  8
0
  6
CONTINUOUS
 62
     7
100
AcDbLine
 10
1029.432388
 20
559.720952
 30
0.0
 11
1029.432388
 21
564.289424
 31
0.0
  0
ELLIPSE
  5
4F3
100
AcDbEntity
  8
0
  6
CONTINUOUS
 62
     7
100
AcDbEllipse
 10
1102.552557
 20
316.689429
 30
0.0
 11
1.155475010403392
 21
0.0
 31
0.0
210
0.0
220
0.0
230
1.0
 40
0.999848
 41
4.694933028968732
 42
6.283185307179586
  0
LINE
  5
4F4
100
AcDbEntity
  8
0
  6
CONTINUOUS
 62
     7
100
AcDbLine
 10
1103.708032
 20
316.689427
 30
0.0
 11
1107.032388
 21
316.689429
 31
0.0
  0
LINE
  5
4F5
100
AcDbEntity
  8
0
  6
CONTINUOUS
 62
     7
100
AcDbLine
 10
1103.708032
 20
559.78943
 30
0.0
 11
1107.032388
 21
559.789429
 31
0.0
  0
ELLIPSE
  5
4F6
100
AcDbEntity
  8
0
  6
CONTINUOUS
 62
     7
100
AcDbEllipse
 10
1102.552557
 20
559.789429
 30
0.0
 11
1.155475010403392
 21
0.0
 31
0.0
210
0.0
220
0.0
230
1.0
 40
0.999848
 41
0.0
 42
1.588252278210868
  0
LINE
  5
4F7
100
AcDbEntity
  8
0
  6
CONTINUOUS
 62
     7
100
AcDbLine
 10
1103.708032
 20
559.78943
 30
0.0
 11
1103.708032
 21
316.689427
 31
0.0
  0
LINE
  5
4F8
100
AcDbEntity
  8
0
  6
CONTINUOUS
 62
     7
100
AcDbLine
 10
1032.432387
 20
559.720952
 30
0.0
 11
1032.432387
 21
316.757906
 31
0.0
  0
LINE
  5
4FA
100
AcDbEntity
  8
0
  6
CONTINUOUS
 62
     7
100
AcDbLine
 10
1031.432388
 20
322.791836
 30
0.0
 11
1031.432388
 21
332.687021
 31
0.0
  0
LINE
  5
4FB
100
AcDbEntity
  8
0
  6
CONTINUOUS
 62
     7
100
AcDbLine
 10
1029.432388
 20
324.489429
 30
0.0
 11
1029.432388
 21
330.989429
 31
0.0
  0
LINE
  5
4FC
100
AcDbEntity
  8
0
  6
CONTINUOUS
 62
     7
100
AcDbLine
 10
1029.432388
 20
545.489429
 30
0.0
 11
1029.432388
 21
551.989429
 31
0.0
  0
LINE
  5
4FD
100
AcDbEntity
  8
0
  6
CONTINUOUS
 62
     7
100
AcDbLine
 10
1029.432388
 20
330.989429
 30
0.0
 11
1029.432388
 21
334.987063
 31
0.0
  0
LINE
  5
4FE
100
AcDbEntity
  8
0
  6
CONTINUOUS
 62
     7
100
AcDbLine
 10
1029.432388
 20
551.989429
 30
0.0
 11
1029.432388
 21
555.987063
 31
0.0
  0
LINE
  5
4FF
100
AcDbEntity
  8
0
  6
CONTINUOUS
 62
     7
100
AcDbLine
 10
1029.432388
 20
541.491794
 30
0.0
 11
1029.432388
 21
545.489429
 31
0.0
  0
LINE
  5
500
100
AcDbEntity
  8
0
  6
CONTINUOUS
 62
     7
100
AcDbLine
 10
1029.432388
 20
320.491794
 30
0.0
 11
1029.432388
 21
324.489429
 31
0.0
  0
LINE
  5
501
100
AcDbEntity
  8
0
  6
CONTINUOUS
 62
     7
100
AcDbLine
 10
1031.432385
 20
438.239429
 30
0.0
 11
1032.432387
 21
438.239429
 31
0.0
  0
LINE
  5
502
100
AcDbEntity
  8
0
  6
CONTINUOUS
 62
     7
100
AcDbLine
 10
1031.432385
 20
541.456881
 30
0.0
 11
1031.432385
 21
438.239429
 31
0.0
  0
LINE
  5
503
100
AcDbEntity
  8
0
  6
CONTINUOUS
 62
     7
100
AcDbLine
 10
1031.432385
 20
335.021976
 30
0.0
 11
1031.432385
 21
438.239429
 31
0.0
  0
LINE
  5
504
100
AcDbEntity
  8
0
  6
CONTINUOUS
 62
     7
100
AcDbLine
 10
1029.432388
 20
316.757906
 30
0.0
 11
1029.432388
 21
319.187063
 31
0.0
  0
LINE
  5
505
100
AcDbEntity
  8
0
  6
CONTINUOUS
 62
     7
100
AcDbLine
 10
1029.432388
 20
557.291794
 30
0.0
 11
1029.432388
 21
559.720952
 31
0.0
  0
LINE
  5
506
100
AcDbEntity
  8
0
  6
CONTINUOUS
 62
     7
100
AcDbLine
 10
1029.932388
 20
541.483066
 30
0.0
 11
1029.932388
 21
527.973213
 31
0.0
  0
LINE
  5
507
100
AcDbEntity
  8
0
  6
CONTINUOUS
 62
     7
100
AcDbLine
 10
1029.932388
 20
348.505644
 30
0.0
 11
1029.932388
 21
334.995791
 31
0.0
  0
LINE
  5
520
100
AcDbEntity
  8
0
  6
HIDDEN
 62
     7
100
AcDbLine
 10
1096.332388
 20
299.739429
 30
0.0
 11
1110.832388
 21
299.739429
 31
0.0
  0
LINE
  5
527
100
AcDbEntity
  8
0
  6
HIDDEN
 62
     7
100
AcDbLine
 10
1110.832388
 20
576.739429
 30
0.0
 11
1096.332388
 21
576.739429
 31
0.0
  0
LINE
  5
540
100
AcDbEntity
  8
0
  6
HIDDEN
 62
     1
100
AcDbLine
 10
1034.732388
 20
554.670335
 30
0.0
 11
1034.732388
 21
321.808523
 31
0.0
  0
LINE
  5
541
100
AcDbEntity
  8
0
  6
HIDDEN
 62
     1
100
AcDbLine
 10
1034.732388
 20
554.670335
 30
0.0
 11
1034.732388
 21
557.61451
 31
0.0
  0
LINE
  5
542
100
AcDbEntity
  8
0
  6
HIDDEN
 62
     1
100
AcDbLine
 10
1034.732388
 20
321.808523
 30
0.0
 11
1034.732388
 21
318.864347
 31
0.0
  0
LINE
  5
549
100
AcDbEntity
  8
0
  6
HIDDEN
 62
     1
100
AcDbLine
 10
1034.732388
 20
318.864347
 30
0.0
 11
1034.732388
 21
316.241708
 31
0.0
  0
LINE
  5
553
100
AcDbEntity
  8
0
  6
HIDDEN
 62
     1
100
AcDbLine
 10
1042.232388
 20
504.023975
 30
0.0
 11
1042.232388
 21
497.454882
 31
0.0
  0
LINE
  5
556
100
AcDbEntity
  8
0
  6
HIDDEN
 62
     1
100
AcDbLine
 10
1042.232388
 20
379.023975
 30
0.0
 11
1042.232388
 21
372.454882
 31
0.0
  0
LINE
  5
559
100
AcDbEntity
  8
0
  6
HIDDEN
 62
     1
100
AcDbLine
 10
1042.232388
 20
441.523975
 30
0.0
 11
1042.232388
 21
434.954882
 31
0.0
  0
LINE
  5
560
100
AcDbEntity
  8
0
  6
HIDDEN
 62
     1
100
AcDbLine
 10
1034.732389
 20
507.370341
 30
0.0
 11
1042.232389
 21
507.239427
 31
0.0
  0
LINE
  5
561
100
AcDbEntity
  8
0
  6
HIDDEN
 62
     1
100
AcDbLine
 10
1042.232389
 20
507.239427
 30
0.0
 11
1042.232388
 21
504.023975
 31
0.0
  0
LINE
  5
562
100
AcDbEntity
  8
0
  6
HIDDEN
 62
     1
100
AcDbLine
 10
1034.732389
 20
431.608516
 30
0.0
 11
1042.232389
 21
431.739429
 31
0.0
  0
LINE
  5
563
100
AcDbEntity
  8
0
  6
HIDDEN
 62
     1
100
AcDbLine
 10
1042.232388
 20
434.954882
 30
0.0
 11
1042.232389
 21
431.739429
 31
0.0
  0
LINE
  5
564
100
AcDbEntity
  8
0
  6
HIDDEN
 62
     1
100
AcDbLine
 10
1034.732389
 20
494.108516
 30
0.0
 11
1042.232389
 21
494.23943
 31
0.0
  0
LINE
  5
565
100
AcDbEntity
  8
0
  6
HIDDEN
 62
     1
100
AcDbLine
 10
1042.232388
 20
497.454882
 30
0.0
 11
1042.232389
 21
494.23943
 31
0.0
  0
LINE
  5
566
100
AcDbEntity
  8
0
  6
HIDDEN
 62
     1
100
AcDbLine
 10
1034.732389
 20
444.870342
 30
0.0
 11
1042.232389
 21
444.739429
 31
0.0
  0
LINE
  5
567
100
AcDbEntity
  8
0
  6
HIDDEN
 62
     1
100
AcDbLine
 10
1042.232389
 20
444.739429
 30
0.0
 11
1042.232388
 21
441.523975
 31
0.0
  0
LINE
  5
568
100
AcDbEntity
  8
0
  6
HIDDEN
 62
     1
100
AcDbLine
 10
1034.732389
 20
369.108516
 30
0.0
 11
1042.232389
 21
369.23943
 31
0.0
  0
LINE
  5
569
100
AcDbEntity
  8
0
  6
HIDDEN
 62
     1
100
AcDbLine
 10
1042.232388
 20
372.454882
 30
0.0
 11
1042.232389
 21
369.23943
 31
0.0
  0
LINE
  5
56A
100
AcDbEntity
  8
0
  6
HIDDEN
 62
     1
100
AcDbLine
 10
1034.732389
 20
382.370341
 30
0.0
 11
1042.232389
 21
382.239427
 31
0.0
  0
LINE
  5
56B
100
AcDbEntity
  8
0
  6
HIDDEN
 62
     1
100
AcDbLine
 10
1042.232389
 20
382.239427
 30
0.0
 11
1042.232388
 21
379.023975
 31
0.0
  0
LINE
  5
59D
100
AcDbEntity
  8
0
  6
HIDDEN
 62
     7
100
AcDbLine
 10
1031.432388
 20
332.687021
 30
0.0
 11
1031.432388
 21
333.965171
 31
0.0
  0
LINE
  5
5A3
100
AcDbEntity
  8
0
  6
HIDDEN
 62
     7
100
AcDbLine
 10
1031.432388
 20
333.965171
 30
0.0
 11
1031.432385
 21
335.021976
 31
0.0
  0
LINE
  5
5A4
100
AcDbEntity
  8
0
  6
HIDDEN
 62
     1
100
AcDbLine
 10
1042.232388
 20
331.108516
 30
0.0
 11
1042.232388
 21
324.370342
 31
0.0
  0
LINE
  5
5A5
100
AcDbEntity
  8
0
  6
HIDDEN
 62
     1
100
AcDbLine
 10
1042.232388
 20
552.108516
 30
0.0
 11
1042.232388
 21
545.370342
 31
0.0
  0
LINE
  5
5CA
100
AcDbEntity
  8
0
  6
HIDDEN
 62
     1
100
AcDbLine
 10
1039.532388
 20
545.323213
 30
0.0
 11
1039.532388
 21
527.973213
 31
0.0
  0
LINE
  5
5CB
100
AcDbEntity
  8
0
  6
HIDDEN
 62
     1
100
AcDbLine
 10
1039.532388
 20
348.505644
 30
0.0
 11
1039.532388
 21
331.155644
 31
0.0
  0
ELLIPSE
  5
5CD
100
AcDbEntity
  8
0
  6
HIDDEN
 62
     7
100
AcDbEllipse
 10
1050.804071
 20
538.437298
 30
0.0
 11
18.15019546915721
 21
7.860158083425687
 31
0.0
210
0.0
220
0.0
230
1.0
 40
0.394087
 41
2.905859633452605
 42
3.039254451114188
  0
ELLIPSE
  5
5CF
100
AcDbEntity
  8
0
  6
HIDDEN
 62
     7
100
AcDbEllipse
 10
1050.804071
 20
338.041559
 30
0.0
 11
18.15019546915721
 21
-7.860158083425616
 31
0.0
210
0.0
220
0.0
230
1.0
 40
0.394087
 41
3.243930856065467
 42
3.377325673726949
  0
LINE
  5
5E9
100
AcDbEntity
  8
0
  6
HIDDEN
 62
     7
100
AcDbLine
 10
1031.432385
 20
432.680124
 30
0.0
 11
1032.432387
 21
431.742351
 31
0.0
  0
LINE
  5
5EB
100
AcDbEntity
  8
0
  6
HIDDEN
 62
     7
100
AcDbLine
 10
1031.432385
 20
443.798733
 30
0.0
 11
1032.432387
 21
444.736506
 31
0.0
  0
LINE
  5
614
100
AcDbEntity
  8
0
  6
HIDDEN
 62
     7
100
AcDbLine
 10
1029.432388
 20
576.739429
 30
0.0
 11
1110.832388
 21
576.739429
 31
0.0
  0
LINE
  5
615
100
AcDbEntity
  8
0
  6
HIDDEN
 62
     7
100
AcDbLine
 10
1110.832388
 20
299.739429
 30
0.0
 11
1029.432388
 21
299.739429
 31
0.0
  0
LINE
  5
617
100
AcDbEntity
  8
0
  6
HIDDEN
 62
     7
100
AcDbLine
 10
1096.332388
 20
576.739429
 30
0.0
 11
1110.832388
 21
576.739429
 31
0.0
  0
LINE
  5
618
100
AcDbEntity
  8
0
  6
HIDDEN
 62
     7
100
AcDbLine
 10
1110.832388
 20
299.739429
 30
0.0
 11
1096.332388
 21
299.739429
 31
0.0
  0
LINE
  5
61B
100
AcDbEntity
  8
0
  6
HIDDEN
 62
     7
100
AcDbLine
 10
1102.532388
 20
560.944553
 30
0.0
 11
1102.532388
 21
564.289429
 31
0.0
  0
LINE
  5
61C
100
AcDbEntity
  8
0
  6
HIDDEN
 62
     7
100
AcDbLine
 10
1102.532388
 20
315.534304
 30
0.0
 11
1102.532388
 21
312.189429
 31
0.0
  0
LINE
  5
61D
100
AcDbEntity
  8
0
  6
HIDDEN
 62
     7
100
AcDbLine
 10
1103.708032
 20
316.689427
 30
0.0
 11
1107.032388
 21
316.689429
 31
0.0
  0
LINE
  5
61E
100
AcDbEntity
  8
0
  6
HIDDEN
 62
     7
100
AcDbLine
 10
1103.708032
 20
559.78943
 30
0.0
 11
1107.032388
 21
559.789429
 31
0.0
  0
LINE
  5
651
100
AcDbEntity
  8
0
  6
HIDDEN
 62
     1
100
AcDbLine
 10
1034.732389
 20
324.239429
 30
0.0
 11
1042.232388
 21
324.370342
 31
0.0
  0
LINE
  5
652
100
AcDbEntity
  8
0
  6
HIDDEN
 62
     1
100
AcDbLine
 10
1042.232388
 20
331.108516
 30
0.0
 11
1034.732389
 21
331.239428
 31
0.0
  0
LINE
  5
653
100
AcDbEntity
  8
0
  6
HIDDEN
 62
     1
100
AcDbLine
 10
1034.732389
 20
545.239429
 30
0.0
 11
1042.232388
 21
545.370342
 31
0.0
  0
LINE
  5
654
100
AcDbEntity
  8
0
  6
HIDDEN
 62
     1
100
AcDbLine
 10
1042.232388
 20
552.108516
 30
0.0
 11
1034.732389
 21
552.239429
 31
0.0
  0
LINE
  5
67F
100
AcDbEntity
  8
0
  6
HIDDEN
 62
     1
100
AcDbLine
 10
1034.732389
 20
527.889426
 30
0.0
 11
1039.532388
 21
527.973213
 31
0.0
  0
LINE
  5
682
100
AcDbEntity
  8
0
  6
HIDDEN
 62
     1
100
AcDbLine
 10
1039.532388
 20
348.505644
 30
0.0
 11
1034.732389
 21
348.589431
 31
0.0
  0
LINE
  5
684
100
AcDbEntity
  8
0
  6
HIDDEN
 62
     7
100
AcDbLine
 10
1031.432385
 20
527.947027
 30
0.0
 11
1032.432387
 21
527.929578
 31
0.0
  0
LINE
  5
685
100
AcDbEntity
  8
0
  6
HIDDEN
 62
     7
100
AcDbLine
 10
1032.432387
 20
348.54928
 30
0.0
 11
1031.432385
 21
348.531831
 31
0.0
  0
TEXT
  5
6EB
100
AcDbEntity
  8
0
100
AcDbText
 10
60.544422
 20
744.914952
 30
0.0
 40
10.0
  1
FIBOX Tempo 2924 Base
100
AcDbText
  0
ENDSEC
  0
SECTION
  2
OBJECTS
  0
DICTIONARY
  5
C
100
AcDbDictionary
  3
ACAD_GROUP
350
D
  3
ACAD_PLOTSTYLENAME
350
E
  3
ACAD_MLINESTYLE
350
17
  3
ACAD_PLOTSETTINGS
350
19
  3
ACAD_LAYOUT
350
1A
  3
ACDBHEADERROUNDTRIPXREC
350
6AC
  0
DICTIONARY
  5
6DE
100
AcDbDictionary
280
     1
  3
ACAD_XREC_ROUNDTRIP
360
6DF
  0
DICTIONARY
  5
6E0
100
AcDbDictionary
280
     1
  3
ACAD_XREC_ROUNDTRIP
360
6E1
  0
DICTIONARY
  5
6E2
100
AcDbDictionary
280
     1
  3
ACAD_XREC_ROUNDTRIP
360
6E3
  0
DICTIONARY
  5
6DC
100
AcDbDictionary
280
     1
  3
ACAD_XREC_ROUNDTRIP
360
6DD
  0
DICTIONARY
  5
6E6
100
AcDbDictionary
280
     1
  3
ACAD_XREC_ROUNDTRIP
360
6E7
  0
DICTIONARY
  5
6D3
100
AcDbDictionary
280
     1
  3
ACAD_LAYOUTSELFREF
360
6D4
  3
ACAD_XREC_ROUNDTRIP
360
6D9
  0
DICTIONARY
  5
6D1
100
AcDbDictionary
280
     1
  3
ACAD_LAYOUTSELFREF
360
6D2
  3
ACAD_XREC_ROUNDTRIP
360
6DA
  0
DICTIONARY
  5
6D5
100
AcDbDictionary
280
     1
  3
ACAD_LAYOUTSELFREF
360
6D6
  3
ACAD_XREC_ROUNDTRIP
360
6DB
  0
DICTIONARY
  5
D
102
{ACAD_REACTORS
330
C
102
}
100
AcDbDictionary
  0
ACAD_PROXY_OBJECT
  5
E
102
{ACAD_XDICTIONARY
360
6CD
102
}
102
{ACAD_REACTORS
330
C
102
}
100
AcDbProxyObject
 90
      499
 91
      500
 93
       86
310
4050100419393D49350530
350
F
340
F
 94
        0
  0
DICTIONARY
  5
17
102
{ACAD_XDICTIONARY
360
6CF
102
}
102
{ACAD_REACTORS
330
C
102
}
100
AcDbDictionary
  3
STANDARD
350
18
  0
DICTIONARY
  5
19
102
{ACAD_REACTORS
330
C
102
}
100
AcDbDictionary
  0
DICTIONARY
  5
1A
102
{ACAD_XDICTIONARY
360
6D7
102
}
102
{ACAD_REACTORS
330
C
102
}
100
AcDbDictionary
  3
LAYOUT1
350
1E
  3
MODEL
350
22
  3
LAYOUT2
350
26
  0
DICTIONARY
  5
6AC
102
{ACAD_REACTORS
330
C
102
}
100
AcDbDictionary
  3
TSTACKALIGN
350
6AD
  3
TSTACKSIZE
350
6AE
  3
HYPERLINKBASE
350
6AF
  3
STYLESHEET
350
6B0
  3
LAYOUTDICT
350
6B1
  3
PLOTSETDICT
350
6B2
  3
PLOTSTYLNAMDICT
350
6B3
  3
LWETCUNION
350
6B4
  3
INSUNITS
350
6B5
  3
CEPSNTYPE
350
6B6
  3
FINGERPRINTGUID
350
6B7
  3
VERSIONGUID
350
6B8
  3
PSVPSCALE
350
6B9
  3
PUCSORTHOREF
350
6BA
  3
PUCSORTHOVIEW
350
6BB
  3
PUCSBASE
350
6BC
  3
PUCSORGTOP
350
6BD
  3
PUCSORGBOTTOM
350
6BE
  3
PUCSORGLEFT
350
6BF
  3
PUCSORGRIGHT
350
6C0
  3
PUCSORGFRONT
350
6C1
  3
PUCSORGBACK
350
6C2
  3
UCSORTHOREF
350
6C3
  3
UCSORTHOVIEW
350
6C4
  3
UCSBASE
350
6C5
  3
UCSORGTOP
350
6C6
  3
UCSORGBOTTOM
350
6C7
  3
UCSORGLEFT
350
6C8
  3
UCSORGRIGHT
350
6C9
  3
UCSORGFRONT
350
6CA
  3
UCSORGBACK
350
6CB
  3
DIMSTYLEDATA
350
6CC
  0
XRECORD
  5
6DF
102
{ACAD_REACTORS
330
6DE
102
}
100
AcDbXrecord
102
EXTNAMES
  1
BYBLOCK
  2
ByBlock
  0
XRECORD
  5
6E1
102
{ACAD_REACTORS
330
6E0
102
}
100
AcDbXrecord
102
EXTNAMES
  1
BYLAYER
  2
ByLayer
  0
XRECORD
  5
6E3
102
{ACAD_REACTORS
330
6E2
102
}
100
AcDbXrecord
102
EXTNAMES
  1
CONTINUOUS
  2
Continuous
  0
XRECORD
  5
6DD
102
{ACAD_REACTORS
330
6DC
102
}
100
AcDbXrecord
102
EXTNAMES
  1
STANDARD
  2
Standard
  0
XRECORD
  5
6E7
102
{ACAD_REACTORS
330
6E6
102
}
100
AcDbXrecord
102
ACADR14ROUNDTRIP
1000
DSTYLE
1002
{
1070
   278
 70
    44
1002
}
  0
XRECORD
  5
6D4
102
{ACAD_REACTORS
330
6D3
102
}
100
AcDbXrecord
340
1F
  0
XRECORD
  5
6D9
102
{ACAD_REACTORS
330
6D3
102
}
100
AcDbXrecord
102
EXTNAMES
  1
*MODEL_SPACE
  2
*Model_Space
  0
XRECORD
  5
6D2
102
{ACAD_REACTORS
330
6D1
102
}
100
AcDbXrecord
340
1B
  0
XRECORD
  5
6DA
102
{ACAD_REACTORS
330
6D1
102
}
100
AcDbXrecord
102
EXTNAMES
  1
*PAPER_SPACE
  2
*Paper_Space
  0
XRECORD
  5
6D6
102
{ACAD_REACTORS
330
6D5
102
}
100
AcDbXrecord
340
23
  0
XRECORD
  5
6DB
102
{ACAD_REACTORS
330
6D5
102
}
100
AcDbXrecord
102
EXTNAMES
  1
*PAPER_SPACE
  2
*Paper_Space0
  0
DICTIONARY
  5
6CD
100
AcDbDictionary
280
     1
  3
ACAD_XREC_ROUNDTRIP
360
6CE
  0
ACAD_PROXY_OBJECT
  5
F
102
{ACAD_REACTORS
330
E
102
}
100
AcDbProxyObject
 90
      499
 91
      504
 93
        0
 94
        0
  0
DICTIONARY
  5
6CF
100
AcDbDictionary
280
     1
  3
ACAD_XREC_ROUNDTRIP
360
6D0
  0
MLINESTYLE
  5
18
102
{ACAD_REACTORS
330
17
102
}
100
AcDbMlineStyle
  2
STANDARD
 70
     0
  3

 62
   256
 51
90.0
 52
90.0
 71
     2
 49
0.5
 62
   256
  6
BYLAYER
 49
-0.5
 62
   256
  6
BYLAYER
  0
DICTIONARY
  5
6D7
100
AcDbDictionary
280
     1
  3
ACAD_XREC_ROUNDTRIP
360
6D8
  0
ACAD_PROXY_OBJECT
  5
1E
102
{ACAD_REACTORS
330
1A
102
}
100
AcDbProxyObject
 90
      499
 91
      505
 93
      468
310
A2C00AAAAAA416AA591069074C61796F75743140501A80000000000000000000000000000000000000000000000000000000000000002A6A6AAAA8
330
1B
330
0
340
0
340
0
 94
        0
  0
ACAD_PROXY_OBJECT
  5
22
102
{ACAD_REACTORS
330
1A
102
}
100
AcDbProxyObject
 90
      499
 91
      505
 93
      556
310
A2C01AAAAAAAAA5A69054D6F64656C901A80000000000000000000000000000000000000000000000000000000000000002A6A6AA80000000000407A400000000000241C9020
330
1F
330
0
340
0
340
0
 94
        0
  0
ACAD_PROXY_OBJECT
  5
26
102
{ACAD_REACTORS
330
1A
102
}
100
AcDbProxyObject
 90
      499
 91
      505
 93
      468
310
A2C00AAAAAA416AA591069074C61796F75743240901A80000000000000000000000000000000000000000000000000000000000000002A6A6AAAA4
330
23
330
0
340
0
340
0
 94
        0
  0
XRECORD
  5
6AD
102
{ACAD_REACTORS
330
6AC
102
}
100
AcDbXrecord
 90
        1
  0
XRECORD
  5
6AE
102
{ACAD_REACTORS
330
6AC
102
}
100
AcDbXrecord
 90
       70
  0
XRECORD
  5
6AF
102
{ACAD_REACTORS
330
6AC
102
}
100
AcDbXrecord
  1

  0
XRECORD
  5
6B0
102
{ACAD_REACTORS
330
6AC
102
}
100
AcDbXrecord
  1

  0
XRECORD
  5
6B1
102
{ACAD_REACTORS
330
6AC
102
}
100
AcDbXrecord
340
1A
  0
XRECORD
  5
6B2
102
{ACAD_REACTORS
330
6AC
102
}
100
AcDbXrecord
340
19
  0
XRECORD
  5
6B3
102
{ACAD_REACTORS
330
6AC
102
}
100
AcDbXrecord
340
E
  0
XRECORD
  5
6B4
102
{ACAD_REACTORS
330
6AC
102
}
100
AcDbXrecord
 90
    10269
  0
XRECORD
  5
6B5
102
{ACAD_REACTORS
330
6AC
102
}
100
AcDbXrecord
 90
        4
  0
XRECORD
  5
6B6
102
{ACAD_REACTORS
330
6AC
102
}
100
AcDbXrecord
 90
        0
  0
XRECORD
  5
6B7
102
{ACAD_REACTORS
330
6AC
102
}
100
AcDbXrecord
  1
{9E535F46-C987-4B76-81B0-98F20A5FA189}
  0
XRECORD
  5
6B8
102
{ACAD_REACTORS
330
6AC
102
}
100
AcDbXrecord
  1
{FAEB1C32-E019-11D5-929B-00C0DF256EC4}
  0
XRECORD
  5
6B9
102
{ACAD_REACTORS
330
6AC
102
}
100
AcDbXrecord
 40
0.0
  0
XRECORD
  5
6BA
102
{ACAD_REACTORS
330
6AC
102
}
100
AcDbXrecord
340
0
  0
XRECORD
  5
6BB
102
{ACAD_REACTORS
330
6AC
102
}
100
AcDbXrecord
 70
     0
  0
XRECORD
  5
6BC
102
{ACAD_REACTORS
330
6AC
102
}
100
AcDbXrecord
340
0
  0
XRECORD
  5
6BD
102
{ACAD_REACTORS
330
6AC
102
}
100
AcDbXrecord
 10
0.0
 20
0.0
 30
0.0
  0
XRECORD
  5
6BE
102
{ACAD_REACTORS
330
6AC
102
}
100
AcDbXrecord
 10
0.0
 20
0.0
 30
0.0
  0
XRECORD
  5
6BF
102
{ACAD_REACTORS
330
6AC
102
}
100
AcDbXrecord
 10
0.0
 20
0.0
 30
0.0
  0
XRECORD
  5
6C0
102
{ACAD_REACTORS
330
6AC
102
}
100
AcDbXrecord
 10
0.0
 20
0.0
 30
0.0
  0
XRECORD
  5
6C1
102
{ACAD_REACTORS
330
6AC
102
}
100
AcDbXrecord
 10
0.0
 20
0.0
 30
0.0
  0
XRECORD
  5
6C2
102
{ACAD_REACTORS
330
6AC
102
}
100
AcDbXrecord
 10
0.0
 20
0.0
 30
0.0
  0
XRECORD
  5
6C3
102
{ACAD_REACTORS
330
6AC
102
}
100
AcDbXrecord
340
0
  0
XRECORD
  5
6C4
102
{ACAD_REACTORS
330
6AC
102
}
100
AcDbXrecord
 70
     0
  0
XRECORD
  5
6C5
102
{ACAD_REACTORS
330
6AC
102
}
100
AcDbXrecord
340
0
  0
XRECORD
  5
6C6
102
{ACAD_REACTORS
330
6AC
102
}
100
AcDbXrecord
 10
0.0
 20
0.0
 30
0.0
  0
XRECORD
  5
6C7
102
{ACAD_REACTORS
330
6AC
102
}
100
AcDbXrecord
 10
0.0
 20
0.0
 30
0.0
  0
XRECORD
  5
6C8
102
{ACAD_REACTORS
330
6AC
102
}
100
AcDbXrecord
 10
0.0
 20
0.0
 30
0.0
  0
XRECORD
  5
6C9
102
{ACAD_REACTORS
330
6AC
102
}
100
AcDbXrecord
 10
0.0
 20
0.0
 30
0.0
  0
XRECORD
  5
6CA
102
{ACAD_REACTORS
330
6AC
102
}
100
AcDbXrecord
 10
0.0
 20
0.0
 30
0.0
  0
XRECORD
  5
6CB
102
{ACAD_REACTORS
330
6AC
102
}
100
AcDbXrecord
 10
0.0
 20
0.0
 30
0.0
  0
XRECORD
  5
6CC
102
{ACAD_REACTORS
330
6AC
102
}
100
AcDbXrecord
1000
DSTYLE
1002
{
1070
   143
 40
0.03937
1070
    41
 40
6.0
1070
    44
 40
1.0
1070
    42
 40
1.0
1070
   147
 40
1.524
1070
   144
 40
5.0
1070
    73
 70
     1
1070
    74
 70
     1
1070
   340
340
11
1070
   140
 40
3.5
1070
   284
 70
     0
1070
    78
 70
     0
1002
}
  0
XRECORD
  5
6CE
102
{ACAD_REACTORS
330
6CD
102
}
100
AcDbXrecord
102
EXTNAMES
  1
NORMAL
  2
Normal
  0
XRECORD
  5
6D0
102
{ACAD_REACTORS
330
6CF
102
}
100
AcDbXrecord
102
EXTNAMES
  1
STANDARD
  2
Standard
  0
XRECORD
  5
6D8
102
{ACAD_REACTORS
330
6D7
102
}
100
AcDbXrecord
102
EXTNAMES
  1
LAYOUT1
  2
Layout1
  1
LAYOUT2
  2
Layout2
  1
MODEL
  2
Model
  0
ENDSEC
  0
EOF
