  0
SECTION
  2
HEADER
  9
$ACADVER
  1
AC1014
  9
$ACADMAINTVER
 70
     0
  9
$DWGCODEPAGE
  3
ANSI_1252
  9
$INSBASE
 10
0.0
 20
0.0
 30
0.0
  9
$EXTMIN
 10
17.771302
 20
41.004273
 30
-0.001526
  9
$EXTMAX
 10
622.815858
 20
462.489945
 30
0.0
  9
$LIMMIN
 10
0.0
 20
0.0
  9
$LIMMAX
 10
0.0
 20
0.0
  9
$ORTHOMODE
 70
     0
  9
$REGENMODE
 70
     1
  9
$FILLMODE
 70
     1
  9
$QTEXTMODE
 70
     0
  9
$MIRRTEXT
 70
     1
  9
$DRAGMODE
 70
     2
  9
$LTSCALE
 40
1.0
  9
$OSMODE
 70
    37
  9
$ATTMODE
 70
     1
  9
$TEXTSIZE
 40
10.0
  9
$TRACEWID
 40
1.0
  9
$TEXTSTYLE
  7
STANDARD
  9
$CLAYER
  8
0
  9
$CELTYPE
  6
BYLAYER
  9
$CECOLOR
 62
   256
  9
$CELTSCALE
 40
1.0
  9
$DELOBJ
 70
     1
  9
$DISPSILH
 70
     0
  9
$DIMSCALE
 40
1.0
  9
$DIMASZ
 40
6.0
  9
$DIMEXO
 40
1.0
  9
$DIMDLI
 40
3.75
  9
$DIMRND
 40
0.0
  9
$DIMDLE
 40
0.0
  9
$DIMEXE
 40
1.0
  9
$DIMTP
 40
0.0
  9
$DIMTM
 40
0.0
  9
$DIMTXT
 40
3.5
  9
$DIMCEN
 40
2.5
  9
$DIMTSZ
 40
0.0
  9
$DIMTOL
 70
     0
  9
$DIMLIM
 70
     0
  9
$DIMTIH
 70
     1
  9
$DIMTOH
 70
     1
  9
$DIMSE1
 70
     0
  9
$DIMSE2
 70
     0
  9
$DIMTAD
 70
     1
  9
$DIMZIN
 70
     0
  9
$DIMBLK
  1

  9
$DIMASO
 70
     1
  9
$DIMSHO
 70
     1
  9
$DIMPOST
  1

  9
$DIMAPOST
  1

  9
$DIMALT
 70
     0
  9
$DIMALTD
 70
     3
  9
$DIMALTF
 40
0.03937
  9
$DIMLFAC
 40
1.0
  9
$DIMTOFL
 70
     1
  9
$DIMTVP
 40
0.0
  9
$DIMTIX
 70
     0
  9
$DIMSOXD
 70
     0
  9
$DIMSAH
 70
     0
  9
$DIMBLK1
  1

  9
$DIMBLK2
  1

  9
$DIMSTYLE
  2
ISO-25
  9
$DIMCLRD
 70
     0
  9
$DIMCLRE
 70
     0
  9
$DIMCLRT
 70
     0
  9
$DIMTFAC
 40
1.0
  9
$DIMGAP
 40
1.524
  9
$DIMJUST
 70
     0
  9
$DIMSD1
 70
     0
  9
$DIMSD2
 70
     0
  9
$DIMTOLJ
 70
     0
  9
$DIMTZIN
 70
     0
  9
$DIMALTZ
 70
     0
  9
$DIMALTTZ
 70
     0
  9
$DIMFIT
 70
     3
  9
$DIMUPT
 70
     0
  9
$DIMUNIT
 70
     2
  9
$DIMDEC
 70
     2
  9
$DIMTDEC
 70
     2
  9
$DIMALTU
 70
     2
  9
$DIMALTTD
 70
     3
  9
$DIMTXSTY
  7
STANDARD
  9
$DIMAUNIT
 70
     0
  9
$LUNITS
 70
     2
  9
$LUPREC
 70
     2
  9
$SKETCHINC
 40
1.0
  9
$FILLETRAD
 40
10.0
  9
$AUNITS
 70
     0
  9
$AUPREC
 70
     0
  9
$MENU
  1
.
  9
$ELEVATION
 40
0.0
  9
$PELEVATION
 40
0.0
  9
$THICKNESS
 40
0.0
  9
$LIMCHECK
 70
     0
  9
$BLIPMODE
 70
     0
  9
$CHAMFERA
 40
10.0
  9
$CHAMFERB
 40
10.0
  9
$CHAMFERC
 40
20.0
  9
$CHAMFERD
 40
0.0
  9
$SKPOLY
 70
     0
  9
$TDCREATE
 40
2454075.523901134
  9
$TDUPDATE
 40
2454075.639575729
  9
$TDINDWG
 40
0.0045488310
  9
$TDUSRTIMER
 40
0.0045488310
  9
$USRTIMER
 70
     1
  9
$ANGBASE
 50
0.0
  9
$ANGDIR
 70
     0
  9
$PDMODE
 70
     0
  9
$PDSIZE
 40
-1.0
  9
$PLINEWID
 40
0.0
  9
$COORDS
 70
     1
  9
$SPLFRAME
 70
     0
  9
$SPLINETYPE
 70
     6
  9
$SPLINESEGS
 70
     8
  9
$ATTDIA
 70
     0
  9
$ATTREQ
 70
     1
  9
$HANDLING
 70
     1
  9
$HANDSEED
  5
2EF
  9
$SURFTAB1
 70
     6
  9
$SURFTAB2
 70
     6
  9
$SURFTYPE
 70
     6
  9
$SURFU
 70
     6
  9
$SURFV
 70
     6
  9
$UCSNAME
  2

  9
$UCSORG
 10
0.0
 20
0.0
 30
0.0
  9
$UCSXDIR
 10
1.0
 20
0.0
 30
0.0
  9
$UCSYDIR
 10
0.0
 20
1.0
 30
0.0
  9
$PUCSNAME
  2

  9
$PUCSORG
 10
0.0
 20
0.0
 30
0.0
  9
$PUCSXDIR
 10
1.0
 20
0.0
 30
0.0
  9
$PUCSYDIR
 10
0.0
 20
1.0
 30
0.0
  9
$USERI1
 70
     0
  9
$USERI2
 70
     0
  9
$USERI3
 70
     0
  9
$USERI4
 70
     0
  9
$USERI5
 70
     0
  9
$USERR1
 40
0.0
  9
$USERR2
 40
0.0
  9
$USERR3
 40
0.0
  9
$USERR4
 40
0.0
  9
$USERR5
 40
0.0
  9
$WORLDVIEW
 70
     1
  9
$SHADEDGE
 70
     3
  9
$SHADEDIF
 70
    70
  9
$TILEMODE
 70
     1
  9
$MAXACTVP
 70
    64
  9
$PINSBASE
 10
0.0
 20
0.0
 30
0.0
  9
$PLIMCHECK
 70
     0
  9
$PEXTMIN
 10
1.000000E+20
 20
1.000000E+20
 30
1.000000E+20
  9
$PEXTMAX
 10
-1.000000E+20
 20
-1.000000E+20
 30
-1.000000E+20
  9
$PLIMMIN
 10
0.0
 20
0.0
  9
$PLIMMAX
 10
420.0
 20
297.0
  9
$UNITMODE
 70
     0
  9
$VISRETAIN
 70
     1
  9
$PLINEGEN
 70
     0
  9
$PSLTSCALE
 70
     1
  9
$TREEDEPTH
 70
  3020
  9
$PICKSTYLE
 70
     1
  9
$CMLSTYLE
  2
STANDARD
  9
$CMLJUST
 70
     0
  9
$CMLSCALE
 40
20.0
  9
$PROXYGRAPHICS
 70
     1
  9
$MEASUREMENT
 70
     1
  0
ENDSEC
  0
SECTION
  2
CLASSES
  0
CLASS
  1
ACDBDICTIONARYWDFLT
  2
AcDbDictionaryWithDefault
  3
ObjectDBX Classes
 90
        0
280
     0
281
     0
  0
CLASS
  1
XRECORD
  2
AcDbXrecord
  3
"<Built In>"
 90
        0
280
     0
281
     0
  0
CLASS
  1
LWPOLYLINE
  2
AcDbPolyline
  3
"AutoCAD"
 90
        0
280
     0
281
     1
  0
CLASS
  1
HATCH
  2
AcDbHatch
  3
"ACAD_SEDONA"
 90
        0
280
     0
281
     1
  0
CLASS
  1
ACDBPLACEHOLDER
  2
AcDbPlaceHolder
  3
ObjectDBX Classes
 90
        0
280
     0
281
     0
  0
CLASS
  1
LAYOUT
  2
AcDbLayout
  3
ObjectDBX Classes
 90
        0
280
     0
281
     0
  0
ENDSEC
  0
SECTION
  2
TABLES
  0
TABLE
  2
VPORT
  5
8
100
AcDbSymbolTable
 70
     4
  0
VPORT
  5
2EE
100
AcDbSymbolTableRecord
100
AcDbViewportTableRecord
  2
*ACTIVE
 70
     0
 10
0.0
 20
0.0
 11
1.0
 21
1.0
 12
311.407929
 22
231.244973
 13
0.0
 23
0.0
 14
10.0
 24
10.0
 15
10.0
 25
10.0
 16
0.0
 26
0.0
 36
1.0
 17
0.0
 27
0.0
 37
0.0
 40
465.874018
 41
1.440781
 42
50.0
 43
0.0
 44
0.0
 50
0.0
 51
0.0
 71
     0
 72
  2000
 73
     1
 74
     3
 75
     0
 76
     0
 77
     0
 78
     0
  0
ENDTAB
  0
TABLE
  2
LTYPE
  5
5
100
AcDbSymbolTable
 70
     6
  0
LTYPE
  5
14
102
{ACAD_XDICTIONARY
360
2CF
102
}
100
AcDbSymbolTableRecord
100
AcDbLinetypeTableRecord
  2
BYBLOCK
 70
     0
  3

 72
    65
 73
     0
 40
0.0
  0
LTYPE
  5
15
102
{ACAD_XDICTIONARY
360
2D1
102
}
100
AcDbSymbolTableRecord
100
AcDbLinetypeTableRecord
  2
BYLAYER
 70
     0
  3

 72
    65
 73
     0
 40
0.0
  0
LTYPE
  5
16
102
{ACAD_XDICTIONARY
360
2D3
102
}
100
AcDbSymbolTableRecord
100
AcDbLinetypeTableRecord
  2
CONTINUOUS
 70
     0
  3
Solid line
 72
    65
 73
     0
 40
0.0
  0
LTYPE
  5
2A
100
AcDbSymbolTableRecord
100
AcDbLinetypeTableRecord
  2
HIDDEN
 70
     0
  3
Hidden __ __ __ __ __ __ __ __ __ __ __ __ __ __
 72
    65
 73
     2
 40
1.905
 49
1.27
 74
     0
 49
-0.635
 74
     0
  0
LTYPE
  5
2B
100
AcDbSymbolTableRecord
100
AcDbLinetypeTableRecord
  2
PHANTOM
 70
     0
  3
Phantom ______  __  __  ______  __  __  ______
 72
    65
 73
     6
 40
12.7
 49
6.35
 74
     0
 49
-1.27
 74
     0
 49
1.27
 74
     0
 49
-1.27
 74
     0
 49
1.27
 74
     0
 49
-1.27
 74
     0
  0
LTYPE
  5
2C
100
AcDbSymbolTableRecord
100
AcDbLinetypeTableRecord
  2
CENTER
 70
     0
  3
Center ____ _ ____ _ ____ _ ____ _ ____ _ ____
 72
    65
 73
     4
 40
10.16
 49
6.35
 74
     0
 49
-1.27
 74
     0
 49
1.27
 74
     0
 49
-1.27
 74
     0
  0
LTYPE
  5
2D
100
AcDbSymbolTableRecord
100
AcDbLinetypeTableRecord
  2
CENTERX2
 70
     0
  3
Center (2x) ________  __  ________  __  _____
 72
    65
 73
     4
 40
20.32
 49
12.7
 74
     0
 49
-2.54
 74
     0
 49
2.54
 74
     0
 49
-2.54
 74
     0
  0
LTYPE
  5
2E
100
AcDbSymbolTableRecord
100
AcDbLinetypeTableRecord
  2
DOT2
 70
     0
  3
Dot (.5x) ........................................
 72
    65
 73
     2
 40
0.635
 49
0.0
 74
     0
 49
-0.635
 74
     0
  0
ENDTAB
  0
TABLE
  2
LAYER
  5
2
100
AcDbSymbolTable
 70
     2
  0
LAYER
  5
10
100
AcDbSymbolTableRecord
100
AcDbLayerTableRecord
  2
0
 70
     0
 62
     7
  6
CONTINUOUS
  0
LAYER
  5
2E6
100
AcDbSymbolTableRecord
100
AcDbLayerTableRecord
  2
DEFPOINTS
 70
     0
 62
     7
  6
CONTINUOUS
  0
ENDTAB
  0
TABLE
  2
STYLE
  5
3
100
AcDbSymbolTable
 70
     1
  0
STYLE
  5
11
102
{ACAD_XDICTIONARY
360
2CD
102
}
100
AcDbSymbolTableRecord
100
AcDbTextStyleTableRecord
  2
STANDARD
 70
     0
 40
0.0
 41
1.0
 50
0.0
 71
     0
 42
10.0
  3
txt
  4

  0
ENDTAB
  0
TABLE
  2
VIEW
  5
6
100
AcDbSymbolTable
 70
     0
  0
ENDTAB
  0
TABLE
  2
UCS
  5
7
100
AcDbSymbolTable
 70
     0
  0
ENDTAB
  0
TABLE
  2
APPID
  5
9
100
AcDbSymbolTable
 70
     1
  0
APPID
  5
12
100
AcDbSymbolTableRecord
100
AcDbRegAppTableRecord
  2
ACAD
 70
     0
  0
ENDTAB
  0
TABLE
  2
DIMSTYLE
  5
A
100
AcDbSymbolTable
 70
     1
  0
DIMSTYLE
105
27
102
{ACAD_XDICTIONARY
360
2D7
102
}
100
AcDbSymbolTableRecord
100
AcDbDimStyleTableRecord
  2
ISO-25
 70
     0
  3

  4

  5

  6

  7

 40
1.0
 41
2.5
 42
0.625
 43
3.75
 44
1.25
 45
0.0
 46
0.0
 47
0.0
 48
0.0
140
2.5
141
2.5
142
0.0
143
0.03937
144
1.0
145
0.0
146
1.0
147
0.625
 71
     0
 72
     0
 73
     0
 74
     0
 75
     0
 76
     0
 77
     1
 78
     8
170
     0
171
     3
172
     1
173
     0
174
     0
175
     0
176
     0
177
     0
178
     0
270
     2
271
     2
272
     2
273
     2
274
     3
340
11
275
     0
280
     0
281
     0
282
     0
283
     0
284
     8
285
     0
286
     0
287
     3
288
     0
  0
ENDTAB
  0
TABLE
  2
BLOCK_RECORD
  5
1
100
AcDbSymbolTable
 70
    18
  0
BLOCK_RECORD
  5
1F
102
{ACAD_XDICTIONARY
360
2C4
102
}
100
AcDbSymbolTableRecord
100
AcDbBlockTableRecord
  2
*MODEL_SPACE
  0
BLOCK_RECORD
  5
1B
102
{ACAD_XDICTIONARY
360
2C2
102
}
100
AcDbSymbolTableRecord
100
AcDbBlockTableRecord
  2
*PAPER_SPACE
  0
BLOCK_RECORD
  5
23
102
{ACAD_XDICTIONARY
360
2C6
102
}
100
AcDbSymbolTableRecord
100
AcDbBlockTableRecord
  2
*PAPER_SPACE0
  0
BLOCK_RECORD
  5
DD
100
AcDbSymbolTableRecord
100
AcDbBlockTableRecord
  2
SW_CENTERMARKSYMBOL_0
  0
BLOCK_RECORD
  5
E5
100
AcDbSymbolTableRecord
100
AcDbBlockTableRecord
  2
SW_CENTERMARKSYMBOL_1
  0
BLOCK_RECORD
  5
ED
100
AcDbSymbolTableRecord
100
AcDbBlockTableRecord
  2
SW_CENTERMARKSYMBOL_2
  0
BLOCK_RECORD
  5
F5
100
AcDbSymbolTableRecord
100
AcDbBlockTableRecord
  2
SW_CENTERMARKSYMBOL_3
  0
BLOCK_RECORD
  5
151
100
AcDbSymbolTableRecord
100
AcDbBlockTableRecord
  2
SW_CENTERMARKSYMBOL_4
  0
BLOCK_RECORD
  5
15D
100
AcDbSymbolTableRecord
100
AcDbBlockTableRecord
  2
SW_CENTERMARKSYMBOL_5
  0
BLOCK_RECORD
  5
169
100
AcDbSymbolTableRecord
100
AcDbBlockTableRecord
  2
SW_CENTERMARKSYMBOL_6
  0
BLOCK_RECORD
  5
175
100
AcDbSymbolTableRecord
100
AcDbBlockTableRecord
  2
SW_CENTERMARKSYMBOL_7
  0
BLOCK_RECORD
  5
1A7
100
AcDbSymbolTableRecord
100
AcDbBlockTableRecord
  2
SW_CENTERMARKSYMBOL_8
  0
BLOCK_RECORD
  5
1AF
100
AcDbSymbolTableRecord
100
AcDbBlockTableRecord
  2
SW_CENTERMARKSYMBOL_9
  0
BLOCK_RECORD
  5
1B7
100
AcDbSymbolTableRecord
100
AcDbBlockTableRecord
  2
SW_CENTERMARKSYMBOL_10
  0
BLOCK_RECORD
  5
1BF
100
AcDbSymbolTableRecord
100
AcDbBlockTableRecord
  2
SW_CENTERMARKSYMBOL_11
  0
BLOCK_RECORD
  5
1ED
100
AcDbSymbolTableRecord
100
AcDbBlockTableRecord
  2
SW_CENTERMARKSYMBOL_12
  0
BLOCK_RECORD
  5
1F5
100
AcDbSymbolTableRecord
100
AcDbBlockTableRecord
  2
SW_CENTERMARKSYMBOL_13
  0
BLOCK_RECORD
  5
1FD
100
AcDbSymbolTableRecord
100
AcDbBlockTableRecord
  2
SW_CENTERMARKSYMBOL_14
  0
BLOCK_RECORD
  5
205
100
AcDbSymbolTableRecord
100
AcDbBlockTableRecord
  2
SW_CENTERMARKSYMBOL_15
  0
BLOCK_RECORD
  5
2DD
100
AcDbSymbolTableRecord
100
AcDbBlockTableRecord
  2
*D17
  0
ENDTAB
  0
ENDSEC
  0
SECTION
  2
BLOCKS
  0
BLOCK
  5
20
100
AcDbEntity
  8
0
100
AcDbBlockBegin
  2
*MODEL_SPACE
 70
     0
 10
0.0
 20
0.0
 30
0.0
  3
*MODEL_SPACE
  1

  0
ENDBLK
  5
21
100
AcDbEntity
  8
0
100
AcDbBlockEnd
  0
BLOCK
  5
1C
100
AcDbEntity
 67
     1
  8
0
100
AcDbBlockBegin
  2
*PAPER_SPACE
 70
     0
 10
0.0
 20
0.0
 30
0.0
  3
*PAPER_SPACE
  1

  0
ENDBLK
  5
1D
100
AcDbEntity
 67
     1
  8
0
100
AcDbBlockEnd
  0
BLOCK
  5
24
100
AcDbEntity
  8
0
100
AcDbBlockBegin
  2
*PAPER_SPACE0
 70
     0
 10
0.0
 20
0.0
 30
0.0
  3
*PAPER_SPACE0
  1

  0
ENDBLK
  5
25
100
AcDbEntity
  8
0
100
AcDbBlockEnd
  0
BLOCK
  5
DE
100
AcDbEntity
  8
0
100
AcDbBlockBegin
  2
SW_CENTERMARKSYMBOL_0
 70
     0
 10
0.0
 20
0.0
 30
0.0
  3
SW_CENTERMARKSYMBOL_0
  1

  0
LINE
  5
E0
100
AcDbEntity
  8
0
  6
CONTINUOUS
 62
     7
100
AcDbLine
 10
0.0
 20
0.0
 30
0.0
 11
0.0
 21
1.25
 31
0.0
  0
LINE
  5
E1
100
AcDbEntity
  8
0
  6
CONTINUOUS
 62
     7
100
AcDbLine
 10
0.0
 20
0.0
 30
0.0
 11
-1.25
 21
0.0
 31
0.0
  0
LINE
  5
E2
100
AcDbEntity
  8
0
  6
CONTINUOUS
 62
     7
100
AcDbLine
 10
0.0
 20
0.0
 30
0.0
 11
0.0
 21
-1.25
 31
0.0
  0
LINE
  5
E3
100
AcDbEntity
  8
0
  6
CONTINUOUS
 62
     7
100
AcDbLine
 10
0.0
 20
0.0
 30
0.0
 11
1.25
 21
0.0
 31
0.0
  0
ENDBLK
  5
DF
100
AcDbEntity
  8
0
100
AcDbBlockEnd
  0
BLOCK
  5
E6
100
AcDbEntity
  8
0
100
AcDbBlockBegin
  2
SW_CENTERMARKSYMBOL_1
 70
     0
 10
0.0
 20
0.0
 30
0.0
  3
SW_CENTERMARKSYMBOL_1
  1

  0
LINE
  5
E8
100
AcDbEntity
  8
0
  6
CONTINUOUS
 62
     7
100
AcDbLine
 10
0.0
 20
0.0
 30
0.0
 11
0.0
 21
1.25
 31
0.0
  0
LINE
  5
E9
100
AcDbEntity
  8
0
  6
CONTINUOUS
 62
     7
100
AcDbLine
 10
0.0
 20
0.0
 30
0.0
 11
-1.25
 21
0.0
 31
0.0
  0
LINE
  5
EA
100
AcDbEntity
  8
0
  6
CONTINUOUS
 62
     7
100
AcDbLine
 10
0.0
 20
0.0
 30
0.0
 11
0.0
 21
-1.25
 31
0.0
  0
LINE
  5
EB
100
AcDbEntity
  8
0
  6
CONTINUOUS
 62
     7
100
AcDbLine
 10
0.0
 20
0.0
 30
0.0
 11
1.25
 21
0.0
 31
0.0
  0
ENDBLK
  5
E7
100
AcDbEntity
  8
0
100
AcDbBlockEnd
  0
BLOCK
  5
EE
100
AcDbEntity
  8
0
100
AcDbBlockBegin
  2
SW_CENTERMARKSYMBOL_2
 70
     0
 10
0.0
 20
0.0
 30
0.0
  3
SW_CENTERMARKSYMBOL_2
  1

  0
LINE
  5
F0
100
AcDbEntity
  8
0
  6
CONTINUOUS
 62
     7
100
AcDbLine
 10
0.0
 20
0.0
 30
0.0
 11
0.0
 21
1.25
 31
0.0
  0
LINE
  5
F1
100
AcDbEntity
  8
0
  6
CONTINUOUS
 62
     7
100
AcDbLine
 10
0.0
 20
0.0
 30
0.0
 11
-1.25
 21
0.0
 31
0.0
  0
LINE
  5
F2
100
AcDbEntity
  8
0
  6
CONTINUOUS
 62
     7
100
AcDbLine
 10
0.0
 20
0.0
 30
0.0
 11
0.0
 21
-1.25
 31
0.0
  0
LINE
  5
F3
100
AcDbEntity
  8
0
  6
CONTINUOUS
 62
     7
100
AcDbLine
 10
0.0
 20
0.0
 30
0.0
 11
1.25
 21
0.0
 31
0.0
  0
ENDBLK
  5
EF
100
AcDbEntity
  8
0
100
AcDbBlockEnd
  0
BLOCK
  5
F6
100
AcDbEntity
  8
0
100
AcDbBlockBegin
  2
SW_CENTERMARKSYMBOL_3
 70
     0
 10
0.0
 20
0.0
 30
0.0
  3
SW_CENTERMARKSYMBOL_3
  1

  0
LINE
  5
F8
100
AcDbEntity
  8
0
  6
CONTINUOUS
 62
     7
100
AcDbLine
 10
0.0
 20
0.0
 30
0.0
 11
0.0
 21
1.25
 31
0.0
  0
LINE
  5
F9
100
AcDbEntity
  8
0
  6
CONTINUOUS
 62
     7
100
AcDbLine
 10
0.0
 20
0.0
 30
0.0
 11
-1.25
 21
0.0
 31
0.0
  0
LINE
  5
FA
100
AcDbEntity
  8
0
  6
CONTINUOUS
 62
     7
100
AcDbLine
 10
0.0
 20
0.0
 30
0.0
 11
0.0
 21
-1.25
 31
0.0
  0
LINE
  5
FB
100
AcDbEntity
  8
0
  6
CONTINUOUS
 62
     7
100
AcDbLine
 10
0.0
 20
0.0
 30
0.0
 11
1.25
 21
0.0
 31
0.0
  0
ENDBLK
  5
F7
100
AcDbEntity
  8
0
100
AcDbBlockEnd
  0
BLOCK
  5
152
100
AcDbEntity
  8
0
100
AcDbBlockBegin
  2
SW_CENTERMARKSYMBOL_4
 70
     0
 10
0.0
 20
0.0
 30
0.0
  3
SW_CENTERMARKSYMBOL_4
  1

  0
LINE
  5
154
100
AcDbEntity
  8
0
  6
CONTINUOUS
 62
     7
100
AcDbLine
 10
0.0
 20
0.0
 30
0.0
 11
0.0
 21
1.25
 31
0.0
  0
LINE
  5
155
100
AcDbEntity
  8
0
  6
CONTINUOUS
 62
     7
100
AcDbLine
 10
0.0
 20
0.0
 30
0.0
 11
-1.25
 21
0.0
 31
0.0
  0
LINE
  5
156
100
AcDbEntity
  8
0
  6
CONTINUOUS
 62
     7
100
AcDbLine
 10
0.0
 20
0.0
 30
0.0
 11
0.0
 21
-1.25
 31
0.0
  0
LINE
  5
157
100
AcDbEntity
  8
0
  6
CONTINUOUS
 62
     7
100
AcDbLine
 10
0.0
 20
0.0
 30
0.0
 11
1.25
 21
0.0
 31
0.0
  0
LINE
  5
158
100
AcDbEntity
  8
0
  6
CONTINUOUS
 62
     7
100
AcDbLine
 10
0.0
 20
2.5
 30
0.0
 11
0.0
 21
4.498702
 31
0.0
  0
LINE
  5
159
100
AcDbEntity
  8
0
  6
CONTINUOUS
 62
     7
100
AcDbLine
 10
-2.5
 20
0.0
 30
0.0
 11
-4.498702
 21
0.0
 31
0.0
  0
LINE
  5
15A
100
AcDbEntity
  8
0
  6
CONTINUOUS
 62
     7
100
AcDbLine
 10
0.0
 20
-2.5
 30
0.0
 11
0.0
 21
-4.498702
 31
0.0
  0
LINE
  5
15B
100
AcDbEntity
  8
0
  6
CONTINUOUS
 62
     7
100
AcDbLine
 10
2.5
 20
0.0
 30
0.0
 11
4.498702
 21
0.0
 31
0.0
  0
ENDBLK
  5
153
100
AcDbEntity
  8
0
100
AcDbBlockEnd
  0
BLOCK
  5
15E
100
AcDbEntity
  8
0
100
AcDbBlockBegin
  2
SW_CENTERMARKSYMBOL_5
 70
     0
 10
0.0
 20
0.0
 30
0.0
  3
SW_CENTERMARKSYMBOL_5
  1

  0
LINE
  5
160
100
AcDbEntity
  8
0
  6
CONTINUOUS
 62
     7
100
AcDbLine
 10
0.0
 20
0.0
 30
0.0
 11
0.0
 21
1.25
 31
0.0
  0
LINE
  5
161
100
AcDbEntity
  8
0
  6
CONTINUOUS
 62
     7
100
AcDbLine
 10
0.0
 20
0.0
 30
0.0
 11
-1.25
 21
0.0
 31
0.0
  0
LINE
  5
162
100
AcDbEntity
  8
0
  6
CONTINUOUS
 62
     7
100
AcDbLine
 10
0.0
 20
0.0
 30
0.0
 11
0.0
 21
-1.25
 31
0.0
  0
LINE
  5
163
100
AcDbEntity
  8
0
  6
CONTINUOUS
 62
     7
100
AcDbLine
 10
0.0
 20
0.0
 30
0.0
 11
1.25
 21
0.0
 31
0.0
  0
LINE
  5
164
100
AcDbEntity
  8
0
  6
CONTINUOUS
 62
     7
100
AcDbLine
 10
0.0
 20
2.5
 30
0.0
 11
0.0
 21
4.498702
 31
0.0
  0
LINE
  5
165
100
AcDbEntity
  8
0
  6
CONTINUOUS
 62
     7
100
AcDbLine
 10
-2.5
 20
0.0
 30
0.0
 11
-4.498702
 21
0.0
 31
0.0
  0
LINE
  5
166
100
AcDbEntity
  8
0
  6
CONTINUOUS
 62
     7
100
AcDbLine
 10
0.0
 20
-2.5
 30
0.0
 11
0.0
 21
-4.498702
 31
0.0
  0
LINE
  5
167
100
AcDbEntity
  8
0
  6
CONTINUOUS
 62
     7
100
AcDbLine
 10
2.5
 20
0.0
 30
0.0
 11
4.498702
 21
0.0
 31
0.0
  0
ENDBLK
  5
15F
100
AcDbEntity
  8
0
100
AcDbBlockEnd
  0
BLOCK
  5
16A
100
AcDbEntity
  8
0
100
AcDbBlockBegin
  2
SW_CENTERMARKSYMBOL_6
 70
     0
 10
0.0
 20
0.0
 30
0.0
  3
SW_CENTERMARKSYMBOL_6
  1

  0
LINE
  5
16C
100
AcDbEntity
  8
0
  6
CONTINUOUS
 62
     7
100
AcDbLine
 10
0.0
 20
0.0
 30
0.0
 11
0.0
 21
1.25
 31
0.0
  0
LINE
  5
16D
100
AcDbEntity
  8
0
  6
CONTINUOUS
 62
     7
100
AcDbLine
 10
0.0
 20
0.0
 30
0.0
 11
-1.25
 21
0.0
 31
0.0
  0
LINE
  5
16E
100
AcDbEntity
  8
0
  6
CONTINUOUS
 62
     7
100
AcDbLine
 10
0.0
 20
0.0
 30
0.0
 11
0.0
 21
-1.25
 31
0.0
  0
LINE
  5
16F
100
AcDbEntity
  8
0
  6
CONTINUOUS
 62
     7
100
AcDbLine
 10
0.0
 20
0.0
 30
0.0
 11
1.25
 21
0.0
 31
0.0
  0
LINE
  5
170
100
AcDbEntity
  8
0
  6
CONTINUOUS
 62
     7
100
AcDbLine
 10
0.0
 20
2.5
 30
0.0
 11
0.0
 21
4.498702
 31
0.0
  0
LINE
  5
171
100
AcDbEntity
  8
0
  6
CONTINUOUS
 62
     7
100
AcDbLine
 10
-2.5
 20
0.0
 30
0.0
 11
-4.498702
 21
0.0
 31
0.0
  0
LINE
  5
172
100
AcDbEntity
  8
0
  6
CONTINUOUS
 62
     7
100
AcDbLine
 10
0.0
 20
-2.5
 30
0.0
 11
0.0
 21
-4.498702
 31
0.0
  0
LINE
  5
173
100
AcDbEntity
  8
0
  6
CONTINUOUS
 62
     7
100
AcDbLine
 10
2.5
 20
0.0
 30
0.0
 11
4.498702
 21
0.0
 31
0.0
  0
ENDBLK
  5
16B
100
AcDbEntity
  8
0
100
AcDbBlockEnd
  0
BLOCK
  5
176
100
AcDbEntity
  8
0
100
AcDbBlockBegin
  2
SW_CENTERMARKSYMBOL_7
 70
     0
 10
0.0
 20
0.0
 30
0.0
  3
SW_CENTERMARKSYMBOL_7
  1

  0
LINE
  5
178
100
AcDbEntity
  8
0
  6
CONTINUOUS
 62
     7
100
AcDbLine
 10
0.0
 20
0.0
 30
0.0
 11
0.0
 21
1.25
 31
0.0
  0
LINE
  5
179
100
AcDbEntity
  8
0
  6
CONTINUOUS
 62
     7
100
AcDbLine
 10
0.0
 20
0.0
 30
0.0
 11
-1.25
 21
0.0
 31
0.0
  0
LINE
  5
17A
100
AcDbEntity
  8
0
  6
CONTINUOUS
 62
     7
100
AcDbLine
 10
0.0
 20
0.0
 30
0.0
 11
0.0
 21
-1.25
 31
0.0
  0
LINE
  5
17B
100
AcDbEntity
  8
0
  6
CONTINUOUS
 62
     7
100
AcDbLine
 10
0.0
 20
0.0
 30
0.0
 11
1.25
 21
0.0
 31
0.0
  0
LINE
  5
17C
100
AcDbEntity
  8
0
  6
CONTINUOUS
 62
     7
100
AcDbLine
 10
0.0
 20
2.5
 30
0.0
 11
0.0
 21
4.498702
 31
0.0
  0
LINE
  5
17D
100
AcDbEntity
  8
0
  6
CONTINUOUS
 62
     7
100
AcDbLine
 10
-2.5
 20
0.0
 30
0.0
 11
-4.498702
 21
0.0
 31
0.0
  0
LINE
  5
17E
100
AcDbEntity
  8
0
  6
CONTINUOUS
 62
     7
100
AcDbLine
 10
0.0
 20
-2.5
 30
0.0
 11
0.0
 21
-4.498702
 31
0.0
  0
LINE
  5
17F
100
AcDbEntity
  8
0
  6
CONTINUOUS
 62
     7
100
AcDbLine
 10
2.5
 20
0.0
 30
0.0
 11
4.498702
 21
0.0
 31
0.0
  0
ENDBLK
  5
177
100
AcDbEntity
  8
0
100
AcDbBlockEnd
  0
BLOCK
  5
1A8
100
AcDbEntity
  8
0
100
AcDbBlockBegin
  2
SW_CENTERMARKSYMBOL_8
 70
     0
 10
0.0
 20
0.0
 30
0.0
  3
SW_CENTERMARKSYMBOL_8
  1

  0
LINE
  5
1AA
100
AcDbEntity
  8
0
  6
CONTINUOUS
 62
     7
100
AcDbLine
 10
0.0
 20
0.0
 30
0.0
 11
0.0
 21
1.25
 31
0.0
  0
LINE
  5
1AB
100
AcDbEntity
  8
0
  6
CONTINUOUS
 62
     7
100
AcDbLine
 10
0.0
 20
0.0
 30
0.0
 11
-1.25
 21
0.0
 31
0.0
  0
LINE
  5
1AC
100
AcDbEntity
  8
0
  6
CONTINUOUS
 62
     7
100
AcDbLine
 10
0.0
 20
0.0
 30
0.0
 11
0.0
 21
-1.25
 31
0.0
  0
LINE
  5
1AD
100
AcDbEntity
  8
0
  6
CONTINUOUS
 62
     7
100
AcDbLine
 10
0.0
 20
0.0
 30
0.0
 11
1.25
 21
0.0
 31
0.0
  0
ENDBLK
  5
1A9
100
AcDbEntity
  8
0
100
AcDbBlockEnd
  0
BLOCK
  5
1B0
100
AcDbEntity
  8
0
100
AcDbBlockBegin
  2
SW_CENTERMARKSYMBOL_9
 70
     0
 10
0.0
 20
0.0
 30
0.0
  3
SW_CENTERMARKSYMBOL_9
  1

  0
LINE
  5
1B2
100
AcDbEntity
  8
0
  6
CONTINUOUS
 62
     7
100
AcDbLine
 10
0.0
 20
0.0
 30
0.0
 11
0.0
 21
1.25
 31
0.0
  0
LINE
  5
1B3
100
AcDbEntity
  8
0
  6
CONTINUOUS
 62
     7
100
AcDbLine
 10
0.0
 20
0.0
 30
0.0
 11
-1.25
 21
0.0
 31
0.0
  0
LINE
  5
1B4
100
AcDbEntity
  8
0
  6
CONTINUOUS
 62
     7
100
AcDbLine
 10
0.0
 20
0.0
 30
0.0
 11
0.0
 21
-1.25
 31
0.0
  0
LINE
  5
1B5
100
AcDbEntity
  8
0
  6
CONTINUOUS
 62
     7
100
AcDbLine
 10
0.0
 20
0.0
 30
0.0
 11
1.25
 21
0.0
 31
0.0
  0
ENDBLK
  5
1B1
100
AcDbEntity
  8
0
100
AcDbBlockEnd
  0
BLOCK
  5
1B8
100
AcDbEntity
  8
0
100
AcDbBlockBegin
  2
SW_CENTERMARKSYMBOL_10
 70
     0
 10
0.0
 20
0.0
 30
0.0
  3
SW_CENTERMARKSYMBOL_10
  1

  0
LINE
  5
1BA
100
AcDbEntity
  8
0
  6
CONTINUOUS
 62
     7
100
AcDbLine
 10
0.0
 20
0.0
 30
0.0
 11
0.0
 21
1.25
 31
0.0
  0
LINE
  5
1BB
100
AcDbEntity
  8
0
  6
CONTINUOUS
 62
     7
100
AcDbLine
 10
0.0
 20
0.0
 30
0.0
 11
-1.25
 21
0.0
 31
0.0
  0
LINE
  5
1BC
100
AcDbEntity
  8
0
  6
CONTINUOUS
 62
     7
100
AcDbLine
 10
0.0
 20
0.0
 30
0.0
 11
0.0
 21
-1.25
 31
0.0
  0
LINE
  5
1BD
100
AcDbEntity
  8
0
  6
CONTINUOUS
 62
     7
100
AcDbLine
 10
0.0
 20
0.0
 30
0.0
 11
1.25
 21
0.0
 31
0.0
  0
ENDBLK
  5
1B9
100
AcDbEntity
  8
0
100
AcDbBlockEnd
  0
BLOCK
  5
1C0
100
AcDbEntity
  8
0
100
AcDbBlockBegin
  2
SW_CENTERMARKSYMBOL_11
 70
     0
 10
0.0
 20
0.0
 30
0.0
  3
SW_CENTERMARKSYMBOL_11
  1

  0
LINE
  5
1C2
100
AcDbEntity
  8
0
  6
CONTINUOUS
 62
     7
100
AcDbLine
 10
0.0
 20
0.0
 30
0.0
 11
0.0
 21
1.25
 31
0.0
  0
LINE
  5
1C3
100
AcDbEntity
  8
0
  6
CONTINUOUS
 62
     7
100
AcDbLine
 10
0.0
 20
0.0
 30
0.0
 11
-1.25
 21
0.0
 31
0.0
  0
LINE
  5
1C4
100
AcDbEntity
  8
0
  6
CONTINUOUS
 62
     7
100
AcDbLine
 10
0.0
 20
0.0
 30
0.0
 11
0.0
 21
-1.25
 31
0.0
  0
LINE
  5
1C5
100
AcDbEntity
  8
0
  6
CONTINUOUS
 62
     7
100
AcDbLine
 10
0.0
 20
0.0
 30
0.0
 11
1.25
 21
0.0
 31
0.0
  0
ENDBLK
  5
1C1
100
AcDbEntity
  8
0
100
AcDbBlockEnd
  0
BLOCK
  5
1EE
100
AcDbEntity
  8
0
100
AcDbBlockBegin
  2
SW_CENTERMARKSYMBOL_12
 70
     0
 10
0.0
 20
0.0
 30
0.0
  3
SW_CENTERMARKSYMBOL_12
  1

  0
LINE
  5
1F0
100
AcDbEntity
  8
0
  6
CONTINUOUS
 62
     7
100
AcDbLine
 10
0.0
 20
0.0
 30
0.0
 11
0.0
 21
1.25
 31
0.0
  0
LINE
  5
1F1
100
AcDbEntity
  8
0
  6
CONTINUOUS
 62
     7
100
AcDbLine
 10
0.0
 20
0.0
 30
0.0
 11
-1.25
 21
0.0
 31
0.0
  0
LINE
  5
1F2
100
AcDbEntity
  8
0
  6
CONTINUOUS
 62
     7
100
AcDbLine
 10
0.0
 20
0.0
 30
0.0
 11
0.0
 21
-1.25
 31
0.0
  0
LINE
  5
1F3
100
AcDbEntity
  8
0
  6
CONTINUOUS
 62
     7
100
AcDbLine
 10
0.0
 20
0.0
 30
0.0
 11
1.25
 21
0.0
 31
0.0
  0
ENDBLK
  5
1EF
100
AcDbEntity
  8
0
100
AcDbBlockEnd
  0
BLOCK
  5
1F6
100
AcDbEntity
  8
0
100
AcDbBlockBegin
  2
SW_CENTERMARKSYMBOL_13
 70
     0
 10
0.0
 20
0.0
 30
0.0
  3
SW_CENTERMARKSYMBOL_13
  1

  0
LINE
  5
1F8
100
AcDbEntity
  8
0
  6
CONTINUOUS
 62
     7
100
AcDbLine
 10
0.0
 20
0.0
 30
0.0
 11
0.0
 21
1.25
 31
0.0
  0
LINE
  5
1F9
100
AcDbEntity
  8
0
  6
CONTINUOUS
 62
     7
100
AcDbLine
 10
0.0
 20
0.0
 30
0.0
 11
-1.25
 21
0.0
 31
0.0
  0
LINE
  5
1FA
100
AcDbEntity
  8
0
  6
CONTINUOUS
 62
     7
100
AcDbLine
 10
0.0
 20
0.0
 30
0.0
 11
0.0
 21
-1.25
 31
0.0
  0
LINE
  5
1FB
100
AcDbEntity
  8
0
  6
CONTINUOUS
 62
     7
100
AcDbLine
 10
0.0
 20
0.0
 30
0.0
 11
1.25
 21
0.0
 31
0.0
  0
ENDBLK
  5
1F7
100
AcDbEntity
  8
0
100
AcDbBlockEnd
  0
BLOCK
  5
1FE
100
AcDbEntity
  8
0
100
AcDbBlockBegin
  2
SW_CENTERMARKSYMBOL_14
 70
     0
 10
0.0
 20
0.0
 30
0.0
  3
SW_CENTERMARKSYMBOL_14
  1

  0
LINE
  5
200
100
AcDbEntity
  8
0
  6
CONTINUOUS
 62
     7
100
AcDbLine
 10
0.0
 20
0.0
 30
0.0
 11
0.0
 21
1.25
 31
0.0
  0
LINE
  5
201
100
AcDbEntity
  8
0
  6
CONTINUOUS
 62
     7
100
AcDbLine
 10
0.0
 20
0.0
 30
0.0
 11
-1.25
 21
0.0
 31
0.0
  0
LINE
  5
202
100
AcDbEntity
  8
0
  6
CONTINUOUS
 62
     7
100
AcDbLine
 10
0.0
 20
0.0
 30
0.0
 11
0.0
 21
-1.25
 31
0.0
  0
LINE
  5
203
100
AcDbEntity
  8
0
  6
CONTINUOUS
 62
     7
100
AcDbLine
 10
0.0
 20
0.0
 30
0.0
 11
1.25
 21
0.0
 31
0.0
  0
ENDBLK
  5
1FF
100
AcDbEntity
  8
0
100
AcDbBlockEnd
  0
BLOCK
  5
206
100
AcDbEntity
  8
0
100
AcDbBlockBegin
  2
SW_CENTERMARKSYMBOL_15
 70
     0
 10
0.0
 20
0.0
 30
0.0
  3
SW_CENTERMARKSYMBOL_15
  1

  0
LINE
  5
208
100
AcDbEntity
  8
0
  6
CONTINUOUS
 62
     7
100
AcDbLine
 10
0.0
 20
0.0
 30
0.0
 11
0.0
 21
1.25
 31
0.0
  0
LINE
  5
209
100
AcDbEntity
  8
0
  6
CONTINUOUS
 62
     7
100
AcDbLine
 10
0.0
 20
0.0
 30
0.0
 11
-1.25
 21
0.0
 31
0.0
  0
LINE
  5
20A
100
AcDbEntity
  8
0
  6
CONTINUOUS
 62
     7
100
AcDbLine
 10
0.0
 20
0.0
 30
0.0
 11
0.0
 21
-1.25
 31
0.0
  0
LINE
  5
20B
100
AcDbEntity
  8
0
  6
CONTINUOUS
 62
     7
100
AcDbLine
 10
0.0
 20
0.0
 30
0.0
 11
1.25
 21
0.0
 31
0.0
  0
ENDBLK
  5
207
100
AcDbEntity
  8
0
100
AcDbBlockEnd
  0
BLOCK
  5
2DE
100
AcDbEntity
  8
0
100
AcDbBlockBegin
  2
*D17
 70
     1
 10
0.0
 20
0.0
 30
0.0
  3
*D17
  1

  0
LINE
  5
2DF
100
AcDbEntity
  8
0
  6
BYBLOCK
 62
     0
100
AcDbLine
 10
23.214053
 20
129.948466
 30
0.0
 11
-2.753523
 21
129.948466
 31
0.0
  0
LINE
  5
2E0
100
AcDbEntity
  8
0
  6
BYBLOCK
 62
     0
100
AcDbLine
 10
23.214053
 20
369.843651
 30
0.0
 11
-2.753523
 21
369.843651
 31
0.0
  0
LINE
  5
2E1
100
AcDbEntity
  8
0
  6
BYBLOCK
 62
     0
100
AcDbLine
 10
-1.753523
 20
135.948466
 30
0.0
 11
-1.753523
 21
246.622059
 31
0.0
  0
LINE
  5
2E2
100
AcDbEntity
  8
0
  6
BYBLOCK
 62
     0
100
AcDbLine
 10
-1.753523
 20
363.843651
 30
0.0
 11
-1.753523
 21
253.170059
 31
0.0
  0
SOLID
  5
2E3
100
AcDbEntity
  8
0
  6
BYBLOCK
 62
     0
100
AcDbTrace
 10
-2.753523
 20
135.948466
 30
0.0
 11
-0.753523
 21
135.948466
 31
0.0
 12
-1.753523
 22
129.948466
 32
0.0
 13
-1.753523
 23
129.948466
 33
0.0
  0
SOLID
  5
2E4
100
AcDbEntity
  8
0
  6
BYBLOCK
 62
     0
100
AcDbTrace
 10
-2.753523
 20
363.843651
 30
0.0
 11
-0.753523
 21
363.843651
 31
0.0
 12
-1.753523
 22
369.843651
 32
0.0
 13
-1.753523
 23
369.843651
 33
0.0
  0
MTEXT
  5
2E5
100
AcDbEntity
  8
0
  6
BYBLOCK
 62
     0
100
AcDbMText
 10
-1.753523
 20
249.896059
 30
0.0
 40
3.5
 41
0.0
 71
     5
 72
     1
  1
239.90
  0
POINT
  5
2E7
100
AcDbEntity
  8
DEFPOINTS
  6
BYBLOCK
 62
     0
100
AcDbPoint
 10
24.214053
 20
129.948466
 30
0.0
  0
POINT
  5
2E8
100
AcDbEntity
  8
DEFPOINTS
  6
BYBLOCK
 62
     0
100
AcDbPoint
 10
24.214053
 20
369.843651
 30
0.0
  0
POINT
  5
2E9
100
AcDbEntity
  8
DEFPOINTS
  6
BYBLOCK
 62
     0
100
AcDbPoint
 10
-1.753523
 20
369.843651
 30
0.0
  0
ENDBLK
  5
2EA
100
AcDbEntity
  8
0
100
AcDbBlockEnd
  0
ENDSEC
  0
SECTION
  2
ENTITIES
  0
LINE
  5
2F
100
AcDbEntity
  8
0
  6
CONTINUOUS
 62
     7
100
AcDbLine
 10
203.178091
 20
369.196059
 30
0.0
 11
24.161645
 21
369.196059
 31
0.0
  0
ARC
  5
30
100
AcDbEntity
  8
0
  6
CONTINUOUS
 62
     7
100
AcDbCircle
 10
203.180896
 20
363.907087
 30
0.0
 40
5.288973
100
AcDbArc
 50
359.969611
 51
90.030389
  0
LINE
  5
31
100
AcDbEntity
  8
0
  6
CONTINUOUS
 62
     7
100
AcDbLine
 10
208.469868
 20
135.887836
 30
0.0
 11
208.469868
 21
363.904281
 31
0.0
  0
ARC
  5
32
100
AcDbEntity
  8
0
  6
CONTINUOUS
 62
     7
100
AcDbCircle
 10
203.180896
 20
135.885031
 30
0.0
 40
5.288973
100
AcDbArc
 50
269.969611
 51
0.030389
  0
LINE
  5
33
100
AcDbEntity
  8
0
  6
CONTINUOUS
 62
     7
100
AcDbLine
 10
24.161645
 20
130.596059
 30
0.0
 11
203.178091
 21
130.596059
 31
0.0
  0
ARC
  5
34
100
AcDbEntity
  8
0
  6
CONTINUOUS
 62
     7
100
AcDbCircle
 10
24.15884
 20
135.885031
 30
0.0
 40
5.288973
100
AcDbArc
 50
179.969611
 51
270.030389
  0
LINE
  5
35
100
AcDbEntity
  8
0
  6
CONTINUOUS
 62
     7
100
AcDbLine
 10
18.869868
 20
363.904281
 30
0.0
 11
18.869868
 21
135.887836
 31
0.0
  0
ARC
  5
36
100
AcDbEntity
  8
0
  6
CONTINUOUS
 62
     7
100
AcDbCircle
 10
24.15884
 20
363.907087
 30
0.0
 40
5.288973
100
AcDbArc
 50
89.969611
 51
180.030389
  0
LINE
  5
37
100
AcDbEntity
  8
0
  6
CONTINUOUS
 62
     7
100
AcDbLine
 10
168.41746
 20
366.543651
 30
0.0
 11
58.922276
 21
366.543651
 31
0.0
  0
ARC
  5
38
100
AcDbEntity
  8
0
  6
CONTINUOUS
 62
     7
100
AcDbCircle
 10
58.922276
 20
360.143651
 30
0.0
 40
6.4
100
AcDbArc
 50
90.0
 51
180.0
  0
LINE
  5
39
100
AcDbEntity
  8
0
  6
CONTINUOUS
 62
     7
100
AcDbLine
 10
52.522276
 20
360.143651
 30
0.0
 11
52.522276
 21
358.109159
 31
0.0
  0
ARC
  5
3A
100
AcDbEntity
  8
0
  6
CONTINUOUS
 62
     7
100
AcDbCircle
 10
44.922276
 20
358.109159
 30
0.0
 40
7.6
100
AcDbArc
 50
278.0
 51
0.0
  0
LINE
  5
3B
100
AcDbEntity
  8
0
  6
CONTINUOUS
 62
     7
100
AcDbLine
 10
45.979991
 20
350.583121
 30
0.0
 11
27.331568
 21
347.962256
 31
0.0
  0
ARC
  5
3C
100
AcDbEntity
  8
0
  6
CONTINUOUS
 62
     7
100
AcDbCircle
 10
28.222276
 20
341.624541
 30
0.0
 40
6.4
100
AcDbArc
 50
98.0
 51
180.0
  0
LINE
  5
3D
100
AcDbEntity
  8
0
  6
CONTINUOUS
 62
     7
100
AcDbLine
 10
21.822276
 20
341.624541
 30
0.0
 11
21.822276
 21
158.167577
 31
0.0
  0
ARC
  5
3E
100
AcDbEntity
  8
0
  6
CONTINUOUS
 62
     7
100
AcDbCircle
 10
28.222276
 20
158.167577
 30
0.0
 40
6.4
100
AcDbArc
 50
180.0
 51
262.0
  0
LINE
  5
3F
100
AcDbEntity
  8
0
  6
CONTINUOUS
 62
     7
100
AcDbLine
 10
27.331568
 20
151.829861
 30
0.0
 11
45.979991
 21
149.208996
 31
0.0
  0
ARC
  5
40
100
AcDbEntity
  8
0
  6
CONTINUOUS
 62
     7
100
AcDbCircle
 10
44.922276
 20
141.682959
 30
0.0
 40
7.6
100
AcDbArc
 50
0.0
 51
82.0
  0
LINE
  5
41
100
AcDbEntity
  8
0
  6
CONTINUOUS
 62
     7
100
AcDbLine
 10
52.522276
 20
141.682959
 30
0.0
 11
52.522276
 21
139.648466
 31
0.0
  0
ARC
  5
42
100
AcDbEntity
  8
0
  6
CONTINUOUS
 62
     7
100
AcDbCircle
 10
58.922276
 20
139.648466
 30
0.0
 40
6.4
100
AcDbArc
 50
180.0
 51
270.0
  0
LINE
  5
43
100
AcDbEntity
  8
0
  6
CONTINUOUS
 62
     7
100
AcDbLine
 10
58.922276
 20
133.248466
 30
0.0
 11
168.41746
 21
133.248466
 31
0.0
  0
ARC
  5
44
100
AcDbEntity
  8
0
  6
CONTINUOUS
 62
     7
100
AcDbCircle
 10
168.41746
 20
139.648466
 30
0.0
 40
6.4
100
AcDbArc
 50
270.0
 51
0.0
  0
LINE
  5
45
100
AcDbEntity
  8
0
  6
CONTINUOUS
 62
     7
100
AcDbLine
 10
174.81746
 20
139.648466
 30
0.0
 11
174.81746
 21
141.682959
 31
0.0
  0
ARC
  5
46
100
AcDbEntity
  8
0
  6
CONTINUOUS
 62
     7
100
AcDbCircle
 10
182.41746
 20
141.682959
 30
0.0
 40
7.6
100
AcDbArc
 50
98.0
 51
180.0
  0
LINE
  5
47
100
AcDbEntity
  8
0
  6
CONTINUOUS
 62
     7
100
AcDbLine
 10
181.359744
 20
149.208996
 30
0.0
 11
200.008168
 21
151.829861
 31
0.0
  0
ARC
  5
48
100
AcDbEntity
  8
0
  6
CONTINUOUS
 62
     7
100
AcDbCircle
 10
199.11746
 20
158.167577
 30
0.0
 40
6.4
100
AcDbArc
 50
278.0
 51
0.0
  0
LINE
  5
49
100
AcDbEntity
  8
0
  6
CONTINUOUS
 62
     7
100
AcDbLine
 10
205.51746
 20
158.167577
 30
0.0
 11
205.51746
 21
341.624541
 31
0.0
  0
ARC
  5
4A
100
AcDbEntity
  8
0
  6
CONTINUOUS
 62
     7
100
AcDbCircle
 10
199.11746
 20
341.624541
 30
0.0
 40
6.4
100
AcDbArc
 50
0.0
 51
82.0
  0
LINE
  5
4B
100
AcDbEntity
  8
0
  6
CONTINUOUS
 62
     7
100
AcDbLine
 10
200.008168
 20
347.962256
 30
0.0
 11
181.359744
 21
350.583121
 31
0.0
  0
ARC
  5
4C
100
AcDbEntity
  8
0
  6
CONTINUOUS
 62
     7
100
AcDbCircle
 10
182.41746
 20
358.109159
 30
0.0
 40
7.6
100
AcDbArc
 50
180.0
 51
262.0
  0
LINE
  5
4D
100
AcDbEntity
  8
0
  6
CONTINUOUS
 62
     7
100
AcDbLine
 10
174.81746
 20
358.109159
 30
0.0
 11
174.81746
 21
360.143651
 31
0.0
  0
ARC
  5
4E
100
AcDbEntity
  8
0
  6
CONTINUOUS
 62
     7
100
AcDbCircle
 10
168.41746
 20
360.143651
 30
0.0
 40
6.4
100
AcDbArc
 50
0.0
 51
90.0
  0
LINE
  5
4F
100
AcDbEntity
  8
0
  6
CONTINUOUS
 62
     7
100
AcDbLine
 10
53.729026
 20
141.682959
 30
0.0
 11
52.522276
 21
141.682959
 31
0.0
  0
LINE
  5
50
100
AcDbEntity
  8
0
  6
CONTINUOUS
 62
     7
100
AcDbLine
 10
53.729026
 20
139.648466
 30
0.0
 11
53.729026
 21
141.682959
 31
0.0
  0
LINE
  5
51
100
AcDbEntity
  8
0
  6
CONTINUOUS
 62
     7
100
AcDbLine
 10
53.729026
 20
139.648466
 30
0.0
 11
52.522276
 21
139.648466
 31
0.0
  0
LINE
  5
52
100
AcDbEntity
  8
0
  6
CONTINUOUS
 62
     7
100
AcDbLine
 10
168.41746
 20
365.336901
 30
0.0
 11
168.41746
 21
366.543651
 31
0.0
  0
LINE
  5
53
100
AcDbEntity
  8
0
  6
CONTINUOUS
 62
     7
100
AcDbLine
 10
58.922276
 20
365.336901
 30
0.0
 11
168.41746
 21
365.336901
 31
0.0
  0
LINE
  5
54
100
AcDbEntity
  8
0
  6
CONTINUOUS
 62
     7
100
AcDbLine
 10
58.922276
 20
365.336901
 30
0.0
 11
58.922276
 21
366.543651
 31
0.0
  0
LINE
  5
55
100
AcDbEntity
  8
0
  6
CONTINUOUS
 62
     7
100
AcDbLine
 10
173.61071
 20
358.109159
 30
0.0
 11
174.81746
 21
358.109159
 31
0.0
  0
LINE
  5
56
100
AcDbEntity
  8
0
  6
CONTINUOUS
 62
     7
100
AcDbLine
 10
173.61071
 20
360.143651
 30
0.0
 11
173.61071
 21
358.109159
 31
0.0
  0
LINE
  5
57
100
AcDbEntity
  8
0
  6
CONTINUOUS
 62
     7
100
AcDbLine
 10
173.61071
 20
360.143651
 30
0.0
 11
174.81746
 21
360.143651
 31
0.0
  0
ARC
  5
58
100
AcDbEntity
  8
0
  6
CONTINUOUS
 62
     7
100
AcDbCircle
 10
168.41746
 20
360.143651
 30
0.0
 40
5.19325
100
AcDbArc
 50
0.0
 51
90.0
  0
LINE
  5
59
100
AcDbEntity
  8
0
  6
CONTINUOUS
 62
     7
100
AcDbLine
 10
46.147938
 20
150.404002
 30
0.0
 11
45.979991
 21
149.208996
 31
0.0
  0
ARC
  5
5A
100
AcDbEntity
  8
0
  6
CONTINUOUS
 62
     7
100
AcDbCircle
 10
44.922276
 20
141.682959
 30
0.0
 40
8.80675
100
AcDbArc
 50
0.0
 51
82.0
  0
LINE
  5
5B
100
AcDbEntity
  8
0
  6
CONTINUOUS
 62
     7
100
AcDbLine
 10
53.729026
 20
358.109159
 30
0.0
 11
52.522276
 21
358.109159
 31
0.0
  0
ARC
  5
5C
100
AcDbEntity
  8
0
  6
CONTINUOUS
 62
     7
100
AcDbCircle
 10
44.922276
 20
358.109159
 30
0.0
 40
8.80675
100
AcDbArc
 50
278.0
 51
0.0
  0
LINE
  5
5D
100
AcDbEntity
  8
0
  6
CONTINUOUS
 62
     7
100
AcDbLine
 10
46.147938
 20
349.388115
 30
0.0
 11
45.979991
 21
350.583121
 31
0.0
  0
ARC
  5
5E
100
AcDbEntity
  8
0
  6
CONTINUOUS
 62
     7
100
AcDbCircle
 10
58.922276
 20
139.648466
 30
0.0
 40
5.19325
100
AcDbArc
 50
180.0
 51
270.0
  0
LINE
  5
5F
100
AcDbEntity
  8
0
  6
CONTINUOUS
 62
     7
100
AcDbLine
 10
58.922276
 20
134.455217
 30
0.0
 11
58.922276
 21
133.248466
 31
0.0
  0
LINE
  5
60
100
AcDbEntity
  8
0
  6
CONTINUOUS
 62
     7
100
AcDbLine
 10
168.41746
 20
134.455217
 30
0.0
 11
58.922276
 21
134.455217
 31
0.0
  0
LINE
  5
61
100
AcDbEntity
  8
0
  6
CONTINUOUS
 62
     7
100
AcDbLine
 10
168.41746
 20
134.455217
 30
0.0
 11
168.41746
 21
133.248466
 31
0.0
  0
ARC
  5
62
100
AcDbEntity
  8
0
  6
CONTINUOUS
 62
     7
100
AcDbCircle
 10
168.41746
 20
139.648466
 30
0.0
 40
5.19325
100
AcDbArc
 50
270.0
 51
0.0
  0
LINE
  5
63
100
AcDbEntity
  8
0
  6
CONTINUOUS
 62
     7
100
AcDbLine
 10
173.61071
 20
139.648466
 30
0.0
 11
174.81746
 21
139.648466
 31
0.0
  0
ARC
  5
64
100
AcDbEntity
  8
0
  6
CONTINUOUS
 62
     7
100
AcDbCircle
 10
58.922276
 20
360.143651
 30
0.0
 40
5.19325
100
AcDbArc
 50
90.0
 51
180.0
  0
LINE
  5
65
100
AcDbEntity
  8
0
  6
CONTINUOUS
 62
     7
100
AcDbLine
 10
53.729026
 20
360.143651
 30
0.0
 11
52.522276
 21
360.143651
 31
0.0
  0
LINE
  5
66
100
AcDbEntity
  8
0
  6
CONTINUOUS
 62
     7
100
AcDbLine
 10
53.729026
 20
358.109159
 30
0.0
 11
53.729026
 21
360.143651
 31
0.0
  0
LINE
  5
67
100
AcDbEntity
  8
0
  6
CONTINUOUS
 62
     7
100
AcDbLine
 10
173.61071
 20
141.682959
 30
0.0
 11
174.81746
 21
141.682959
 31
0.0
  0
ARC
  5
68
100
AcDbEntity
  8
0
  6
CONTINUOUS
 62
     7
100
AcDbCircle
 10
182.41746
 20
141.682959
 30
0.0
 40
8.80675
100
AcDbArc
 50
98.0
 51
180.0
  0
LINE
  5
69
100
AcDbEntity
  8
0
  6
CONTINUOUS
 62
     7
100
AcDbLine
 10
181.191797
 20
150.404002
 30
0.0
 11
181.359744
 21
149.208996
 31
0.0
  0
LINE
  5
6A
100
AcDbEntity
  8
0
  6
CONTINUOUS
 62
     7
100
AcDbLine
 10
27.499515
 20
346.76725
 30
0.0
 11
46.147938
 21
349.388115
 31
0.0
  0
LINE
  5
6B
100
AcDbEntity
  8
0
  6
CONTINUOUS
 62
     7
100
AcDbLine
 10
27.499515
 20
346.76725
 30
0.0
 11
27.331568
 21
347.962256
 31
0.0
  0
ARC
  5
6C
100
AcDbEntity
  8
0
  6
CONTINUOUS
 62
     7
100
AcDbCircle
 10
28.222276
 20
341.624541
 30
0.0
 40
5.19325
100
AcDbArc
 50
98.0
 51
180.0
  0
LINE
  5
6D
100
AcDbEntity
  8
0
  6
CONTINUOUS
 62
     7
100
AcDbLine
 10
23.029026
 20
341.624541
 30
0.0
 11
21.822276
 21
341.624541
 31
0.0
  0
LINE
  5
6E
100
AcDbEntity
  8
0
  6
CONTINUOUS
 62
     7
100
AcDbLine
 10
23.029026
 20
158.167577
 30
0.0
 11
23.029026
 21
341.624541
 31
0.0
  0
LINE
  5
6F
100
AcDbEntity
  8
0
  6
CONTINUOUS
 62
     7
100
AcDbLine
 10
23.029026
 20
158.167577
 30
0.0
 11
21.822276
 21
158.167577
 31
0.0
  0
ARC
  5
70
100
AcDbEntity
  8
0
  6
CONTINUOUS
 62
     7
100
AcDbCircle
 10
28.222276
 20
158.167577
 30
0.0
 40
5.19325
100
AcDbArc
 50
180.0
 51
262.0
  0
LINE
  5
71
100
AcDbEntity
  8
0
  6
CONTINUOUS
 62
     7
100
AcDbLine
 10
27.499515
 20
153.024867
 30
0.0
 11
27.331568
 21
151.829861
 31
0.0
  0
LINE
  5
72
100
AcDbEntity
  8
0
  6
CONTINUOUS
 62
     7
100
AcDbLine
 10
46.147938
 20
150.404002
 30
0.0
 11
27.499515
 21
153.024867
 31
0.0
  0
LINE
  5
73
100
AcDbEntity
  8
0
  6
CONTINUOUS
 62
     7
100
AcDbLine
 10
181.191797
 20
349.388115
 30
0.0
 11
181.359744
 21
350.583121
 31
0.0
  0
ARC
  5
74
100
AcDbEntity
  8
0
  6
CONTINUOUS
 62
     7
100
AcDbCircle
 10
182.41746
 20
358.109159
 30
0.0
 40
8.80675
100
AcDbArc
 50
180.0
 51
262.0
  0
LINE
  5
75
100
AcDbEntity
  8
0
  6
CONTINUOUS
 62
     7
100
AcDbLine
 10
199.840221
 20
153.024867
 30
0.0
 11
181.191797
 21
150.404002
 31
0.0
  0
LINE
  5
76
100
AcDbEntity
  8
0
  6
CONTINUOUS
 62
     7
100
AcDbLine
 10
199.840221
 20
153.024867
 30
0.0
 11
200.008168
 21
151.829861
 31
0.0
  0
ARC
  5
77
100
AcDbEntity
  8
0
  6
CONTINUOUS
 62
     7
100
AcDbCircle
 10
199.11746
 20
158.167577
 30
0.0
 40
5.19325
100
AcDbArc
 50
278.0
 51
0.0
  0
LINE
  5
78
100
AcDbEntity
  8
0
  6
CONTINUOUS
 62
     7
100
AcDbLine
 10
204.31071
 20
158.167577
 30
0.0
 11
205.51746
 21
158.167577
 31
0.0
  0
LINE
  5
79
100
AcDbEntity
  8
0
  6
CONTINUOUS
 62
     7
100
AcDbLine
 10
204.31071
 20
341.624541
 30
0.0
 11
204.31071
 21
158.167577
 31
0.0
  0
LINE
  5
7A
100
AcDbEntity
  8
0
  6
CONTINUOUS
 62
     7
100
AcDbLine
 10
204.31071
 20
341.624541
 30
0.0
 11
205.51746
 21
341.624541
 31
0.0
  0
ARC
  5
7B
100
AcDbEntity
  8
0
  6
CONTINUOUS
 62
     7
100
AcDbCircle
 10
199.11746
 20
341.624541
 30
0.0
 40
5.19325
100
AcDbArc
 50
0.0
 51
82.0
  0
LINE
  5
7C
100
AcDbEntity
  8
0
  6
CONTINUOUS
 62
     7
100
AcDbLine
 10
199.840221
 20
346.76725
 30
0.0
 11
200.008168
 21
347.962256
 31
0.0
  0
LINE
  5
7D
100
AcDbEntity
  8
0
  6
CONTINUOUS
 62
     7
100
AcDbLine
 10
173.61071
 20
141.682959
 30
0.0
 11
173.61071
 21
139.648466
 31
0.0
  0
LINE
  5
7E
100
AcDbEntity
  8
0
  6
CONTINUOUS
 62
     7
100
AcDbLine
 10
181.191797
 20
349.388115
 30
0.0
 11
199.840221
 21
346.76725
 31
0.0
  0
ELLIPSE
  5
7F
100
AcDbEntity
  8
0
  6
CONTINUOUS
 62
     7
100
AcDbEllipse
 10
24.23051
 20
135.956701
 30
0.0
 11
4.254277460610452
 21
4.254277460610353
 31
0.0
210
0.0
220
0.0
230
1.0
 40
0.997265
 41
2.35756401806275
 42
3.92562128911687
  0
LINE
  5
80
100
AcDbEntity
  8
0
  6
CONTINUOUS
 62
     7
100
AcDbLine
 10
18.222276
 20
363.851874
 30
0.0
 11
18.222276
 21
135.940244
 31
0.0
  0
ELLIPSE
  5
81
100
AcDbEntity
  8
0
  6
CONTINUOUS
 62
     7
100
AcDbEllipse
 10
24.23051
 20
363.835417
 30
0.0
 11
4.254277460610452
 21
-4.254277460610353
 31
0.0
210
0.0
220
0.0
230
1.0
 40
0.997265
 41
2.357564018062727
 42
3.925621289116842
  0
LINE
  5
82
100
AcDbEntity
  8
0
  6
CONTINUOUS
 62
     7
100
AcDbLine
 10
203.125683
 20
369.843651
 30
0.0
 11
24.214053
 21
369.843651
 31
0.0
  0
ELLIPSE
  5
83
100
AcDbEntity
  8
0
  6
CONTINUOUS
 62
     7
100
AcDbEllipse
 10
203.109226
 20
363.835417
 30
0.0
 11
4.254277460610438
 21
4.254277460610352
 31
0.0
210
0.0
220
0.0
230
1.0
 40
0.997265
 41
5.499156671652563
 42
7.067213942706666
  0
LINE
  5
84
100
AcDbEntity
  8
0
  6
CONTINUOUS
 62
     7
100
AcDbLine
 10
209.11746
 20
135.940244
 30
0.0
 11
209.11746
 21
363.851874
 31
0.0
  0
ELLIPSE
  5
85
100
AcDbEntity
  8
0
  6
CONTINUOUS
 62
     7
100
AcDbEllipse
 10
203.109226
 20
135.956701
 30
0.0
 11
4.254277460610438
 21
-4.254277460610352
 31
0.0
210
0.0
220
0.0
230
1.0
 40
0.997265
 41
5.499156671652544
 42
7.067213942706644
  0
LINE
  5
86
100
AcDbEntity
  8
0
  6
CONTINUOUS
 62
     7
100
AcDbLine
 10
24.214053
 20
129.948466
 30
0.0
 11
203.125683
 21
129.948466
 31
0.0
  0
ARC
  5
87
100
AcDbEntity
  8
0
  6
CONTINUOUS
 62
     7
100
AcDbCircle
 10
199.11746
 20
158.167577
 30
0.0
 40
4.693935
100
AcDbArc
 50
278.0
 51
0.0
  0
LINE
  5
88
100
AcDbEntity
  8
0
  6
CONTINUOUS
 62
     7
100
AcDbLine
 10
203.811395
 20
158.167577
 30
0.0
 11
204.31071
 21
158.167577
 31
0.0
  0
LINE
  5
89
100
AcDbEntity
  8
0
  6
CONTINUOUS
 62
     7
100
AcDbLine
 10
199.770729
 20
153.519323
 30
0.0
 11
199.840221
 21
153.024867
 31
0.0
  0
LINE
  5
8A
100
AcDbEntity
  8
0
  6
CONTINUOUS
 62
     7
100
AcDbLine
 10
27.499515
 20
346.76725
 30
0.0
 11
27.569006
 21
346.272795
 31
0.0
  0
ARC
  5
8B
100
AcDbEntity
  8
0
  6
CONTINUOUS
 62
     7
100
AcDbCircle
 10
28.222276
 20
341.624541
 30
0.0
 40
4.693935
100
AcDbArc
 50
98.0
 51
180.0
  0
LINE
  5
8C
100
AcDbEntity
  8
0
  6
CONTINUOUS
 62
     7
100
AcDbLine
 10
23.029026
 20
341.624541
 30
0.0
 11
23.528341
 21
341.624541
 31
0.0
  0
LINE
  5
8D
100
AcDbEntity
  8
0
  6
CONTINUOUS
 62
     7
100
AcDbLine
 10
181.122306
 20
150.898458
 30
0.0
 11
199.770729
 21
153.519323
 31
0.0
  0
LINE
  5
8E
100
AcDbEntity
  8
0
  6
CONTINUOUS
 62
     7
100
AcDbLine
 10
181.122306
 20
150.898458
 30
0.0
 11
181.191797
 21
150.404002
 31
0.0
  0
LINE
  5
8F
100
AcDbEntity
  8
0
  6
CONTINUOUS
 62
     7
100
AcDbLine
 10
46.147938
 20
349.388115
 30
0.0
 11
46.21743
 21
348.89366
 31
0.0
  0
LINE
  5
90
100
AcDbEntity
  8
0
  6
CONTINUOUS
 62
     7
100
AcDbLine
 10
46.21743
 20
348.89366
 30
0.0
 11
27.569006
 21
346.272795
 31
0.0
  0
LINE
  5
91
100
AcDbEntity
  8
0
  6
CONTINUOUS
 62
     7
100
AcDbLine
 10
53.729026
 20
360.143651
 30
0.0
 11
54.228341
 21
360.143651
 31
0.0
  0
LINE
  5
92
100
AcDbEntity
  8
0
  6
CONTINUOUS
 62
     7
100
AcDbLine
 10
54.228341
 20
360.143651
 30
0.0
 11
54.228341
 21
358.109159
 31
0.0
  0
LINE
  5
93
100
AcDbEntity
  8
0
  6
CONTINUOUS
 62
     7
100
AcDbLine
 10
53.729026
 20
358.109159
 30
0.0
 11
54.228341
 21
358.109159
 31
0.0
  0
LINE
  5
94
100
AcDbEntity
  8
0
  6
CONTINUOUS
 62
     7
100
AcDbLine
 10
27.569006
 20
153.519323
 30
0.0
 11
46.21743
 21
150.898458
 31
0.0
  0
LINE
  5
95
100
AcDbEntity
  8
0
  6
CONTINUOUS
 62
     7
100
AcDbLine
 10
46.21743
 20
150.898458
 30
0.0
 11
46.147938
 21
150.404002
 31
0.0
  0
LINE
  5
96
100
AcDbEntity
  8
0
  6
CONTINUOUS
 62
     7
100
AcDbLine
 10
27.499515
 20
153.024867
 30
0.0
 11
27.569006
 21
153.519323
 31
0.0
  0
ARC
  5
97
100
AcDbEntity
  8
0
  6
CONTINUOUS
 62
     7
100
AcDbCircle
 10
44.922276
 20
141.682959
 30
0.0
 40
9.306065
100
AcDbArc
 50
0.0
 51
82.0
  0
LINE
  5
98
100
AcDbEntity
  8
0
  6
CONTINUOUS
 62
     7
100
AcDbLine
 10
54.228341
 20
141.682959
 30
0.0
 11
53.729026
 21
141.682959
 31
0.0
  0
LINE
  5
99
100
AcDbEntity
  8
0
  6
CONTINUOUS
 62
     7
100
AcDbLine
 10
54.228341
 20
141.682959
 30
0.0
 11
54.228341
 21
139.648466
 31
0.0
  0
LINE
  5
9A
100
AcDbEntity
  8
0
  6
CONTINUOUS
 62
     7
100
AcDbLine
 10
54.228341
 20
139.648466
 30
0.0
 11
53.729026
 21
139.648466
 31
0.0
  0
LINE
  5
9B
100
AcDbEntity
  8
0
  6
CONTINUOUS
 62
     7
100
AcDbLine
 10
173.111395
 20
139.648466
 30
0.0
 11
173.111395
 21
141.682959
 31
0.0
  0
LINE
  5
9C
100
AcDbEntity
  8
0
  6
CONTINUOUS
 62
     7
100
AcDbLine
 10
173.111395
 20
141.682959
 30
0.0
 11
173.61071
 21
141.682959
 31
0.0
  0
LINE
  5
9D
100
AcDbEntity
  8
0
  6
CONTINUOUS
 62
     7
100
AcDbLine
 10
173.111395
 20
139.648466
 30
0.0
 11
173.61071
 21
139.648466
 31
0.0
  0
ARC
  5
9E
100
AcDbEntity
  8
0
  6
CONTINUOUS
 62
     7
100
AcDbCircle
 10
58.922276
 20
139.648466
 30
0.0
 40
4.693935
100
AcDbArc
 50
180.0
 51
270.0
  0
LINE
  5
9F
100
AcDbEntity
  8
0
  6
CONTINUOUS
 62
     7
100
AcDbLine
 10
58.922276
 20
134.954532
 30
0.0
 11
58.922276
 21
134.455217
 31
0.0
  0
LINE
  5
A0
100
AcDbEntity
  8
0
  6
CONTINUOUS
 62
     7
100
AcDbLine
 10
203.811395
 20
158.167577
 30
0.0
 11
203.811395
 21
341.624541
 31
0.0
  0
LINE
  5
A1
100
AcDbEntity
  8
0
  6
CONTINUOUS
 62
     7
100
AcDbLine
 10
203.811395
 20
341.624541
 30
0.0
 11
204.31071
 21
341.624541
 31
0.0
  0
LINE
  5
A2
100
AcDbEntity
  8
0
  6
CONTINUOUS
 62
     7
100
AcDbLine
 10
58.922276
 20
134.954532
 30
0.0
 11
168.41746
 21
134.954532
 31
0.0
  0
LINE
  5
A3
100
AcDbEntity
  8
0
  6
CONTINUOUS
 62
     7
100
AcDbLine
 10
168.41746
 20
134.954532
 30
0.0
 11
168.41746
 21
134.455217
 31
0.0
  0
LINE
  5
A4
100
AcDbEntity
  8
0
  6
CONTINUOUS
 62
     7
100
AcDbLine
 10
23.528341
 20
341.624541
 30
0.0
 11
23.528341
 21
158.167577
 31
0.0
  0
LINE
  5
A5
100
AcDbEntity
  8
0
  6
CONTINUOUS
 62
     7
100
AcDbLine
 10
23.029026
 20
158.167577
 30
0.0
 11
23.528341
 21
158.167577
 31
0.0
  0
ARC
  5
A6
100
AcDbEntity
  8
0
  6
CONTINUOUS
 62
     7
100
AcDbCircle
 10
168.41746
 20
139.648466
 30
0.0
 40
4.693935
100
AcDbArc
 50
270.0
 51
0.0
  0
ARC
  5
A7
100
AcDbEntity
  8
0
  6
CONTINUOUS
 62
     7
100
AcDbCircle
 10
44.922276
 20
358.109159
 30
0.0
 40
9.306065
100
AcDbArc
 50
278.0
 51
0.0
  0
LINE
  5
A8
100
AcDbEntity
  8
0
  6
CONTINUOUS
 62
     7
100
AcDbLine
 10
199.770729
 20
346.272795
 30
0.0
 11
181.122306
 21
348.89366
 31
0.0
  0
LINE
  5
A9
100
AcDbEntity
  8
0
  6
CONTINUOUS
 62
     7
100
AcDbLine
 10
181.191797
 20
349.388115
 30
0.0
 11
181.122306
 21
348.89366
 31
0.0
  0
LINE
  5
AA
100
AcDbEntity
  8
0
  6
CONTINUOUS
 62
     7
100
AcDbLine
 10
199.770729
 20
346.272795
 30
0.0
 11
199.840221
 21
346.76725
 31
0.0
  0
LINE
  5
AB
100
AcDbEntity
  8
0
  6
CONTINUOUS
 62
     7
100
AcDbLine
 10
173.61071
 20
360.143651
 30
0.0
 11
173.111395
 21
360.143651
 31
0.0
  0
ARC
  5
AC
100
AcDbEntity
  8
0
  6
CONTINUOUS
 62
     7
100
AcDbCircle
 10
168.41746
 20
360.143651
 30
0.0
 40
4.693935
100
AcDbArc
 50
0.0
 51
90.0
  0
LINE
  5
AD
100
AcDbEntity
  8
0
  6
CONTINUOUS
 62
     7
100
AcDbLine
 10
168.41746
 20
365.336901
 30
0.0
 11
168.41746
 21
364.837586
 31
0.0
  0
ARC
  5
AE
100
AcDbEntity
  8
0
  6
CONTINUOUS
 62
     7
100
AcDbCircle
 10
182.41746
 20
141.682959
 30
0.0
 40
9.306065
100
AcDbArc
 50
98.0
 51
180.0
  0
LINE
  5
AF
100
AcDbEntity
  8
0
  6
CONTINUOUS
 62
     7
100
AcDbLine
 10
58.922276
 20
365.336901
 30
0.0
 11
58.922276
 21
364.837586
 31
0.0
  0
ARC
  5
B0
100
AcDbEntity
  8
0
  6
CONTINUOUS
 62
     7
100
AcDbCircle
 10
58.922276
 20
360.143651
 30
0.0
 40
4.693935
100
AcDbArc
 50
90.0
 51
180.0
  0
ARC
  5
B1
100
AcDbEntity
  8
0
  6
CONTINUOUS
 62
     7
100
AcDbCircle
 10
28.222276
 20
158.167577
 30
0.0
 40
4.693935
100
AcDbArc
 50
180.0
 51
262.0
  0
LINE
  5
B2
100
AcDbEntity
  8
0
  6
CONTINUOUS
 62
     7
100
AcDbLine
 10
168.41746
 20
364.837586
 30
0.0
 11
58.922276
 21
364.837586
 31
0.0
  0
LINE
  5
B3
100
AcDbEntity
  8
0
  6
CONTINUOUS
 62
     7
100
AcDbLine
 10
173.61071
 20
358.109159
 30
0.0
 11
173.111395
 21
358.109159
 31
0.0
  0
LINE
  5
B4
100
AcDbEntity
  8
0
  6
CONTINUOUS
 62
     7
100
AcDbLine
 10
173.111395
 20
358.109159
 30
0.0
 11
173.111395
 21
360.143651
 31
0.0
  0
ARC
  5
B5
100
AcDbEntity
  8
0
  6
CONTINUOUS
 62
     7
100
AcDbCircle
 10
199.11746
 20
341.624541
 30
0.0
 40
4.693935
100
AcDbArc
 50
0.0
 51
82.0
  0
ARC
  5
B6
100
AcDbEntity
  8
0
  6
CONTINUOUS
 62
     7
100
AcDbCircle
 10
182.41746
 20
358.109159
 30
0.0
 40
9.306065
100
AcDbArc
 50
180.0
 51
262.0
  0
LINE
  5
B7
100
AcDbEntity
  8
0
  6
CONTINUOUS
 62
     7
100
AcDbLine
 10
272.356018
 20
363.851874
 30
0.0
 11
272.356018
 21
135.940244
 31
0.0
  0
LINE
  5
B8
100
AcDbEntity
  8
0
  6
CONTINUOUS
 62
     7
100
AcDbLine
 10
249.177739
 20
137.154966
 30
0.0
 11
272.356018
 21
135.940244
 31
0.0
  0
LINE
  5
B9
100
AcDbEntity
  8
0
  6
CONTINUOUS
 62
     7
100
AcDbLine
 10
249.177782
 20
362.637154
 30
0.0
 11
249.177782
 21
137.154964
 31
0.0
  0
LINE
  5
BA
100
AcDbEntity
  8
0
  6
CONTINUOUS
 62
     7
100
AcDbLine
 10
272.356018
 20
363.851874
 30
0.0
 11
249.177739
 21
362.637152
 31
0.0
  0
LINE
  5
BB
100
AcDbEntity
  8
0
  6
CONTINUOUS
 62
     7
100
AcDbLine
 10
272.356018
 20
363.851874
 30
0.0
 11
272.356018
 21
369.843651
 31
0.0
  0
ARC
  5
BC
100
AcDbEntity
  8
0
  6
CONTINUOUS
 62
     7
100
AcDbCircle
 10
344.824699
 20
365.633038
 30
0.0
 40
95.693911
100
AcDbArc
 50
178.205948
 51
181.794052
  0
LINE
  5
BD
100
AcDbEntity
  8
0
  6
CONTINUOUS
 62
     7
100
AcDbLine
 10
249.177739
 20
368.628929
 30
0.0
 11
272.356018
 21
369.843651
 31
0.0
  0
LINE
  5
BE
100
AcDbEntity
  8
0
  6
CONTINUOUS
 62
     7
100
AcDbLine
 10
272.356018
 20
129.948466
 30
0.0
 11
272.356018
 21
135.940244
 31
0.0
  0
LINE
  5
BF
100
AcDbEntity
  8
0
  6
CONTINUOUS
 62
     7
100
AcDbLine
 10
272.356018
 20
129.948466
 30
0.0
 11
249.177739
 21
131.163189
 31
0.0
  0
ARC
  5
C0
100
AcDbEntity
  8
0
  6
CONTINUOUS
 62
     7
100
AcDbCircle
 10
330.281172
 20
134.159079
 30
0.0
 40
81.15879
100
AcDbArc
 50
177.884508
 51
182.115492
  0
LINE
  5
C1
100
AcDbEntity
  8
0
  6
CONTINUOUS
 62
     7
100
AcDbLine
 10
272.356018
 20
363.904281
 30
0.0
 11
273.356018
 21
363.904281
 31
0.0
  0
LINE
  5
C2
100
AcDbEntity
  8
0
  6
CONTINUOUS
 62
     7
100
AcDbLine
 10
272.356018
 20
369.196059
 30
0.0
 11
273.356018
 21
369.196059
 31
0.0
  0
LINE
  5
C3
100
AcDbEntity
  8
0
  6
CONTINUOUS
 62
     7
100
AcDbLine
 10
273.356018
 20
369.196059
 30
0.0
 11
273.356018
 21
363.904281
 31
0.0
  0
LINE
  5
C4
100
AcDbEntity
  8
0
  6
CONTINUOUS
 62
     7
100
AcDbLine
 10
272.356018
 20
135.887836
 30
0.0
 11
273.356018
 21
135.887836
 31
0.0
  0
LINE
  5
C5
100
AcDbEntity
  8
0
  6
CONTINUOUS
 62
     7
100
AcDbLine
 10
273.356018
 20
363.904281
 30
0.0
 11
273.356018
 21
135.887836
 31
0.0
  0
LINE
  5
C6
100
AcDbEntity
  8
0
  6
CONTINUOUS
 62
     7
100
AcDbLine
 10
272.356018
 20
130.596059
 30
0.0
 11
273.356018
 21
130.596059
 31
0.0
  0
LINE
  5
C7
100
AcDbEntity
  8
0
  6
CONTINUOUS
 62
     7
100
AcDbLine
 10
273.356018
 20
135.887836
 30
0.0
 11
273.356018
 21
130.596059
 31
0.0
  0
ARC
  5
C8
100
AcDbEntity
  8
0
  6
CONTINUOUS
 62
     7
100
AcDbCircle
 10
335.074672
 20
365.580355
 30
0.0
 40
86.154662
100
AcDbArc
 50
178.037963
 51
181.962037
  0
LWPOLYLINE
  5
C9
100
AcDbEntity
  8
0
  6
CONTINUOUS
 62
     7
100
AcDbPolyline
 90
        3
 70
   128
 43
0.0
 10
248.97054
 20
368.530081
 10
249.06433
 20
368.600118
 10
249.177782
 20
368.628931
  0
LWPOLYLINE
  5
CA
100
AcDbEntity
  8
0
  6
CONTINUOUS
 62
     7
100
AcDbPolyline
 90
        3
 70
   128
 43
0.0
 10
248.97052
 20
362.630651
 10
249.064277
 20
362.6339
 10
249.177696
 20
362.637149
  0
LWPOLYLINE
  5
CB
100
AcDbEntity
  8
0
  6
CONTINUOUS
 62
     7
100
AcDbPolyline
 90
        3
 70
   128
 43
0.0
 10
249.177782
 20
131.163186
 10
249.06433
 20
131.192
 10
248.97054
 20
131.262036
  0
ARC
  5
CC
100
AcDbEntity
  8
0
  6
CONTINUOUS
 62
     7
100
AcDbCircle
 10
338.652638
 20
134.211763
 30
0.0
 40
89.730614
100
AcDbArc
 50
178.116183
 51
181.883817
  0
LWPOLYLINE
  5
CD
100
AcDbEntity
  8
0
  6
CONTINUOUS
 62
     7
100
AcDbPolyline
 90
        3
 70
   128
 43
0.0
 10
249.177696
 20
137.154968
 10
249.064277
 20
137.158218
 10
248.97052
 20
137.161467
  0
LWPOLYLINE
  5
CE
100
AcDbEntity
  8
0
  6
CONTINUOUS
 62
     7
100
AcDbPolyline
 90
        9
 70
   128
 43
0.0
 10
247.433076
 20
366.822555
 10
247.433076
 20
366.822555
 10
247.432017
 20
366.720134
 10
247.431059
 20
366.197487
 10
247.430866
 20
365.255127
 10
247.431585
 20
364.051338
 10
247.432416
 20
363.156895
 10
247.433076
 20
362.63071
 10
247.433076
 20
362.63065
  0
LINE
  5
CF
100
AcDbEntity
  8
0
  6
CONTINUOUS
 62
     7
100
AcDbLine
 10
247.433075
 20
366.822554
 30
0.0
 11
248.97053
 21
368.53007
 31
0.0
  0
LINE
  5
D0
100
AcDbEntity
  8
0
  6
CONTINUOUS
 62
     7
100
AcDbLine
 10
247.433075
 20
362.63065
 30
0.0
 11
248.97053
 21
362.63065
 31
0.0
  0
LWPOLYLINE
  5
D1
100
AcDbEntity
  8
0
  6
CONTINUOUS
 62
     7
100
AcDbPolyline
 90
        9
 70
   128
 43
0.0
 10
247.433076
 20
137.161467
 10
247.433076
 20
137.161407
 10
247.432017
 20
136.242913
 10
247.431059
 20
134.962151
 10
247.430866
 20
133.89316
 10
247.431585
 20
133.219493
 10
247.432416
 20
133.002365
 10
247.433076
 20
132.969562
 10
247.433076
 20
132.969562
  0
LINE
  5
D2
100
AcDbEntity
  8
0
  6
CONTINUOUS
 62
     7
100
AcDbLine
 10
247.433076
 20
137.161467
 30
0.0
 11
248.97053
 21
137.161467
 31
0.0
  0
LINE
  5
D3
100
AcDbEntity
  8
0
  6
CONTINUOUS
 62
     7
100
AcDbLine
 10
247.433075
 20
132.969564
 30
0.0
 11
248.97053
 21
131.262047
 31
0.0
  0
LINE
  5
D4
100
AcDbEntity
  8
0
  6
CONTINUOUS
 62
     7
100
AcDbLine
 10
248.97054
 20
137.161467
 30
0.0
 11
248.97054
 21
362.63065
 31
0.0
  0
LINE
  5
D5
100
AcDbEntity
  8
0
  6
CONTINUOUS
 62
     7
100
AcDbLine
 10
247.433075
 20
362.63065
 30
0.0
 11
247.433075
 21
137.161467
 31
0.0
  0
LINE
  5
D6
100
AcDbEntity
  8
0
  6
CONTINUOUS
 62
     7
100
AcDbLine
 10
247.356018
 20
133.1703
 30
0.0
 11
247.356018
 21
137.161467
 31
0.0
  0
LINE
  5
D7
100
AcDbEntity
  8
0
  6
CONTINUOUS
 62
     7
100
AcDbLine
 10
247.356018
 20
137.161467
 30
0.0
 11
247.433075
 21
137.161467
 31
0.0
  0
LWPOLYLINE
  5
D8
100
AcDbEntity
  8
0
  6
CONTINUOUS
 62
     7
100
AcDbPolyline
 90
        3
 70
   128
 43
0.0
 10
247.356018
 20
133.1703
 10
247.375945
 20
133.06279
 10
247.433076
 20
132.969562
  0
LINE
  5
D9
100
AcDbEntity
  8
0
  6
CONTINUOUS
 62
     7
100
AcDbLine
 10
247.356018
 20
362.631687
 30
0.0
 11
247.356018
 21
366.621817
 31
0.0
  0
LWPOLYLINE
  5
DA
100
AcDbEntity
  8
0
  6
CONTINUOUS
 62
     7
100
AcDbPolyline
 90
        3
 70
   128
 43
0.0
 10
247.433076
 20
366.822555
 10
247.375945
 20
366.729327
 10
247.356018
 20
366.621817
  0
LWPOLYLINE
  5
DB
100
AcDbEntity
  8
0
  6
CONTINUOUS
 62
     7
100
AcDbPolyline
 90
        3
 70
   128
 43
0.0
 10
247.356018
 20
362.631687
 10
247.375945
 20
362.631168
 10
247.433076
 20
362.63065
  0
LINE
  5
DC
100
AcDbEntity
  8
0
  6
CONTINUOUS
 62
     7
100
AcDbLine
 10
247.356018
 20
137.161467
 30
0.0
 11
247.356018
 21
362.631687
 31
0.0
  0
ARC
  5
FD
100
AcDbEntity
  8
0
  6
CONTINUOUS
 62
     7
100
AcDbCircle
 10
340.520305
 20
137.159775
 30
0.0
 40
3.98947
100
AcDbArc
 50
179.990584
 51
270.024372
  0
LINE
  5
FE
100
AcDbEntity
  8
0
  6
CONTINUOUS
 62
     7
100
AcDbLine
 10
340.522002
 20
133.170303
 30
0.0
 11
340.522002
 21
132.969564
 31
0.0
  0
ARC
  5
FF
100
AcDbEntity
  8
0
  6
CONTINUOUS
 62
     7
100
AcDbCircle
 10
340.522129
 20
137.161594
 30
0.0
 40
4.192032
100
AcDbArc
 50
180.0
 51
269.998264
  0
LWPOLYLINE
  5
100
100
AcDbEntity
  8
0
  6
CONTINUOUS
 62
     7
100
AcDbPolyline
 90
        3
 70
   128
 43
0.0
 10
336.330098
 20
137.161467
 10
336.423327
 20
137.160949
 10
336.530838
 20
137.160431
  0
ARC
  5
101
100
AcDbEntity
  8
0
  6
CONTINUOUS
 62
     7
100
AcDbCircle
 10
340.522129
 20
362.630523
 30
0.0
 40
4.192032
100
AcDbArc
 50
90.001736
 51
180.0
  0
LWPOLYLINE
  5
102
100
AcDbEntity
  8
0
  6
CONTINUOUS
 62
     7
100
AcDbPolyline
 90
        3
 70
   128
 43
0.0
 10
340.522002
 20
366.822554
 10
340.521484
 20
366.729325
 10
340.520965
 20
366.621815
  0
ARC
  5
103
100
AcDbEntity
  8
0
  6
CONTINUOUS
 62
     7
100
AcDbCircle
 10
340.52031
 20
362.632347
 30
0.0
 40
3.98947
100
AcDbArc
 50
89.990584
 51
180.024372
  0
LINE
  5
104
100
AcDbEntity
  8
0
  6
CONTINUOUS
 62
     7
100
AcDbLine
 10
336.330097
 20
362.63065
 30
0.0
 11
336.53084
 21
362.63065
 31
0.0
  0
LINE
  5
105
100
AcDbEntity
  8
0
  6
CONTINUOUS
 62
     7
100
AcDbLine
 10
336.330098
 20
137.161467
 30
0.0
 11
336.330098
 21
362.63065
 31
0.0
  0
LINE
  5
106
100
AcDbEntity
  8
0
  6
CONTINUOUS
 62
     7
100
AcDbLine
 10
336.530838
 20
362.63065
 30
0.0
 11
336.530838
 21
137.160431
 31
0.0
  0
CIRCLE
  5
107
100
AcDbEntity
  8
0
  6
CONTINUOUS
 62
     7
100
AcDbCircle
 10
511.756593
 20
142.396059
 30
0.0
 40
6.797393
  0
CIRCLE
  5
108
100
AcDbEntity
  8
0
  6
CONTINUOUS
 62
     7
100
AcDbCircle
 10
345.756593
 20
142.396059
 30
0.0
 40
6.797393
  0
CIRCLE
  5
109
100
AcDbEntity
  8
0
  6
CONTINUOUS
 62
     7
100
AcDbCircle
 10
511.756593
 20
357.396059
 30
0.0
 40
6.797393
  0
CIRCLE
  5
10A
100
AcDbEntity
  8
0
  6
CONTINUOUS
 62
     7
100
AcDbCircle
 10
345.756593
 20
357.396059
 30
0.0
 40
6.797393
  0
ARC
  5
10B
100
AcDbEntity
  8
0
  6
CONTINUOUS
 62
     7
100
AcDbCircle
 10
516.992877
 20
137.15977
 30
0.0
 40
3.98947
100
AcDbArc
 50
269.990584
 51
0.024372
  0
LINE
  5
10C
100
AcDbEntity
  8
0
  6
CONTINUOUS
 62
     7
100
AcDbLine
 10
340.522002
 20
133.170303
 30
0.0
 11
516.992221
 21
133.170303
 31
0.0
  0
LINE
  5
10D
100
AcDbEntity
  8
0
  6
CONTINUOUS
 62
     7
100
AcDbLine
 10
516.992221
 20
366.621815
 30
0.0
 11
340.520965
 21
366.621815
 31
0.0
  0
ARC
  5
10E
100
AcDbEntity
  8
0
  6
CONTINUOUS
 62
     7
100
AcDbCircle
 10
516.992868
 20
362.632334
 30
0.0
 40
3.989484
100
AcDbArc
 50
359.990708
 51
90.009292
  0
LINE
  5
10F
100
AcDbEntity
  8
0
  6
CONTINUOUS
 62
     7
100
AcDbLine
 10
520.982349
 20
137.161467
 30
0.0
 11
520.982349
 21
362.631687
 31
0.0
  0
LINE
  5
110
100
AcDbEntity
  8
0
  6
CONTINUOUS
 62
     7
100
AcDbLine
 10
340.522002
 20
366.822554
 30
0.0
 11
516.991185
 21
366.822554
 31
0.0
  0
LWPOLYLINE
  5
111
100
AcDbEntity
  8
0
  6
CONTINUOUS
 62
     7
100
AcDbPolyline
 90
        3
 70
   128
 43
0.0
 10
516.991185
 20
366.822555
 10
516.991703
 20
366.729327
 10
516.992221
 20
366.621817
  0
LWPOLYLINE
  5
112
100
AcDbEntity
  8
0
  6
CONTINUOUS
 62
     7
100
AcDbPolyline
 90
        3
 70
   128
 43
0.0
 10
516.992221
 20
133.1703
 10
516.991703
 20
133.06279
 10
516.991185
 20
132.969562
  0
LINE
  5
113
100
AcDbEntity
  8
0
  6
CONTINUOUS
 62
     7
100
AcDbLine
 10
516.991185
 20
132.969564
 30
0.0
 11
340.522002
 21
132.969564
 31
0.0
  0
LINE
  5
114
100
AcDbEntity
  8
0
  6
CONTINUOUS
 62
     7
100
AcDbLine
 10
520.982349
 20
137.161467
 30
0.0
 11
521.183089
 21
137.161467
 31
0.0
  0
ARC
  5
115
100
AcDbEntity
  8
0
  6
CONTINUOUS
 62
     7
100
AcDbCircle
 10
516.991058
 20
137.161594
 30
0.0
 40
4.192032
100
AcDbArc
 50
270.001736
 51
0.0
  0
ARC
  5
116
100
AcDbEntity
  8
0
  6
CONTINUOUS
 62
     7
100
AcDbCircle
 10
516.991058
 20
362.630523
 30
0.0
 40
4.192032
100
AcDbArc
 50
0.0
 51
89.998264
  0
LWPOLYLINE
  5
117
100
AcDbEntity
  8
0
  6
CONTINUOUS
 62
     7
100
AcDbPolyline
 90
        3
 70
   128
 43
0.0
 10
520.982352
 20
362.631687
 10
521.089862
 20
362.631168
 10
521.18309
 20
362.63065
  0
LINE
  5
118
100
AcDbEntity
  8
0
  6
CONTINUOUS
 62
     7
100
AcDbLine
 10
521.183089
 20
362.63065
 30
0.0
 11
521.183089
 21
137.161467
 31
0.0
  0
LINE
  5
119
100
AcDbEntity
  8
0
  6
CONTINUOUS
 62
     7
100
AcDbLine
 10
340.522002
 20
131.262047
 30
0.0
 11
340.522002
 21
132.969562
 31
0.0
  0
ARC
  5
11A
100
AcDbEntity
  8
0
  6
CONTINUOUS
 62
     7
100
AcDbCircle
 10
340.525996
 20
137.165461
 30
0.0
 40
5.903404
100
AcDbArc
 50
180.038762
 51
269.961238
  0
LINE
  5
11B
100
AcDbEntity
  8
0
  6
CONTINUOUS
 62
     7
100
AcDbLine
 10
334.622582
 20
137.161467
 30
0.0
 11
336.330098
 21
137.161467
 31
0.0
  0
LINE
  5
11C
100
AcDbEntity
  8
0
  6
CONTINUOUS
 62
     7
100
AcDbLine
 10
334.622582
 20
362.63065
 30
0.0
 11
336.330097
 21
362.63065
 31
0.0
  0
ARC
  5
11D
100
AcDbEntity
  8
0
  6
CONTINUOUS
 62
     7
100
AcDbCircle
 10
340.525996
 20
362.626656
 30
0.0
 40
5.903404
100
AcDbArc
 50
90.038762
 51
179.961238
  0
LINE
  5
11E
100
AcDbEntity
  8
0
  6
CONTINUOUS
 62
     7
100
AcDbLine
 10
340.522002
 20
368.53007
 30
0.0
 11
340.522002
 21
366.822554
 31
0.0
  0
LINE
  5
11F
100
AcDbEntity
  8
0
  6
CONTINUOUS
 62
     7
100
AcDbLine
 10
521.18309
 20
137.161467
 30
0.0
 11
522.890605
 21
137.161467
 31
0.0
  0
ARC
  5
120
100
AcDbEntity
  8
0
  6
CONTINUOUS
 62
     7
100
AcDbCircle
 10
516.987191
 20
137.165461
 30
0.0
 40
5.903404
100
AcDbArc
 50
270.038763
 51
359.961237
  0
LINE
  5
121
100
AcDbEntity
  8
0
  6
CONTINUOUS
 62
     7
100
AcDbLine
 10
516.991185
 20
132.969564
 30
0.0
 11
516.991185
 21
131.262047
 31
0.0
  0
LINE
  5
122
100
AcDbEntity
  8
0
  6
CONTINUOUS
 62
     7
100
AcDbLine
 10
516.991185
 20
366.822554
 30
0.0
 11
516.991185
 21
368.53007
 31
0.0
  0
ARC
  5
123
100
AcDbEntity
  8
0
  6
CONTINUOUS
 62
     7
100
AcDbCircle
 10
516.987191
 20
362.626656
 30
0.0
 40
5.903404
100
AcDbArc
 50
0.038762
 51
89.961238
  0
LINE
  5
124
100
AcDbEntity
  8
0
  6
CONTINUOUS
 62
     7
100
AcDbLine
 10
521.183089
 20
362.63065
 30
0.0
 11
522.890605
 21
362.63065
 31
0.0
  0
LINE
  5
125
100
AcDbEntity
  8
0
  6
CONTINUOUS
 62
     7
100
AcDbLine
 10
334.622571
 20
362.63065
 30
0.0
 11
334.622571
 21
137.161467
 31
0.0
  0
LINE
  5
126
100
AcDbEntity
  8
0
  6
CONTINUOUS
 62
     7
100
AcDbLine
 10
340.522002
 20
131.262036
 30
0.0
 11
516.991185
 21
131.262036
 31
0.0
  0
LINE
  5
127
100
AcDbEntity
  8
0
  6
CONTINUOUS
 62
     7
100
AcDbLine
 10
516.991185
 20
368.530081
 30
0.0
 11
340.522002
 21
368.530081
 31
0.0
  0
LINE
  5
128
100
AcDbEntity
  8
0
  6
CONTINUOUS
 62
     7
100
AcDbLine
 10
522.890616
 20
137.161467
 30
0.0
 11
522.890616
 21
362.63065
 31
0.0
  0
CIRCLE
  5
129
100
AcDbEntity
  8
0
  6
CONTINUOUS
 62
     7
100
AcDbCircle
 10
345.756593
 20
357.396059
 30
0.0
 40
6.497405
  0
CIRCLE
  5
12A
100
AcDbEntity
  8
0
  6
CONTINUOUS
 62
     7
100
AcDbCircle
 10
345.756593
 20
142.396059
 30
0.0
 40
6.497405
  0
CIRCLE
  5
12B
100
AcDbEntity
  8
0
  6
CONTINUOUS
 62
     7
100
AcDbCircle
 10
511.756593
 20
142.396059
 30
0.0
 40
6.497405
  0
CIRCLE
  5
12C
100
AcDbEntity
  8
0
  6
CONTINUOUS
 62
     7
100
AcDbCircle
 10
511.756593
 20
357.396059
 30
0.0
 40
6.497405
  0
CIRCLE
  5
12D
100
AcDbEntity
  8
0
  6
CONTINUOUS
 62
     7
100
AcDbCircle
 10
345.756593
 20
357.396059
 30
0.0
 40
6.410986
  0
CIRCLE
  5
12E
100
AcDbEntity
  8
0
  6
CONTINUOUS
 62
     7
100
AcDbCircle
 10
345.756593
 20
142.396059
 30
0.0
 40
6.410986
  0
CIRCLE
  5
12F
100
AcDbEntity
  8
0
  6
CONTINUOUS
 62
     7
100
AcDbCircle
 10
511.756593
 20
142.396059
 30
0.0
 40
6.410986
  0
CIRCLE
  5
130
100
AcDbEntity
  8
0
  6
CONTINUOUS
 62
     7
100
AcDbCircle
 10
511.756593
 20
357.396059
 30
0.0
 40
6.410986
  0
ARC
  5
131
100
AcDbEntity
  8
0
  6
CONTINUOUS
 62
     7
100
AcDbCircle
 10
340.519522
 20
137.158987
 30
0.0
 40
5.995798
100
AcDbArc
 50
180.038405
 51
269.961595
  0
LWPOLYLINE
  5
132
100
AcDbEntity
  8
0
  6
CONTINUOUS
 62
     7
100
AcDbPolyline
 90
        3
 70
   128
 43
0.0
 10
334.523721
 20
137.154965
 10
334.552534
 20
137.158216
 10
334.622571
 20
137.161467
  0
LWPOLYLINE
  5
133
100
AcDbEntity
  8
0
  6
CONTINUOUS
 62
     7
100
AcDbPolyline
 90
        3
 70
   128
 43
0.0
 10
340.515503
 20
131.163191
 10
340.518752
 20
131.192025
 10
340.522002
 20
131.262058
  0
LWPOLYLINE
  5
134
100
AcDbEntity
  8
0
  6
CONTINUOUS
 62
     7
100
AcDbPolyline
 90
        3
 70
   128
 43
0.0
 10
334.622571
 20
362.630652
 10
334.552534
 20
362.633903
 10
334.523721
 20
362.637154
  0
ARC
  5
135
100
AcDbEntity
  8
0
  6
CONTINUOUS
 62
     7
100
AcDbCircle
 10
340.519522
 20
362.63313
 30
0.0
 40
5.995798
100
AcDbArc
 50
90.038405
 51
179.961595
  0
LWPOLYLINE
  5
136
100
AcDbEntity
  8
0
  6
CONTINUOUS
 62
     7
100
AcDbPolyline
 90
        3
 70
   128
 43
0.0
 10
340.522002
 20
368.530059
 10
340.518752
 20
368.600093
 10
340.515503
 20
368.628926
  0
LWPOLYLINE
  5
137
100
AcDbEntity
  8
0
  6
CONTINUOUS
 62
     7
100
AcDbPolyline
 90
        3
 70
   128
 43
0.0
 10
516.991187
 20
368.530081
 10
516.994438
 20
368.600118
 10
516.997689
 20
368.628931
  0
ARC
  5
138
100
AcDbEntity
  8
0
  6
CONTINUOUS
 62
     7
100
AcDbCircle
 10
516.993665
 20
362.63313
 30
0.0
 40
5.995798
100
AcDbArc
 50
0.038405
 51
89.961595
  0
LWPOLYLINE
  5
139
100
AcDbEntity
  8
0
  6
CONTINUOUS
 62
     7
100
AcDbPolyline
 90
        3
 70
   128
 43
0.0
 10
522.890594
 20
362.630651
 10
522.960627
 20
362.6339
 10
522.989461
 20
362.637149
  0
ARC
  5
13A
100
AcDbEntity
  8
0
  6
CONTINUOUS
 62
     7
100
AcDbCircle
 10
516.993665
 20
137.158987
 30
0.0
 40
5.995798
100
AcDbArc
 50
270.038406
 51
359.961594
  0
LWPOLYLINE
  5
13B
100
AcDbEntity
  8
0
  6
CONTINUOUS
 62
     7
100
AcDbPolyline
 90
        3
 70
   128
 43
0.0
 10
516.997687
 20
131.163186
 10
516.994436
 20
131.192
 10
516.991185
 20
131.262036
  0
LWPOLYLINE
  5
13C
100
AcDbEntity
  8
0
  6
CONTINUOUS
 62
     7
100
AcDbPolyline
 90
        3
 70
   128
 43
0.0
 10
522.989461
 20
137.154968
 10
522.960627
 20
137.158218
 10
522.890594
 20
137.161467
  0
LINE
  5
13D
100
AcDbEntity
  8
0
  6
CONTINUOUS
 62
     7
100
AcDbLine
 10
340.515498
 20
368.628931
 30
0.0
 11
516.997689
 21
368.628931
 31
0.0
  0
LINE
  5
13E
100
AcDbEntity
  8
0
  6
CONTINUOUS
 62
     7
100
AcDbLine
 10
522.989466
 20
362.637154
 30
0.0
 11
522.989466
 21
137.154964
 31
0.0
  0
LINE
  5
13F
100
AcDbEntity
  8
0
  6
CONTINUOUS
 62
     7
100
AcDbLine
 10
516.997689
 20
131.163186
 30
0.0
 11
340.515498
 21
131.163186
 31
0.0
  0
LINE
  5
140
100
AcDbEntity
  8
0
  6
CONTINUOUS
 62
     7
100
AcDbLine
 10
334.523721
 20
137.154964
 30
0.0
 11
334.523721
 21
362.637154
 31
0.0
  0
ELLIPSE
  5
141
100
AcDbEntity
  8
0
  6
CONTINUOUS
 62
     7
100
AcDbEllipse
 10
339.317235
 20
135.956701
 30
0.0
 11
4.254277460610468
 21
4.254277460610354
 31
0.0
210
0.0
220
0.0
230
1.0
 40
0.997265
 41
2.357564018062749
 42
3.925621289116867
  0
LINE
  5
142
100
AcDbEntity
  8
0
  6
CONTINUOUS
 62
     7
100
AcDbLine
 10
333.309001
 20
135.940244
 30
0.0
 11
334.523723
 21
137.154966
 31
0.0
  0
LINE
  5
143
100
AcDbEntity
  8
0
  6
CONTINUOUS
 62
     7
100
AcDbLine
 10
340.515501
 20
131.163189
 30
0.0
 11
339.300778
 21
129.948466
 31
0.0
  0
ELLIPSE
  5
144
100
AcDbEntity
  8
0
  6
CONTINUOUS
 62
     7
100
AcDbEllipse
 10
339.317235
 20
363.835417
 30
0.0
 11
4.254277460610468
 21
-4.254277460610354
 31
0.0
210
0.0
220
0.0
230
1.0
 40
0.997265
 41
2.357564018062724
 42
3.925621289116838
  0
LINE
  5
145
100
AcDbEntity
  8
0
  6
CONTINUOUS
 62
     7
100
AcDbLine
 10
339.300778
 20
369.843651
 30
0.0
 11
340.515501
 21
368.628929
 31
0.0
  0
LINE
  5
146
100
AcDbEntity
  8
0
  6
CONTINUOUS
 62
     7
100
AcDbLine
 10
334.523723
 20
362.637152
 30
0.0
 11
333.309001
 21
363.851874
 31
0.0
  0
ELLIPSE
  5
147
100
AcDbEntity
  8
0
  6
CONTINUOUS
 62
     7
100
AcDbEllipse
 10
518.195952
 20
363.835417
 30
0.0
 11
4.254277460610411
 21
4.254277460610353
 31
0.0
210
0.0
220
0.0
230
1.0
 40
0.997265
 41
5.499156671652564
 42
7.067213942706658
  0
LINE
  5
148
100
AcDbEntity
  8
0
  6
CONTINUOUS
 62
     7
100
AcDbLine
 10
524.204186
 20
363.851874
 30
0.0
 11
522.989464
 21
362.637152
 31
0.0
  0
LINE
  5
149
100
AcDbEntity
  8
0
  6
CONTINUOUS
 62
     7
100
AcDbLine
 10
516.997686
 20
368.628929
 30
0.0
 11
518.212408
 21
369.843651
 31
0.0
  0
ELLIPSE
  5
14A
100
AcDbEntity
  8
0
  6
CONTINUOUS
 62
     7
100
AcDbEllipse
 10
518.195952
 20
135.956701
 30
0.0
 11
4.254277460610411
 21
-4.254277460610353
 31
0.0
210
0.0
220
0.0
230
1.0
 40
0.997265
 41
5.499156671652547
 42
7.06721394270664
  0
LINE
  5
14B
100
AcDbEntity
  8
0
  6
CONTINUOUS
 62
     7
100
AcDbLine
 10
518.212408
 20
129.948466
 30
0.0
 11
516.997686
 21
131.163189
 31
0.0
  0
LINE
  5
14C
100
AcDbEntity
  8
0
  6
CONTINUOUS
 62
     7
100
AcDbLine
 10
522.989464
 20
137.154966
 30
0.0
 11
524.204186
 21
135.940244
 31
0.0
  0
LINE
  5
14D
100
AcDbEntity
  8
0
  6
CONTINUOUS
 62
     7
100
AcDbLine
 10
518.212408
 20
129.948466
 30
0.0
 11
339.300778
 21
129.948466
 31
0.0
  0
LINE
  5
14E
100
AcDbEntity
  8
0
  6
CONTINUOUS
 62
     7
100
AcDbLine
 10
339.300778
 20
369.843651
 30
0.0
 11
518.212408
 21
369.843651
 31
0.0
  0
LINE
  5
14F
100
AcDbEntity
  8
0
  6
CONTINUOUS
 62
     7
100
AcDbLine
 10
524.204186
 20
363.851874
 30
0.0
 11
524.204186
 21
135.940244
 31
0.0
  0
LINE
  5
150
100
AcDbEntity
  8
0
  6
CONTINUOUS
 62
     7
100
AcDbLine
 10
333.309001
 20
135.940244
 30
0.0
 11
333.309001
 21
363.851874
 31
0.0
  0
INSERT
  5
15C
100
AcDbEntity
  8
0
  6
CONTINUOUS
 62
     7
100
AcDbBlockReference
  2
SW_CENTERMARKSYMBOL_4
 10
345.756593
 20
142.396059
 30
0.0
 41
2.0
 42
2.0
 43
2.0
  0
INSERT
  5
168
100
AcDbEntity
  8
0
  6
CONTINUOUS
 62
     7
100
AcDbBlockReference
  2
SW_CENTERMARKSYMBOL_5
 10
345.756593
 20
357.396059
 30
0.0
 41
2.0
 42
2.0
 43
2.0
  0
INSERT
  5
174
100
AcDbEntity
  8
0
  6
CONTINUOUS
 62
     7
100
AcDbBlockReference
  2
SW_CENTERMARKSYMBOL_6
 10
511.756593
 20
357.396059
 30
0.0
 41
2.0
 42
2.0
 43
2.0
  0
INSERT
  5
180
100
AcDbEntity
  8
0
  6
CONTINUOUS
 62
     7
100
AcDbBlockReference
  2
SW_CENTERMARKSYMBOL_7
 10
511.756593
 20
142.396059
 30
0.0
 41
2.0
 42
2.0
 43
2.0
  0
LINE
  5
181
100
AcDbEntity
  8
0
  6
CONTINUOUS
 62
     7
100
AcDbLine
 10
518.212408
 20
437.468315
 30
0.0
 11
339.300778
 21
437.468315
 31
0.0
  0
LINE
  5
182
100
AcDbEntity
  8
0
  6
CONTINUOUS
 62
     7
100
AcDbLine
 10
340.515501
 20
460.646595
 30
0.0
 11
339.300778
 21
437.468315
 31
0.0
  0
LINE
  5
183
100
AcDbEntity
  8
0
  6
CONTINUOUS
 62
     7
100
AcDbLine
 10
516.997689
 20
460.646551
 30
0.0
 11
340.515498
 21
460.646551
 31
0.0
  0
LINE
  5
184
100
AcDbEntity
  8
0
  6
CONTINUOUS
 62
     7
100
AcDbLine
 10
518.212408
 20
437.468315
 30
0.0
 11
516.997686
 21
460.646595
 31
0.0
  0
LINE
  5
185
100
AcDbEntity
  8
0
  6
CONTINUOUS
 62
     7
100
AcDbLine
 10
333.309001
 20
437.468315
 30
0.0
 11
339.300778
 21
437.468315
 31
0.0
  0
LINE
  5
186
100
AcDbEntity
  8
0
  6
CONTINUOUS
 62
     7
100
AcDbLine
 10
333.309001
 20
437.468315
 30
0.0
 11
334.523723
 21
460.646595
 31
0.0
  0
ARC
  5
187
100
AcDbEntity
  8
0
  6
CONTINUOUS
 62
     7
100
AcDbCircle
 10
337.519614
 20
369.223425
 30
0.0
 40
91.472286
100
AcDbArc
 50
88.12312
 51
91.87688
  0
LINE
  5
188
100
AcDbEntity
  8
0
  6
CONTINUOUS
 62
     7
100
AcDbLine
 10
518.212408
 20
437.468315
 30
0.0
 11
524.204186
 21
437.468315
 31
0.0
  0
ARC
  5
189
100
AcDbEntity
  8
0
  6
CONTINUOUS
 62
     7
100
AcDbCircle
 10
519.993573
 20
365.951705
 30
0.0
 40
94.742312
100
AcDbArc
 50
88.187923
 51
91.812077
  0
LINE
  5
18A
100
AcDbEntity
  8
0
  6
CONTINUOUS
 62
     7
100
AcDbLine
 10
522.989464
 20
460.646595
 30
0.0
 11
524.204186
 21
437.468315
 31
0.0
  0
LINE
  5
18B
100
AcDbEntity
  8
0
  6
CONTINUOUS
 62
     7
100
AcDbLine
 10
333.956593
 20
437.468315
 30
0.0
 11
333.956593
 21
436.468315
 31
0.0
  0
LINE
  5
18C
100
AcDbEntity
  8
0
  6
CONTINUOUS
 62
     7
100
AcDbLine
 10
339.248371
 20
437.468315
 30
0.0
 11
339.248371
 21
436.468315
 31
0.0
  0
LINE
  5
18D
100
AcDbEntity
  8
0
  6
CONTINUOUS
 62
     7
100
AcDbLine
 10
339.248371
 20
436.468315
 30
0.0
 11
333.956593
 21
436.468315
 31
0.0
  0
LINE
  5
18E
100
AcDbEntity
  8
0
  6
CONTINUOUS
 62
     7
100
AcDbLine
 10
518.264816
 20
437.468315
 30
0.0
 11
518.264816
 21
436.468315
 31
0.0
  0
LINE
  5
18F
100
AcDbEntity
  8
0
  6
CONTINUOUS
 62
     7
100
AcDbLine
 10
518.264816
 20
436.468315
 30
0.0
 11
339.248371
 21
436.468315
 31
0.0
  0
LINE
  5
190
100
AcDbEntity
  8
0
  6
CONTINUOUS
 62
     7
100
AcDbLine
 10
523.556593
 20
437.468315
 30
0.0
 11
523.556593
 21
436.468315
 31
0.0
  0
LINE
  5
191
100
AcDbEntity
  8
0
  6
CONTINUOUS
 62
     7
100
AcDbLine
 10
523.556593
 20
436.468315
 30
0.0
 11
518.264816
 21
436.468315
 31
0.0
  0
LWPOLYLINE
  5
192
100
AcDbEntity
  8
0
  6
CONTINUOUS
 62
     7
100
AcDbPolyline
 90
        3
 70
   128
 43
0.0
 10
334.523721
 20
460.646551
 10
334.552534
 20
460.760004
 10
334.622571
 20
460.853794
  0
ARC
  5
193
100
AcDbEntity
  8
0
  6
CONTINUOUS
 62
     7
100
AcDbCircle
 10
337.572297
 20
371.17033
 30
0.0
 40
89.731979
100
AcDbArc
 50
88.116212
 51
91.883788
  0
LWPOLYLINE
  5
194
100
AcDbEntity
  8
0
  6
CONTINUOUS
 62
     7
100
AcDbPolyline
 90
        3
 70
   128
 43
0.0
 10
340.515503
 20
460.646638
 10
340.518752
 20
460.760056
 10
340.522002
 20
460.853814
  0
LWPOLYLINE
  5
195
100
AcDbEntity
  8
0
  6
CONTINUOUS
 62
     7
100
AcDbPolyline
 90
        3
 70
   128
 43
0.0
 10
516.997687
 20
460.646551
 10
516.994436
 20
460.760004
 10
516.991185
 20
460.853794
  0
ARC
  5
196
100
AcDbEntity
  8
0
  6
CONTINUOUS
 62
     7
100
AcDbCircle
 10
519.940889
 20
374.74939
 30
0.0
 40
86.154933
100
AcDbArc
 50
88.037969
 51
91.962031
  0
LWPOLYLINE
  5
197
100
AcDbEntity
  8
0
  6
CONTINUOUS
 62
     7
100
AcDbPolyline
 90
        3
 70
   128
 43
0.0
 10
522.989461
 20
460.646638
 10
522.960627
 20
460.760056
 10
522.890594
 20
460.853814
  0
LWPOLYLINE
  5
198
100
AcDbEntity
  8
0
  6
CONTINUOUS
 62
     7
100
AcDbPolyline
 90
        9
 70
   128
 43
0.0
 10
340.522002
 20
462.391257
 10
340.521942
 20
462.391258
 10
339.603448
 20
462.392317
 10
338.322685
 20
462.393275
 10
337.253695
 20
462.393467
 10
336.580028
 20
462.392749
 10
336.362899
 20
462.391917
 10
336.330097
 20
462.391258
 10
336.330097
 20
462.391257
  0
LINE
  5
199
100
AcDbEntity
  8
0
  6
CONTINUOUS
 62
     7
100
AcDbLine
 10
340.522002
 20
460.853804
 30
0.0
 11
340.522002
 21
462.391257
 31
0.0
  0
LINE
  5
19A
100
AcDbEntity
  8
0
  6
CONTINUOUS
 62
     7
100
AcDbLine
 10
334.622582
 20
460.853804
 30
0.0
 11
336.330098
 21
462.391259
 31
0.0
  0
LWPOLYLINE
  5
19B
100
AcDbEntity
  8
0
  6
CONTINUOUS
 62
     7
100
AcDbPolyline
 90
        9
 70
   128
 43
0.0
 10
521.18309
 20
462.391257
 10
521.18309
 20
462.391258
 10
521.080669
 20
462.392317
 10
520.558022
 20
462.393275
 10
519.615662
 20
462.393467
 10
518.411872
 20
462.392749
 10
517.517429
 20
462.391917
 10
516.991245
 20
462.391258
 10
516.991185
 20
462.391257
  0
LINE
  5
19C
100
AcDbEntity
  8
0
  6
CONTINUOUS
 62
     7
100
AcDbLine
 10
521.18309
 20
462.391257
 30
0.0
 11
522.890605
 21
460.853804
 31
0.0
  0
LINE
  5
19D
100
AcDbEntity
  8
0
  6
CONTINUOUS
 62
     7
100
AcDbLine
 10
516.991185
 20
462.391259
 30
0.0
 11
516.991185
 21
460.853804
 31
0.0
  0
LINE
  5
19E
100
AcDbEntity
  8
0
  6
CONTINUOUS
 62
     7
100
AcDbLine
 10
340.522002
 20
460.853794
 30
0.0
 11
516.991185
 21
460.853794
 31
0.0
  0
LINE
  5
19F
100
AcDbEntity
  8
0
  6
CONTINUOUS
 62
     7
100
AcDbLine
 10
516.991185
 20
462.391259
 30
0.0
 11
340.522002
 21
462.391259
 31
0.0
  0
LINE
  5
1A0
100
AcDbEntity
  8
0
  6
CONTINUOUS
 62
     7
100
AcDbLine
 10
336.530835
 20
462.468315
 30
0.0
 11
340.522002
 21
462.468315
 31
0.0
  0
LINE
  5
1A1
100
AcDbEntity
  8
0
  6
CONTINUOUS
 62
     7
100
AcDbLine
 10
340.522002
 20
462.468315
 30
0.0
 11
340.522002
 21
462.391259
 31
0.0
  0
LWPOLYLINE
  5
1A2
100
AcDbEntity
  8
0
  6
CONTINUOUS
 62
     7
100
AcDbPolyline
 90
        3
 70
   128
 43
0.0
 10
336.330098
 20
462.391259
 10
336.423327
 20
462.448389
 10
336.530838
 20
462.468315
  0
LINE
  5
1A3
100
AcDbEntity
  8
0
  6
CONTINUOUS
 62
     7
100
AcDbLine
 10
516.992221
 20
462.468315
 30
0.0
 11
520.982347
 21
462.468315
 31
0.0
  0
LWPOLYLINE
  5
1A4
100
AcDbEntity
  8
0
  6
CONTINUOUS
 62
     7
100
AcDbPolyline
 90
        3
 70
   128
 43
0.0
 10
520.982349
 20
462.468315
 10
521.08986
 20
462.448389
 10
521.183089
 20
462.391259
  0
LWPOLYLINE
  5
1A5
100
AcDbEntity
  8
0
  6
CONTINUOUS
 62
     7
100
AcDbPolyline
 90
        3
 70
   128
 43
0.0
 10
516.992221
 20
462.468315
 10
516.991703
 20
462.448389
 10
516.991185
 20
462.391257
  0
LINE
  5
1A6
100
AcDbEntity
  8
0
  6
CONTINUOUS
 62
     7
100
AcDbLine
 10
340.522002
 20
462.468315
 30
0.0
 11
516.992221
 21
462.468315
 31
0.0
  0
LINE
  5
1C7
100
AcDbEntity
  8
0
  6
CONTINUOUS
 62
     7
100
AcDbLine
 10
339.300778
 20
68.221147
 30
0.0
 11
518.212408
 21
68.221147
 31
0.0
  0
LINE
  5
1C8
100
AcDbEntity
  8
0
  6
CONTINUOUS
 62
     7
100
AcDbLine
 10
516.997686
 20
45.042868
 30
0.0
 11
518.212408
 21
68.221147
 31
0.0
  0
LINE
  5
1C9
100
AcDbEntity
  8
0
  6
CONTINUOUS
 62
     7
100
AcDbLine
 10
340.515498
 20
45.042911
 30
0.0
 11
516.997689
 21
45.042911
 31
0.0
  0
LINE
  5
1CA
100
AcDbEntity
  8
0
  6
CONTINUOUS
 62
     7
100
AcDbLine
 10
339.300778
 20
68.221147
 30
0.0
 11
340.515501
 21
45.042868
 31
0.0
  0
LINE
  5
1CB
100
AcDbEntity
  8
0
  6
CONTINUOUS
 62
     7
100
AcDbLine
 10
339.300778
 20
68.221147
 30
0.0
 11
333.309001
 21
68.221147
 31
0.0
  0
ARC
  5
1CC
100
AcDbEntity
  8
0
  6
CONTINUOUS
 62
     7
100
AcDbCircle
 10
337.519614
 20
139.736064
 30
0.0
 40
94.740619
100
AcDbArc
 50
268.18789
 51
271.81211
  0
LINE
  5
1CD
100
AcDbEntity
  8
0
  6
CONTINUOUS
 62
     7
100
AcDbLine
 10
334.523723
 20
45.042868
 30
0.0
 11
333.309001
 21
68.221147
 31
0.0
  0
LINE
  5
1CE
100
AcDbEntity
  8
0
  6
CONTINUOUS
 62
     7
100
AcDbLine
 10
524.204186
 20
68.221147
 30
0.0
 11
518.212408
 21
68.221147
 31
0.0
  0
LINE
  5
1CF
100
AcDbEntity
  8
0
  6
CONTINUOUS
 62
     7
100
AcDbLine
 10
524.204186
 20
68.221147
 30
0.0
 11
522.989464
 21
45.042868
 31
0.0
  0
ARC
  5
1D0
100
AcDbEntity
  8
0
  6
CONTINUOUS
 62
     7
100
AcDbCircle
 10
519.993573
 20
136.464201
 30
0.0
 40
91.470451
100
AcDbArc
 50
268.123083
 51
271.876917
  0
LINE
  5
1D1
100
AcDbEntity
  8
0
  6
CONTINUOUS
 62
     7
100
AcDbLine
 10
523.556593
 20
68.221147
 30
0.0
 11
523.556593
 21
69.221147
 31
0.0
  0
LINE
  5
1D2
100
AcDbEntity
  8
0
  6
CONTINUOUS
 62
     7
100
AcDbLine
 10
518.264816
 20
68.221147
 30
0.0
 11
518.264816
 21
69.221147
 31
0.0
  0
LINE
  5
1D3
100
AcDbEntity
  8
0
  6
CONTINUOUS
 62
     7
100
AcDbLine
 10
518.264816
 20
69.221147
 30
0.0
 11
523.556593
 21
69.221147
 31
0.0
  0
LINE
  5
1D4
100
AcDbEntity
  8
0
  6
CONTINUOUS
 62
     7
100
AcDbLine
 10
339.248371
 20
68.221147
 30
0.0
 11
339.248371
 21
69.221147
 31
0.0
  0
LINE
  5
1D5
100
AcDbEntity
  8
0
  6
CONTINUOUS
 62
     7
100
AcDbLine
 10
339.248371
 20
69.221147
 30
0.0
 11
518.264816
 21
69.221147
 31
0.0
  0
LINE
  5
1D6
100
AcDbEntity
  8
0
  6
CONTINUOUS
 62
     7
100
AcDbLine
 10
333.956593
 20
68.221147
 30
0.0
 11
333.956593
 21
69.221147
 31
0.0
  0
LINE
  5
1D7
100
AcDbEntity
  8
0
  6
CONTINUOUS
 62
     7
100
AcDbLine
 10
333.956593
 20
69.221147
 30
0.0
 11
339.248371
 21
69.221147
 31
0.0
  0
ARC
  5
1D8
100
AcDbEntity
  8
0
  6
CONTINUOUS
 62
     7
100
AcDbCircle
 10
337.572297
 20
130.939801
 30
0.0
 40
86.154662
100
AcDbArc
 50
268.037963
 51
271.962037
  0
LWPOLYLINE
  5
1D9
100
AcDbEntity
  8
0
  6
CONTINUOUS
 62
     7
100
AcDbPolyline
 90
        3
 70
   128
 43
0.0
 10
334.622571
 20
44.835668
 10
334.552534
 20
44.929459
 10
334.523721
 20
45.042911
  0
LWPOLYLINE
  5
1DA
100
AcDbEntity
  8
0
  6
CONTINUOUS
 62
     7
100
AcDbPolyline
 90
        3
 70
   128
 43
0.0
 10
340.522002
 20
44.835648
 10
340.518752
 20
44.929406
 10
340.515503
 20
45.042825
  0
ARC
  5
1DB
100
AcDbEntity
  8
0
  6
CONTINUOUS
 62
     7
100
AcDbCircle
 10
519.940889
 20
134.51845
 30
0.0
 40
89.731297
100
AcDbArc
 50
268.116197
 51
271.883803
  0
LWPOLYLINE
  5
1DC
100
AcDbEntity
  8
0
  6
CONTINUOUS
 62
     7
100
AcDbPolyline
 90
        3
 70
   128
 43
0.0
 10
516.991187
 20
44.835668
 10
516.994438
 20
44.929459
 10
516.997689
 20
45.042911
  0
LWPOLYLINE
  5
1DD
100
AcDbEntity
  8
0
  6
CONTINUOUS
 62
     7
100
AcDbPolyline
 90
        3
 70
   128
 43
0.0
 10
522.890594
 20
44.835648
 10
522.960627
 20
44.929406
 10
522.989461
 20
45.042825
  0
LWPOLYLINE
  5
1DE
100
AcDbEntity
  8
0
  6
CONTINUOUS
 62
     7
100
AcDbPolyline
 90
        9
 70
   128
 43
0.0
 10
336.330097
 20
43.298205
 10
336.330097
 20
43.298205
 10
336.432518
 20
43.297146
 10
336.955165
 20
43.296188
 10
337.897525
 20
43.295995
 10
339.101315
 20
43.296714
 10
339.995758
 20
43.297545
 10
340.521942
 20
43.298205
 10
340.522002
 20
43.298205
  0
LINE
  5
1DF
100
AcDbEntity
  8
0
  6
CONTINUOUS
 62
     7
100
AcDbLine
 10
334.622582
 20
44.835658
 30
0.0
 11
336.330097
 21
43.298205
 31
0.0
  0
LINE
  5
1E0
100
AcDbEntity
  8
0
  6
CONTINUOUS
 62
     7
100
AcDbLine
 10
340.522002
 20
44.835658
 30
0.0
 11
340.522002
 21
43.298204
 31
0.0
  0
LWPOLYLINE
  5
1E1
100
AcDbEntity
  8
0
  6
CONTINUOUS
 62
     7
100
AcDbPolyline
 90
        9
 70
   128
 43
0.0
 10
516.991185
 20
43.298205
 10
516.991245
 20
43.298205
 10
517.909739
 20
43.297146
 10
519.190502
 20
43.296188
 10
520.259492
 20
43.295995
 10
520.933159
 20
43.296714
 10
521.150287
 20
43.297545
 10
521.18309
 20
43.298205
 10
521.18309
 20
43.298205
  0
LINE
  5
1E2
100
AcDbEntity
  8
0
  6
CONTINUOUS
 62
     7
100
AcDbLine
 10
516.991185
 20
43.298204
 30
0.0
 11
516.991185
 21
44.835658
 31
0.0
  0
LINE
  5
1E3
100
AcDbEntity
  8
0
  6
CONTINUOUS
 62
     7
100
AcDbLine
 10
521.183089
 20
43.298204
 30
0.0
 11
522.890605
 21
44.835658
 31
0.0
  0
LINE
  5
1E4
100
AcDbEntity
  8
0
  6
CONTINUOUS
 62
     7
100
AcDbLine
 10
516.991185
 20
44.835668
 30
0.0
 11
340.522002
 21
44.835668
 31
0.0
  0
LINE
  5
1E5
100
AcDbEntity
  8
0
  6
CONTINUOUS
 62
     7
100
AcDbLine
 10
340.522002
 20
43.298204
 30
0.0
 11
516.991185
 21
43.298204
 31
0.0
  0
LINE
  5
1E6
100
AcDbEntity
  8
0
  6
CONTINUOUS
 62
     7
100
AcDbLine
 10
520.982352
 20
43.221147
 30
0.0
 11
516.992221
 21
43.221147
 31
0.0
  0
LWPOLYLINE
  5
1E7
100
AcDbEntity
  8
0
  6
CONTINUOUS
 62
     7
100
AcDbPolyline
 90
        3
 70
   128
 43
0.0
 10
516.991185
 20
43.298205
 10
516.991703
 20
43.241074
 10
516.992221
 20
43.221147
  0
LWPOLYLINE
  5
1E8
100
AcDbEntity
  8
0
  6
CONTINUOUS
 62
     7
100
AcDbPolyline
 90
        3
 70
   128
 43
0.0
 10
520.982352
 20
43.221147
 10
521.089862
 20
43.241074
 10
521.18309
 20
43.298205
  0
LWPOLYLINE
  5
1E9
100
AcDbEntity
  8
0
  6
CONTINUOUS
 62
     7
100
AcDbPolyline
 90
        3
 70
   128
 43
0.0
 10
340.522002
 20
43.298204
 10
340.521484
 20
43.241073
 10
340.520965
 20
43.221147
  0
LINE
  5
1EA
100
AcDbEntity
  8
0
  6
CONTINUOUS
 62
     7
100
AcDbLine
 10
340.520965
 20
43.221147
 30
0.0
 11
336.53084
 21
43.221147
 31
0.0
  0
LWPOLYLINE
  5
1EB
100
AcDbEntity
  8
0
  6
CONTINUOUS
 62
     7
100
AcDbPolyline
 90
        3
 70
   128
 43
0.0
 10
336.330097
 20
43.298205
 10
336.423328
 20
43.241073
 10
336.53084
 20
43.221147
  0
LINE
  5
1EC
100
AcDbEntity
  8
0
  6
CONTINUOUS
 62
     7
100
AcDbLine
 10
516.992221
 20
43.221147
 30
0.0
 11
340.520965
 21
43.221147
 31
0.0
  0
INSERT
  5
1F4
100
AcDbEntity
  8
0
  6
CONTINUOUS
 62
     7
100
AcDbBlockReference
  2
SW_CENTERMARKSYMBOL_12
 10
522.689877
 20
45.058612
 30
0.0
 41
2.0
 42
2.0
 43
2.0
  0
INSERT
  5
1FC
100
AcDbEntity
  8
0
  6
CONTINUOUS
 62
     7
100
AcDbBlockReference
  2
SW_CENTERMARKSYMBOL_13
 10
334.82331
 20
45.058612
 30
0.0
 41
2.0
 42
2.0
 43
2.0
  0
INSERT
  5
204
100
AcDbEntity
  8
0
  6
CONTINUOUS
 62
     7
100
AcDbBlockReference
  2
SW_CENTERMARKSYMBOL_14
 10
336.530838
 20
43.521147
 30
0.0
 41
2.0
 42
2.0
 43
2.0
  0
INSERT
  5
20C
100
AcDbEntity
  8
0
  6
CONTINUOUS
 62
     7
100
AcDbBlockReference
  2
SW_CENTERMARKSYMBOL_15
 10
520.982349
 20
43.521147
 30
0.0
 41
2.0
 42
2.0
 43
2.0
  0
LINE
  5
20D
100
AcDbEntity
  8
0
  6
CONTINUOUS
 62
     7
100
AcDbLine
 10
597.794337
 20
369.843651
 30
0.0
 11
597.794337
 21
363.851874
 31
0.0
  0
LINE
  5
20E
100
AcDbEntity
  8
0
  6
CONTINUOUS
 62
     7
100
AcDbLine
 10
597.794337
 20
369.843651
 30
0.0
 11
620.972616
 21
368.628929
 31
0.0
  0
ARC
  5
20F
100
AcDbEntity
  8
0
  6
CONTINUOUS
 62
     7
100
AcDbCircle
 10
529.551283
 20
365.633038
 30
0.0
 40
91.470451
100
AcDbArc
 50
358.123083
 51
1.876917
  0
LINE
  5
210
100
AcDbEntity
  8
0
  6
CONTINUOUS
 62
     7
100
AcDbLine
 10
620.972616
 20
362.637152
 30
0.0
 11
597.794337
 21
363.851874
 31
0.0
  0
LINE
  5
211
100
AcDbEntity
  8
0
  6
CONTINUOUS
 62
     7
100
AcDbLine
 10
597.794337
 20
135.940244
 30
0.0
 11
597.794337
 21
363.851874
 31
0.0
  0
LINE
  5
212
100
AcDbEntity
  8
0
  6
CONTINUOUS
 62
     7
100
AcDbLine
 10
620.972573
 20
137.154964
 30
0.0
 11
620.972573
 21
362.637154
 31
0.0
  0
LINE
  5
213
100
AcDbEntity
  8
0
  6
CONTINUOUS
 62
     7
100
AcDbLine
 10
597.794337
 20
135.940244
 30
0.0
 11
620.972616
 21
137.154966
 31
0.0
  0
LINE
  5
214
100
AcDbEntity
  8
0
  6
CONTINUOUS
 62
     7
100
AcDbLine
 10
597.794337
 20
135.940244
 30
0.0
 11
597.794337
 21
129.948466
 31
0.0
  0
ARC
  5
215
100
AcDbEntity
  8
0
  6
CONTINUOUS
 62
     7
100
AcDbCircle
 10
526.281113
 20
134.159079
 30
0.0
 40
94.738927
100
AcDbArc
 50
358.187858
 51
1.812142
  0
LINE
  5
216
100
AcDbEntity
  8
0
  6
CONTINUOUS
 62
     7
100
AcDbLine
 10
620.972616
 20
131.163189
 30
0.0
 11
597.794337
 21
129.948466
 31
0.0
  0
LINE
  5
217
100
AcDbEntity
  8
0
  6
CONTINUOUS
 62
     7
100
AcDbLine
 10
597.794337
 20
135.887836
 30
0.0
 11
596.794337
 21
135.887836
 31
0.0
  0
LINE
  5
218
100
AcDbEntity
  8
0
  6
CONTINUOUS
 62
     7
100
AcDbLine
 10
597.794337
 20
130.596059
 30
0.0
 11
596.794337
 21
130.596059
 31
0.0
  0
LINE
  5
219
100
AcDbEntity
  8
0
  6
CONTINUOUS
 62
     7
100
AcDbLine
 10
596.794337
 20
130.596059
 30
0.0
 11
596.794337
 21
135.887836
 31
0.0
  0
LINE
  5
21A
100
AcDbEntity
  8
0
  6
CONTINUOUS
 62
     7
100
AcDbLine
 10
597.794337
 20
363.904281
 30
0.0
 11
596.794337
 21
363.904281
 31
0.0
  0
LINE
  5
21B
100
AcDbEntity
  8
0
  6
CONTINUOUS
 62
     7
100
AcDbLine
 10
596.794337
 20
135.887836
 30
0.0
 11
596.794337
 21
363.904281
 31
0.0
  0
LINE
  5
21C
100
AcDbEntity
  8
0
  6
CONTINUOUS
 62
     7
100
AcDbLine
 10
597.794337
 20
369.196059
 30
0.0
 11
596.794337
 21
369.196059
 31
0.0
  0
LINE
  5
21D
100
AcDbEntity
  8
0
  6
CONTINUOUS
 62
     7
100
AcDbLine
 10
596.794337
 20
363.904281
 30
0.0
 11
596.794337
 21
369.196059
 31
0.0
  0
LWPOLYLINE
  5
21E
100
AcDbEntity
  8
0
  6
CONTINUOUS
 62
     7
100
AcDbPolyline
 90
        3
 70
   128
 43
0.0
 10
620.972573
 20
137.154965
 10
621.086025
 20
137.158216
 10
621.179815
 20
137.161467
  0
ARC
  5
21F
100
AcDbEntity
  8
0
  6
CONTINUOUS
 62
     7
100
AcDbCircle
 10
535.075955
 20
134.211763
 30
0.0
 40
86.15439
100
AcDbArc
 50
358.037957
 51
1.962043
  0
LWPOLYLINE
  5
220
100
AcDbEntity
  8
0
  6
CONTINUOUS
 62
     7
100
AcDbPolyline
 90
        3
 70
   128
 43
0.0
 10
620.972659
 20
131.163191
 10
621.086078
 20
131.192025
 10
621.179836
 20
131.262058
  0
ARC
  5
221
100
AcDbEntity
  8
0
  6
CONTINUOUS
 62
     7
100
AcDbCircle
 10
531.497034
 20
365.580355
 30
0.0
 40
89.731297
100
AcDbArc
 50
358.116197
 51
1.883803
  0
LWPOLYLINE
  5
222
100
AcDbEntity
  8
0
  6
CONTINUOUS
 62
     7
100
AcDbPolyline
 90
        3
 70
   128
 43
0.0
 10
621.179815
 20
362.630652
 10
621.086025
 20
362.633903
 10
620.972573
 20
362.637154
  0
LWPOLYLINE
  5
223
100
AcDbEntity
  8
0
  6
CONTINUOUS
 62
     7
100
AcDbPolyline
 90
        3
 70
   128
 43
0.0
 10
621.179836
 20
368.530059
 10
621.086078
 20
368.600093
 10
620.972659
 20
368.628926
  0
LWPOLYLINE
  5
224
100
AcDbEntity
  8
0
  6
CONTINUOUS
 62
     7
100
AcDbPolyline
 90
        9
 70
   128
 43
0.0
 10
622.717279
 20
132.969562
 10
622.717279
 20
132.969562
 10
622.718338
 20
133.071984
 10
622.719296
 20
133.59463
 10
622.719489
 20
134.53699
 10
622.71877
 20
135.74078
 10
622.717939
 20
136.635223
 10
622.717279
 20
137.161407
 10
622.717279
 20
137.161467
  0
LINE
  5
225
100
AcDbEntity
  8
0
  6
CONTINUOUS
 62
     7
100
AcDbLine
 10
621.179826
 20
131.262047
 30
0.0
 11
622.717279
 21
132.969562
 31
0.0
  0
LINE
  5
226
100
AcDbEntity
  8
0
  6
CONTINUOUS
 62
     7
100
AcDbLine
 10
621.179826
 20
137.161467
 30
0.0
 11
622.71728
 21
137.161467
 31
0.0
  0
LWPOLYLINE
  5
227
100
AcDbEntity
  8
0
  6
CONTINUOUS
 62
     7
100
AcDbPolyline
 90
        9
 70
   128
 43
0.0
 10
622.717279
 20
362.63065
 10
622.717279
 20
362.63071
 10
622.718338
 20
363.549204
 10
622.719296
 20
364.829967
 10
622.719489
 20
365.898957
 10
622.71877
 20
366.572624
 10
622.717939
 20
366.789753
 10
622.717279
 20
366.822555
 10
622.717279
 20
366.822555
  0
LINE
  5
228
100
AcDbEntity
  8
0
  6
CONTINUOUS
 62
     7
100
AcDbLine
 10
621.179826
 20
362.63065
 30
0.0
 11
622.717279
 21
362.63065
 31
0.0
  0
LINE
  5
229
100
AcDbEntity
  8
0
  6
CONTINUOUS
 62
     7
100
AcDbLine
 10
621.179826
 20
368.53007
 30
0.0
 11
622.71728
 21
366.822554
 31
0.0
  0
LINE
  5
22A
100
AcDbEntity
  8
0
  6
CONTINUOUS
 62
     7
100
AcDbLine
 10
621.179815
 20
362.63065
 30
0.0
 11
621.179815
 21
137.161467
 31
0.0
  0
LINE
  5
22B
100
AcDbEntity
  8
0
  6
CONTINUOUS
 62
     7
100
AcDbLine
 10
622.71728
 20
137.161467
 30
0.0
 11
622.71728
 21
362.63065
 31
0.0
  0
LINE
  5
22C
100
AcDbEntity
  8
0
  6
CONTINUOUS
 62
     7
100
AcDbLine
 10
622.794337
 20
137.160431
 30
0.0
 11
622.794337
 21
133.170305
 31
0.0
  0
LWPOLYLINE
  5
22D
100
AcDbEntity
  8
0
  6
CONTINUOUS
 62
     7
100
AcDbPolyline
 90
        3
 70
   128
 43
0.0
 10
622.794337
 20
133.170303
 10
622.774411
 20
133.062792
 10
622.71728
 20
132.969564
  0
LWPOLYLINE
  5
22F
100
AcDbEntity
  8
0
  6
CONTINUOUS
 62
     7
100
AcDbPolyline
 90
        3
 70
   128
 43
0.0
 10
622.71728
 20
366.822554
 10
622.774411
 20
366.729325
 10
622.794337
 20
366.621815
  0
LINE
  5
230
100
AcDbEntity
  8
0
  6
CONTINUOUS
 62
     7
100
AcDbLine
 10
622.794337
 20
366.621817
 30
0.0
 11
622.794337
 21
362.63065
 31
0.0
  0
LINE
  5
232
100
AcDbEntity
  8
0
  6
CONTINUOUS
 62
     7
100
AcDbLine
 10
622.794337
 20
362.63065
 30
0.0
 11
622.794337
 21
137.160431
 31
0.0
  0
LINE
  5
239
100
AcDbEntity
  8
0
  6
HIDDEN
 62
     1
100
AcDbLine
 10
620.294337
 20
158.167577
 30
0.0
 11
620.294337
 21
346.272795
 31
0.0
  0
LINE
  5
23C
100
AcDbEntity
  8
0
  6
HIDDEN
 62
     1
100
AcDbLine
 10
620.294337
 20
153.519323
 30
0.0
 11
620.294337
 21
158.167577
 31
0.0
  0
ARC
  5
245
100
AcDbEntity
  8
0
  6
HIDDEN
 62
     1
100
AcDbCircle
 10
619.79706
 20
150.900732
 30
0.0
 40
0.497282
100
AcDbArc
 50
272.702286
 51
359.738018
  0
LINE
  5
247
100
AcDbEntity
  8
0
  6
HIDDEN
 62
     1
100
AcDbLine
 10
620.294337
 20
150.898458
 30
0.0
 11
620.294337
 21
153.519323
 31
0.0
  0
ARC
  5
248
100
AcDbEntity
  8
0
  6
HIDDEN
 62
     1
100
AcDbCircle
 10
619.79706
 20
348.891386
 30
0.0
 40
0.497282
100
AcDbArc
 50
0.261982
 51
87.297714
  0
LINE
  5
24A
100
AcDbEntity
  8
0
  6
HIDDEN
 62
     1
100
AcDbLine
 10
620.294337
 20
346.272795
 30
0.0
 11
620.294337
 21
348.89366
 31
0.0
  0
LINE
  5
24B
100
AcDbEntity
  8
0
  6
HIDDEN
 62
     1
100
AcDbLine
 10
619.820505
 20
349.388115
 30
0.0
 11
596.794337
 21
350.583121
 31
0.0
  0
LINE
  5
24C
100
AcDbEntity
  8
0
  6
HIDDEN
 62
     1
100
AcDbLine
 10
619.820505
 20
150.404002
 30
0.0
 11
596.794337
 21
149.208996
 31
0.0
  0
LINE
  5
24F
100
AcDbEntity
  8
0
  6
HIDDEN
 62
     1
100
AcDbLine
 10
620.294337
 20
348.89366
 30
0.0
 11
620.294337
 21
358.109159
 31
0.0
  0
LINE
  5
252
100
AcDbEntity
  8
0
  6
HIDDEN
 62
     1
100
AcDbLine
 10
620.294337
 20
141.682959
 30
0.0
 11
620.294337
 21
150.898458
 31
0.0
  0
LINE
  5
256
100
AcDbEntity
  8
0
  6
HIDDEN
 62
     1
100
AcDbLine
 10
619.820505
 20
365.336901
 30
0.0
 11
596.794337
 21
366.543651
 31
0.0
  0
LINE
  5
258
100
AcDbEntity
  8
0
  6
HIDDEN
 62
     1
100
AcDbLine
 10
619.820505
 20
134.455217
 30
0.0
 11
596.794337
 21
133.248466
 31
0.0
  0
LINE
  5
25D
100
AcDbEntity
  8
0
  6
HIDDEN
 62
     1
100
AcDbLine
 10
620.294337
 20
139.648466
 30
0.0
 11
620.294337
 21
141.682959
 31
0.0
  0
ARC
  5
25E
100
AcDbEntity
  8
0
  6
HIDDEN
 62
     1
100
AcDbCircle
 10
619.794337
 20
134.954532
 30
0.0
 40
0.5
100
AcDbArc
 50
273.0
 51
0.0
  0
LINE
  5
25F
100
AcDbEntity
  8
0
  6
HIDDEN
 62
     1
100
AcDbLine
 10
620.294337
 20
134.954532
 30
0.0
 11
620.294337
 21
139.648466
 31
0.0
  0
ARC
  5
261
100
AcDbEntity
  8
0
  6
HIDDEN
 62
     1
100
AcDbCircle
 10
619.794337
 20
364.837586
 30
0.0
 40
0.5
100
AcDbArc
 50
0.0
 51
87.0
  0
LINE
  5
262
100
AcDbEntity
  8
0
  6
HIDDEN
 62
     1
100
AcDbLine
 10
620.294337
 20
360.143651
 30
0.0
 11
620.294337
 21
364.837586
 31
0.0
  0
LINE
  5
264
100
AcDbEntity
  8
0
  6
HIDDEN
 62
     1
100
AcDbLine
 10
620.294337
 20
358.109159
 30
0.0
 11
620.294337
 21
360.143651
 31
0.0
  0
ARC
  5
26D
100
AcDbEntity
  8
0
  6
HIDDEN
 62
     1
100
AcDbCircle
 10
619.79706
 20
150.900732
 30
0.0
 40
0.497282
100
AcDbArc
 50
272.702286
 51
359.738018
  0
ARC
  5
272
100
AcDbEntity
  8
0
  6
HIDDEN
 62
     1
100
AcDbCircle
 10
619.79706
 20
348.891386
 30
0.0
 40
0.497282
100
AcDbArc
 50
0.261982
 51
87.297714
  0
LINE
  5
275
100
AcDbEntity
  8
0
  6
HIDDEN
 62
     1
100
AcDbLine
 10
619.820505
 20
349.388115
 30
0.0
 11
596.794337
 21
350.583121
 31
0.0
  0
LINE
  5
276
100
AcDbEntity
  8
0
  6
HIDDEN
 62
     1
100
AcDbLine
 10
619.820505
 20
150.404002
 30
0.0
 11
596.794337
 21
149.208996
 31
0.0
  0
LWPOLYLINE
  5
285
100
AcDbEntity
  8
0
  6
HIDDEN
 62
     7
100
AcDbPolyline
 90
        9
 70
   128
 43
0.0
 10
622.717279
 20
366.822555
 10
622.717279
 20
366.822555
 10
622.718338
 20
366.720134
 10
622.719296
 20
366.197487
 10
622.719489
 20
365.255127
 10
622.71877
 20
364.051338
 10
622.717939
 20
363.156895
 10
622.717279
 20
362.63071
 10
622.717279
 20
362.63065
  0
ARC
  5
286
100
AcDbEntity
  8
0
  6
HIDDEN
 62
     7
100
AcDbCircle
 10
535.075683
 20
365.580355
 30
0.0
 40
86.154662
100
AcDbArc
 50
358.037963
 51
1.962037
  0
LWPOLYLINE
  5
287
100
AcDbEntity
  8
0
  6
HIDDEN
 62
     7
100
AcDbPolyline
 90
        9
 70
   128
 43
0.0
 10
622.717279
 20
137.161467
 10
622.717279
 20
137.161407
 10
622.718338
 20
136.242913
 10
622.719296
 20
134.962151
 10
622.719489
 20
133.89316
 10
622.71877
 20
133.219493
 10
622.717939
 20
133.002365
 10
622.717279
 20
132.969562
 10
622.717279
 20
132.969562
  0
ARC
  5
288
100
AcDbEntity
  8
0
  6
HIDDEN
 62
     7
100
AcDbCircle
 10
531.497717
 20
134.211763
 30
0.0
 40
89.730614
100
AcDbArc
 50
358.116183
 51
1.883817
  0
ARC
  5
289
100
AcDbEntity
  8
0
  6
HIDDEN
 62
     7
100
AcDbCircle
 10
529.553119
 20
134.159079
 30
0.0
 40
91.468616
100
AcDbArc
 50
358.123045
 51
1.876955
  0
LINE
  5
28A
100
AcDbEntity
  8
0
  6
HIDDEN
 62
     7
100
AcDbLine
 10
597.794337
 20
363.851874
 30
0.0
 11
620.972616
 21
362.637152
 31
0.0
  0
ARC
  5
28B
100
AcDbEntity
  8
0
  6
HIDDEN
 62
     7
100
AcDbCircle
 10
526.27942
 20
365.633038
 30
0.0
 40
94.740619
100
AcDbArc
 50
358.18789
 51
1.81211
  0
LINE
  5
28C
100
AcDbEntity
  8
0
  6
HIDDEN
 62
     7
100
AcDbLine
 10
620.972616
 20
137.154966
 30
0.0
 11
597.794337
 21
135.940244
 31
0.0
  0
LINE
  5
28D
100
AcDbEntity
  8
0
  6
HIDDEN
 62
     7
100
AcDbLine
 10
597.794337
 20
363.904281
 30
0.0
 11
596.794337
 21
363.904281
 31
0.0
  0
LINE
  5
28F
100
AcDbEntity
  8
0
  6
HIDDEN
 62
     7
100
AcDbLine
 10
622.71728
 20
362.63065
 30
0.0
 11
622.71728
 21
137.161467
 31
0.0
  0
LINE
  5
290
100
AcDbEntity
  8
0
  6
HIDDEN
 62
     7
100
AcDbLine
 10
621.179815
 20
137.161467
 30
0.0
 11
621.179815
 21
362.63065
 31
0.0
  0
LWPOLYLINE
  5
291
100
AcDbEntity
  8
0
  6
HIDDEN
 62
     7
100
AcDbPolyline
 90
        3
 70
   128
 43
0.0
 10
621.179836
 20
362.630651
 10
621.086078
 20
362.6339
 10
620.972659
 20
362.637149
  0
LINE
  5
292
100
AcDbEntity
  8
0
  6
HIDDEN
 62
     7
100
AcDbLine
 10
620.972573
 20
362.637154
 30
0.0
 11
620.972573
 21
137.154964
 31
0.0
  0
LINE
  5
293
100
AcDbEntity
  8
0
  6
HIDDEN
 62
     7
100
AcDbLine
 10
597.794337
 20
135.887836
 30
0.0
 11
596.794337
 21
135.887836
 31
0.0
  0
TEXT
  5
2DC
100
AcDbEntity
  8
0
100
AcDbText
 10
19.275467
 20
441.172351
 30
0.0
 40
10.0
  1
FIBOX Tempo 2419 Cover
100
AcDbText
  0
ENDSEC
  0
SECTION
  2
OBJECTS
  0
DICTIONARY
  5
C
100
AcDbDictionary
  3
ACAD_GROUP
350
D
  3
ACAD_PLOTSTYLENAME
350
E
  3
ACAD_MLINESTYLE
350
17
  3
ACAD_PLOTSETTINGS
350
19
  3
ACAD_LAYOUT
350
1A
  3
ACDBHEADERROUNDTRIPXREC
350
29D
  0
DICTIONARY
  5
2CF
100
AcDbDictionary
280
     1
  3
ACAD_XREC_ROUNDTRIP
360
2D0
  0
DICTIONARY
  5
2D1
100
AcDbDictionary
280
     1
  3
ACAD_XREC_ROUNDTRIP
360
2D2
  0
DICTIONARY
  5
2D3
100
AcDbDictionary
280
     1
  3
ACAD_XREC_ROUNDTRIP
360
2D4
  0
DICTIONARY
  5
2CD
100
AcDbDictionary
280
     1
  3
ACAD_XREC_ROUNDTRIP
360
2CE
  0
DICTIONARY
  5
2D7
100
AcDbDictionary
280
     1
  3
ACAD_XREC_ROUNDTRIP
360
2D8
  0
DICTIONARY
  5
2C4
100
AcDbDictionary
280
     1
  3
ACAD_LAYOUTSELFREF
360
2C5
  3
ACAD_XREC_ROUNDTRIP
360
2CA
  0
DICTIONARY
  5
2C2
100
AcDbDictionary
280
     1
  3
ACAD_LAYOUTSELFREF
360
2C3
  3
ACAD_XREC_ROUNDTRIP
360
2CB
  0
DICTIONARY
  5
2C6
100
AcDbDictionary
280
     1
  3
ACAD_LAYOUTSELFREF
360
2C7
  3
ACAD_XREC_ROUNDTRIP
360
2CC
  0
DICTIONARY
  5
D
102
{ACAD_REACTORS
330
C
102
}
100
AcDbDictionary
  0
ACAD_PROXY_OBJECT
  5
E
102
{ACAD_XDICTIONARY
360
2BE
102
}
102
{ACAD_REACTORS
330
C
102
}
100
AcDbProxyObject
 90
      499
 91
      500
 93
       86
310
4050100419393D49350533
350
F
340
F
 94
        0
  0
DICTIONARY
  5
17
102
{ACAD_XDICTIONARY
360
2C0
102
}
102
{ACAD_REACTORS
330
C
102
}
100
AcDbDictionary
  3
STANDARD
350
18
  0
DICTIONARY
  5
19
102
{ACAD_REACTORS
330
C
102
}
100
AcDbDictionary
  0
DICTIONARY
  5
1A
102
{ACAD_XDICTIONARY
360
2C8
102
}
102
{ACAD_REACTORS
330
C
102
}
100
AcDbDictionary
  3
LAYOUT1
350
1E
  3
MODEL
350
22
  3
LAYOUT2
350
26
  0
DICTIONARY
  5
29D
102
{ACAD_REACTORS
330
C
102
}
100
AcDbDictionary
  3
TSTACKALIGN
350
29E
  3
TSTACKSIZE
350
29F
  3
HYPERLINKBASE
350
2A0
  3
STYLESHEET
350
2A1
  3
LAYOUTDICT
350
2A2
  3
PLOTSETDICT
350
2A3
  3
PLOTSTYLNAMDICT
350
2A4
  3
LWETCUNION
350
2A5
  3
INSUNITS
350
2A6
  3
CEPSNTYPE
350
2A7
  3
FINGERPRINTGUID
350
2A8
  3
VERSIONGUID
350
2A9
  3
PSVPSCALE
350
2AA
  3
PUCSORTHOREF
350
2AB
  3
PUCSORTHOVIEW
350
2AC
  3
PUCSBASE
350
2AD
  3
PUCSORGTOP
350
2AE
  3
PUCSORGBOTTOM
350
2AF
  3
PUCSORGLEFT
350
2B0
  3
PUCSORGRIGHT
350
2B1
  3
PUCSORGFRONT
350
2B2
  3
PUCSORGBACK
350
2B3
  3
UCSORTHOREF
350
2B4
  3
UCSORTHOVIEW
350
2B5
  3
UCSBASE
350
2B6
  3
UCSORGTOP
350
2B7
  3
UCSORGBOTTOM
350
2B8
  3
UCSORGLEFT
350
2B9
  3
UCSORGRIGHT
350
2BA
  3
UCSORGFRONT
350
2BB
  3
UCSORGBACK
350
2BC
  3
DIMSTYLEDATA
350
2BD
  0
XRECORD
  5
2D0
102
{ACAD_REACTORS
330
2CF
102
}
100
AcDbXrecord
102
EXTNAMES
  1
BYBLOCK
  2
ByBlock
  0
XRECORD
  5
2D2
102
{ACAD_REACTORS
330
2D1
102
}
100
AcDbXrecord
102
EXTNAMES
  1
BYLAYER
  2
ByLayer
  0
XRECORD
  5
2D4
102
{ACAD_REACTORS
330
2D3
102
}
100
AcDbXrecord
102
EXTNAMES
  1
CONTINUOUS
  2
Continuous
  0
XRECORD
  5
2CE
102
{ACAD_REACTORS
330
2CD
102
}
100
AcDbXrecord
102
EXTNAMES
  1
STANDARD
  2
Standard
  0
XRECORD
  5
2D8
102
{ACAD_REACTORS
330
2D7
102
}
100
AcDbXrecord
102
ACADR14ROUNDTRIP
1000
DSTYLE
1002
{
1070
   278
 70
    44
1002
}
  0
XRECORD
  5
2C5
102
{ACAD_REACTORS
330
2C4
102
}
100
AcDbXrecord
340
1F
  0
XRECORD
  5
2CA
102
{ACAD_REACTORS
330
2C4
102
}
100
AcDbXrecord
102
EXTNAMES
  1
*MODEL_SPACE
  2
*Model_Space
  0
XRECORD
  5
2C3
102
{ACAD_REACTORS
330
2C2
102
}
100
AcDbXrecord
340
1B
  0
XRECORD
  5
2CB
102
{ACAD_REACTORS
330
2C2
102
}
100
AcDbXrecord
102
EXTNAMES
  1
*PAPER_SPACE
  2
*Paper_Space
  0
XRECORD
  5
2C7
102
{ACAD_REACTORS
330
2C6
102
}
100
AcDbXrecord
340
23
  0
XRECORD
  5
2CC
102
{ACAD_REACTORS
330
2C6
102
}
100
AcDbXrecord
102
EXTNAMES
  1
*PAPER_SPACE
  2
*Paper_Space0
  0
DICTIONARY
  5
2BE
100
AcDbDictionary
280
     1
  3
ACAD_XREC_ROUNDTRIP
360
2BF
  0
ACAD_PROXY_OBJECT
  5
F
102
{ACAD_REACTORS
330
E
102
}
100
AcDbProxyObject
 90
      499
 91
      504
 93
        0
 94
        0
  0
DICTIONARY
  5
2C0
100
AcDbDictionary
280
     1
  3
ACAD_XREC_ROUNDTRIP
360
2C1
  0
MLINESTYLE
  5
18
102
{ACAD_REACTORS
330
17
102
}
100
AcDbMlineStyle
  2
STANDARD
 70
     0
  3

 62
   256
 51
90.0
 52
90.0
 71
     2
 49
0.5
 62
   256
  6
BYLAYER
 49
-0.5
 62
   256
  6
BYLAYER
  0
DICTIONARY
  5
2C8
100
AcDbDictionary
280
     1
  3
ACAD_XREC_ROUNDTRIP
360
2C9
  0
ACAD_PROXY_OBJECT
  5
1E
102
{ACAD_REACTORS
330
1A
102
}
100
AcDbProxyObject
 90
      499
 91
      505
 93
      468
310
A2C00AAAAAA416AA591069074C61796F75743140501A80000000000000000000000000000000000000000000000000000000000000002A6A6AAAA1
330
1B
330
0
340
0
340
0
 94
        0
  0
ACAD_PROXY_OBJECT
  5
22
102
{ACAD_REACTORS
330
1A
102
}
100
AcDbProxyObject
 90
      499
 91
      505
 93
      556
310
A2C01AAAAAAAAA5A69054D6F64656C901A80000000000000000000000000000000000000000000000000000000000000002A6A6AA80000000000407A400000000000241C9020
330
1F
330
0
340
0
340
0
 94
        0
  0
ACAD_PROXY_OBJECT
  5
26
102
{ACAD_REACTORS
330
1A
102
}
100
AcDbProxyObject
 90
      499
 91
      505
 93
      468
310
A2C00AAAAAA416AA591069074C61796F75743240901A80000000000000000000000000000000000000000000000000000000000000002A6A6AAAA0
330
23
330
0
340
0
340
0
 94
        0
  0
XRECORD
  5
29E
102
{ACAD_REACTORS
330
29D
102
}
100
AcDbXrecord
 90
        1
  0
XRECORD
  5
29F
102
{ACAD_REACTORS
330
29D
102
}
100
AcDbXrecord
 90
       70
  0
XRECORD
  5
2A0
102
{ACAD_REACTORS
330
29D
102
}
100
AcDbXrecord
  1

  0
XRECORD
  5
2A1
102
{ACAD_REACTORS
330
29D
102
}
100
AcDbXrecord
  1

  0
XRECORD
  5
2A2
102
{ACAD_REACTORS
330
29D
102
}
100
AcDbXrecord
340
1A
  0
XRECORD
  5
2A3
102
{ACAD_REACTORS
330
29D
102
}
100
AcDbXrecord
340
19
  0
XRECORD
  5
2A4
102
{ACAD_REACTORS
330
29D
102
}
100
AcDbXrecord
340
E
  0
XRECORD
  5
2A5
102
{ACAD_REACTORS
330
29D
102
}
100
AcDbXrecord
 90
    10269
  0
XRECORD
  5
2A6
102
{ACAD_REACTORS
330
29D
102
}
100
AcDbXrecord
 90
        4
  0
XRECORD
  5
2A7
102
{ACAD_REACTORS
330
29D
102
}
100
AcDbXrecord
 90
        0
  0
XRECORD
  5
2A8
102
{ACAD_REACTORS
330
29D
102
}
100
AcDbXrecord
  1
{695F2875-CFFD-4C2A-8EDC-2FD376914A96}
  0
XRECORD
  5
2A9
102
{ACAD_REACTORS
330
29D
102
}
100
AcDbXrecord
  1
{FAEB1C32-E019-11D5-929B-00C0DF256EC4}
  0
XRECORD
  5
2AA
102
{ACAD_REACTORS
330
29D
102
}
100
AcDbXrecord
 40
0.0
  0
XRECORD
  5
2AB
102
{ACAD_REACTORS
330
29D
102
}
100
AcDbXrecord
340
0
  0
XRECORD
  5
2AC
102
{ACAD_REACTORS
330
29D
102
}
100
AcDbXrecord
 70
     0
  0
XRECORD
  5
2AD
102
{ACAD_REACTORS
330
29D
102
}
100
AcDbXrecord
340
0
  0
XRECORD
  5
2AE
102
{ACAD_REACTORS
330
29D
102
}
100
AcDbXrecord
 10
0.0
 20
0.0
 30
0.0
  0
XRECORD
  5
2AF
102
{ACAD_REACTORS
330
29D
102
}
100
AcDbXrecord
 10
0.0
 20
0.0
 30
0.0
  0
XRECORD
  5
2B0
102
{ACAD_REACTORS
330
29D
102
}
100
AcDbXrecord
 10
0.0
 20
0.0
 30
0.0
  0
XRECORD
  5
2B1
102
{ACAD_REACTORS
330
29D
102
}
100
AcDbXrecord
 10
0.0
 20
0.0
 30
0.0
  0
XRECORD
  5
2B2
102
{ACAD_REACTORS
330
29D
102
}
100
AcDbXrecord
 10
0.0
 20
0.0
 30
0.0
  0
XRECORD
  5
2B3
102
{ACAD_REACTORS
330
29D
102
}
100
AcDbXrecord
 10
0.0
 20
0.0
 30
0.0
  0
XRECORD
  5
2B4
102
{ACAD_REACTORS
330
29D
102
}
100
AcDbXrecord
340
0
  0
XRECORD
  5
2B5
102
{ACAD_REACTORS
330
29D
102
}
100
AcDbXrecord
 70
     0
  0
XRECORD
  5
2B6
102
{ACAD_REACTORS
330
29D
102
}
100
AcDbXrecord
340
0
  0
XRECORD
  5
2B7
102
{ACAD_REACTORS
330
29D
102
}
100
AcDbXrecord
 10
0.0
 20
0.0
 30
0.0
  0
XRECORD
  5
2B8
102
{ACAD_REACTORS
330
29D
102
}
100
AcDbXrecord
 10
0.0
 20
0.0
 30
0.0
  0
XRECORD
  5
2B9
102
{ACAD_REACTORS
330
29D
102
}
100
AcDbXrecord
 10
0.0
 20
0.0
 30
0.0
  0
XRECORD
  5
2BA
102
{ACAD_REACTORS
330
29D
102
}
100
AcDbXrecord
 10
0.0
 20
0.0
 30
0.0
  0
XRECORD
  5
2BB
102
{ACAD_REACTORS
330
29D
102
}
100
AcDbXrecord
 10
0.0
 20
0.0
 30
0.0
  0
XRECORD
  5
2BC
102
{ACAD_REACTORS
330
29D
102
}
100
AcDbXrecord
 10
0.0
 20
0.0
 30
0.0
  0
XRECORD
  5
2BD
102
{ACAD_REACTORS
330
29D
102
}
100
AcDbXrecord
1000
DSTYLE
1002
{
1070
   143
 40
0.03937
1070
    41
 40
6.0
1070
    44
 40
1.0
1070
    42
 40
1.0
1070
   147
 40
1.524
1070
   144
 40
2.0
1070
    73
 70
     1
1070
    74
 70
     1
1070
   340
340
11
1070
   140
 40
3.5
1070
   284
 70
     0
1070
    78
 70
     0
1002
}
  0
XRECORD
  5
2BF
102
{ACAD_REACTORS
330
2BE
102
}
100
AcDbXrecord
102
EXTNAMES
  1
NORMAL
  2
Normal
  0
XRECORD
  5
2C1
102
{ACAD_REACTORS
330
2C0
102
}
100
AcDbXrecord
102
EXTNAMES
  1
STANDARD
  2
Standard
  0
XRECORD
  5
2C9
102
{ACAD_REACTORS
330
2C8
102
}
100
AcDbXrecord
102
EXTNAMES
  1
LAYOUT1
  2
Layout1
  1
LAYOUT2
  2
Layout2
  1
MODEL
  2
Model
  0
ENDSEC
  0
EOF
