  0
SECTION
  2
HEADER
  9
$ACADVER
  1
AC1014
  9
$ACADMAINTVER
 70
     0
  9
$DWGCODEPAGE
  3
ANSI_1252
  9
$INSBASE
 10
0.0
 20
0.0
 30
0.0
  9
$EXTMIN
 10
30.422518
 20
85.643098
 30
-0.001526
  9
$EXTMAX
 10
1026.242983
 20
716.77263
 30
0.0
  9
$LIMMIN
 10
0.0
 20
0.0
  9
$LIMMAX
 10
0.0
 20
0.0
  9
$ORTHOMODE
 70
     0
  9
$REGENMODE
 70
     1
  9
$FILLMODE
 70
     1
  9
$QTEXTMODE
 70
     0
  9
$MIRRTEXT
 70
     1
  9
$DRAGMODE
 70
     2
  9
$LTSCALE
 40
1.0
  9
$OSMODE
 70
    37
  9
$ATTMODE
 70
     1
  9
$TEXTSIZE
 40
10.0
  9
$TRACEWID
 40
1.0
  9
$TEXTSTYLE
  7
STANDARD
  9
$CLAYER
  8
0
  9
$CELTYPE
  6
BYLAYER
  9
$CECOLOR
 62
   256
  9
$CELTSCALE
 40
1.0
  9
$DELOBJ
 70
     1
  9
$DISPSILH
 70
     0
  9
$DIMSCALE
 40
1.0
  9
$DIMASZ
 40
6.0
  9
$DIMEXO
 40
1.0
  9
$DIMDLI
 40
3.75
  9
$DIMRND
 40
0.0
  9
$DIMDLE
 40
0.0
  9
$DIMEXE
 40
1.0
  9
$DIMTP
 40
0.0
  9
$DIMTM
 40
0.0
  9
$DIMTXT
 40
3.5
  9
$DIMCEN
 40
2.5
  9
$DIMTSZ
 40
0.0
  9
$DIMTOL
 70
     0
  9
$DIMLIM
 70
     0
  9
$DIMTIH
 70
     1
  9
$DIMTOH
 70
     1
  9
$DIMSE1
 70
     0
  9
$DIMSE2
 70
     0
  9
$DIMTAD
 70
     1
  9
$DIMZIN
 70
     0
  9
$DIMBLK
  1

  9
$DIMASO
 70
     1
  9
$DIMSHO
 70
     1
  9
$DIMPOST
  1

  9
$DIMAPOST
  1

  9
$DIMALT
 70
     0
  9
$DIMALTD
 70
     3
  9
$DIMALTF
 40
0.03937
  9
$DIMLFAC
 40
1.0
  9
$DIMTOFL
 70
     1
  9
$DIMTVP
 40
0.0
  9
$DIMTIX
 70
     0
  9
$DIMSOXD
 70
     0
  9
$DIMSAH
 70
     0
  9
$DIMBLK1
  1

  9
$DIMBLK2
  1

  9
$DIMSTYLE
  2
ISO-25
  9
$DIMCLRD
 70
     0
  9
$DIMCLRE
 70
     0
  9
$DIMCLRT
 70
     0
  9
$DIMTFAC
 40
1.0
  9
$DIMGAP
 40
1.524
  9
$DIMJUST
 70
     0
  9
$DIMSD1
 70
     0
  9
$DIMSD2
 70
     0
  9
$DIMTOLJ
 70
     0
  9
$DIMTZIN
 70
     0
  9
$DIMALTZ
 70
     0
  9
$DIMALTTZ
 70
     0
  9
$DIMFIT
 70
     3
  9
$DIMUPT
 70
     0
  9
$DIMUNIT
 70
     2
  9
$DIMDEC
 70
     2
  9
$DIMTDEC
 70
     2
  9
$DIMALTU
 70
     2
  9
$DIMALTTD
 70
     3
  9
$DIMTXSTY
  7
STANDARD
  9
$DIMAUNIT
 70
     0
  9
$LUNITS
 70
     2
  9
$LUPREC
 70
     2
  9
$SKETCHINC
 40
1.0
  9
$FILLETRAD
 40
10.0
  9
$AUNITS
 70
     0
  9
$AUPREC
 70
     0
  9
$MENU
  1
.
  9
$ELEVATION
 40
0.0
  9
$PELEVATION
 40
0.0
  9
$THICKNESS
 40
0.0
  9
$LIMCHECK
 70
     0
  9
$BLIPMODE
 70
     0
  9
$CHAMFERA
 40
10.0
  9
$CHAMFERB
 40
10.0
  9
$CHAMFERC
 40
20.0
  9
$CHAMFERD
 40
0.0
  9
$SKPOLY
 70
     0
  9
$TDCREATE
 40
2454075.505882419
  9
$TDUPDATE
 40
2454075.634814201
  9
$TDINDWG
 40
0.0043521296
  9
$TDUSRTIMER
 40
0.0043521296
  9
$USRTIMER
 70
     1
  9
$ANGBASE
 50
0.0
  9
$ANGDIR
 70
     0
  9
$PDMODE
 70
     0
  9
$PDSIZE
 40
-1.0
  9
$PLINEWID
 40
0.0
  9
$COORDS
 70
     1
  9
$SPLFRAME
 70
     0
  9
$SPLINETYPE
 70
     6
  9
$SPLINESEGS
 70
     8
  9
$ATTDIA
 70
     0
  9
$ATTREQ
 70
     1
  9
$HANDLING
 70
     1
  9
$HANDSEED
  5
6DC
  9
$SURFTAB1
 70
     6
  9
$SURFTAB2
 70
     6
  9
$SURFTYPE
 70
     6
  9
$SURFU
 70
     6
  9
$SURFV
 70
     6
  9
$UCSNAME
  2

  9
$UCSORG
 10
0.0
 20
0.0
 30
0.0
  9
$UCSXDIR
 10
1.0
 20
0.0
 30
0.0
  9
$UCSYDIR
 10
0.0
 20
1.0
 30
0.0
  9
$PUCSNAME
  2

  9
$PUCSORG
 10
0.0
 20
0.0
 30
0.0
  9
$PUCSXDIR
 10
1.0
 20
0.0
 30
0.0
  9
$PUCSYDIR
 10
0.0
 20
1.0
 30
0.0
  9
$USERI1
 70
     0
  9
$USERI2
 70
     0
  9
$USERI3
 70
     0
  9
$USERI4
 70
     0
  9
$USERI5
 70
     0
  9
$USERR1
 40
0.0
  9
$USERR2
 40
0.0
  9
$USERR3
 40
0.0
  9
$USERR4
 40
0.0
  9
$USERR5
 40
0.0
  9
$WORLDVIEW
 70
     1
  9
$SHADEDGE
 70
     3
  9
$SHADEDIF
 70
    70
  9
$TILEMODE
 70
     1
  9
$MAXACTVP
 70
    64
  9
$PINSBASE
 10
0.0
 20
0.0
 30
0.0
  9
$PLIMCHECK
 70
     0
  9
$PEXTMIN
 10
1.000000E+20
 20
1.000000E+20
 30
1.000000E+20
  9
$PEXTMAX
 10
-1.000000E+20
 20
-1.000000E+20
 30
-1.000000E+20
  9
$PLIMMIN
 10
0.0
 20
0.0
  9
$PLIMMAX
 10
420.0
 20
297.0
  9
$UNITMODE
 70
     0
  9
$VISRETAIN
 70
     1
  9
$PLINEGEN
 70
     0
  9
$PSLTSCALE
 70
     1
  9
$TREEDEPTH
 70
  3020
  9
$PICKSTYLE
 70
     1
  9
$CMLSTYLE
  2
STANDARD
  9
$CMLJUST
 70
     0
  9
$CMLSCALE
 40
20.0
  9
$PROXYGRAPHICS
 70
     1
  9
$MEASUREMENT
 70
     1
  0
ENDSEC
  0
SECTION
  2
CLASSES
  0
CLASS
  1
ACDBDICTIONARYWDFLT
  2
AcDbDictionaryWithDefault
  3
ObjectDBX Classes
 90
        0
280
     0
281
     0
  0
CLASS
  1
XRECORD
  2
AcDbXrecord
  3
"<Built In>"
 90
        0
280
     0
281
     0
  0
CLASS
  1
LWPOLYLINE
  2
AcDbPolyline
  3
"AutoCAD"
 90
        0
280
     0
281
     1
  0
CLASS
  1
HATCH
  2
AcDbHatch
  3
"ACAD_SEDONA"
 90
        0
280
     0
281
     1
  0
CLASS
  1
ACDBPLACEHOLDER
  2
AcDbPlaceHolder
  3
ObjectDBX Classes
 90
        0
280
     0
281
     0
  0
CLASS
  1
LAYOUT
  2
AcDbLayout
  3
ObjectDBX Classes
 90
        0
280
     0
281
     0
  0
ENDSEC
  0
SECTION
  2
TABLES
  0
TABLE
  2
VPORT
  5
8
100
AcDbSymbolTable
 70
     3
  0
VPORT
  5
6DB
100
AcDbSymbolTableRecord
100
AcDbViewportTableRecord
  2
*ACTIVE
 70
     0
 10
0.0
 20
0.0
 11
1.0
 21
1.0
 12
513.121491
 22
358.386315
 13
0.0
 23
0.0
 14
10.0
 24
10.0
 15
10.0
 25
10.0
 16
0.0
 26
0.0
 36
1.0
 17
0.0
 27
0.0
 37
0.0
 40
722.017308
 41
1.440781
 42
50.0
 43
0.0
 44
0.0
 50
0.0
 51
0.0
 71
     0
 72
  2000
 73
     1
 74
     3
 75
     0
 76
     0
 77
     0
 78
     0
  0
ENDTAB
  0
TABLE
  2
LTYPE
  5
5
100
AcDbSymbolTable
 70
     6
  0
LTYPE
  5
14
102
{ACAD_XDICTIONARY
360
6BD
102
}
100
AcDbSymbolTableRecord
100
AcDbLinetypeTableRecord
  2
BYBLOCK
 70
     0
  3

 72
    65
 73
     0
 40
0.0
  0
LTYPE
  5
15
102
{ACAD_XDICTIONARY
360
6BF
102
}
100
AcDbSymbolTableRecord
100
AcDbLinetypeTableRecord
  2
BYLAYER
 70
     0
  3

 72
    65
 73
     0
 40
0.0
  0
LTYPE
  5
16
102
{ACAD_XDICTIONARY
360
6C1
102
}
100
AcDbSymbolTableRecord
100
AcDbLinetypeTableRecord
  2
CONTINUOUS
 70
     0
  3
Solid line
 72
    65
 73
     0
 40
0.0
  0
LTYPE
  5
2A
100
AcDbSymbolTableRecord
100
AcDbLinetypeTableRecord
  2
HIDDEN
 70
     0
  3
Hidden __ __ __ __ __ __ __ __ __ __ __ __ __ __
 72
    65
 73
     2
 40
1.905
 49
1.27
 74
     0
 49
-0.635
 74
     0
  0
LTYPE
  5
2B
100
AcDbSymbolTableRecord
100
AcDbLinetypeTableRecord
  2
PHANTOM
 70
     0
  3
Phantom ______  __  __  ______  __  __  ______
 72
    65
 73
     6
 40
12.7
 49
6.35
 74
     0
 49
-1.27
 74
     0
 49
1.27
 74
     0
 49
-1.27
 74
     0
 49
1.27
 74
     0
 49
-1.27
 74
     0
  0
LTYPE
  5
2C
100
AcDbSymbolTableRecord
100
AcDbLinetypeTableRecord
  2
CENTER
 70
     0
  3
Center ____ _ ____ _ ____ _ ____ _ ____ _ ____
 72
    65
 73
     4
 40
10.16
 49
6.35
 74
     0
 49
-1.27
 74
     0
 49
1.27
 74
     0
 49
-1.27
 74
     0
  0
LTYPE
  5
2D
100
AcDbSymbolTableRecord
100
AcDbLinetypeTableRecord
  2
CENTERX2
 70
     0
  3
Center (2x) ________  __  ________  __  _____
 72
    65
 73
     4
 40
20.32
 49
12.7
 74
     0
 49
-2.54
 74
     0
 49
2.54
 74
     0
 49
-2.54
 74
     0
  0
LTYPE
  5
2E
100
AcDbSymbolTableRecord
100
AcDbLinetypeTableRecord
  2
DOT2
 70
     0
  3
Dot (.5x) ........................................
 72
    65
 73
     2
 40
0.635
 49
0.0
 74
     0
 49
-0.635
 74
     0
  0
ENDTAB
  0
TABLE
  2
LAYER
  5
2
100
AcDbSymbolTable
 70
     2
  0
LAYER
  5
10
100
AcDbSymbolTableRecord
100
AcDbLayerTableRecord
  2
0
 70
     0
 62
     7
  6
CONTINUOUS
  0
LAYER
  5
6D4
100
AcDbSymbolTableRecord
100
AcDbLayerTableRecord
  2
DEFPOINTS
 70
     0
 62
     7
  6
CONTINUOUS
  0
ENDTAB
  0
TABLE
  2
STYLE
  5
3
100
AcDbSymbolTable
 70
     1
  0
STYLE
  5
11
102
{ACAD_XDICTIONARY
360
6BB
102
}
100
AcDbSymbolTableRecord
100
AcDbTextStyleTableRecord
  2
STANDARD
 70
     0
 40
0.0
 41
1.0
 50
0.0
 71
     0
 42
10.0
  3
txt
  4

  0
ENDTAB
  0
TABLE
  2
VIEW
  5
6
100
AcDbSymbolTable
 70
     0
  0
ENDTAB
  0
TABLE
  2
UCS
  5
7
100
AcDbSymbolTable
 70
     0
  0
ENDTAB
  0
TABLE
  2
APPID
  5
9
100
AcDbSymbolTable
 70
     1
  0
APPID
  5
12
100
AcDbSymbolTableRecord
100
AcDbRegAppTableRecord
  2
ACAD
 70
     0
  0
ENDTAB
  0
TABLE
  2
DIMSTYLE
  5
A
100
AcDbSymbolTable
 70
     1
  0
DIMSTYLE
105
27
102
{ACAD_XDICTIONARY
360
6C5
102
}
100
AcDbSymbolTableRecord
100
AcDbDimStyleTableRecord
  2
ISO-25
 70
     0
  3

  4

  5

  6

  7

 40
1.0
 41
2.5
 42
0.625
 43
3.75
 44
1.25
 45
0.0
 46
0.0
 47
0.0
 48
0.0
140
2.5
141
2.5
142
0.0
143
0.03937
144
1.0
145
0.0
146
1.0
147
0.625
 71
     0
 72
     0
 73
     0
 74
     0
 75
     0
 76
     0
 77
     1
 78
     8
170
     0
171
     3
172
     1
173
     0
174
     0
175
     0
176
     0
177
     0
178
     0
270
     2
271
     2
272
     2
273
     2
274
     3
340
11
275
     0
280
     0
281
     0
282
     0
283
     0
284
     8
285
     0
286
     0
287
     3
288
     0
  0
ENDTAB
  0
TABLE
  2
BLOCK_RECORD
  5
1
100
AcDbSymbolTable
 70
    10
  0
BLOCK_RECORD
  5
1F
102
{ACAD_XDICTIONARY
360
6B2
102
}
100
AcDbSymbolTableRecord
100
AcDbBlockTableRecord
  2
*MODEL_SPACE
  0
BLOCK_RECORD
  5
1B
102
{ACAD_XDICTIONARY
360
6B0
102
}
100
AcDbSymbolTableRecord
100
AcDbBlockTableRecord
  2
*PAPER_SPACE
  0
BLOCK_RECORD
  5
23
102
{ACAD_XDICTIONARY
360
6B4
102
}
100
AcDbSymbolTableRecord
100
AcDbBlockTableRecord
  2
*PAPER_SPACE0
  0
BLOCK_RECORD
  5
18F
100
AcDbSymbolTableRecord
100
AcDbBlockTableRecord
  2
SW_CENTERMARKSYMBOL_0
  0
BLOCK_RECORD
  5
197
100
AcDbSymbolTableRecord
100
AcDbBlockTableRecord
  2
SW_CENTERMARKSYMBOL_1
  0
BLOCK_RECORD
  5
443
100
AcDbSymbolTableRecord
100
AcDbBlockTableRecord
  2
SW_CENTERMARKSYMBOL_2
  0
BLOCK_RECORD
  5
44B
100
AcDbSymbolTableRecord
100
AcDbBlockTableRecord
  2
SW_CENTERMARKSYMBOL_3
  0
BLOCK_RECORD
  5
49F
100
AcDbSymbolTableRecord
100
AcDbBlockTableRecord
  2
SW_CENTERMARKSYMBOL_4
  0
BLOCK_RECORD
  5
4A7
100
AcDbSymbolTableRecord
100
AcDbBlockTableRecord
  2
SW_CENTERMARKSYMBOL_5
  0
BLOCK_RECORD
  5
67A
100
AcDbSymbolTableRecord
100
AcDbBlockTableRecord
  2
SW_CENTERMARKSYMBOL_6
  0
BLOCK_RECORD
  5
682
100
AcDbSymbolTableRecord
100
AcDbBlockTableRecord
  2
SW_CENTERMARKSYMBOL_7
  0
BLOCK_RECORD
  5
6CB
100
AcDbSymbolTableRecord
100
AcDbBlockTableRecord
  2
*D9
  0
ENDTAB
  0
ENDSEC
  0
SECTION
  2
BLOCKS
  0
BLOCK
  5
20
100
AcDbEntity
  8
0
100
AcDbBlockBegin
  2
*MODEL_SPACE
 70
     0
 10
0.0
 20
0.0
 30
0.0
  3
*MODEL_SPACE
  1

  0
ENDBLK
  5
21
100
AcDbEntity
  8
0
100
AcDbBlockEnd
  0
BLOCK
  5
1C
100
AcDbEntity
 67
     1
  8
0
100
AcDbBlockBegin
  2
*PAPER_SPACE
 70
     0
 10
0.0
 20
0.0
 30
0.0
  3
*PAPER_SPACE
  1

  0
ENDBLK
  5
1D
100
AcDbEntity
 67
     1
  8
0
100
AcDbBlockEnd
  0
BLOCK
  5
24
100
AcDbEntity
  8
0
100
AcDbBlockBegin
  2
*PAPER_SPACE0
 70
     0
 10
0.0
 20
0.0
 30
0.0
  3
*PAPER_SPACE0
  1

  0
ENDBLK
  5
25
100
AcDbEntity
  8
0
100
AcDbBlockEnd
  0
BLOCK
  5
190
100
AcDbEntity
  8
0
100
AcDbBlockBegin
  2
SW_CENTERMARKSYMBOL_0
 70
     0
 10
0.0
 20
0.0
 30
0.0
  3
SW_CENTERMARKSYMBOL_0
  1

  0
LINE
  5
192
100
AcDbEntity
  8
0
  6
CONTINUOUS
 62
     7
100
AcDbLine
 10
0.0
 20
0.0
 30
0.0
 11
0.0
 21
0.5
 31
0.0
  0
LINE
  5
193
100
AcDbEntity
  8
0
  6
CONTINUOUS
 62
     7
100
AcDbLine
 10
0.0
 20
0.0
 30
0.0
 11
-0.5
 21
0.0
 31
0.0
  0
LINE
  5
194
100
AcDbEntity
  8
0
  6
CONTINUOUS
 62
     7
100
AcDbLine
 10
0.0
 20
0.0
 30
0.0
 11
0.0
 21
-0.5
 31
0.0
  0
LINE
  5
195
100
AcDbEntity
  8
0
  6
CONTINUOUS
 62
     7
100
AcDbLine
 10
0.0
 20
0.0
 30
0.0
 11
0.5
 21
0.0
 31
0.0
  0
ENDBLK
  5
191
100
AcDbEntity
  8
0
100
AcDbBlockEnd
  0
BLOCK
  5
198
100
AcDbEntity
  8
0
100
AcDbBlockBegin
  2
SW_CENTERMARKSYMBOL_1
 70
     0
 10
0.0
 20
0.0
 30
0.0
  3
SW_CENTERMARKSYMBOL_1
  1

  0
LINE
  5
19A
100
AcDbEntity
  8
0
  6
CONTINUOUS
 62
     7
100
AcDbLine
 10
0.0
 20
0.0
 30
0.0
 11
0.0
 21
0.5
 31
0.0
  0
LINE
  5
19B
100
AcDbEntity
  8
0
  6
CONTINUOUS
 62
     7
100
AcDbLine
 10
0.0
 20
0.0
 30
0.0
 11
-0.5
 21
0.0
 31
0.0
  0
LINE
  5
19C
100
AcDbEntity
  8
0
  6
CONTINUOUS
 62
     7
100
AcDbLine
 10
0.0
 20
0.0
 30
0.0
 11
0.0
 21
-0.5
 31
0.0
  0
LINE
  5
19D
100
AcDbEntity
  8
0
  6
CONTINUOUS
 62
     7
100
AcDbLine
 10
0.0
 20
0.0
 30
0.0
 11
0.5
 21
0.0
 31
0.0
  0
ENDBLK
  5
199
100
AcDbEntity
  8
0
100
AcDbBlockEnd
  0
BLOCK
  5
444
100
AcDbEntity
  8
0
100
AcDbBlockBegin
  2
SW_CENTERMARKSYMBOL_2
 70
     0
 10
0.0
 20
0.0
 30
0.0
  3
SW_CENTERMARKSYMBOL_2
  1

  0
LINE
  5
446
100
AcDbEntity
  8
0
  6
CONTINUOUS
 62
     7
100
AcDbLine
 10
0.0
 20
0.0
 30
0.0
 11
0.0
 21
0.5
 31
0.0
  0
LINE
  5
447
100
AcDbEntity
  8
0
  6
CONTINUOUS
 62
     7
100
AcDbLine
 10
0.0
 20
0.0
 30
0.0
 11
-0.5
 21
0.0
 31
0.0
  0
LINE
  5
448
100
AcDbEntity
  8
0
  6
CONTINUOUS
 62
     7
100
AcDbLine
 10
0.0
 20
0.0
 30
0.0
 11
0.0
 21
-0.5
 31
0.0
  0
LINE
  5
449
100
AcDbEntity
  8
0
  6
CONTINUOUS
 62
     7
100
AcDbLine
 10
0.0
 20
0.0
 30
0.0
 11
0.5
 21
0.0
 31
0.0
  0
ENDBLK
  5
445
100
AcDbEntity
  8
0
100
AcDbBlockEnd
  0
BLOCK
  5
44C
100
AcDbEntity
  8
0
100
AcDbBlockBegin
  2
SW_CENTERMARKSYMBOL_3
 70
     0
 10
0.0
 20
0.0
 30
0.0
  3
SW_CENTERMARKSYMBOL_3
  1

  0
LINE
  5
44E
100
AcDbEntity
  8
0
  6
CONTINUOUS
 62
     7
100
AcDbLine
 10
0.0
 20
0.0
 30
0.0
 11
0.0
 21
0.5
 31
0.0
  0
LINE
  5
44F
100
AcDbEntity
  8
0
  6
CONTINUOUS
 62
     7
100
AcDbLine
 10
0.0
 20
0.0
 30
0.0
 11
-0.5
 21
0.0
 31
0.0
  0
LINE
  5
450
100
AcDbEntity
  8
0
  6
CONTINUOUS
 62
     7
100
AcDbLine
 10
0.0
 20
0.0
 30
0.0
 11
0.0
 21
-0.5
 31
0.0
  0
LINE
  5
451
100
AcDbEntity
  8
0
  6
CONTINUOUS
 62
     7
100
AcDbLine
 10
0.0
 20
0.0
 30
0.0
 11
0.5
 21
0.0
 31
0.0
  0
ENDBLK
  5
44D
100
AcDbEntity
  8
0
100
AcDbBlockEnd
  0
BLOCK
  5
4A0
100
AcDbEntity
  8
0
100
AcDbBlockBegin
  2
SW_CENTERMARKSYMBOL_4
 70
     0
 10
0.0
 20
0.0
 30
0.0
  3
SW_CENTERMARKSYMBOL_4
  1

  0
LINE
  5
4A2
100
AcDbEntity
  8
0
  6
CONTINUOUS
 62
     7
100
AcDbLine
 10
0.0
 20
0.0
 30
0.0
 11
0.0
 21
0.5
 31
0.0
  0
LINE
  5
4A3
100
AcDbEntity
  8
0
  6
CONTINUOUS
 62
     7
100
AcDbLine
 10
0.0
 20
0.0
 30
0.0
 11
-0.5
 21
0.0
 31
0.0
  0
LINE
  5
4A4
100
AcDbEntity
  8
0
  6
CONTINUOUS
 62
     7
100
AcDbLine
 10
0.0
 20
0.0
 30
0.0
 11
0.0
 21
-0.5
 31
0.0
  0
LINE
  5
4A5
100
AcDbEntity
  8
0
  6
CONTINUOUS
 62
     7
100
AcDbLine
 10
0.0
 20
0.0
 30
0.0
 11
0.5
 21
0.0
 31
0.0
  0
ENDBLK
  5
4A1
100
AcDbEntity
  8
0
100
AcDbBlockEnd
  0
BLOCK
  5
4A8
100
AcDbEntity
  8
0
100
AcDbBlockBegin
  2
SW_CENTERMARKSYMBOL_5
 70
     0
 10
0.0
 20
0.0
 30
0.0
  3
SW_CENTERMARKSYMBOL_5
  1

  0
LINE
  5
4AA
100
AcDbEntity
  8
0
  6
CONTINUOUS
 62
     7
100
AcDbLine
 10
0.0
 20
0.0
 30
0.0
 11
0.0
 21
0.5
 31
0.0
  0
LINE
  5
4AB
100
AcDbEntity
  8
0
  6
CONTINUOUS
 62
     7
100
AcDbLine
 10
0.0
 20
0.0
 30
0.0
 11
-0.5
 21
0.0
 31
0.0
  0
LINE
  5
4AC
100
AcDbEntity
  8
0
  6
CONTINUOUS
 62
     7
100
AcDbLine
 10
0.0
 20
0.0
 30
0.0
 11
0.0
 21
-0.5
 31
0.0
  0
LINE
  5
4AD
100
AcDbEntity
  8
0
  6
CONTINUOUS
 62
     7
100
AcDbLine
 10
0.0
 20
0.0
 30
0.0
 11
0.5
 21
0.0
 31
0.0
  0
ENDBLK
  5
4A9
100
AcDbEntity
  8
0
100
AcDbBlockEnd
  0
BLOCK
  5
67B
100
AcDbEntity
  8
0
100
AcDbBlockBegin
  2
SW_CENTERMARKSYMBOL_6
 70
     0
 10
0.0
 20
0.0
 30
0.0
  3
SW_CENTERMARKSYMBOL_6
  1

  0
LINE
  5
67D
100
AcDbEntity
  8
0
  6
CONTINUOUS
 62
     7
100
AcDbLine
 10
0.0
 20
0.0
 30
0.0
 11
0.0
 21
0.5
 31
0.0
  0
LINE
  5
67E
100
AcDbEntity
  8
0
  6
CONTINUOUS
 62
     7
100
AcDbLine
 10
0.0
 20
0.0
 30
0.0
 11
-0.5
 21
0.0
 31
0.0
  0
LINE
  5
67F
100
AcDbEntity
  8
0
  6
CONTINUOUS
 62
     7
100
AcDbLine
 10
0.0
 20
0.0
 30
0.0
 11
0.0
 21
-0.5
 31
0.0
  0
LINE
  5
680
100
AcDbEntity
  8
0
  6
CONTINUOUS
 62
     7
100
AcDbLine
 10
0.0
 20
0.0
 30
0.0
 11
0.5
 21
0.0
 31
0.0
  0
ENDBLK
  5
67C
100
AcDbEntity
  8
0
100
AcDbBlockEnd
  0
BLOCK
  5
683
100
AcDbEntity
  8
0
100
AcDbBlockBegin
  2
SW_CENTERMARKSYMBOL_7
 70
     0
 10
0.0
 20
0.0
 30
0.0
  3
SW_CENTERMARKSYMBOL_7
  1

  0
LINE
  5
685
100
AcDbEntity
  8
0
  6
CONTINUOUS
 62
     7
100
AcDbLine
 10
0.0
 20
0.0
 30
0.0
 11
0.0
 21
0.5
 31
0.0
  0
LINE
  5
686
100
AcDbEntity
  8
0
  6
CONTINUOUS
 62
     7
100
AcDbLine
 10
0.0
 20
0.0
 30
0.0
 11
-0.5
 21
0.0
 31
0.0
  0
LINE
  5
687
100
AcDbEntity
  8
0
  6
CONTINUOUS
 62
     7
100
AcDbLine
 10
0.0
 20
0.0
 30
0.0
 11
0.0
 21
-0.5
 31
0.0
  0
LINE
  5
688
100
AcDbEntity
  8
0
  6
CONTINUOUS
 62
     7
100
AcDbLine
 10
0.0
 20
0.0
 30
0.0
 11
0.5
 21
0.0
 31
0.0
  0
ENDBLK
  5
684
100
AcDbEntity
  8
0
100
AcDbBlockEnd
  0
BLOCK
  5
6CC
100
AcDbEntity
  8
0
100
AcDbBlockBegin
  2
*D9
 70
     1
 10
0.0
 20
0.0
 30
0.0
  3
*D9
  1

  0
LINE
  5
6CD
100
AcDbEntity
  8
0
  6
BYBLOCK
 62
     0
100
AcDbLine
 10
379.358989
 20
528.57516
 30
0.0
 11
351.809058
 21
528.57516
 31
0.0
  0
LINE
  5
6CE
100
AcDbEntity
  8
0
  6
BYBLOCK
 62
     0
100
AcDbLine
 10
379.358989
 20
288.57516
 30
0.0
 11
351.809058
 21
288.57516
 31
0.0
  0
LINE
  5
6CF
100
AcDbEntity
  8
0
  6
BYBLOCK
 62
     0
100
AcDbLine
 10
352.809058
 20
522.57516
 30
0.0
 11
352.809058
 21
411.84916
 31
0.0
  0
LINE
  5
6D0
100
AcDbEntity
  8
0
  6
BYBLOCK
 62
     0
100
AcDbLine
 10
352.809058
 20
294.57516
 30
0.0
 11
352.809058
 21
405.30116
 31
0.0
  0
SOLID
  5
6D1
100
AcDbEntity
  8
0
  6
BYBLOCK
 62
     0
100
AcDbTrace
 10
351.809058
 20
522.57516
 30
0.0
 11
353.809058
 21
522.57516
 31
0.0
 12
352.809058
 22
528.57516
 32
0.0
 13
352.809058
 23
528.57516
 33
0.0
  0
SOLID
  5
6D2
100
AcDbEntity
  8
0
  6
BYBLOCK
 62
     0
100
AcDbTrace
 10
351.809058
 20
294.57516
 30
0.0
 11
353.809058
 21
294.57516
 31
0.0
 12
352.809058
 22
288.57516
 32
0.0
 13
352.809058
 23
288.57516
 33
0.0
  0
MTEXT
  5
6D3
100
AcDbEntity
  8
0
  6
BYBLOCK
 62
     0
100
AcDbMText
 10
352.809058
 20
408.57516
 30
0.0
 40
3.5
 41
0.0
 71
     5
 72
     1
  1
240.00
  0
POINT
  5
6D5
100
AcDbEntity
  8
DEFPOINTS
  6
BYBLOCK
 62
     0
100
AcDbPoint
 10
380.358989
 20
528.57516
 30
0.0
  0
POINT
  5
6D6
100
AcDbEntity
  8
DEFPOINTS
  6
BYBLOCK
 62
     0
100
AcDbPoint
 10
380.358989
 20
288.57516
 30
0.0
  0
POINT
  5
6D7
100
AcDbEntity
  8
DEFPOINTS
  6
BYBLOCK
 62
     0
100
AcDbPoint
 10
352.809058
 20
288.57516
 30
0.0
  0
ENDBLK
  5
6D8
100
AcDbEntity
  8
0
100
AcDbBlockEnd
  0
ENDSEC
  0
SECTION
  2
ENTITIES
  0
CIRCLE
  5
34
100
AcDbEntity
  8
0
  6
CONTINUOUS
 62
     7
100
AcDbCircle
 10
171.797927
 20
505.37516
 30
0.0
 40
2.3
  0
CIRCLE
  5
35
100
AcDbEntity
  8
0
  6
CONTINUOUS
 62
     7
100
AcDbCircle
 10
171.797927
 20
505.37516
 30
0.0
 40
2.247635
  0
CIRCLE
  5
36
100
AcDbEntity
  8
0
  6
CONTINUOUS
 62
     7
100
AcDbCircle
 10
74.797927
 20
311.77516
 30
0.0
 40
2.3
  0
CIRCLE
  5
37
100
AcDbEntity
  8
0
  6
CONTINUOUS
 62
     7
100
AcDbCircle
 10
74.797927
 20
311.77516
 30
0.0
 40
2.247635
  0
CIRCLE
  5
38
100
AcDbEntity
  8
0
  6
CONTINUOUS
 62
     7
100
AcDbCircle
 10
84.797927
 20
311.77516
 30
0.0
 40
2.247635
  0
CIRCLE
  5
39
100
AcDbEntity
  8
0
  6
CONTINUOUS
 62
     7
100
AcDbCircle
 10
171.797927
 20
311.77516
 30
0.0
 40
2.3
  0
CIRCLE
  5
3A
100
AcDbEntity
  8
0
  6
CONTINUOUS
 62
     7
100
AcDbCircle
 10
171.797927
 20
311.77516
 30
0.0
 40
2.247635
  0
CIRCLE
  5
3B
100
AcDbEntity
  8
0
  6
CONTINUOUS
 62
     7
100
AcDbCircle
 10
181.797927
 20
311.77516
 30
0.0
 40
2.3
  0
CIRCLE
  5
3C
100
AcDbEntity
  8
0
  6
CONTINUOUS
 62
     7
100
AcDbCircle
 10
181.797927
 20
311.77516
 30
0.0
 40
2.247635
  0
CIRCLE
  5
3D
100
AcDbEntity
  8
0
  6
CONTINUOUS
 62
     7
100
AcDbCircle
 10
200.597927
 20
499.57516
 30
0.0
 40
2.3
  0
CIRCLE
  5
3E
100
AcDbEntity
  8
0
  6
CONTINUOUS
 62
     7
100
AcDbCircle
 10
200.597927
 20
499.57516
 30
0.0
 40
2.247635
  0
CIRCLE
  5
3F
100
AcDbEntity
  8
0
  6
CONTINUOUS
 62
     7
100
AcDbCircle
 10
200.597927
 20
489.57516
 30
0.0
 40
2.3
  0
CIRCLE
  5
40
100
AcDbEntity
  8
0
  6
CONTINUOUS
 62
     7
100
AcDbCircle
 10
200.597927
 20
489.57516
 30
0.0
 40
2.247635
  0
CIRCLE
  5
41
100
AcDbEntity
  8
0
  6
CONTINUOUS
 62
     7
100
AcDbCircle
 10
200.597927
 20
327.57516
 30
0.0
 40
2.3
  0
CIRCLE
  5
42
100
AcDbEntity
  8
0
  6
CONTINUOUS
 62
     7
100
AcDbCircle
 10
200.597927
 20
327.57516
 30
0.0
 40
2.247635
  0
CIRCLE
  5
43
100
AcDbEntity
  8
0
  6
CONTINUOUS
 62
     7
100
AcDbCircle
 10
200.597927
 20
317.57516
 30
0.0
 40
2.3
  0
CIRCLE
  5
44
100
AcDbEntity
  8
0
  6
CONTINUOUS
 62
     7
100
AcDbCircle
 10
200.597927
 20
317.57516
 30
0.0
 40
2.247635
  0
CIRCLE
  5
45
100
AcDbEntity
  8
0
  6
CONTINUOUS
 62
     7
100
AcDbCircle
 10
55.997927
 20
317.57516
 30
0.0
 40
2.3
  0
CIRCLE
  5
46
100
AcDbEntity
  8
0
  6
CONTINUOUS
 62
     7
100
AcDbCircle
 10
55.997927
 20
317.57516
 30
0.0
 40
2.247635
  0
CIRCLE
  5
47
100
AcDbEntity
  8
0
  6
CONTINUOUS
 62
     7
100
AcDbCircle
 10
55.997927
 20
327.57516
 30
0.0
 40
2.3
  0
CIRCLE
  5
48
100
AcDbEntity
  8
0
  6
CONTINUOUS
 62
     7
100
AcDbCircle
 10
55.997927
 20
327.57516
 30
0.0
 40
2.247635
  0
CIRCLE
  5
49
100
AcDbEntity
  8
0
  6
CONTINUOUS
 62
     7
100
AcDbCircle
 10
55.997927
 20
489.57516
 30
0.0
 40
2.3
  0
CIRCLE
  5
4A
100
AcDbEntity
  8
0
  6
CONTINUOUS
 62
     7
100
AcDbCircle
 10
55.997927
 20
489.57516
 30
0.0
 40
2.247635
  0
CIRCLE
  5
4B
100
AcDbEntity
  8
0
  6
CONTINUOUS
 62
     7
100
AcDbCircle
 10
55.997927
 20
499.57516
 30
0.0
 40
2.3
  0
CIRCLE
  5
4C
100
AcDbEntity
  8
0
  6
CONTINUOUS
 62
     7
100
AcDbCircle
 10
55.997927
 20
499.57516
 30
0.0
 40
2.247635
  0
LINE
  5
4D
100
AcDbEntity
  8
0
  6
CONTINUOUS
 62
     7
100
AcDbLine
 10
203.347927
 20
288.57516
 30
0.0
 11
217.797927
 21
288.57516
 31
0.0
  0
LINE
  5
4E
100
AcDbEntity
  8
0
  6
CONTINUOUS
 62
     7
100
AcDbLine
 10
198.779451
 20
293.143635
 30
0.0
 11
203.347927
 21
288.57516
 31
0.0
  0
LINE
  5
4F
100
AcDbEntity
  8
0
  6
CONTINUOUS
 62
     7
100
AcDbLine
 10
217.797927
 20
290.87516
 30
0.0
 11
203.666548
 21
290.875157
 31
0.0
  0
ARC
  5
50
100
AcDbEntity
  8
0
  6
CONTINUOUS
 62
     7
100
AcDbCircle
 10
217.797927
 20
294.57516
 30
0.0
 40
3.7
100
AcDbArc
 50
270.0
 51
0.0
  0
LINE
  5
51
100
AcDbEntity
  8
0
  6
CONTINUOUS
 62
     7
100
AcDbLine
 10
221.497926
 20
306.072471
 30
0.0
 11
221.497927
 21
294.57516
 31
0.0
  0
LINE
  5
52
100
AcDbEntity
  8
0
  6
CONTINUOUS
 62
     7
100
AcDbLine
 10
219.229447
 20
311.593634
 30
0.0
 11
217.729452
 21
309.840945
 31
0.0
  0
LINE
  5
53
100
AcDbEntity
  8
0
  6
CONTINUOUS
 62
     7
100
AcDbLine
 10
223.797927
 20
307.02516
 30
0.0
 11
219.229447
 21
311.593634
 31
0.0
  0
LINE
  5
54
100
AcDbEntity
  8
0
  6
CONTINUOUS
 62
     7
100
AcDbLine
 10
223.797927
 20
294.57516
 30
0.0
 11
223.797927
 21
307.02516
 31
0.0
  0
ARC
  5
55
100
AcDbEntity
  8
0
  6
CONTINUOUS
 62
     7
100
AcDbCircle
 10
217.797927
 20
294.57516
 30
0.0
 40
6.0
100
AcDbArc
 50
270.0
 51
0.0
  0
LINE
  5
56
100
AcDbEntity
  8
0
  6
CONTINUOUS
 62
     7
100
AcDbLine
 10
217.729452
 20
309.840945
 30
0.0
 11
221.497926
 21
306.072471
 31
0.0
  0
LINE
  5
57
100
AcDbEntity
  8
0
  6
CONTINUOUS
 62
     7
100
AcDbLine
 10
200.088757
 20
294.452948
 30
0.0
 11
198.779451
 21
293.143635
 31
0.0
  0
LINE
  5
58
100
AcDbEntity
  8
0
  6
CONTINUOUS
 62
     7
100
AcDbLine
 10
203.666548
 20
290.875157
 30
0.0
 11
200.088757
 21
294.452948
 31
0.0
  0
LINE
  5
59
100
AcDbEntity
  8
0
  6
CONTINUOUS
 62
     7
100
AcDbLine
 10
200.088757
 20
522.697372
 30
0.0
 11
203.666548
 21
526.275163
 31
0.0
  0
LINE
  5
5A
100
AcDbEntity
  8
0
  6
CONTINUOUS
 62
     7
100
AcDbLine
 10
203.347927
 20
528.57516
 30
0.0
 11
198.779451
 21
524.006684
 31
0.0
  0
LINE
  5
5B
100
AcDbEntity
  8
0
  6
CONTINUOUS
 62
     7
100
AcDbLine
 10
217.797927
 20
528.57516
 30
0.0
 11
203.347927
 21
528.57516
 31
0.0
  0
ARC
  5
5C
100
AcDbEntity
  8
0
  6
CONTINUOUS
 62
     7
100
AcDbCircle
 10
217.797927
 20
522.57516
 30
0.0
 40
6.0
100
AcDbArc
 50
0.0
 51
90.0
  0
LINE
  5
5D
100
AcDbEntity
  8
0
  6
CONTINUOUS
 62
     7
100
AcDbLine
 10
223.797927
 20
510.12516
 30
0.0
 11
223.797927
 21
522.57516
 31
0.0
  0
LINE
  5
5E
100
AcDbEntity
  8
0
  6
CONTINUOUS
 62
     7
100
AcDbLine
 10
219.229447
 20
505.556685
 30
0.0
 11
223.797927
 21
510.12516
 31
0.0
  0
LINE
  5
5F
100
AcDbEntity
  8
0
  6
CONTINUOUS
 62
     7
100
AcDbLine
 10
217.729452
 20
507.309375
 30
0.0
 11
219.229447
 21
505.556685
 31
0.0
  0
LINE
  5
60
100
AcDbEntity
  8
0
  6
CONTINUOUS
 62
     7
100
AcDbLine
 10
198.779451
 20
524.006684
 30
0.0
 11
200.088757
 21
522.697372
 31
0.0
  0
ARC
  5
61
100
AcDbEntity
  8
0
  6
CONTINUOUS
 62
     7
100
AcDbCircle
 10
217.797927
 20
522.57516
 30
0.0
 40
3.7
100
AcDbArc
 50
0.0
 51
90.0
  0
LINE
  5
62
100
AcDbEntity
  8
0
  6
CONTINUOUS
 62
     7
100
AcDbLine
 10
221.497926
 20
511.077848
 30
0.0
 11
217.729452
 21
507.309375
 31
0.0
  0
LINE
  5
63
100
AcDbEntity
  8
0
  6
CONTINUOUS
 62
     7
100
AcDbLine
 10
221.497927
 20
522.57516
 30
0.0
 11
221.497926
 21
511.077848
 31
0.0
  0
LINE
  5
64
100
AcDbEntity
  8
0
  6
CONTINUOUS
 62
     7
100
AcDbLine
 10
203.666548
 20
526.275163
 30
0.0
 11
217.797927
 21
526.27516
 31
0.0
  0
CIRCLE
  5
65
100
AcDbEntity
  8
0
  6
CONTINUOUS
 62
     7
100
AcDbCircle
 10
209.597927
 20
494.57516
 30
0.0
 40
2.0
  0
CIRCLE
  5
66
100
AcDbEntity
  8
0
  6
CONTINUOUS
 62
     7
100
AcDbCircle
 10
209.597927
 20
494.57516
 30
0.0
 40
3.25
  0
CIRCLE
  5
67
100
AcDbEntity
  8
0
  6
CONTINUOUS
 62
     7
100
AcDbCircle
 10
176.797927
 20
514.37516
 30
0.0
 40
2.0
  0
CIRCLE
  5
68
100
AcDbEntity
  8
0
  6
CONTINUOUS
 62
     7
100
AcDbCircle
 10
176.797927
 20
514.37516
 30
0.0
 40
3.25
  0
CIRCLE
  5
69
100
AcDbEntity
  8
0
  6
CONTINUOUS
 62
     7
100
AcDbCircle
 10
46.997927
 20
494.57516
 30
0.0
 40
2.0
  0
CIRCLE
  5
6A
100
AcDbEntity
  8
0
  6
CONTINUOUS
 62
     7
100
AcDbCircle
 10
46.997927
 20
494.57516
 30
0.0
 40
3.25
  0
CIRCLE
  5
6B
100
AcDbEntity
  8
0
  6
CONTINUOUS
 62
     7
100
AcDbCircle
 10
79.797927
 20
514.37516
 30
0.0
 40
2.0
  0
CIRCLE
  5
6C
100
AcDbEntity
  8
0
  6
CONTINUOUS
 62
     7
100
AcDbCircle
 10
79.797927
 20
514.37516
 30
0.0
 40
3.25
  0
CIRCLE
  5
6D
100
AcDbEntity
  8
0
  6
CONTINUOUS
 62
     7
100
AcDbCircle
 10
79.797927
 20
302.77516
 30
0.0
 40
2.0
  0
CIRCLE
  5
6E
100
AcDbEntity
  8
0
  6
CONTINUOUS
 62
     7
100
AcDbCircle
 10
79.797927
 20
302.77516
 30
0.0
 40
3.25
  0
CIRCLE
  5
6F
100
AcDbEntity
  8
0
  6
CONTINUOUS
 62
     7
100
AcDbCircle
 10
46.997927
 20
322.57516
 30
0.0
 40
2.0
  0
CIRCLE
  5
70
100
AcDbEntity
  8
0
  6
CONTINUOUS
 62
     7
100
AcDbCircle
 10
46.997927
 20
322.57516
 30
0.0
 40
3.25
  0
CIRCLE
  5
71
100
AcDbEntity
  8
0
  6
CONTINUOUS
 62
     7
100
AcDbCircle
 10
176.797927
 20
302.77516
 30
0.0
 40
2.0
  0
CIRCLE
  5
72
100
AcDbEntity
  8
0
  6
CONTINUOUS
 62
     7
100
AcDbCircle
 10
176.797927
 20
302.77516
 30
0.0
 40
3.25
  0
LINE
  5
73
100
AcDbEntity
  8
0
  6
CONTINUOUS
 62
     7
100
AcDbLine
 10
53.247927
 20
288.57516
 30
0.0
 11
57.816404
 21
293.143635
 31
0.0
  0
ARC
  5
74
100
AcDbEntity
  8
0
  6
CONTINUOUS
 62
     7
100
AcDbCircle
 10
38.797927
 20
294.57516
 30
0.0
 40
6.0
100
AcDbArc
 50
180.0
 51
270.0
  0
LINE
  5
75
100
AcDbEntity
  8
0
  6
CONTINUOUS
 62
     7
100
AcDbLine
 10
37.366408
 20
311.593634
 30
0.0
 11
32.797927
 21
307.02516
 31
0.0
  0
LINE
  5
76
100
AcDbEntity
  8
0
  6
CONTINUOUS
 62
     7
100
AcDbLine
 10
56.507098
 20
294.452948
 30
0.0
 11
52.929307
 21
290.875157
 31
0.0
  0
LINE
  5
77
100
AcDbEntity
  8
0
  6
CONTINUOUS
 62
     7
100
AcDbLine
 10
57.816404
 20
293.143635
 30
0.0
 11
56.507098
 21
294.452948
 31
0.0
  0
LINE
  5
78
100
AcDbEntity
  8
0
  6
CONTINUOUS
 62
     7
100
AcDbLine
 10
38.866403
 20
309.840945
 30
0.0
 11
37.366408
 21
311.593634
 31
0.0
  0
LINE
  5
79
100
AcDbEntity
  8
0
  6
CONTINUOUS
 62
     7
100
AcDbLine
 10
38.797927
 20
288.57516
 30
0.0
 11
53.247927
 21
288.57516
 31
0.0
  0
LINE
  5
7A
100
AcDbEntity
  8
0
  6
CONTINUOUS
 62
     7
100
AcDbLine
 10
32.797927
 20
307.02516
 30
0.0
 11
32.797927
 21
294.57516
 31
0.0
  0
ARC
  5
7B
100
AcDbEntity
  8
0
  6
CONTINUOUS
 62
     7
100
AcDbCircle
 10
38.797927
 20
294.57516
 30
0.0
 40
3.7
100
AcDbArc
 50
180.0
 51
270.0
  0
LINE
  5
7C
100
AcDbEntity
  8
0
  6
CONTINUOUS
 62
     7
100
AcDbLine
 10
35.097929
 20
306.072471
 30
0.0
 11
38.866403
 21
309.840945
 31
0.0
  0
LINE
  5
7D
100
AcDbEntity
  8
0
  6
CONTINUOUS
 62
     7
100
AcDbLine
 10
35.097927
 20
294.57516
 30
0.0
 11
35.097929
 21
306.072471
 31
0.0
  0
LINE
  5
7E
100
AcDbEntity
  8
0
  6
CONTINUOUS
 62
     7
100
AcDbLine
 10
52.929307
 20
290.875157
 30
0.0
 11
38.797927
 21
290.87516
 31
0.0
  0
CIRCLE
  5
7F
100
AcDbEntity
  8
0
  6
CONTINUOUS
 62
     7
100
AcDbCircle
 10
79.797927
 20
514.37516
 30
0.0
 40
1.982545
  0
LINE
  5
80
100
AcDbEntity
  8
0
  6
CONTINUOUS
 62
     7
100
AcDbLine
 10
53.247927
 20
528.57516
 30
0.0
 11
38.797927
 21
528.57516
 31
0.0
  0
LINE
  5
81
100
AcDbEntity
  8
0
  6
CONTINUOUS
 62
     7
100
AcDbLine
 10
57.816404
 20
524.006684
 30
0.0
 11
53.247927
 21
528.57516
 31
0.0
  0
LINE
  5
82
100
AcDbEntity
  8
0
  6
CONTINUOUS
 62
     7
100
AcDbLine
 10
56.507098
 20
522.697372
 30
0.0
 11
57.816404
 21
524.006684
 31
0.0
  0
ARC
  5
83
100
AcDbEntity
  8
0
  6
CONTINUOUS
 62
     7
100
AcDbCircle
 10
38.797927
 20
522.57516
 30
0.0
 40
3.7
100
AcDbArc
 50
90.0
 51
180.0
  0
LINE
  5
84
100
AcDbEntity
  8
0
  6
CONTINUOUS
 62
     7
100
AcDbLine
 10
35.097929
 20
511.077848
 30
0.0
 11
35.097927
 21
522.57516
 31
0.0
  0
LINE
  5
85
100
AcDbEntity
  8
0
  6
CONTINUOUS
 62
     7
100
AcDbLine
 10
37.366408
 20
505.556685
 30
0.0
 11
38.866403
 21
507.309375
 31
0.0
  0
ARC
  5
86
100
AcDbEntity
  8
0
  6
CONTINUOUS
 62
     7
100
AcDbCircle
 10
38.797927
 20
522.57516
 30
0.0
 40
6.0
100
AcDbArc
 50
90.0
 51
180.0
  0
LINE
  5
87
100
AcDbEntity
  8
0
  6
CONTINUOUS
 62
     7
100
AcDbLine
 10
52.929307
 20
526.275163
 30
0.0
 11
56.507098
 21
522.697372
 31
0.0
  0
LINE
  5
88
100
AcDbEntity
  8
0
  6
CONTINUOUS
 62
     7
100
AcDbLine
 10
32.797927
 20
522.57516
 30
0.0
 11
32.797927
 21
510.12516
 31
0.0
  0
LINE
  5
89
100
AcDbEntity
  8
0
  6
CONTINUOUS
 62
     7
100
AcDbLine
 10
38.797927
 20
526.27516
 30
0.0
 11
52.929307
 21
526.275163
 31
0.0
  0
LINE
  5
8A
100
AcDbEntity
  8
0
  6
CONTINUOUS
 62
     7
100
AcDbLine
 10
38.866403
 20
507.309375
 30
0.0
 11
35.097929
 21
511.077848
 31
0.0
  0
LINE
  5
8B
100
AcDbEntity
  8
0
  6
CONTINUOUS
 62
     7
100
AcDbLine
 10
32.797927
 20
510.12516
 30
0.0
 11
37.366408
 21
505.556685
 31
0.0
  0
CIRCLE
  5
8C
100
AcDbEntity
  8
0
  6
CONTINUOUS
 62
     7
100
AcDbCircle
 10
181.797927
 20
505.37516
 30
0.0
 40
2.247635
  0
CIRCLE
  5
8D
100
AcDbEntity
  8
0
  6
CONTINUOUS
 62
     7
100
AcDbCircle
 10
198.197927
 20
299.07516
 30
0.0
 40
4.5
  0
CIRCLE
  5
8E
100
AcDbEntity
  8
0
  6
CONTINUOUS
 62
     7
100
AcDbCircle
 10
198.197927
 20
299.07516
 30
0.0
 40
4.342777
  0
CIRCLE
  5
8F
100
AcDbEntity
  8
0
  6
CONTINUOUS
 62
     7
100
AcDbCircle
 10
198.197927
 20
518.07516
 30
0.0
 40
4.342777
  0
CIRCLE
  5
90
100
AcDbEntity
  8
0
  6
CONTINUOUS
 62
     7
100
AcDbCircle
 10
198.197927
 20
518.07516
 30
0.0
 40
2.1
  0
CIRCLE
  5
91
100
AcDbEntity
  8
0
  6
CONTINUOUS
 62
     7
100
AcDbCircle
 10
198.197927
 20
518.07516
 30
0.0
 40
4.5
  0
CIRCLE
  5
92
100
AcDbEntity
  8
0
  6
CONTINUOUS
 62
     7
100
AcDbCircle
 10
58.397927
 20
518.07516
 30
0.0
 40
4.342777
  0
CIRCLE
  5
93
100
AcDbEntity
  8
0
  6
CONTINUOUS
 62
     7
100
AcDbCircle
 10
58.397927
 20
518.07516
 30
0.0
 40
2.1
  0
CIRCLE
  5
94
100
AcDbEntity
  8
0
  6
CONTINUOUS
 62
     7
100
AcDbCircle
 10
58.397927
 20
518.07516
 30
0.0
 40
4.5
  0
CIRCLE
  5
95
100
AcDbEntity
  8
0
  6
CONTINUOUS
 62
     7
100
AcDbCircle
 10
58.397927
 20
299.07516
 30
0.0
 40
4.342777
  0
CIRCLE
  5
96
100
AcDbEntity
  8
0
  6
CONTINUOUS
 62
     7
100
AcDbCircle
 10
58.397927
 20
299.07516
 30
0.0
 40
2.1
  0
CIRCLE
  5
97
100
AcDbEntity
  8
0
  6
CONTINUOUS
 62
     7
100
AcDbCircle
 10
58.397927
 20
299.07516
 30
0.0
 40
4.5
  0
CIRCLE
  5
98
100
AcDbEntity
  8
0
  6
CONTINUOUS
 62
     7
100
AcDbCircle
 10
198.197927
 20
299.07516
 30
0.0
 40
2.1
  0
CIRCLE
  5
99
100
AcDbEntity
  8
0
  6
CONTINUOUS
 62
     7
100
AcDbCircle
 10
181.797927
 20
505.37516
 30
0.0
 40
2.3
  0
CIRCLE
  5
9A
100
AcDbEntity
  8
0
  6
CONTINUOUS
 62
     7
100
AcDbCircle
 10
176.797927
 20
514.37516
 30
0.0
 40
1.982545
  0
CIRCLE
  5
9B
100
AcDbEntity
  8
0
  6
CONTINUOUS
 62
     7
100
AcDbCircle
 10
79.797927
 20
302.77516
 30
0.0
 40
1.982545
  0
CIRCLE
  5
9C
100
AcDbEntity
  8
0
  6
CONTINUOUS
 62
     7
100
AcDbCircle
 10
176.797927
 20
302.77516
 30
0.0
 40
1.982545
  0
CIRCLE
  5
9D
100
AcDbEntity
  8
0
  6
CONTINUOUS
 62
     7
100
AcDbCircle
 10
209.597927
 20
322.57516
 30
0.0
 40
2.0
  0
CIRCLE
  5
9E
100
AcDbEntity
  8
0
  6
CONTINUOUS
 62
     7
100
AcDbCircle
 10
209.597927
 20
322.57516
 30
0.0
 40
1.982545
  0
CIRCLE
  5
9F
100
AcDbEntity
  8
0
  6
CONTINUOUS
 62
     7
100
AcDbCircle
 10
209.597927
 20
494.57516
 30
0.0
 40
1.982545
  0
CIRCLE
  5
A0
100
AcDbEntity
  8
0
  6
CONTINUOUS
 62
     7
100
AcDbCircle
 10
84.797927
 20
311.77516
 30
0.0
 40
2.3
  0
CIRCLE
  5
A1
100
AcDbEntity
  8
0
  6
CONTINUOUS
 62
     7
100
AcDbCircle
 10
84.797927
 20
505.37516
 30
0.0
 40
2.3
  0
CIRCLE
  5
A2
100
AcDbEntity
  8
0
  6
CONTINUOUS
 62
     7
100
AcDbCircle
 10
84.797927
 20
505.37516
 30
0.0
 40
2.247635
  0
CIRCLE
  5
A3
100
AcDbEntity
  8
0
  6
CONTINUOUS
 62
     7
100
AcDbCircle
 10
46.997927
 20
322.57516
 30
0.0
 40
1.982545
  0
CIRCLE
  5
A4
100
AcDbEntity
  8
0
  6
CONTINUOUS
 62
     7
100
AcDbCircle
 10
74.797927
 20
505.37516
 30
0.0
 40
2.3
  0
CIRCLE
  5
A5
100
AcDbEntity
  8
0
  6
CONTINUOUS
 62
     7
100
AcDbCircle
 10
74.797927
 20
505.37516
 30
0.0
 40
2.247635
  0
CIRCLE
  5
A6
100
AcDbEntity
  8
0
  6
CONTINUOUS
 62
     7
100
AcDbCircle
 10
46.997927
 20
494.57516
 30
0.0
 40
1.982545
  0
CIRCLE
  5
A7
100
AcDbEntity
  8
0
  6
CONTINUOUS
 62
     7
100
AcDbCircle
 10
209.597927
 20
322.57516
 30
0.0
 40
3.25
  0
CIRCLE
  5
A8
100
AcDbEntity
  8
0
  6
CONTINUOUS
 62
     7
100
AcDbCircle
 10
209.597927
 20
322.57516
 30
0.0
 40
1.558548
  0
CIRCLE
  5
A9
100
AcDbEntity
  8
0
  6
CONTINUOUS
 62
     7
100
AcDbCircle
 10
209.597927
 20
322.57516
 30
0.0
 40
1.6
  0
CIRCLE
  5
AA
100
AcDbEntity
  8
0
  6
CONTINUOUS
 62
     7
100
AcDbCircle
 10
176.797927
 20
514.37516
 30
0.0
 40
1.558548
  0
CIRCLE
  5
AB
100
AcDbEntity
  8
0
  6
CONTINUOUS
 62
     7
100
AcDbCircle
 10
176.797927
 20
514.37516
 30
0.0
 40
1.6
  0
CIRCLE
  5
AC
100
AcDbEntity
  8
0
  6
CONTINUOUS
 62
     7
100
AcDbCircle
 10
79.797927
 20
514.37516
 30
0.0
 40
1.6
  0
CIRCLE
  5
AD
100
AcDbEntity
  8
0
  6
CONTINUOUS
 62
     7
100
AcDbCircle
 10
209.597927
 20
494.57516
 30
0.0
 40
1.558548
  0
CIRCLE
  5
AE
100
AcDbEntity
  8
0
  6
CONTINUOUS
 62
     7
100
AcDbCircle
 10
209.597927
 20
494.57516
 30
0.0
 40
1.6
  0
CIRCLE
  5
AF
100
AcDbEntity
  8
0
  6
CONTINUOUS
 62
     7
100
AcDbCircle
 10
79.797927
 20
514.37516
 30
0.0
 40
1.558548
  0
CIRCLE
  5
B0
100
AcDbEntity
  8
0
  6
CONTINUOUS
 62
     7
100
AcDbCircle
 10
79.797927
 20
302.77516
 30
0.0
 40
1.6
  0
CIRCLE
  5
B1
100
AcDbEntity
  8
0
  6
CONTINUOUS
 62
     7
100
AcDbCircle
 10
46.997927
 20
322.57516
 30
0.0
 40
1.6
  0
CIRCLE
  5
B2
100
AcDbEntity
  8
0
  6
CONTINUOUS
 62
     7
100
AcDbCircle
 10
176.797927
 20
302.77516
 30
0.0
 40
1.558548
  0
CIRCLE
  5
B3
100
AcDbEntity
  8
0
  6
CONTINUOUS
 62
     7
100
AcDbCircle
 10
176.797927
 20
302.77516
 30
0.0
 40
1.6
  0
CIRCLE
  5
B4
100
AcDbEntity
  8
0
  6
CONTINUOUS
 62
     7
100
AcDbCircle
 10
46.997927
 20
494.57516
 30
0.0
 40
1.558548
  0
CIRCLE
  5
B5
100
AcDbEntity
  8
0
  6
CONTINUOUS
 62
     7
100
AcDbCircle
 10
46.997927
 20
494.57516
 30
0.0
 40
1.6
  0
CIRCLE
  5
B6
100
AcDbEntity
  8
0
  6
CONTINUOUS
 62
     7
100
AcDbCircle
 10
46.997927
 20
322.57516
 30
0.0
 40
1.558548
  0
CIRCLE
  5
B7
100
AcDbEntity
  8
0
  6
CONTINUOUS
 62
     7
100
AcDbCircle
 10
79.797927
 20
302.77516
 30
0.0
 40
1.558548
  0
CIRCLE
  5
B8
100
AcDbEntity
  8
0
  6
CONTINUOUS
 62
     7
100
AcDbCircle
 10
79.797927
 20
514.37516
 30
0.0
 40
5.0
  0
CIRCLE
  5
B9
100
AcDbEntity
  8
0
  6
CONTINUOUS
 62
     7
100
AcDbCircle
 10
79.797927
 20
514.37516
 30
0.0
 40
4.947592
  0
CIRCLE
  5
BA
100
AcDbEntity
  8
0
  6
CONTINUOUS
 62
     7
100
AcDbCircle
 10
79.797927
 20
302.77516
 30
0.0
 40
4.947592
  0
CIRCLE
  5
BB
100
AcDbEntity
  8
0
  6
CONTINUOUS
 62
     7
100
AcDbCircle
 10
46.997927
 20
322.57516
 30
0.0
 40
5.0
  0
CIRCLE
  5
BC
100
AcDbEntity
  8
0
  6
CONTINUOUS
 62
     7
100
AcDbCircle
 10
46.997927
 20
322.57516
 30
0.0
 40
4.947592
  0
LINE
  5
BD
100
AcDbEntity
  8
0
  6
CONTINUOUS
 62
     7
100
AcDbLine
 10
91.262029
 20
479.568517
 30
0.0
 11
91.762029
 21
479.857192
 31
0.0
  0
LINE
  5
BE
100
AcDbEntity
  8
0
  6
CONTINUOUS
 62
     7
100
AcDbLine
 10
91.762029
 20
479.857192
 30
0.0
 11
128.297927
 21
416.57516
 31
0.0
  0
LINE
  5
BF
100
AcDbEntity
  8
0
  6
CONTINUOUS
 62
     7
100
AcDbLine
 10
128.297927
 20
415.420459
 30
0.0
 11
128.297927
 21
416.57516
 31
0.0
  0
LINE
  5
C0
100
AcDbEntity
  8
0
  6
CONTINUOUS
 62
     7
100
AcDbLine
 10
91.262029
 20
479.568517
 30
0.0
 11
128.297927
 21
415.420459
 31
0.0
  0
LINE
  5
C1
100
AcDbEntity
  8
0
  6
CONTINUOUS
 62
     7
100
AcDbLine
 10
171.262029
 20
476.145867
 30
0.0
 11
171.762029
 21
475.857192
 31
0.0
  0
ARC
  5
C2
100
AcDbEntity
  8
0
  6
CONTINUOUS
 62
     7
100
AcDbCircle
 10
194.27869
 20
462.857192
 30
0.0
 40
26.57735
100
AcDbArc
 50
130.0
 51
150.0
  0
LINE
  5
C3
100
AcDbEntity
  8
0
  6
CONTINUOUS
 62
     7
100
AcDbLine
 10
177.195098
 20
483.216623
 30
0.0
 11
177.566212
 21
482.774347
 31
0.0
  0
ARC
  5
C4
100
AcDbEntity
  8
0
  6
CONTINUOUS
 62
     7
100
AcDbCircle
 10
194.27869
 20
462.857192
 30
0.0
 40
26.0
100
AcDbArc
 50
130.0
 51
150.0
  0
LINE
  5
C5
100
AcDbEntity
  8
0
  6
CONTINUOUS
 62
     7
100
AcDbLine
 10
192.515987
 20
496.072376
 30
0.0
 11
177.195098
 21
483.216623
 31
0.0
  0
LINE
  5
C6
100
AcDbEntity
  8
0
  6
CONTINUOUS
 62
     7
100
AcDbLine
 10
192.515987
 20
496.072376
 30
0.0
 11
192.887101
 21
495.6301
 31
0.0
  0
LINE
  5
C7
100
AcDbEntity
  8
0
  6
CONTINUOUS
 62
     7
100
AcDbLine
 10
192.887101
 20
495.6301
 30
0.0
 11
177.566212
 21
482.774347
 31
0.0
  0
LINE
  5
C8
100
AcDbEntity
  8
0
  6
CONTINUOUS
 62
     7
100
AcDbLine
 10
83.80083
 20
328.689892
 30
0.0
 11
84.171944
 21
328.247616
 31
0.0
  0
ARC
  5
C9
100
AcDbEntity
  8
0
  6
CONTINUOUS
 62
     7
100
AcDbCircle
 10
62.317165
 20
354.293127
 30
0.0
 40
33.42265
100
AcDbArc
 50
310.0
 51
330.0
  0
LINE
  5
CA
100
AcDbEntity
  8
0
  6
CONTINUOUS
 62
     7
100
AcDbLine
 10
91.262029
 20
337.581802
 30
0.0
 11
91.762029
 21
337.293127
 31
0.0
  0
ARC
  5
CB
100
AcDbEntity
  8
0
  6
CONTINUOUS
 62
     7
100
AcDbCircle
 10
62.317165
 20
354.293127
 30
0.0
 40
34.0
100
AcDbArc
 50
310.0
 51
330.0
  0
CIRCLE
  5
CC
100
AcDbEntity
  8
0
  6
CONTINUOUS
 62
     7
100
AcDbCircle
 10
176.797927
 20
514.37516
 30
0.0
 40
5.0
  0
CIRCLE
  5
CD
100
AcDbEntity
  8
0
  6
CONTINUOUS
 62
     7
100
AcDbCircle
 10
176.797927
 20
514.37516
 30
0.0
 40
4.947592
  0
CIRCLE
  5
CE
100
AcDbEntity
  8
0
  6
CONTINUOUS
 62
     7
100
AcDbCircle
 10
209.597927
 20
494.57516
 30
0.0
 40
5.0
  0
CIRCLE
  5
CF
100
AcDbEntity
  8
0
  6
CONTINUOUS
 62
     7
100
AcDbCircle
 10
209.597927
 20
494.57516
 30
0.0
 40
4.947592
  0
CIRCLE
  5
D0
100
AcDbEntity
  8
0
  6
CONTINUOUS
 62
     7
100
AcDbCircle
 10
209.597927
 20
322.57516
 30
0.0
 40
4.947592
  0
CIRCLE
  5
D1
100
AcDbEntity
  8
0
  6
CONTINUOUS
 62
     7
100
AcDbCircle
 10
46.997927
 20
494.57516
 30
0.0
 40
5.0
  0
CIRCLE
  5
D2
100
AcDbEntity
  8
0
  6
CONTINUOUS
 62
     7
100
AcDbCircle
 10
46.997927
 20
494.57516
 30
0.0
 40
4.947592
  0
CIRCLE
  5
D3
100
AcDbEntity
  8
0
  6
CONTINUOUS
 62
     7
100
AcDbCircle
 10
176.797927
 20
302.77516
 30
0.0
 40
5.0
  0
CIRCLE
  5
D4
100
AcDbEntity
  8
0
  6
CONTINUOUS
 62
     7
100
AcDbCircle
 10
176.797927
 20
302.77516
 30
0.0
 40
4.947592
  0
LINE
  5
D5
100
AcDbEntity
  8
0
  6
CONTINUOUS
 62
     7
100
AcDbLine
 10
68.479942
 20
315.83414
 30
0.0
 11
68.851055
 21
315.391864
 31
0.0
  0
LINE
  5
D6
100
AcDbEntity
  8
0
  6
CONTINUOUS
 62
     7
100
AcDbLine
 10
68.479942
 20
315.83414
 30
0.0
 11
83.80083
 21
328.689892
 31
0.0
  0
LINE
  5
D7
100
AcDbEntity
  8
0
  6
CONTINUOUS
 62
     7
100
AcDbLine
 10
68.851055
 20
315.391864
 30
0.0
 11
84.171944
 21
328.247616
 31
0.0
  0
CIRCLE
  5
D8
100
AcDbEntity
  8
0
  6
CONTINUOUS
 62
     7
100
AcDbCircle
 10
209.597927
 20
322.57516
 30
0.0
 40
5.0
  0
ARC
  5
D9
100
AcDbEntity
  8
0
  6
CONTINUOUS
 62
     7
100
AcDbCircle
 10
190.31595
 20
498.694277
 30
0.0
 40
3.42265
100
AcDbArc
 50
310.0
 51
130.0
  0
LINE
  5
DA
100
AcDbEntity
  8
0
  6
CONTINUOUS
 62
     7
100
AcDbLine
 10
188.115913
 20
501.316179
 30
0.0
 11
187.7448
 21
501.758455
 31
0.0
  0
ARC
  5
DB
100
AcDbEntity
  8
0
  6
CONTINUOUS
 62
     7
100
AcDbCircle
 10
190.31595
 20
498.694277
 30
0.0
 40
4.0
100
AcDbArc
 50
310.0
 51
130.0
  0
LINE
  5
DC
100
AcDbEntity
  8
0
  6
CONTINUOUS
 62
     7
100
AcDbLine
 10
171.762029
 20
475.857192
 30
0.0
 11
132.91673
 21
408.57516
 31
0.0
  0
LINE
  5
DD
100
AcDbEntity
  8
0
  6
CONTINUOUS
 62
     7
100
AcDbLine
 10
132.250063
 20
408.57516
 30
0.0
 11
132.91673
 21
408.57516
 31
0.0
  0
LINE
  5
DE
100
AcDbEntity
  8
0
  6
CONTINUOUS
 62
     7
100
AcDbLine
 10
171.262029
 20
476.145867
 30
0.0
 11
132.250063
 21
408.57516
 31
0.0
  0
ARC
  5
DF
100
AcDbEntity
  8
0
  6
CONTINUOUS
 62
     7
100
AcDbCircle
 10
62.317165
 20
462.857192
 30
0.0
 40
33.42265
100
AcDbArc
 50
30.0
 51
50.0
  0
LINE
  5
E0
100
AcDbEntity
  8
0
  6
CONTINUOUS
 62
     7
100
AcDbLine
 10
83.80083
 20
488.460427
 30
0.0
 11
84.171944
 21
488.902703
 31
0.0
  0
ARC
  5
E1
100
AcDbEntity
  8
0
  6
CONTINUOUS
 62
     7
100
AcDbCircle
 10
62.317165
 20
462.857192
 30
0.0
 40
34.0
100
AcDbArc
 50
30.0
 51
50.0
  0
LINE
  5
E2
100
AcDbEntity
  8
0
  6
CONTINUOUS
 62
     7
100
AcDbLine
 10
68.479942
 20
501.316179
 30
0.0
 11
83.80083
 21
488.460427
 31
0.0
  0
LINE
  5
E3
100
AcDbEntity
  8
0
  6
CONTINUOUS
 62
     7
100
AcDbLine
 10
68.479942
 20
501.316179
 30
0.0
 11
68.851055
 21
501.758455
 31
0.0
  0
LINE
  5
E4
100
AcDbEntity
  8
0
  6
CONTINUOUS
 62
     7
100
AcDbLine
 10
68.851055
 20
501.758455
 30
0.0
 11
84.171944
 21
488.902703
 31
0.0
  0
CIRCLE
  5
E5
100
AcDbEntity
  8
0
  6
CONTINUOUS
 62
     7
100
AcDbCircle
 10
79.797927
 20
302.77516
 30
0.0
 40
5.0
  0
ARC
  5
E6
100
AcDbEntity
  8
0
  6
CONTINUOUS
 62
     7
100
AcDbCircle
 10
62.317165
 20
462.857192
 30
0.0
 40
26.57735
100
AcDbArc
 50
30.0
 51
50.0
  0
LINE
  5
E7
100
AcDbEntity
  8
0
  6
CONTINUOUS
 62
     7
100
AcDbLine
 10
64.079868
 20
496.072376
 30
0.0
 11
79.400757
 21
483.216623
 31
0.0
  0
ARC
  5
E8
100
AcDbEntity
  8
0
  6
CONTINUOUS
 62
     7
100
AcDbCircle
 10
66.279905
 20
498.694277
 30
0.0
 40
3.42265
100
AcDbArc
 50
50.0
 51
230.0
  0
LINE
  5
E9
100
AcDbEntity
  8
0
  6
CONTINUOUS
 62
     7
100
AcDbLine
 10
165.333826
 20
479.568517
 30
0.0
 11
128.297927
 21
415.420459
 31
0.0
  0
ARC
  5
EA
100
AcDbEntity
  8
0
  6
CONTINUOUS
 62
     7
100
AcDbCircle
 10
194.27869
 20
462.857192
 30
0.0
 40
33.42265
100
AcDbArc
 50
130.0
 51
150.0
  0
LINE
  5
EB
100
AcDbEntity
  8
0
  6
CONTINUOUS
 62
     7
100
AcDbLine
 10
188.115913
 20
501.316179
 30
0.0
 11
172.795024
 21
488.460427
 31
0.0
  0
LINE
  5
EC
100
AcDbEntity
  8
0
  6
CONTINUOUS
 62
     7
100
AcDbLine
 10
171.262029
 20
341.004452
 30
0.0
 11
132.250063
 21
408.57516
 31
0.0
  0
ARC
  5
ED
100
AcDbEntity
  8
0
  6
CONTINUOUS
 62
     7
100
AcDbCircle
 10
194.27869
 20
354.293127
 30
0.0
 40
26.57735
100
AcDbArc
 50
210.0
 51
230.0
  0
LINE
  5
EE
100
AcDbEntity
  8
0
  6
CONTINUOUS
 62
     7
100
AcDbLine
 10
192.515987
 20
321.077944
 30
0.0
 11
177.195098
 21
333.933696
 31
0.0
  0
ARC
  5
EF
100
AcDbEntity
  8
0
  6
CONTINUOUS
 62
     7
100
AcDbCircle
 10
190.31595
 20
318.456042
 30
0.0
 40
3.42265
100
AcDbArc
 50
230.0
 51
50.0
  0
LINE
  5
F0
100
AcDbEntity
  8
0
  6
CONTINUOUS
 62
     7
100
AcDbLine
 10
188.115913
 20
315.83414
 30
0.0
 11
172.795024
 21
328.689892
 31
0.0
  0
ARC
  5
F1
100
AcDbEntity
  8
0
  6
CONTINUOUS
 62
     7
100
AcDbCircle
 10
194.27869
 20
354.293127
 30
0.0
 40
33.42265
100
AcDbArc
 50
210.0
 51
230.0
  0
LINE
  5
F2
100
AcDbEntity
  8
0
  6
CONTINUOUS
 62
     7
100
AcDbLine
 10
128.297927
 20
401.72986
 30
0.0
 11
165.333826
 21
337.581802
 31
0.0
  0
LINE
  5
F3
100
AcDbEntity
  8
0
  6
CONTINUOUS
 62
     7
100
AcDbLine
 10
91.262029
 20
337.581802
 30
0.0
 11
128.297927
 21
401.72986
 31
0.0
  0
ARC
  5
F4
100
AcDbEntity
  8
0
  6
CONTINUOUS
 62
     7
100
AcDbCircle
 10
66.279905
 20
318.456042
 30
0.0
 40
3.42265
100
AcDbArc
 50
130.0
 51
310.0
  0
LINE
  5
F5
100
AcDbEntity
  8
0
  6
CONTINUOUS
 62
     7
100
AcDbLine
 10
64.079868
 20
321.077944
 30
0.0
 11
79.400757
 21
333.933696
 31
0.0
  0
ARC
  5
F6
100
AcDbEntity
  8
0
  6
CONTINUOUS
 62
     7
100
AcDbCircle
 10
62.317165
 20
354.293127
 30
0.0
 40
26.57735
100
AcDbArc
 50
310.0
 51
330.0
  0
LINE
  5
F7
100
AcDbEntity
  8
0
  6
CONTINUOUS
 62
     7
100
AcDbLine
 10
85.333826
 20
341.004452
 30
0.0
 11
124.345792
 21
408.57516
 31
0.0
  0
LINE
  5
F8
100
AcDbEntity
  8
0
  6
CONTINUOUS
 62
     7
100
AcDbLine
 10
85.333826
 20
476.145867
 30
0.0
 11
124.345792
 21
408.57516
 31
0.0
  0
LINE
  5
F9
100
AcDbEntity
  8
0
  6
CONTINUOUS
 62
     7
100
AcDbLine
 10
165.333826
 20
337.581802
 30
0.0
 11
164.833826
 21
337.293127
 31
0.0
  0
LINE
  5
FA
100
AcDbEntity
  8
0
  6
CONTINUOUS
 62
     7
100
AcDbLine
 10
128.297927
 20
400.575159
 30
0.0
 11
164.833826
 21
337.293127
 31
0.0
  0
LINE
  5
FB
100
AcDbEntity
  8
0
  6
CONTINUOUS
 62
     7
100
AcDbLine
 10
128.297927
 20
400.575159
 30
0.0
 11
128.297927
 21
401.72986
 31
0.0
  0
LINE
  5
FC
100
AcDbEntity
  8
0
  6
CONTINUOUS
 62
     7
100
AcDbLine
 10
172.795024
 20
328.689892
 30
0.0
 11
172.423911
 21
328.247616
 31
0.0
  0
ARC
  5
FD
100
AcDbEntity
  8
0
  6
CONTINUOUS
 62
     7
100
AcDbCircle
 10
194.27869
 20
354.293127
 30
0.0
 40
34.0
100
AcDbArc
 50
210.0
 51
230.0
  0
LINE
  5
FE
100
AcDbEntity
  8
0
  6
CONTINUOUS
 62
     7
100
AcDbLine
 10
79.400757
 20
483.216623
 30
0.0
 11
79.029643
 21
482.774347
 31
0.0
  0
LINE
  5
FF
100
AcDbEntity
  8
0
  6
CONTINUOUS
 62
     7
100
AcDbLine
 10
85.333826
 20
476.145867
 30
0.0
 11
84.833826
 21
475.857192
 31
0.0
  0
ARC
  5
100
100
AcDbEntity
  8
0
  6
CONTINUOUS
 62
     7
100
AcDbCircle
 10
62.317165
 20
462.857192
 30
0.0
 40
26.0
100
AcDbArc
 50
30.0
 51
50.0
  0
LINE
  5
101
100
AcDbEntity
  8
0
  6
CONTINUOUS
 62
     7
100
AcDbLine
 10
123.679125
 20
408.57516
 30
0.0
 11
124.345792
 21
408.57516
 31
0.0
  0
LINE
  5
102
100
AcDbEntity
  8
0
  6
CONTINUOUS
 62
     7
100
AcDbLine
 10
84.833826
 20
475.857192
 30
0.0
 11
123.679125
 21
408.57516
 31
0.0
  0
LINE
  5
103
100
AcDbEntity
  8
0
  6
CONTINUOUS
 62
     7
100
AcDbLine
 10
172.795024
 20
488.460427
 30
0.0
 11
172.423911
 21
488.902703
 31
0.0
  0
LINE
  5
104
100
AcDbEntity
  8
0
  6
CONTINUOUS
 62
     7
100
AcDbLine
 10
165.333826
 20
479.568517
 30
0.0
 11
164.833826
 21
479.857192
 31
0.0
  0
ARC
  5
105
100
AcDbEntity
  8
0
  6
CONTINUOUS
 62
     7
100
AcDbCircle
 10
194.27869
 20
462.857192
 30
0.0
 40
34.0
100
AcDbArc
 50
130.0
 51
150.0
  0
LINE
  5
106
100
AcDbEntity
  8
0
  6
CONTINUOUS
 62
     7
100
AcDbLine
 10
91.762029
 20
337.293127
 30
0.0
 11
128.297927
 21
400.575159
 31
0.0
  0
LINE
  5
107
100
AcDbEntity
  8
0
  6
CONTINUOUS
 62
     7
100
AcDbLine
 10
177.195098
 20
333.933696
 30
0.0
 11
177.566212
 21
334.375972
 31
0.0
  0
LINE
  5
108
100
AcDbEntity
  8
0
  6
CONTINUOUS
 62
     7
100
AcDbLine
 10
171.262029
 20
341.004452
 30
0.0
 11
171.762029
 21
341.293127
 31
0.0
  0
ARC
  5
109
100
AcDbEntity
  8
0
  6
CONTINUOUS
 62
     7
100
AcDbCircle
 10
194.27869
 20
354.293127
 30
0.0
 40
26.0
100
AcDbArc
 50
210.0
 51
230.0
  0
LINE
  5
10A
100
AcDbEntity
  8
0
  6
CONTINUOUS
 62
     7
100
AcDbLine
 10
64.079868
 20
496.072376
 30
0.0
 11
63.708754
 21
495.6301
 31
0.0
  0
LINE
  5
10B
100
AcDbEntity
  8
0
  6
CONTINUOUS
 62
     7
100
AcDbLine
 10
63.708754
 20
495.6301
 30
0.0
 11
79.029643
 21
482.774347
 31
0.0
  0
LINE
  5
10C
100
AcDbEntity
  8
0
  6
CONTINUOUS
 62
     7
100
AcDbLine
 10
79.400757
 20
333.933696
 30
0.0
 11
79.029643
 21
334.375972
 31
0.0
  0
LINE
  5
10D
100
AcDbEntity
  8
0
  6
CONTINUOUS
 62
     7
100
AcDbLine
 10
64.079868
 20
321.077944
 30
0.0
 11
63.708754
 21
321.52022
 31
0.0
  0
LINE
  5
10E
100
AcDbEntity
  8
0
  6
CONTINUOUS
 62
     7
100
AcDbLine
 10
63.708754
 20
321.52022
 30
0.0
 11
79.029643
 21
334.375972
 31
0.0
  0
LINE
  5
10F
100
AcDbEntity
  8
0
  6
CONTINUOUS
 62
     7
100
AcDbLine
 10
171.762029
 20
341.293127
 30
0.0
 11
132.91673
 21
408.57516
 31
0.0
  0
LINE
  5
110
100
AcDbEntity
  8
0
  6
CONTINUOUS
 62
     7
100
AcDbLine
 10
188.115913
 20
315.83414
 30
0.0
 11
187.7448
 21
315.391864
 31
0.0
  0
LINE
  5
111
100
AcDbEntity
  8
0
  6
CONTINUOUS
 62
     7
100
AcDbLine
 10
187.7448
 20
315.391864
 30
0.0
 11
172.423911
 21
328.247616
 31
0.0
  0
LINE
  5
112
100
AcDbEntity
  8
0
  6
CONTINUOUS
 62
     7
100
AcDbLine
 10
187.7448
 20
501.758455
 30
0.0
 11
172.423911
 21
488.902703
 31
0.0
  0
ARC
  5
113
100
AcDbEntity
  8
0
  6
CONTINUOUS
 62
     7
100
AcDbCircle
 10
66.279905
 20
498.694277
 30
0.0
 40
4.0
100
AcDbArc
 50
50.0
 51
230.0
  0
LINE
  5
114
100
AcDbEntity
  8
0
  6
CONTINUOUS
 62
     7
100
AcDbLine
 10
164.833826
 20
479.857192
 30
0.0
 11
128.297927
 21
416.57516
 31
0.0
  0
ARC
  5
115
100
AcDbEntity
  8
0
  6
CONTINUOUS
 62
     7
100
AcDbCircle
 10
66.279905
 20
318.456042
 30
0.0
 40
4.0
100
AcDbArc
 50
130.0
 51
310.0
  0
LINE
  5
116
100
AcDbEntity
  8
0
  6
CONTINUOUS
 62
     7
100
AcDbLine
 10
192.515987
 20
321.077944
 30
0.0
 11
192.887101
 21
321.52022
 31
0.0
  0
LINE
  5
117
100
AcDbEntity
  8
0
  6
CONTINUOUS
 62
     7
100
AcDbLine
 10
192.887101
 20
321.52022
 30
0.0
 11
177.566212
 21
334.375972
 31
0.0
  0
LINE
  5
118
100
AcDbEntity
  8
0
  6
CONTINUOUS
 62
     7
100
AcDbLine
 10
85.333826
 20
341.004452
 30
0.0
 11
84.833826
 21
341.293127
 31
0.0
  0
LINE
  5
119
100
AcDbEntity
  8
0
  6
CONTINUOUS
 62
     7
100
AcDbLine
 10
84.833826
 20
341.293127
 30
0.0
 11
123.679125
 21
408.57516
 31
0.0
  0
ARC
  5
11A
100
AcDbEntity
  8
0
  6
CONTINUOUS
 62
     7
100
AcDbCircle
 10
62.317165
 20
354.293127
 30
0.0
 40
26.0
100
AcDbArc
 50
310.0
 51
330.0
  0
ARC
  5
11B
100
AcDbEntity
  8
0
  6
CONTINUOUS
 62
     7
100
AcDbCircle
 10
190.31595
 20
318.456042
 30
0.0
 40
4.0
100
AcDbArc
 50
230.0
 51
50.0
  0
ELLIPSE
  5
11C
100
AcDbEntity
  8
0
  6
CONTINUOUS
 62
     7
100
AcDbEllipse
 10
57.747927
 20
525.230635
 30
0.0
 11
1.155298972339835
 21
0.0
 31
0.0
210
0.0
220
0.0
230
1.0
 40
0.017458
 41
1.570796326794896
 42
3.159048604999103
  0
LINE
  5
11D
100
AcDbEntity
  8
0
  6
CONTINUOUS
 62
     7
100
AcDbLine
 10
57.747925
 20
525.250805
 30
0.0
 11
198.84793
 21
525.250805
 31
0.0
  0
ELLIPSE
  5
11E
100
AcDbEntity
  8
0
  6
CONTINUOUS
 62
     7
100
AcDbEllipse
 10
198.847927
 20
525.230635
 30
0.0
 11
1.15529897233987
 21
0.0
 31
0.0
210
0.0
220
0.0
230
1.0
 40
0.017458
 41
6.265729355771881
 42
7.853981633974452
  0
LINE
  5
11F
100
AcDbEntity
  8
0
  6
CONTINUOUS
 62
     7
100
AcDbLine
 10
57.816404
 20
524.006684
 30
0.0
 11
198.779451
 21
524.006684
 31
0.0
  0
CIRCLE
  5
120
100
AcDbEntity
  8
0
  6
CONTINUOUS
 62
     7
100
AcDbCircle
 10
128.297927
 20
453.57516
 30
0.0
 40
10.4
  0
CIRCLE
  5
121
100
AcDbEntity
  8
0
  6
CONTINUOUS
 62
     7
100
AcDbCircle
 10
128.297927
 20
363.57516
 30
0.0
 40
10.4
  0
LINE
  5
122
100
AcDbEntity
  8
0
  6
CONTINUOUS
 62
     7
100
AcDbLine
 10
219.229447
 20
505.556685
 30
0.0
 11
219.229447
 21
311.593634
 31
0.0
  0
LINE
  5
123
100
AcDbEntity
  8
0
  6
CONTINUOUS
 62
     7
100
AcDbLine
 10
57.816404
 20
293.143635
 30
0.0
 11
198.779451
 21
293.143635
 31
0.0
  0
LINE
  5
124
100
AcDbEntity
  8
0
  6
CONTINUOUS
 62
     7
100
AcDbLine
 10
37.366408
 20
505.556685
 30
0.0
 11
37.366408
 21
311.593634
 31
0.0
  0
ELLIPSE
  5
125
100
AcDbEntity
  8
0
  6
CONTINUOUS
 62
     7
100
AcDbEllipse
 10
198.847927
 20
291.919685
 30
0.0
 11
1.155298972339906
 21
0.0
 31
0.0
210
0.0
220
0.0
230
1.0
 40
0.017458
 41
4.71238898038472
 42
6.300641258592389
  0
LINE
  5
126
100
AcDbEntity
  8
0
  6
CONTINUOUS
 62
     7
100
AcDbLine
 10
57.747925
 20
291.899514
 30
0.0
 11
198.84793
 21
291.899514
 31
0.0
  0
ELLIPSE
  5
127
100
AcDbEntity
  8
0
  6
CONTINUOUS
 62
     7
100
AcDbEllipse
 10
57.747927
 20
291.919685
 30
0.0
 11
1.155298972339835
 21
0.0
 31
0.0
210
0.0
220
0.0
230
1.0
 40
0.017458
 41
3.124136702177809
 42
4.712388980384689
  0
CIRCLE
  5
128
100
AcDbEntity
  8
0
  6
CONTINUOUS
 62
     7
100
AcDbCircle
 10
128.297927
 20
363.57516
 30
0.0
 40
10.379958
  0
CIRCLE
  5
129
100
AcDbEntity
  8
0
  6
CONTINUOUS
 62
     7
100
AcDbCircle
 10
128.297927
 20
453.57516
 30
0.0
 40
10.379958
  0
CIRCLE
  5
12A
100
AcDbEntity
  8
0
  6
CONTINUOUS
 62
     7
100
AcDbCircle
 10
128.297927
 20
453.57516
 30
0.0
 40
10.159169
  0
CIRCLE
  5
12B
100
AcDbEntity
  8
0
  6
CONTINUOUS
 62
     7
100
AcDbCircle
 10
128.297927
 20
363.57516
 30
0.0
 40
10.159169
  0
ELLIPSE
  5
12C
100
AcDbEntity
  8
0
  6
CONTINUOUS
 62
     7
100
AcDbEllipse
 10
220.453402
 20
505.62516
 30
0.0
 11
0.0
 21
1.155298972339693
 31
0.0
210
0.0
220
0.0
230
1.0
 40
0.017458
 41
4.712388980384689
 42
6.300641258599466
  0
LINE
  5
12D
100
AcDbEntity
  8
0
  6
CONTINUOUS
 62
     7
100
AcDbLine
 10
220.473575
 20
505.625163
 30
0.0
 11
220.473575
 21
311.525156
 31
0.0
  0
ELLIPSE
  5
12E
100
AcDbEntity
  8
0
  6
CONTINUOUS
 62
     7
100
AcDbEllipse
 10
220.453402
 20
311.52516
 30
0.0
 11
0.0
 21
1.155298972339835
 31
0.0
210
0.0
220
0.0
230
1.0
 40
0.017458
 41
3.124136702170703
 42
4.712388980384689
  0
ELLIPSE
  5
12F
100
AcDbEntity
  8
0
  6
CONTINUOUS
 62
     7
100
AcDbEllipse
 10
36.142452
 20
311.52516
 30
0.0
 11
0.0
 21
1.155298972339835
 31
0.0
210
0.0
220
0.0
230
1.0
 40
0.017458
 41
1.570796326794896
 42
3.159048605006111
  0
LINE
  5
130
100
AcDbEntity
  8
0
  6
CONTINUOUS
 62
     7
100
AcDbLine
 10
36.12228
 20
505.625163
 30
0.0
 11
36.12228
 21
311.525156
 31
0.0
  0
ELLIPSE
  5
131
100
AcDbEntity
  8
0
  6
CONTINUOUS
 62
     7
100
AcDbEllipse
 10
36.142452
 20
505.62516
 30
0.0
 11
0.0
 21
1.155298972339693
 31
0.0
210
0.0
220
0.0
230
1.0
 40
0.017458
 41
6.265729355764876
 42
7.853981633974482
  0
LINE
  5
132
100
AcDbEntity
  8
0
  6
CONTINUOUS
 62
     7
100
AcDbLine
 10
198.84793
 20
525.250805
 30
0.0
 11
198.847927
 21
528.57516
 31
0.0
  0
LINE
  5
133
100
AcDbEntity
  8
0
  6
CONTINUOUS
 62
     7
100
AcDbLine
 10
203.347927
 20
528.57516
 30
0.0
 11
198.847927
 21
528.57516
 31
0.0
  0
LINE
  5
134
100
AcDbEntity
  8
0
  6
CONTINUOUS
 62
     7
100
AcDbLine
 10
198.84793
 20
291.899514
 30
0.0
 11
198.847927
 21
288.57516
 31
0.0
  0
LINE
  5
135
100
AcDbEntity
  8
0
  6
CONTINUOUS
 62
     7
100
AcDbLine
 10
203.347927
 20
288.57516
 30
0.0
 11
198.847927
 21
288.57516
 31
0.0
  0
LINE
  5
136
100
AcDbEntity
  8
0
  6
CONTINUOUS
 62
     7
100
AcDbLine
 10
36.12228
 20
505.625163
 30
0.0
 11
32.797927
 21
505.62516
 31
0.0
  0
LINE
  5
137
100
AcDbEntity
  8
0
  6
CONTINUOUS
 62
     7
100
AcDbLine
 10
32.797927
 20
505.62516
 30
0.0
 11
32.797927
 21
510.12516
 31
0.0
  0
LINE
  5
138
100
AcDbEntity
  8
0
  6
CONTINUOUS
 62
     7
100
AcDbLine
 10
36.12228
 20
311.525156
 30
0.0
 11
32.797927
 21
311.52516
 31
0.0
  0
LINE
  5
139
100
AcDbEntity
  8
0
  6
CONTINUOUS
 62
     7
100
AcDbLine
 10
32.797927
 20
307.02516
 30
0.0
 11
32.797927
 21
311.52516
 31
0.0
  0
LINE
  5
13A
100
AcDbEntity
  8
0
  6
CONTINUOUS
 62
     7
100
AcDbLine
 10
57.747925
 20
291.899514
 30
0.0
 11
57.747927
 21
288.57516
 31
0.0
  0
LINE
  5
13B
100
AcDbEntity
  8
0
  6
CONTINUOUS
 62
     7
100
AcDbLine
 10
57.747927
 20
288.57516
 30
0.0
 11
53.247927
 21
288.57516
 31
0.0
  0
LINE
  5
13C
100
AcDbEntity
  8
0
  6
CONTINUOUS
 62
     7
100
AcDbLine
 10
57.747925
 20
525.250805
 30
0.0
 11
57.747927
 21
528.57516
 31
0.0
  0
LINE
  5
13D
100
AcDbEntity
  8
0
  6
CONTINUOUS
 62
     7
100
AcDbLine
 10
57.747927
 20
528.57516
 30
0.0
 11
53.247927
 21
528.57516
 31
0.0
  0
LINE
  5
13E
100
AcDbEntity
  8
0
  6
CONTINUOUS
 62
     7
100
AcDbLine
 10
220.473575
 20
311.525156
 30
0.0
 11
223.797927
 21
311.52516
 31
0.0
  0
LINE
  5
13F
100
AcDbEntity
  8
0
  6
CONTINUOUS
 62
     7
100
AcDbLine
 10
223.797927
 20
307.02516
 30
0.0
 11
223.797927
 21
311.52516
 31
0.0
  0
LINE
  5
140
100
AcDbEntity
  8
0
  6
CONTINUOUS
 62
     7
100
AcDbLine
 10
220.473575
 20
505.625163
 30
0.0
 11
223.797927
 21
505.62516
 31
0.0
  0
LINE
  5
141
100
AcDbEntity
  8
0
  6
CONTINUOUS
 62
     7
100
AcDbLine
 10
223.797927
 20
505.62516
 30
0.0
 11
223.797927
 21
510.12516
 31
0.0
  0
LINE
  5
142
100
AcDbEntity
  8
0
  6
CONTINUOUS
 62
     7
100
AcDbLine
 10
32.797927
 20
311.52516
 30
0.0
 11
32.797927
 21
505.62516
 31
0.0
  0
LINE
  5
143
100
AcDbEntity
  8
0
  6
CONTINUOUS
 62
     7
100
AcDbLine
 10
223.797927
 20
311.52516
 30
0.0
 11
223.797927
 21
505.62516
 31
0.0
  0
LINE
  5
144
100
AcDbEntity
  8
0
  6
CONTINUOUS
 62
     7
100
AcDbLine
 10
198.847927
 20
528.57516
 30
0.0
 11
57.747927
 21
528.57516
 31
0.0
  0
LINE
  5
145
100
AcDbEntity
  8
0
  6
CONTINUOUS
 62
     7
100
AcDbLine
 10
198.847927
 20
288.57516
 30
0.0
 11
57.747927
 21
288.57516
 31
0.0
  0
LINE
  5
146
100
AcDbEntity
  8
0
  6
CONTINUOUS
 62
     7
100
AcDbLine
 10
458.75899
 20
317.575161
 30
0.0
 11
459.758989
 21
317.627567
 31
0.0
  0
LINE
  5
147
100
AcDbEntity
  8
0
  6
CONTINUOUS
 62
     7
100
AcDbLine
 10
459.758989
 20
327.522752
 30
0.0
 11
458.75899
 21
327.575159
 31
0.0
  0
LINE
  5
148
100
AcDbEntity
  8
0
  6
CONTINUOUS
 62
     7
100
AcDbLine
 10
458.75899
 20
489.57516
 30
0.0
 11
459.758989
 21
489.627567
 31
0.0
  0
LINE
  5
149
100
AcDbEntity
  8
0
  6
CONTINUOUS
 62
     7
100
AcDbLine
 10
459.758989
 20
499.522752
 30
0.0
 11
458.75899
 21
499.575158
 31
0.0
  0
LINE
  5
14A
100
AcDbEntity
  8
0
  6
CONTINUOUS
 62
     7
100
AcDbLine
 10
459.758992
 20
491.32516
 30
0.0
 11
461.758989
 21
491.32516
 31
0.0
  0
LINE
  5
14B
100
AcDbEntity
  8
0
  6
CONTINUOUS
 62
     7
100
AcDbLine
 10
461.758989
 20
497.82516
 30
0.0
 11
459.758992
 21
497.825158
 31
0.0
  0
LINE
  5
14C
100
AcDbEntity
  8
0
  6
CONTINUOUS
 62
     7
100
AcDbLine
 10
459.758992
 20
319.325161
 30
0.0
 11
461.758989
 21
319.32516
 31
0.0
  0
LINE
  5
14D
100
AcDbEntity
  8
0
  6
CONTINUOUS
 62
     7
100
AcDbLine
 10
461.758989
 20
325.82516
 30
0.0
 11
459.758992
 21
325.82516
 31
0.0
  0
LINE
  5
14E
100
AcDbEntity
  8
0
  6
CONTINUOUS
 62
     7
100
AcDbLine
 10
458.75899
 20
315.27516
 30
0.0
 11
461.758989
 21
315.327525
 31
0.0
  0
LINE
  5
14F
100
AcDbEntity
  8
0
  6
CONTINUOUS
 62
     7
100
AcDbLine
 10
461.758989
 20
329.822794
 30
0.0
 11
458.75899
 21
329.875161
 31
0.0
  0
LINE
  5
150
100
AcDbEntity
  8
0
  6
CONTINUOUS
 62
     7
100
AcDbLine
 10
461.758989
 20
501.822794
 30
0.0
 11
458.75899
 21
501.875159
 31
0.0
  0
LINE
  5
151
100
AcDbEntity
  8
0
  6
CONTINUOUS
 62
     7
100
AcDbLine
 10
458.75899
 20
487.275158
 30
0.0
 11
461.758989
 21
487.327525
 31
0.0
  0
LINE
  5
152
100
AcDbEntity
  8
0
  6
CONTINUOUS
 62
     7
100
AcDbLine
 10
459.758989
 20
502.116927
 30
0.0
 11
458.75899
 21
502.694276
 31
0.0
  0
LINE
  5
153
100
AcDbEntity
  8
0
  6
CONTINUOUS
 62
     7
100
AcDbLine
 10
458.75899
 20
314.456043
 30
0.0
 11
459.758989
 21
315.033392
 31
0.0
  0
LINE
  5
154
100
AcDbEntity
  8
0
  6
CONTINUOUS
 62
     7
100
AcDbLine
 10
461.758989
 20
314.022794
 30
0.0
 11
458.75899
 21
314.075162
 31
0.0
  0
LINE
  5
155
100
AcDbEntity
  8
0
  6
CONTINUOUS
 62
     7
100
AcDbLine
 10
458.75899
 20
503.075157
 30
0.0
 11
461.758989
 21
503.127525
 31
0.0
  0
LINE
  5
156
100
AcDbEntity
  8
0
  6
CONTINUOUS
 62
     7
100
AcDbLine
 10
380.358989
 20
288.57516
 30
0.0
 11
380.358989
 21
294.57516
 31
0.0
  0
LINE
  5
157
100
AcDbEntity
  8
0
  6
CONTINUOUS
 62
     7
100
AcDbLine
 10
380.358989
 20
294.57516
 30
0.0
 11
461.758989
 21
294.57516
 31
0.0
  0
LINE
  5
158
100
AcDbEntity
  8
0
  6
CONTINUOUS
 62
     7
100
AcDbLine
 10
461.758989
 20
294.57516
 30
0.0
 11
461.758989
 21
288.57516
 31
0.0
  0
LINE
  5
159
100
AcDbEntity
  8
0
  6
CONTINUOUS
 62
     7
100
AcDbLine
 10
461.758989
 20
288.57516
 30
0.0
 11
380.358989
 21
288.57516
 31
0.0
  0
LINE
  5
15A
100
AcDbEntity
  8
0
  6
CONTINUOUS
 62
     7
100
AcDbLine
 10
461.758989
 20
522.57516
 30
0.0
 11
380.358989
 21
522.57516
 31
0.0
  0
LINE
  5
15B
100
AcDbEntity
  8
0
  6
CONTINUOUS
 62
     7
100
AcDbLine
 10
461.758989
 20
522.57516
 30
0.0
 11
461.758989
 21
510.125158
 31
0.0
  0
LINE
  5
15C
100
AcDbEntity
  8
0
  6
CONTINUOUS
 62
     7
100
AcDbLine
 10
388.658989
 20
510.12516
 30
0.0
 11
461.758989
 21
510.125158
 31
0.0
  0
ARC
  5
15D
100
AcDbEntity
  8
0
  6
CONTINUOUS
 62
     7
100
AcDbCircle
 10
388.658989
 20
505.62516
 30
0.0
 40
4.5
100
AcDbArc
 50
90.0
 51
180.0
  0
LINE
  5
15E
100
AcDbEntity
  8
0
  6
CONTINUOUS
 62
     7
100
AcDbLine
 10
384.158989
 20
311.52516
 30
0.0
 11
384.158989
 21
505.62516
 31
0.0
  0
ARC
  5
15F
100
AcDbEntity
  8
0
  6
CONTINUOUS
 62
     7
100
AcDbCircle
 10
388.658989
 20
311.52516
 30
0.0
 40
4.5
100
AcDbArc
 50
180.0
 51
270.0
  0
LINE
  5
160
100
AcDbEntity
  8
0
  6
CONTINUOUS
 62
     7
100
AcDbLine
 10
461.758989
 20
307.025162
 30
0.0
 11
388.658989
 21
307.02516
 31
0.0
  0
LINE
  5
161
100
AcDbEntity
  8
0
  6
CONTINUOUS
 62
     7
100
AcDbLine
 10
461.758989
 20
307.025162
 30
0.0
 11
461.758989
 21
294.57516
 31
0.0
  0
LINE
  5
162
100
AcDbEntity
  8
0
  6
CONTINUOUS
 62
     7
100
AcDbLine
 10
380.358989
 20
294.57516
 30
0.0
 11
380.358989
 21
522.57516
 31
0.0
  0
LINE
  5
163
100
AcDbEntity
  8
0
  6
CONTINUOUS
 62
     7
100
AcDbLine
 10
380.358989
 20
528.57516
 30
0.0
 11
461.758989
 21
528.57516
 31
0.0
  0
LINE
  5
164
100
AcDbEntity
  8
0
  6
CONTINUOUS
 62
     7
100
AcDbLine
 10
461.758989
 20
528.57516
 30
0.0
 11
461.758989
 21
522.57516
 31
0.0
  0
LINE
  5
165
100
AcDbEntity
  8
0
  6
CONTINUOUS
 62
     7
100
AcDbLine
 10
380.358989
 20
522.57516
 30
0.0
 11
380.358989
 21
528.57516
 31
0.0
  0
ELLIPSE
  5
166
100
AcDbEntity
  8
0
  6
CONTINUOUS
 62
     7
100
AcDbEllipse
 10
388.63882
 20
505.62516
 30
0.0
 11
1.155475010403463
 21
0.0
 31
0.0
210
0.0
220
0.0
230
1.0
 40
0.999848
 41
1.55334037537905
 42
3.141592653589793
  0
LINE
  5
167
100
AcDbEntity
  8
0
  6
CONTINUOUS
 62
     7
100
AcDbLine
 10
387.483345
 20
505.625163
 30
0.0
 11
384.158989
 21
505.62516
 31
0.0
  0
LINE
  5
168
100
AcDbEntity
  8
0
  6
CONTINUOUS
 62
     7
100
AcDbLine
 10
388.658989
 20
506.780279
 30
0.0
 11
388.658989
 21
510.12516
 31
0.0
  0
ELLIPSE
  5
169
100
AcDbEntity
  8
0
  6
CONTINUOUS
 62
     7
100
AcDbEllipse
 10
388.63882
 20
311.52516
 30
0.0
 11
1.155475010403463
 21
0.0
 31
0.0
210
0.0
220
0.0
230
1.0
 40
0.999848
 41
3.141592653589793
 42
4.729844931800553
  0
LINE
  5
16A
100
AcDbEntity
  8
0
  6
CONTINUOUS
 62
     7
100
AcDbLine
 10
388.658989
 20
310.37004
 30
0.0
 11
388.658989
 21
307.02516
 31
0.0
  0
LINE
  5
16B
100
AcDbEntity
  8
0
  6
CONTINUOUS
 62
     7
100
AcDbLine
 10
387.483345
 20
311.525156
 30
0.0
 11
384.158989
 21
311.52516
 31
0.0
  0
LINE
  5
16C
100
AcDbEntity
  8
0
  6
CONTINUOUS
 62
     7
100
AcDbLine
 10
387.483345
 20
505.625163
 30
0.0
 11
387.483345
 21
311.525156
 31
0.0
  0
LINE
  5
16D
100
AcDbEntity
  8
0
  6
CONTINUOUS
 62
     7
100
AcDbLine
 10
388.658989
 20
310.37004
 30
0.0
 11
458.75899
 21
311.593634
 31
0.0
  0
LINE
  5
16E
100
AcDbEntity
  8
0
  6
CONTINUOUS
 62
     7
100
AcDbLine
 10
461.758989
 20
311.593637
 30
0.0
 11
458.75899
 21
311.593634
 31
0.0
  0
LINE
  5
16F
100
AcDbEntity
  8
0
  6
CONTINUOUS
 62
     7
100
AcDbLine
 10
461.758989
 20
311.593637
 30
0.0
 11
461.758989
 21
307.025162
 31
0.0
  0
LINE
  5
170
100
AcDbEntity
  8
0
  6
CONTINUOUS
 62
     7
100
AcDbLine
 10
461.758989
 20
510.125158
 30
0.0
 11
461.758989
 21
505.556683
 31
0.0
  0
LINE
  5
171
100
AcDbEntity
  8
0
  6
CONTINUOUS
 62
     7
100
AcDbLine
 10
461.758989
 20
505.556683
 30
0.0
 11
458.75899
 21
505.556685
 31
0.0
  0
LINE
  5
172
100
AcDbEntity
  8
0
  6
CONTINUOUS
 62
     7
100
AcDbLine
 10
388.658989
 20
506.780279
 30
0.0
 11
458.75899
 21
505.556685
 31
0.0
  0
LINE
  5
173
100
AcDbEntity
  8
0
  6
CONTINUOUS
 62
     7
100
AcDbLine
 10
458.75899
 20
505.556685
 30
0.0
 11
458.75899
 21
311.593634
 31
0.0
  0
LINE
  5
174
100
AcDbEntity
  8
0
  6
CONTINUOUS
 62
     7
100
AcDbLine
 10
459.758989
 20
327.522752
 30
0.0
 11
459.758989
 21
317.627567
 31
0.0
  0
LINE
  5
175
100
AcDbEntity
  8
0
  6
CONTINUOUS
 62
     7
100
AcDbLine
 10
459.758989
 20
499.522752
 30
0.0
 11
459.758989
 21
489.627567
 31
0.0
  0
LINE
  5
176
100
AcDbEntity
  8
0
  6
CONTINUOUS
 62
     7
100
AcDbLine
 10
461.758989
 20
497.82516
 30
0.0
 11
461.758989
 21
491.32516
 31
0.0
  0
LINE
  5
177
100
AcDbEntity
  8
0
  6
CONTINUOUS
 62
     7
100
AcDbLine
 10
461.758989
 20
325.82516
 30
0.0
 11
461.758989
 21
319.32516
 31
0.0
  0
LINE
  5
178
100
AcDbEntity
  8
0
  6
CONTINUOUS
 62
     7
100
AcDbLine
 10
461.758989
 20
319.32516
 30
0.0
 11
461.758989
 21
315.327525
 31
0.0
  0
LINE
  5
179
100
AcDbEntity
  8
0
  6
CONTINUOUS
 62
     7
100
AcDbLine
 10
461.758989
 20
329.822794
 30
0.0
 11
461.758989
 21
325.82516
 31
0.0
  0
LINE
  5
17A
100
AcDbEntity
  8
0
  6
CONTINUOUS
 62
     7
100
AcDbLine
 10
461.758989
 20
501.822794
 30
0.0
 11
461.758989
 21
497.82516
 31
0.0
  0
LINE
  5
17B
100
AcDbEntity
  8
0
  6
CONTINUOUS
 62
     7
100
AcDbLine
 10
461.758989
 20
491.32516
 30
0.0
 11
461.758989
 21
487.327525
 31
0.0
  0
LINE
  5
17C
100
AcDbEntity
  8
0
  6
CONTINUOUS
 62
     7
100
AcDbLine
 10
459.758989
 20
501.857705
 30
0.0
 11
459.758989
 21
502.116927
 31
0.0
  0
LINE
  5
17D
100
AcDbEntity
  8
0
  6
CONTINUOUS
 62
     7
100
AcDbLine
 10
459.758989
 20
315.292615
 30
0.0
 11
459.758989
 21
315.033392
 31
0.0
  0
LINE
  5
17E
100
AcDbEntity
  8
0
  6
CONTINUOUS
 62
     7
100
AcDbLine
 10
459.758989
 20
483.216623
 30
0.0
 11
458.75899
 21
482.774344
 31
0.0
  0
LINE
  5
17F
100
AcDbEntity
  8
0
  6
CONTINUOUS
 62
     7
100
AcDbLine
 10
459.758992
 20
487.292615
 30
0.0
 11
459.758989
 21
483.216623
 31
0.0
  0
LINE
  5
180
100
AcDbEntity
  8
0
  6
CONTINUOUS
 62
     7
100
AcDbLine
 10
459.758989
 20
333.933696
 30
0.0
 11
458.75899
 21
334.375975
 31
0.0
  0
LINE
  5
181
100
AcDbEntity
  8
0
  6
CONTINUOUS
 62
     7
100
AcDbLine
 10
459.758992
 20
329.857704
 30
0.0
 11
459.758989
 21
333.933696
 31
0.0
  0
LINE
  5
182
100
AcDbEntity
  8
0
  6
CONTINUOUS
 62
     7
100
AcDbLine
 10
461.758989
 20
314.022794
 30
0.0
 11
461.758989
 21
311.593637
 31
0.0
  0
LINE
  5
183
100
AcDbEntity
  8
0
  6
CONTINUOUS
 62
     7
100
AcDbLine
 10
461.758989
 20
505.556683
 30
0.0
 11
461.758989
 21
503.127525
 31
0.0
  0
LINE
  5
184
100
AcDbEntity
  8
0
  6
CONTINUOUS
 62
     7
100
AcDbLine
 10
459.758989
 20
476.145867
 30
0.0
 11
458.75899
 21
475.857196
 31
0.0
  0
LINE
  5
185
100
AcDbEntity
  8
0
  6
CONTINUOUS
 62
     7
100
AcDbLine
 10
459.758989
 20
476.145867
 30
0.0
 11
459.758989
 21
483.216623
 31
0.0
  0
LINE
  5
186
100
AcDbEntity
  8
0
  6
CONTINUOUS
 62
     7
100
AcDbLine
 10
459.758989
 20
341.004452
 30
0.0
 11
458.75899
 21
341.293124
 31
0.0
  0
LINE
  5
187
100
AcDbEntity
  8
0
  6
CONTINUOUS
 62
     7
100
AcDbLine
 10
459.758989
 20
341.004452
 30
0.0
 11
459.758989
 21
333.933696
 31
0.0
  0
LINE
  5
188
100
AcDbEntity
  8
0
  6
CONTINUOUS
 62
     7
100
AcDbLine
 10
458.75899
 20
408.57516
 30
0.0
 11
459.758992
 21
408.57516
 31
0.0
  0
LINE
  5
189
100
AcDbEntity
  8
0
  6
CONTINUOUS
 62
     7
100
AcDbLine
 10
459.758989
 20
476.145867
 30
0.0
 11
459.758992
 21
408.57516
 31
0.0
  0
LINE
  5
18A
100
AcDbEntity
  8
0
  6
CONTINUOUS
 62
     7
100
AcDbLine
 10
459.758989
 20
341.004452
 30
0.0
 11
459.758992
 21
408.57516
 31
0.0
  0
LINE
  5
18B
100
AcDbEntity
  8
0
  6
CONTINUOUS
 62
     7
100
AcDbLine
 10
461.758989
 20
528.57516
 30
0.0
 11
388.658989
 21
528.57516
 31
0.0
  0
LINE
  5
18C
100
AcDbEntity
  8
0
  6
CONTINUOUS
 62
     7
100
AcDbLine
 10
461.758989
 20
288.57516
 30
0.0
 11
388.658989
 21
288.57516
 31
0.0
  0
LINE
  5
18D
100
AcDbEntity
  8
0
  6
CONTINUOUS
 62
     7
100
AcDbLine
 10
388.658989
 20
528.57516
 30
0.0
 11
384.158989
 21
528.57516
 31
0.0
  0
LINE
  5
18E
100
AcDbEntity
  8
0
  6
CONTINUOUS
 62
     7
100
AcDbLine
 10
388.658989
 20
288.57516
 30
0.0
 11
384.158989
 21
288.57516
 31
0.0
  0
INSERT
  5
196
100
AcDbEntity
  8
0
  6
CONTINUOUS
 62
     7
100
AcDbBlockReference
  2
SW_CENTERMARKSYMBOL_0
 10
388.658989
 20
505.62516
 30
0.0
 41
5.0
 42
5.0
 43
5.0
  0
INSERT
  5
19E
100
AcDbEntity
  8
0
  6
CONTINUOUS
 62
     7
100
AcDbBlockReference
  2
SW_CENTERMARKSYMBOL_1
 10
388.658989
 20
311.52516
 30
0.0
 41
5.0
 42
5.0
 43
5.0
  0
ARC
  5
19F
100
AcDbEntity
  8
0
  6
CONTINUOUS
 62
     7
100
AcDbCircle
 10
764.307662
 20
518.67516
 30
0.0
 40
4.97167
100
AcDbArc
 50
0.0
 51
38.153044
  0
LINE
  5
1A0
100
AcDbEntity
  8
0
  6
CONTINUOUS
 62
     7
100
AcDbLine
 10
768.777586
 20
516.652894
 30
0.0
 11
769.279331
 21
518.67516
 31
0.0
  0
LINE
  5
1A1
100
AcDbEntity
  8
0
  6
CONTINUOUS
 62
     7
100
AcDbLine
 10
781.081672
 20
521.746479
 30
0.0
 11
768.217201
 21
521.746479
 31
0.0
  0
LINE
  5
1A2
100
AcDbEntity
  8
0
  6
CONTINUOUS
 62
     7
100
AcDbLine
 10
768.777586
 20
516.652894
 30
0.0
 11
781.081672
 21
516.652894
 31
0.0
  0
LINE
  5
1A3
100
AcDbEntity
  8
0
  6
CONTINUOUS
 62
     7
100
AcDbLine
 10
781.081672
 20
516.652894
 30
0.0
 11
781.081672
 21
521.746479
 31
0.0
  0
CIRCLE
  5
1A4
100
AcDbEntity
  8
0
  6
CONTINUOUS
 62
     7
100
AcDbCircle
 10
792.607662
 20
301.07516
 30
0.0
 40
5.4
  0
ARC
  5
1A5
100
AcDbEntity
  8
0
  6
CONTINUOUS
 62
     7
100
AcDbCircle
 10
777.907662
 20
300.547444
 30
0.0
 40
3.7
100
AcDbArc
 50
97.8
 51
180.0
  0
LINE
  5
1A6
100
AcDbEntity
  8
0
  6
CONTINUOUS
 62
     7
100
AcDbLine
 10
774.207662
 20
300.547444
 30
0.0
 11
774.207662
 21
298.47516
 31
0.0
  0
ARC
  5
1A7
100
AcDbEntity
  8
0
  6
CONTINUOUS
 62
     7
100
AcDbCircle
 10
764.307662
 20
298.47516
 30
0.0
 40
9.9
100
AcDbArc
 50
309.854279
 51
0.0
  0
LINE
  5
1A8
100
AcDbEntity
  8
0
  6
CONTINUOUS
 62
     7
100
AcDbLine
 10
770.651951
 20
290.87516
 30
0.0
 11
799.107662
 21
290.87516
 31
0.0
  0
ARC
  5
1A9
100
AcDbEntity
  8
0
  6
CONTINUOUS
 62
     7
100
AcDbCircle
 10
799.107662
 20
294.57516
 30
0.0
 40
3.7
100
AcDbArc
 50
270.0
 51
0.0
  0
LINE
  5
1AA
100
AcDbEntity
  8
0
  6
CONTINUOUS
 62
     7
100
AcDbLine
 10
802.807662
 20
294.57516
 30
0.0
 11
802.807662
 21
310.299965
 31
0.0
  0
ARC
  5
1AB
100
AcDbEntity
  8
0
  6
CONTINUOUS
 62
     7
100
AcDbCircle
 10
795.207662
 20
316.644254
 30
0.0
 40
9.9
100
AcDbArc
 50
277.8
 51
320.145721
  0
LINE
  5
1AC
100
AcDbEntity
  8
0
  6
CONTINUOUS
 62
     7
100
AcDbLine
 10
796.551246
 20
306.83585
 30
0.0
 11
795.381955
 21
306.675677
 31
0.0
  0
ARC
  5
1AD
100
AcDbEntity
  8
0
  6
CONTINUOUS
 62
     7
100
AcDbCircle
 10
792.607662
 20
301.07516
 30
0.0
 40
6.25
100
AcDbArc
 50
131.952149
 51
63.647851
  0
LINE
  5
1AE
100
AcDbEntity
  8
0
  6
CONTINUOUS
 62
     7
100
AcDbLine
 10
788.429476
 20
305.723306
 30
0.0
 11
777.405514
 21
304.213211
 31
0.0
  0
CIRCLE
  5
1AF
100
AcDbEntity
  8
0
  6
CONTINUOUS
 62
     7
100
AcDbCircle
 10
626.607662
 20
301.07516
 30
0.0
 40
5.4
  0
LINE
  5
1B0
100
AcDbEntity
  8
0
  6
CONTINUOUS
 62
     7
100
AcDbLine
 10
622.664078
 20
306.83585
 30
0.0
 11
623.833368
 21
306.675677
 31
0.0
  0
ARC
  5
1B1
100
AcDbEntity
  8
0
  6
CONTINUOUS
 62
     7
100
AcDbCircle
 10
624.007662
 20
316.644254
 30
0.0
 40
9.9
100
AcDbArc
 50
219.854279
 51
262.2
  0
LINE
  5
1B2
100
AcDbEntity
  8
0
  6
CONTINUOUS
 62
     7
100
AcDbLine
 10
616.407662
 20
310.299965
 30
0.0
 11
616.407662
 21
294.57516
 31
0.0
  0
ARC
  5
1B3
100
AcDbEntity
  8
0
  6
CONTINUOUS
 62
     7
100
AcDbCircle
 10
620.107662
 20
294.57516
 30
0.0
 40
3.7
100
AcDbArc
 50
180.0
 51
270.0
  0
LINE
  5
1B4
100
AcDbEntity
  8
0
  6
CONTINUOUS
 62
     7
100
AcDbLine
 10
620.107662
 20
290.87516
 30
0.0
 11
648.563373
 21
290.87516
 31
0.0
  0
ARC
  5
1B5
100
AcDbEntity
  8
0
  6
CONTINUOUS
 62
     7
100
AcDbCircle
 10
654.907662
 20
298.47516
 30
0.0
 40
9.9
100
AcDbArc
 50
180.0
 51
230.145721
  0
LINE
  5
1B6
100
AcDbEntity
  8
0
  6
CONTINUOUS
 62
     7
100
AcDbLine
 10
645.007662
 20
300.547444
 30
0.0
 11
645.007662
 21
298.47516
 31
0.0
  0
ARC
  5
1B7
100
AcDbEntity
  8
0
  6
CONTINUOUS
 62
     7
100
AcDbCircle
 10
641.307662
 20
300.547444
 30
0.0
 40
3.7
100
AcDbArc
 50
0.0
 51
82.2
  0
LINE
  5
1B8
100
AcDbEntity
  8
0
  6
CONTINUOUS
 62
     7
100
AcDbLine
 10
630.785848
 20
305.723306
 30
0.0
 11
641.80981
 21
304.213211
 31
0.0
  0
ARC
  5
1B9
100
AcDbEntity
  8
0
  6
CONTINUOUS
 62
     7
100
AcDbCircle
 10
626.607662
 20
301.07516
 30
0.0
 40
6.25
100
AcDbArc
 50
116.352149
 51
48.047851
  0
CIRCLE
  5
1BA
100
AcDbEntity
  8
0
  6
CONTINUOUS
 62
     7
100
AcDbCircle
 10
626.607662
 20
516.07516
 30
0.0
 40
5.4
  0
ARC
  5
1BB
100
AcDbEntity
  8
0
  6
CONTINUOUS
 62
     7
100
AcDbCircle
 10
641.307662
 20
516.602875
 30
0.0
 40
3.7
100
AcDbArc
 50
277.8
 51
0.0
  0
LINE
  5
1BC
100
AcDbEntity
  8
0
  6
CONTINUOUS
 62
     7
100
AcDbLine
 10
645.007662
 20
516.602875
 30
0.0
 11
645.007662
 21
518.67516
 31
0.0
  0
ARC
  5
1BD
100
AcDbEntity
  8
0
  6
CONTINUOUS
 62
     7
100
AcDbCircle
 10
654.907662
 20
518.67516
 30
0.0
 40
9.9
100
AcDbArc
 50
129.854279
 51
180.0
  0
LINE
  5
1BE
100
AcDbEntity
  8
0
  6
CONTINUOUS
 62
     7
100
AcDbLine
 10
648.563373
 20
526.27516
 30
0.0
 11
620.107662
 21
526.27516
 31
0.0
  0
ARC
  5
1BF
100
AcDbEntity
  8
0
  6
CONTINUOUS
 62
     7
100
AcDbCircle
 10
620.107662
 20
522.57516
 30
0.0
 40
3.7
100
AcDbArc
 50
90.0
 51
180.0
  0
LINE
  5
1C0
100
AcDbEntity
  8
0
  6
CONTINUOUS
 62
     7
100
AcDbLine
 10
616.407662
 20
522.57516
 30
0.0
 11
616.407662
 21
506.850354
 31
0.0
  0
ARC
  5
1C1
100
AcDbEntity
  8
0
  6
CONTINUOUS
 62
     7
100
AcDbCircle
 10
624.007662
 20
500.506066
 30
0.0
 40
9.9
100
AcDbArc
 50
97.8
 51
140.145721
  0
LINE
  5
1C2
100
AcDbEntity
  8
0
  6
CONTINUOUS
 62
     7
100
AcDbLine
 10
622.664078
 20
510.314469
 30
0.0
 11
623.833368
 21
510.474642
 31
0.0
  0
ARC
  5
1C3
100
AcDbEntity
  8
0
  6
CONTINUOUS
 62
     7
100
AcDbCircle
 10
626.607662
 20
516.07516
 30
0.0
 40
6.25
100
AcDbArc
 50
311.952149
 51
243.647851
  0
LINE
  5
1C4
100
AcDbEntity
  8
0
  6
CONTINUOUS
 62
     7
100
AcDbLine
 10
630.785848
 20
511.427013
 30
0.0
 11
641.80981
 21
512.937108
 31
0.0
  0
CIRCLE
  5
1C5
100
AcDbEntity
  8
0
  6
CONTINUOUS
 62
     7
100
AcDbCircle
 10
792.607662
 20
516.07516
 30
0.0
 40
5.4
  0
LINE
  5
1C6
100
AcDbEntity
  8
0
  6
CONTINUOUS
 62
     7
100
AcDbLine
 10
650.607662
 20
518.67516
 30
0.0
 11
650.607662
 21
516.602875
 31
0.0
  0
ARC
  5
1C7
100
AcDbEntity
  8
0
  6
CONTINUOUS
 62
     7
100
AcDbCircle
 10
641.307662
 20
516.602875
 30
0.0
 40
9.3
100
AcDbArc
 50
277.8
 51
0.0
  0
LINE
  5
1C8
100
AcDbEntity
  8
0
  6
CONTINUOUS
 62
     7
100
AcDbLine
 10
642.569817
 20
507.38892
 30
0.0
 11
623.424085
 21
504.766281
 31
0.0
  0
ARC
  5
1C9
100
AcDbEntity
  8
0
  6
CONTINUOUS
 62
     7
100
AcDbCircle
 10
624.007662
 20
500.506066
 30
0.0
 40
4.3
100
AcDbArc
 50
97.8
 51
180.0
  0
LINE
  5
1CA
100
AcDbEntity
  8
0
  6
CONTINUOUS
 62
     7
100
AcDbLine
 10
619.707662
 20
316.644254
 30
0.0
 11
619.707662
 21
500.506066
 31
0.0
  0
ARC
  5
1CB
100
AcDbEntity
  8
0
  6
CONTINUOUS
 62
     7
100
AcDbCircle
 10
624.007662
 20
316.644254
 30
0.0
 40
4.3
100
AcDbArc
 50
180.0
 51
262.2
  0
LINE
  5
1CC
100
AcDbEntity
  8
0
  6
CONTINUOUS
 62
     7
100
AcDbLine
 10
642.569817
 20
309.761399
 30
0.0
 11
623.424085
 21
312.384038
 31
0.0
  0
ARC
  5
1CD
100
AcDbEntity
  8
0
  6
CONTINUOUS
 62
     7
100
AcDbCircle
 10
641.307662
 20
300.547444
 30
0.0
 40
9.3
100
AcDbArc
 50
0.0
 51
82.2
  0
LINE
  5
1CE
100
AcDbEntity
  8
0
  6
CONTINUOUS
 62
     7
100
AcDbLine
 10
650.607662
 20
298.47516
 30
0.0
 11
650.607662
 21
300.547444
 31
0.0
  0
ARC
  5
1CF
100
AcDbEntity
  8
0
  6
CONTINUOUS
 62
     7
100
AcDbCircle
 10
654.907662
 20
298.47516
 30
0.0
 40
4.3
100
AcDbArc
 50
180.0
 51
270.0
  0
LINE
  5
1D0
100
AcDbEntity
  8
0
  6
CONTINUOUS
 62
     7
100
AcDbLine
 10
654.907662
 20
294.17516
 30
0.0
 11
764.307662
 21
294.17516
 31
0.0
  0
ARC
  5
1D1
100
AcDbEntity
  8
0
  6
CONTINUOUS
 62
     7
100
AcDbCircle
 10
764.307662
 20
298.47516
 30
0.0
 40
4.3
100
AcDbArc
 50
270.0
 51
0.0
  0
LINE
  5
1D2
100
AcDbEntity
  8
0
  6
CONTINUOUS
 62
     7
100
AcDbLine
 10
768.607662
 20
298.47516
 30
0.0
 11
768.607662
 21
300.547444
 31
0.0
  0
ARC
  5
1D3
100
AcDbEntity
  8
0
  6
CONTINUOUS
 62
     7
100
AcDbCircle
 10
777.907662
 20
300.547444
 30
0.0
 40
9.3
100
AcDbArc
 50
97.8
 51
180.0
  0
LINE
  5
1D4
100
AcDbEntity
  8
0
  6
CONTINUOUS
 62
     7
100
AcDbLine
 10
776.645507
 20
309.761399
 30
0.0
 11
795.791239
 21
312.384038
 31
0.0
  0
ARC
  5
1D5
100
AcDbEntity
  8
0
  6
CONTINUOUS
 62
     7
100
AcDbCircle
 10
795.207662
 20
316.644254
 30
0.0
 40
4.3
100
AcDbArc
 50
277.8
 51
0.0
  0
LINE
  5
1D6
100
AcDbEntity
  8
0
  6
CONTINUOUS
 62
     7
100
AcDbLine
 10
799.507662
 20
500.506066
 30
0.0
 11
799.507662
 21
316.644254
 31
0.0
  0
ARC
  5
1D7
100
AcDbEntity
  8
0
  6
CONTINUOUS
 62
     7
100
AcDbCircle
 10
795.207662
 20
500.506066
 30
0.0
 40
4.3
100
AcDbArc
 50
0.0
 51
82.2
  0
LINE
  5
1D8
100
AcDbEntity
  8
0
  6
CONTINUOUS
 62
     7
100
AcDbLine
 10
776.645507
 20
507.38892
 30
0.0
 11
795.791239
 21
504.766281
 31
0.0
  0
ARC
  5
1D9
100
AcDbEntity
  8
0
  6
CONTINUOUS
 62
     7
100
AcDbCircle
 10
777.907662
 20
516.602875
 30
0.0
 40
9.3
100
AcDbArc
 50
180.0
 51
262.2
  0
LINE
  5
1DA
100
AcDbEntity
  8
0
  6
CONTINUOUS
 62
     7
100
AcDbLine
 10
768.607662
 20
518.67516
 30
0.0
 11
768.607662
 21
516.602875
 31
0.0
  0
ARC
  5
1DB
100
AcDbEntity
  8
0
  6
CONTINUOUS
 62
     7
100
AcDbCircle
 10
764.307662
 20
518.67516
 30
0.0
 40
4.3
100
AcDbArc
 50
0.0
 51
90.0
  0
LINE
  5
1DC
100
AcDbEntity
  8
0
  6
CONTINUOUS
 62
     7
100
AcDbLine
 10
654.907662
 20
522.97516
 30
0.0
 11
764.307662
 21
522.97516
 31
0.0
  0
ARC
  5
1DD
100
AcDbEntity
  8
0
  6
CONTINUOUS
 62
     7
100
AcDbCircle
 10
654.907662
 20
518.67516
 30
0.0
 40
4.3
100
AcDbArc
 50
90.0
 51
180.0
  0
ARC
  5
1DE
100
AcDbEntity
  8
0
  6
CONTINUOUS
 62
     7
100
AcDbCircle
 10
799.107662
 20
522.57516
 30
0.0
 40
3.7
100
AcDbArc
 50
0.0
 51
90.0
  0
LINE
  5
1DF
100
AcDbEntity
  8
0
  6
CONTINUOUS
 62
     7
100
AcDbLine
 10
799.107662
 20
526.27516
 30
0.0
 11
770.651951
 21
526.27516
 31
0.0
  0
ARC
  5
1E0
100
AcDbEntity
  8
0
  6
CONTINUOUS
 62
     7
100
AcDbCircle
 10
764.307662
 20
518.67516
 30
0.0
 40
9.9
100
AcDbArc
 50
0.0
 51
50.145721
  0
LINE
  5
1E1
100
AcDbEntity
  8
0
  6
CONTINUOUS
 62
     7
100
AcDbLine
 10
774.207662
 20
516.602875
 30
0.0
 11
774.207662
 21
518.67516
 31
0.0
  0
ARC
  5
1E2
100
AcDbEntity
  8
0
  6
CONTINUOUS
 62
     7
100
AcDbCircle
 10
777.907662
 20
516.602875
 30
0.0
 40
3.7
100
AcDbArc
 50
180.0
 51
262.2
  0
LINE
  5
1E3
100
AcDbEntity
  8
0
  6
CONTINUOUS
 62
     7
100
AcDbLine
 10
788.429476
 20
511.427013
 30
0.0
 11
777.405514
 21
512.937108
 31
0.0
  0
ARC
  5
1E4
100
AcDbEntity
  8
0
  6
CONTINUOUS
 62
     7
100
AcDbCircle
 10
792.607662
 20
516.07516
 30
0.0
 40
6.25
100
AcDbArc
 50
296.352149
 51
228.047851
  0
LINE
  5
1E5
100
AcDbEntity
  8
0
  6
CONTINUOUS
 62
     7
100
AcDbLine
 10
796.551246
 20
510.314469
 30
0.0
 11
795.381955
 21
510.474642
 31
0.0
  0
ARC
  5
1E6
100
AcDbEntity
  8
0
  6
CONTINUOUS
 62
     7
100
AcDbCircle
 10
795.207662
 20
500.506066
 30
0.0
 40
9.9
100
AcDbArc
 50
39.854279
 51
82.2
  0
LINE
  5
1E7
100
AcDbEntity
  8
0
  6
CONTINUOUS
 62
     7
100
AcDbLine
 10
802.807662
 20
506.850354
 30
0.0
 11
802.807662
 21
522.57516
 31
0.0
  0
ARC
  5
1E8
100
AcDbEntity
  8
0
  6
CONTINUOUS
 62
     7
100
AcDbCircle
 10
620.107662
 20
294.57516
 30
0.0
 40
6.0
100
AcDbArc
 50
180.0
 51
270.0
  0
ARC
  5
1E9
100
AcDbEntity
  8
0
  6
CONTINUOUS
 62
     7
100
AcDbCircle
 10
620.107662
 20
522.57516
 30
0.0
 40
6.0
100
AcDbArc
 50
90.0
 51
180.0
  0
LINE
  5
1EA
100
AcDbEntity
  8
0
  6
CONTINUOUS
 62
     7
100
AcDbLine
 10
799.107662
 20
528.57516
 30
0.0
 11
620.107662
 21
528.57516
 31
0.0
  0
ARC
  5
1EB
100
AcDbEntity
  8
0
  6
CONTINUOUS
 62
     7
100
AcDbCircle
 10
799.107662
 20
522.57516
 30
0.0
 40
6.0
100
AcDbArc
 50
0.0
 51
90.0
  0
LINE
  5
1EC
100
AcDbEntity
  8
0
  6
CONTINUOUS
 62
     7
100
AcDbLine
 10
805.107662
 20
294.57516
 30
0.0
 11
805.107662
 21
522.57516
 31
0.0
  0
ARC
  5
1ED
100
AcDbEntity
  8
0
  6
CONTINUOUS
 62
     7
100
AcDbCircle
 10
799.107662
 20
294.57516
 30
0.0
 40
6.0
100
AcDbArc
 50
270.0
 51
0.0
  0
LINE
  5
1EE
100
AcDbEntity
  8
0
  6
CONTINUOUS
 62
     7
100
AcDbLine
 10
620.107662
 20
288.57516
 30
0.0
 11
799.107662
 21
288.57516
 31
0.0
  0
LINE
  5
1EF
100
AcDbEntity
  8
0
  6
CONTINUOUS
 62
     7
100
AcDbLine
 10
614.107662
 20
522.57516
 30
0.0
 11
614.107662
 21
294.57516
 31
0.0
  0
LINE
  5
1F0
100
AcDbEntity
  8
0
  6
CONTINUOUS
 62
     7
100
AcDbLine
 10
622.629728
 20
510.565226
 30
0.0
 11
622.664078
 21
510.314469
 31
0.0
  0
ARC
  5
1F1
100
AcDbEntity
  8
0
  6
CONTINUOUS
 62
     7
100
AcDbCircle
 10
629.249426
 20
495.373208
 30
0.0
 40
17.277583
100
AcDbArc
 50
128.271376
 51
138.009992
  0
ARC
  5
1F2
100
AcDbEntity
  8
0
  6
CONTINUOUS
 62
     7
100
AcDbCircle
 10
624.007662
 20
500.506066
 30
0.0
 40
10.153098
100
AcDbArc
 50
97.8
 51
123.055255
  0
ARC
  5
1F3
100
AcDbEntity
  8
0
  6
CONTINUOUS
 62
     7
100
AcDbCircle
 10
629.249426
 20
321.777112
 30
0.0
 40
17.277583
100
AcDbArc
 50
221.990008
 51
231.728624
  0
LINE
  5
1F4
100
AcDbEntity
  8
0
  6
CONTINUOUS
 62
     7
100
AcDbLine
 10
622.629728
 20
306.585093
 30
0.0
 11
622.664078
 21
306.83585
 31
0.0
  0
ARC
  5
1F5
100
AcDbEntity
  8
0
  6
CONTINUOUS
 62
     7
100
AcDbCircle
 10
624.007662
 20
316.644254
 30
0.0
 40
10.153098
100
AcDbArc
 50
236.944745
 51
262.2
  0
LINE
  5
1F6
100
AcDbEntity
  8
0
  6
CONTINUOUS
 62
     7
100
AcDbLine
 10
623.60436
 20
313.700078
 30
0.0
 11
623.424085
 21
312.384038
 31
0.0
  0
LINE
  5
1F7
100
AcDbEntity
  8
0
  6
CONTINUOUS
 62
     7
100
AcDbLine
 10
621.035992
 20
316.644254
 30
0.0
 11
619.707662
 21
316.644254
 31
0.0
  0
ARC
  5
1F8
100
AcDbEntity
  8
0
  6
CONTINUOUS
 62
     7
100
AcDbCircle
 10
624.007662
 20
316.644254
 30
0.0
 40
2.97167
100
AcDbArc
 50
180.0
 51
262.2
  0
LINE
  5
1F9
100
AcDbEntity
  8
0
  6
CONTINUOUS
 62
     7
100
AcDbLine
 10
623.60436
 20
503.450241
 30
0.0
 11
623.424085
 21
504.766281
 31
0.0
  0
ARC
  5
1FA
100
AcDbEntity
  8
0
  6
CONTINUOUS
 62
     7
100
AcDbCircle
 10
624.007662
 20
500.506066
 30
0.0
 40
2.97167
100
AcDbArc
 50
97.8
 51
180.0
  0
LINE
  5
1FB
100
AcDbEntity
  8
0
  6
CONTINUOUS
 62
     7
100
AcDbLine
 10
621.035992
 20
500.506066
 30
0.0
 11
619.707662
 21
500.506066
 31
0.0
  0
LINE
  5
1FC
100
AcDbEntity
  8
0
  6
CONTINUOUS
 62
     7
100
AcDbLine
 10
621.035992
 20
500.506066
 30
0.0
 11
621.035992
 21
316.644254
 31
0.0
  0
CIRCLE
  5
1FD
100
AcDbEntity
  8
0
  6
CONTINUOUS
 62
     7
100
AcDbCircle
 10
626.607662
 20
516.07516
 30
0.0
 40
4.467385
  0
CIRCLE
  5
1FE
100
AcDbEntity
  8
0
  6
CONTINUOUS
 62
     7
100
AcDbCircle
 10
626.607662
 20
301.07516
 30
0.0
 40
4.467385
  0
LINE
  5
1FF
100
AcDbEntity
  8
0
  6
CONTINUOUS
 62
     7
100
AcDbLine
 10
622.629728
 20
306.585093
 30
0.0
 11
623.455406
 21
306.471993
 31
0.0
  0
LINE
  5
200
100
AcDbEntity
  8
0
  6
CONTINUOUS
 62
     7
100
AcDbLine
 10
622.629728
 20
510.565226
 30
0.0
 11
623.455406
 21
510.678326
 31
0.0
  0
LINE
  5
201
100
AcDbEntity
  8
0
  6
CONTINUOUS
 62
     7
100
AcDbLine
 10
642.750092
 20
311.077439
 30
0.0
 11
642.569817
 21
309.761399
 31
0.0
  0
LINE
  5
202
100
AcDbEntity
  8
0
  6
CONTINUOUS
 62
     7
100
AcDbLine
 10
623.60436
 20
313.700078
 30
0.0
 11
642.750092
 21
311.077439
 31
0.0
  0
LINE
  5
203
100
AcDbEntity
  8
0
  6
CONTINUOUS
 62
     7
100
AcDbLine
 10
642.750092
 20
506.07288
 30
0.0
 11
642.569817
 21
507.38892
 31
0.0
  0
LINE
  5
204
100
AcDbEntity
  8
0
  6
CONTINUOUS
 62
     7
100
AcDbLine
 10
623.60436
 20
503.450241
 30
0.0
 11
642.750092
 21
506.07288
 31
0.0
  0
LINE
  5
205
100
AcDbEntity
  8
0
  6
CONTINUOUS
 62
     7
100
AcDbLine
 10
634.14956
 20
304.978882
 30
0.0
 11
634.107665
 21
305.012812
 31
0.0
  0
LINE
  5
206
100
AcDbEntity
  8
0
  6
CONTINUOUS
 62
     7
100
AcDbLine
 10
631.095113
 20
305.425477
 30
0.0
 11
634.107665
 21
305.012812
 31
0.0
  0
LINE
  5
207
100
AcDbEntity
  8
0
  6
CONTINUOUS
 62
     7
100
AcDbLine
 10
641.630008
 20
302.900629
 30
0.0
 11
641.80981
 21
304.213211
 31
0.0
  0
LINE
  5
208
100
AcDbEntity
  8
0
  6
CONTINUOUS
 62
     7
100
AcDbLine
 10
635.715478
 20
303.710816
 30
0.0
 11
641.630008
 21
302.900629
 31
0.0
  0
LINE
  5
209
100
AcDbEntity
  8
0
  6
CONTINUOUS
 62
     7
100
AcDbLine
 10
635.715478
 20
303.710816
 30
0.0
 11
634.239041
 21
304.906418
 31
0.0
  0
LINE
  5
20A
100
AcDbEntity
  8
0
  6
CONTINUOUS
 62
     7
100
AcDbLine
 10
634.239041
 20
304.966626
 30
0.0
 11
634.14956
 21
304.978882
 31
0.0
  0
LINE
  5
20B
100
AcDbEntity
  8
0
  6
CONTINUOUS
 62
     7
100
AcDbLine
 10
634.239041
 20
512.243901
 30
0.0
 11
635.715478
 21
513.439504
 31
0.0
  0
LINE
  5
20C
100
AcDbEntity
  8
0
  6
CONTINUOUS
 62
     7
100
AcDbLine
 10
635.715478
 20
513.439504
 30
0.0
 11
641.630008
 21
514.24969
 31
0.0
  0
LINE
  5
20D
100
AcDbEntity
  8
0
  6
CONTINUOUS
 62
     7
100
AcDbLine
 10
641.630008
 20
514.24969
 30
0.0
 11
641.80981
 21
512.937108
 31
0.0
  0
LINE
  5
20E
100
AcDbEntity
  8
0
  6
CONTINUOUS
 62
     7
100
AcDbLine
 10
631.095113
 20
511.724842
 30
0.0
 11
634.107665
 21
512.137507
 31
0.0
  0
LINE
  5
20F
100
AcDbEntity
  8
0
  6
CONTINUOUS
 62
     7
100
AcDbLine
 10
634.107665
 20
512.137507
 30
0.0
 11
634.14956
 21
512.171437
 31
0.0
  0
LINE
  5
210
100
AcDbEntity
  8
0
  6
CONTINUOUS
 62
     7
100
AcDbLine
 10
634.239041
 20
512.183693
 30
0.0
 11
634.14956
 21
512.171437
 31
0.0
  0
LINE
  5
211
100
AcDbEntity
  8
0
  6
CONTINUOUS
 62
     7
100
AcDbLine
 10
643.682822
 20
516.602875
 30
0.0
 11
645.007662
 21
516.602875
 31
0.0
  0
ARC
  5
212
100
AcDbEntity
  8
0
  6
CONTINUOUS
 62
     7
100
AcDbCircle
 10
641.307662
 20
516.602875
 30
0.0
 40
2.375161
100
AcDbArc
 50
277.8
 51
0.0
  0
LINE
  5
213
100
AcDbEntity
  8
0
  6
CONTINUOUS
 62
     7
100
AcDbLine
 10
643.682822
 20
300.547444
 30
0.0
 11
645.007662
 21
300.547444
 31
0.0
  0
ARC
  5
214
100
AcDbEntity
  8
0
  6
CONTINUOUS
 62
     7
100
AcDbCircle
 10
641.307662
 20
300.547444
 30
0.0
 40
2.375161
100
AcDbArc
 50
0.0
 51
82.2
  0
LINE
  5
215
100
AcDbEntity
  8
0
  6
CONTINUOUS
 62
     7
100
AcDbLine
 10
651.935992
 20
300.547444
 30
0.0
 11
650.607662
 21
300.547444
 31
0.0
  0
ARC
  5
216
100
AcDbEntity
  8
0
  6
CONTINUOUS
 62
     7
100
AcDbCircle
 10
641.307662
 20
300.547444
 30
0.0
 40
10.62833
100
AcDbArc
 50
0.0
 51
82.2
  0
LINE
  5
217
100
AcDbEntity
  8
0
  6
CONTINUOUS
 62
     7
100
AcDbLine
 10
651.935992
 20
516.602875
 30
0.0
 11
650.607662
 21
516.602875
 31
0.0
  0
ARC
  5
218
100
AcDbEntity
  8
0
  6
CONTINUOUS
 62
     7
100
AcDbCircle
 10
641.307662
 20
516.602875
 30
0.0
 40
10.62833
100
AcDbArc
 50
277.8
 51
0.0
  0
LINE
  5
219
100
AcDbEntity
  8
0
  6
CONTINUOUS
 62
     7
100
AcDbLine
 10
643.682822
 20
518.67516
 30
0.0
 11
645.007662
 21
518.67516
 31
0.0
  0
LINE
  5
21A
100
AcDbEntity
  8
0
  6
CONTINUOUS
 62
     7
100
AcDbLine
 10
643.682822
 20
516.602875
 30
0.0
 11
643.682822
 21
518.67516
 31
0.0
  0
LWPOLYLINE
  5
21B
100
AcDbEntity
  8
0
  6
CONTINUOUS
 62
     7
100
AcDbPolyline
 90
        3
 70
   128
 43
0.0
 10
644.112171
 20
521.749971
 10
644.630061
 20
522.131567
 10
645.867431
 20
522.967373
  0
ELLIPSE
  5
21C
100
AcDbEntity
  8
0
  6
CONTINUOUS
 62
     7
100
AcDbEllipse
 10
654.907662
 20
518.499118
 30
0.0
 11
0.0000000002312106
 21
10.08543127560031
 31
0.0
210
0.0
220
0.0
230
1.0
 40
0.999848
 41
0.6903592539608941
 42
1.11180903701783
  0
ARC
  5
21D
100
AcDbEntity
  8
0
  6
CONTINUOUS
 62
     7
100
AcDbCircle
 10
654.907662
 20
518.67516
 30
0.0
 40
11.224839
100
AcDbArc
 50
164.101794
 51
180.0
  0
LINE
  5
21E
100
AcDbEntity
  8
0
  6
CONTINUOUS
 62
     7
100
AcDbLine
 10
643.682822
 20
298.47516
 30
0.0
 11
645.007662
 21
298.47516
 31
0.0
  0
LINE
  5
21F
100
AcDbEntity
  8
0
  6
CONTINUOUS
 62
     7
100
AcDbLine
 10
643.682822
 20
300.547444
 30
0.0
 11
643.682822
 21
298.47516
 31
0.0
  0
ELLIPSE
  5
220
100
AcDbEntity
  8
0
  6
CONTINUOUS
 62
     7
100
AcDbEllipse
 10
654.907662
 20
298.651201
 30
0.0
 11
-0.0000000002310685
 21
10.08543127560038
 31
0.0
210
0.0
220
0.0
230
1.0
 40
0.999848
 41
2.029783616571967
 42
2.45123339962891
  0
LWPOLYLINE
  5
221
100
AcDbEntity
  8
0
  6
CONTINUOUS
 62
     7
100
AcDbPolyline
 90
        3
 70
   128
 43
0.0
 10
644.112171
 20
295.400349
 10
644.630061
 20
295.018752
 10
645.867431
 20
294.182946
  0
ARC
  5
222
100
AcDbEntity
  8
0
  6
CONTINUOUS
 62
     7
100
AcDbCircle
 10
654.907662
 20
298.47516
 30
0.0
 40
11.224839
100
AcDbArc
 50
180.0
 51
195.898206
  0
LINE
  5
223
100
AcDbEntity
  8
0
  6
CONTINUOUS
 62
     7
100
AcDbLine
 10
654.907662
 20
295.50349
 30
0.0
 11
654.907662
 21
294.17516
 31
0.0
  0
LINE
  5
224
100
AcDbEntity
  8
0
  6
CONTINUOUS
 62
     7
100
AcDbLine
 10
651.935992
 20
298.47516
 30
0.0
 11
650.607662
 21
298.47516
 31
0.0
  0
ARC
  5
225
100
AcDbEntity
  8
0
  6
CONTINUOUS
 62
     7
100
AcDbCircle
 10
654.907662
 20
298.47516
 30
0.0
 40
2.97167
100
AcDbArc
 50
180.0
 51
270.0
  0
LINE
  5
226
100
AcDbEntity
  8
0
  6
CONTINUOUS
 62
     7
100
AcDbLine
 10
654.907662
 20
521.646829
 30
0.0
 11
654.907662
 21
522.97516
 31
0.0
  0
ARC
  5
227
100
AcDbEntity
  8
0
  6
CONTINUOUS
 62
     7
100
AcDbCircle
 10
654.907662
 20
518.67516
 30
0.0
 40
2.97167
100
AcDbArc
 50
90.0
 51
180.0
  0
LINE
  5
228
100
AcDbEntity
  8
0
  6
CONTINUOUS
 62
     7
100
AcDbLine
 10
651.935992
 20
518.67516
 30
0.0
 11
650.607662
 21
518.67516
 31
0.0
  0
LINE
  5
229
100
AcDbEntity
  8
0
  6
CONTINUOUS
 62
     7
100
AcDbLine
 10
651.935992
 20
516.602875
 30
0.0
 11
651.935992
 21
518.67516
 31
0.0
  0
LINE
  5
22A
100
AcDbEntity
  8
0
  6
CONTINUOUS
 62
     7
100
AcDbLine
 10
651.935992
 20
300.547444
 30
0.0
 11
651.935992
 21
298.47516
 31
0.0
  0
LINE
  5
22B
100
AcDbEntity
  8
0
  6
CONTINUOUS
 62
     7
100
AcDbLine
 10
764.307662
 20
295.50349
 30
0.0
 11
654.907662
 21
295.50349
 31
0.0
  0
LINE
  5
22C
100
AcDbEntity
  8
0
  6
CONTINUOUS
 62
     7
100
AcDbLine
 10
764.307662
 20
295.50349
 30
0.0
 11
764.307662
 21
294.17516
 31
0.0
  0
LINE
  5
22D
100
AcDbEntity
  8
0
  6
CONTINUOUS
 62
     7
100
AcDbLine
 10
764.307662
 20
521.646829
 30
0.0
 11
764.307662
 21
522.97516
 31
0.0
  0
LINE
  5
22E
100
AcDbEntity
  8
0
  6
CONTINUOUS
 62
     7
100
AcDbLine
 10
764.307662
 20
521.646829
 30
0.0
 11
654.907662
 21
521.646829
 31
0.0
  0
LINE
  5
22F
100
AcDbEntity
  8
0
  6
CONTINUOUS
 62
     7
100
AcDbLine
 10
767.279331
 20
518.67516
 30
0.0
 11
768.607662
 21
518.67516
 31
0.0
  0
ARC
  5
230
100
AcDbEntity
  8
0
  6
CONTINUOUS
 62
     7
100
AcDbCircle
 10
764.307662
 20
518.67516
 30
0.0
 40
2.97167
100
AcDbArc
 50
0.0
 51
90.0
  0
ARC
  5
231
100
AcDbEntity
  8
0
  6
CONTINUOUS
 62
     7
100
AcDbCircle
 10
764.307662
 20
298.47516
 30
0.0
 40
2.97167
100
AcDbArc
 50
270.0
 51
0.0
  0
LINE
  5
232
100
AcDbEntity
  8
0
  6
CONTINUOUS
 62
     7
100
AcDbLine
 10
767.279331
 20
298.47516
 30
0.0
 11
768.607662
 21
298.47516
 31
0.0
  0
LINE
  5
233
100
AcDbEntity
  8
0
  6
CONTINUOUS
 62
     7
100
AcDbLine
 10
767.279331
 20
300.547444
 30
0.0
 11
768.607662
 21
300.547444
 31
0.0
  0
ARC
  5
234
100
AcDbEntity
  8
0
  6
CONTINUOUS
 62
     7
100
AcDbCircle
 10
777.907662
 20
300.547444
 30
0.0
 40
10.62833
100
AcDbArc
 50
97.8
 51
180.0
  0
LINE
  5
235
100
AcDbEntity
  8
0
  6
CONTINUOUS
 62
     7
100
AcDbLine
 10
776.465232
 20
311.077439
 30
0.0
 11
776.645507
 21
309.761399
 31
0.0
  0
LINE
  5
236
100
AcDbEntity
  8
0
  6
CONTINUOUS
 62
     7
100
AcDbLine
 10
767.279331
 20
516.602875
 30
0.0
 11
768.607662
 21
516.602875
 31
0.0
  0
LINE
  5
237
100
AcDbEntity
  8
0
  6
CONTINUOUS
 62
     7
100
AcDbLine
 10
767.279331
 20
516.602875
 30
0.0
 11
767.279331
 21
518.67516
 31
0.0
  0
LINE
  5
238
100
AcDbEntity
  8
0
  6
CONTINUOUS
 62
     7
100
AcDbLine
 10
767.279331
 20
300.547444
 30
0.0
 11
767.279331
 21
298.47516
 31
0.0
  0
LINE
  5
239
100
AcDbEntity
  8
0
  6
CONTINUOUS
 62
     7
100
AcDbLine
 10
776.465232
 20
506.07288
 30
0.0
 11
776.645507
 21
507.38892
 31
0.0
  0
ARC
  5
23A
100
AcDbEntity
  8
0
  6
CONTINUOUS
 62
     7
100
AcDbCircle
 10
777.907662
 20
516.602875
 30
0.0
 40
10.62833
100
AcDbArc
 50
180.0
 51
262.2
  0
ELLIPSE
  5
23B
100
AcDbEntity
  8
0
  6
CONTINUOUS
 62
     7
100
AcDbEllipse
 10
764.307662
 20
518.499118
 30
0.0
 11
0.0000000002310685
 21
10.08543127560031
 31
0.0
210
0.0
220
0.0
230
1.0
 40
0.999848
 41
5.171376270207601
 42
5.592826053264532
  0
LWPOLYLINE
  5
23C
100
AcDbEntity
  8
0
  6
CONTINUOUS
 62
     7
100
AcDbPolyline
 90
        3
 70
   128
 43
0.0
 10
775.103153
 20
521.749971
 10
774.585263
 20
522.131567
 10
773.347893
 20
522.967373
  0
ARC
  5
23D
100
AcDbEntity
  8
0
  6
CONTINUOUS
 62
     7
100
AcDbCircle
 10
764.307662
 20
518.67516
 30
0.0
 40
11.224839
100
AcDbArc
 50
0.0
 51
15.898206
  0
LINE
  5
23E
100
AcDbEntity
  8
0
  6
CONTINUOUS
 62
     7
100
AcDbLine
 10
775.532501
 20
518.67516
 30
0.0
 11
774.207662
 21
518.67516
 31
0.0
  0
LWPOLYLINE
  5
23F
100
AcDbEntity
  8
0
  6
CONTINUOUS
 62
     7
100
AcDbPolyline
 90
        3
 70
   128
 43
0.0
 10
775.103153
 20
295.400349
 10
774.585263
 20
295.018752
 10
773.347893
 20
294.182946
  0
ELLIPSE
  5
240
100
AcDbEntity
  8
0
  6
CONTINUOUS
 62
     7
100
AcDbEllipse
 10
764.307662
 20
298.651201
 30
0.0
 11
-0.0000000002312106
 21
10.08543127560038
 31
0.0
210
0.0
220
0.0
230
1.0
 40
0.999848
 41
3.831951907504863
 42
4.2534016905618
  0
LINE
  5
241
100
AcDbEntity
  8
0
  6
CONTINUOUS
 62
     7
100
AcDbLine
 10
775.532501
 20
298.47516
 30
0.0
 11
774.207662
 21
298.47516
 31
0.0
  0
ARC
  5
242
100
AcDbEntity
  8
0
  6
CONTINUOUS
 62
     7
100
AcDbCircle
 10
764.307662
 20
298.47516
 30
0.0
 40
11.224839
100
AcDbArc
 50
344.101794
 51
0.0
  0
LINE
  5
243
100
AcDbEntity
  8
0
  6
CONTINUOUS
 62
     7
100
AcDbLine
 10
775.532501
 20
516.602875
 30
0.0
 11
775.532501
 21
518.67516
 31
0.0
  0
LINE
  5
244
100
AcDbEntity
  8
0
  6
CONTINUOUS
 62
     7
100
AcDbLine
 10
775.532501
 20
516.602875
 30
0.0
 11
774.207662
 21
516.602875
 31
0.0
  0
LINE
  5
245
100
AcDbEntity
  8
0
  6
CONTINUOUS
 62
     7
100
AcDbLine
 10
775.532501
 20
300.547444
 30
0.0
 11
774.207662
 21
300.547444
 31
0.0
  0
LINE
  5
246
100
AcDbEntity
  8
0
  6
CONTINUOUS
 62
     7
100
AcDbLine
 10
775.532501
 20
300.547444
 30
0.0
 11
775.532501
 21
298.47516
 31
0.0
  0
ARC
  5
247
100
AcDbEntity
  8
0
  6
CONTINUOUS
 62
     7
100
AcDbCircle
 10
777.907662
 20
516.602875
 30
0.0
 40
2.375161
100
AcDbArc
 50
180.0
 51
262.2
  0
LINE
  5
248
100
AcDbEntity
  8
0
  6
CONTINUOUS
 62
     7
100
AcDbLine
 10
777.585316
 20
514.24969
 30
0.0
 11
777.405514
 21
512.937108
 31
0.0
  0
LINE
  5
249
100
AcDbEntity
  8
0
  6
CONTINUOUS
 62
     7
100
AcDbLine
 10
777.585316
 20
302.900629
 30
0.0
 11
777.405514
 21
304.213211
 31
0.0
  0
ARC
  5
24A
100
AcDbEntity
  8
0
  6
CONTINUOUS
 62
     7
100
AcDbCircle
 10
777.907662
 20
300.547444
 30
0.0
 40
2.375161
100
AcDbArc
 50
97.8
 51
180.0
  0
LINE
  5
24B
100
AcDbEntity
  8
0
  6
CONTINUOUS
 62
     7
100
AcDbLine
 10
795.610964
 20
503.450241
 30
0.0
 11
795.791239
 21
504.766281
 31
0.0
  0
LINE
  5
24C
100
AcDbEntity
  8
0
  6
CONTINUOUS
 62
     7
100
AcDbLine
 10
795.610964
 20
503.450241
 30
0.0
 11
776.465232
 21
506.07288
 31
0.0
  0
LINE
  5
24D
100
AcDbEntity
  8
0
  6
CONTINUOUS
 62
     7
100
AcDbLine
 10
795.610964
 20
313.700078
 30
0.0
 11
776.465232
 21
311.077439
 31
0.0
  0
LINE
  5
24E
100
AcDbEntity
  8
0
  6
CONTINUOUS
 62
     7
100
AcDbLine
 10
795.610964
 20
313.700078
 30
0.0
 11
795.791239
 21
312.384038
 31
0.0
  0
LINE
  5
24F
100
AcDbEntity
  8
0
  6
CONTINUOUS
 62
     7
100
AcDbLine
 10
785.065764
 20
512.171437
 30
0.0
 11
785.107658
 21
512.137507
 31
0.0
  0
LINE
  5
250
100
AcDbEntity
  8
0
  6
CONTINUOUS
 62
     7
100
AcDbLine
 10
788.120211
 20
511.724842
 30
0.0
 11
785.107658
 21
512.137507
 31
0.0
  0
LINE
  5
251
100
AcDbEntity
  8
0
  6
CONTINUOUS
 62
     7
100
AcDbLine
 10
783.499846
 20
513.439504
 30
0.0
 11
777.585316
 21
514.24969
 31
0.0
  0
LINE
  5
252
100
AcDbEntity
  8
0
  6
CONTINUOUS
 62
     7
100
AcDbLine
 10
783.499846
 20
513.439504
 30
0.0
 11
784.976282
 21
512.243901
 31
0.0
  0
LINE
  5
253
100
AcDbEntity
  8
0
  6
CONTINUOUS
 62
     7
100
AcDbLine
 10
784.976282
 20
512.183693
 30
0.0
 11
785.065764
 21
512.171437
 31
0.0
  0
LINE
  5
254
100
AcDbEntity
  8
0
  6
CONTINUOUS
 62
     7
100
AcDbLine
 10
784.976282
 20
304.906418
 30
0.0
 11
783.499846
 21
303.710816
 31
0.0
  0
LINE
  5
255
100
AcDbEntity
  8
0
  6
CONTINUOUS
 62
     7
100
AcDbLine
 10
783.499846
 20
303.710816
 30
0.0
 11
777.585316
 21
302.900629
 31
0.0
  0
LINE
  5
256
100
AcDbEntity
  8
0
  6
CONTINUOUS
 62
     7
100
AcDbLine
 10
788.120211
 20
305.425477
 30
0.0
 11
785.107658
 21
305.012812
 31
0.0
  0
LINE
  5
257
100
AcDbEntity
  8
0
  6
CONTINUOUS
 62
     7
100
AcDbLine
 10
785.107658
 20
305.012812
 30
0.0
 11
785.065764
 21
304.978882
 31
0.0
  0
LINE
  5
258
100
AcDbEntity
  8
0
  6
CONTINUOUS
 62
     7
100
AcDbLine
 10
784.976282
 20
304.966626
 30
0.0
 11
785.065764
 21
304.978882
 31
0.0
  0
CIRCLE
  5
259
100
AcDbEntity
  8
0
  6
CONTINUOUS
 62
     7
100
AcDbCircle
 10
792.607662
 20
516.07516
 30
0.0
 40
4.467385
  0
CIRCLE
  5
25A
100
AcDbEntity
  8
0
  6
CONTINUOUS
 62
     7
100
AcDbCircle
 10
792.607662
 20
301.07516
 30
0.0
 40
4.467385
  0
LINE
  5
25B
100
AcDbEntity
  8
0
  6
CONTINUOUS
 62
     7
100
AcDbLine
 10
796.585595
 20
510.565226
 30
0.0
 11
795.759917
 21
510.678326
 31
0.0
  0
LINE
  5
25C
100
AcDbEntity
  8
0
  6
CONTINUOUS
 62
     7
100
AcDbLine
 10
796.585595
 20
510.565226
 30
0.0
 11
796.551246
 21
510.314469
 31
0.0
  0
LINE
  5
25D
100
AcDbEntity
  8
0
  6
CONTINUOUS
 62
     7
100
AcDbLine
 10
796.585595
 20
306.585093
 30
0.0
 11
796.551246
 21
306.83585
 31
0.0
  0
LINE
  5
25E
100
AcDbEntity
  8
0
  6
CONTINUOUS
 62
     7
100
AcDbLine
 10
796.585595
 20
306.585093
 30
0.0
 11
795.759917
 21
306.471993
 31
0.0
  0
ARC
  5
25F
100
AcDbEntity
  8
0
  6
CONTINUOUS
 62
     7
100
AcDbCircle
 10
795.207662
 20
316.644254
 30
0.0
 40
2.97167
100
AcDbArc
 50
277.8
 51
0.0
  0
LINE
  5
260
100
AcDbEntity
  8
0
  6
CONTINUOUS
 62
     7
100
AcDbLine
 10
798.179331
 20
316.644254
 30
0.0
 11
799.507662
 21
316.644254
 31
0.0
  0
LINE
  5
261
100
AcDbEntity
  8
0
  6
CONTINUOUS
 62
     7
100
AcDbLine
 10
798.179331
 20
500.506066
 30
0.0
 11
799.507662
 21
500.506066
 31
0.0
  0
ARC
  5
262
100
AcDbEntity
  8
0
  6
CONTINUOUS
 62
     7
100
AcDbCircle
 10
795.207662
 20
500.506066
 30
0.0
 40
2.97167
100
AcDbArc
 50
0.0
 51
82.2
  0
ARC
  5
263
100
AcDbEntity
  8
0
  6
CONTINUOUS
 62
     7
100
AcDbCircle
 10
784.796237
 20
327.293675
 30
0.0
 40
24.818878
100
AcDbArc
 50
309.753036
 51
316.528331
  0
ARC
  5
264
100
AcDbEntity
  8
0
  6
CONTINUOUS
 62
     7
100
AcDbCircle
 10
795.207662
 20
316.644254
 30
0.0
 40
10.153098
100
AcDbArc
 50
277.8
 51
303.055255
  0
ARC
  5
265
100
AcDbEntity
  8
0
  6
CONTINUOUS
 62
     7
100
AcDbCircle
 10
784.796237
 20
489.856644
 30
0.0
 40
24.818878
100
AcDbArc
 50
43.471669
 51
50.246964
  0
ARC
  5
266
100
AcDbEntity
  8
0
  6
CONTINUOUS
 62
     7
100
AcDbCircle
 10
795.207662
 20
500.506066
 30
0.0
 40
10.153098
100
AcDbArc
 50
56.944745
 51
82.2
  0
LINE
  5
267
100
AcDbEntity
  8
0
  6
CONTINUOUS
 62
     7
100
AcDbLine
 10
798.179331
 20
316.644254
 30
0.0
 11
798.179331
 21
500.506066
 31
0.0
  0
ELLIPSE
  5
268
100
AcDbEntity
  8
0
  6
CONTINUOUS
 62
     7
100
AcDbEllipse
 10
639.057662
 20
522.930575
 30
0.0
 11
2.107784923723414
 21
0.0
 31
0.0
210
0.0
220
0.0
230
1.0
 40
0.017458
 41
1.570796326794896
 42
3.159048605006089
  0
LINE
  5
269
100
AcDbEntity
  8
0
  6
CONTINUOUS
 62
     7
100
AcDbLine
 10
636.950196
 20
522.929934
 30
0.0
 11
633.604967
 21
526.275163
 31
0.0
  0
LINE
  5
26A
100
AcDbEntity
  8
0
  6
CONTINUOUS
 62
     7
100
AcDbLine
 10
639.05766
 20
522.967373
 30
0.0
 11
639.05766
 21
526.275163
 31
0.0
  0
LINE
  5
26B
100
AcDbEntity
  8
0
  6
CONTINUOUS
 62
     7
100
AcDbLine
 10
636.950196
 20
294.220385
 30
0.0
 11
633.604967
 21
290.875157
 31
0.0
  0
ELLIPSE
  5
26C
100
AcDbEntity
  8
0
  6
CONTINUOUS
 62
     7
100
AcDbEllipse
 10
639.057662
 20
294.219745
 30
0.0
 11
2.107784923723414
 21
0.0
 31
0.0
210
0.0
220
0.0
230
1.0
 40
0.017458
 41
3.124136702174296
 42
4.712388980384689
  0
LINE
  5
26D
100
AcDbEntity
  8
0
  6
CONTINUOUS
 62
     7
100
AcDbLine
 10
639.05766
 20
294.182946
 30
0.0
 11
639.05766
 21
290.875157
 31
0.0
  0
LINE
  5
26E
100
AcDbEntity
  8
0
  6
CONTINUOUS
 62
     7
100
AcDbLine
 10
645.867431
 20
522.967373
 30
0.0
 11
639.05766
 21
522.967373
 31
0.0
  0
LINE
  5
26F
100
AcDbEntity
  8
0
  6
CONTINUOUS
 62
     7
100
AcDbLine
 10
645.867431
 20
294.182946
 30
0.0
 11
639.05766
 21
294.182946
 31
0.0
  0
LINE
  5
270
100
AcDbEntity
  8
0
  6
CONTINUOUS
 62
     7
100
AcDbLine
 10
780.157664
 20
522.967373
 30
0.0
 11
780.157664
 21
526.275163
 31
0.0
  0
LINE
  5
271
100
AcDbEntity
  8
0
  6
CONTINUOUS
 62
     7
100
AcDbLine
 10
780.157664
 20
522.967373
 30
0.0
 11
773.347893
 21
522.967373
 31
0.0
  0
LINE
  5
272
100
AcDbEntity
  8
0
  6
CONTINUOUS
 62
     7
100
AcDbLine
 10
780.157664
 20
294.182946
 30
0.0
 11
773.347893
 21
294.182946
 31
0.0
  0
LINE
  5
273
100
AcDbEntity
  8
0
  6
CONTINUOUS
 62
     7
100
AcDbLine
 10
780.157664
 20
294.182946
 30
0.0
 11
780.157664
 21
290.875157
 31
0.0
  0
ELLIPSE
  5
274
100
AcDbEntity
  8
0
  6
CONTINUOUS
 62
     7
100
AcDbEllipse
 10
780.157662
 20
522.930575
 30
0.0
 11
2.107784923723556
 21
0.0
 31
0.0
210
0.0
220
0.0
230
1.0
 40
0.017458
 41
6.265729355764869
 42
7.853981633974482
  0
LINE
  5
275
100
AcDbEntity
  8
0
  6
CONTINUOUS
 62
     7
100
AcDbLine
 10
782.265128
 20
522.929934
 30
0.0
 11
785.610357
 21
526.275163
 31
0.0
  0
ELLIPSE
  5
276
100
AcDbEntity
  8
0
  6
CONTINUOUS
 62
     7
100
AcDbEllipse
 10
780.157662
 20
294.219745
 30
0.0
 11
2.107784923723698
 21
0.0
 31
0.0
210
0.0
220
0.0
230
1.0
 40
0.017458
 41
4.712388980384689
 42
6.300641258595903
  0
LINE
  5
277
100
AcDbEntity
  8
0
  6
CONTINUOUS
 62
     7
100
AcDbLine
 10
782.265128
 20
294.220385
 30
0.0
 11
785.610357
 21
290.875157
 31
0.0
  0
LINE
  5
278
100
AcDbEntity
  8
0
  6
CONTINUOUS
 62
     7
100
AcDbLine
 10
618.547918
 20
308.212725
 30
0.0
 11
616.407664
 21
306.072471
 31
0.0
  0
LINE
  5
279
100
AcDbEntity
  8
0
  6
CONTINUOUS
 62
     7
100
AcDbLine
 10
618.547918
 20
508.937595
 30
0.0
 11
616.407664
 21
511.077848
 31
0.0
  0
LINE
  5
27A
100
AcDbEntity
  8
0
  6
CONTINUOUS
 62
     7
100
AcDbLine
 10
800.667406
 20
508.937595
 30
0.0
 11
802.80766
 21
511.077848
 31
0.0
  0
LINE
  5
27B
100
AcDbEntity
  8
0
  6
CONTINUOUS
 62
     7
100
AcDbLine
 10
800.667406
 20
308.212725
 30
0.0
 11
802.80766
 21
306.072471
 31
0.0
  0
LINE
  5
27C
100
AcDbEntity
  8
0
  6
CONTINUOUS
 62
     7
100
AcDbLine
 10
636.950196
 20
294.220385
 30
0.0
 11
638.130159
 21
295.400349
 31
0.0
  0
LINE
  5
27D
100
AcDbEntity
  8
0
  6
CONTINUOUS
 62
     7
100
AcDbLine
 10
638.130159
 20
295.400349
 30
0.0
 11
644.112174
 21
295.400349
 31
0.0
  0
LINE
  5
27E
100
AcDbEntity
  8
0
  6
CONTINUOUS
 62
     7
100
AcDbLine
 10
636.950196
 20
522.929934
 30
0.0
 11
638.130159
 21
521.749971
 31
0.0
  0
LINE
  5
27F
100
AcDbEntity
  8
0
  6
CONTINUOUS
 62
     7
100
AcDbLine
 10
644.112174
 20
521.74997
 30
0.0
 11
638.130159
 21
521.749971
 31
0.0
  0
LINE
  5
280
100
AcDbEntity
  8
0
  6
CONTINUOUS
 62
     7
100
AcDbLine
 10
782.265128
 20
294.220385
 30
0.0
 11
781.085164
 21
295.400349
 31
0.0
  0
LINE
  5
281
100
AcDbEntity
  8
0
  6
CONTINUOUS
 62
     7
100
AcDbLine
 10
775.10315
 20
295.400349
 30
0.0
 11
781.085164
 21
295.400349
 31
0.0
  0
LINE
  5
282
100
AcDbEntity
  8
0
  6
CONTINUOUS
 62
     7
100
AcDbLine
 10
782.265128
 20
522.929934
 30
0.0
 11
781.085164
 21
521.749971
 31
0.0
  0
LINE
  5
283
100
AcDbEntity
  8
0
  6
CONTINUOUS
 62
     7
100
AcDbLine
 10
781.085164
 20
521.749971
 30
0.0
 11
775.10315
 21
521.74997
 31
0.0
  0
LINE
  5
284
100
AcDbEntity
  8
0
  6
CONTINUOUS
 62
     7
100
AcDbLine
 10
634.107665
 20
305.012812
 30
0.0
 11
634.107665
 21
291.377847
 31
0.0
  0
LINE
  5
285
100
AcDbEntity
  8
0
  6
CONTINUOUS
 62
     7
100
AcDbLine
 10
621.195005
 20
304.200162
 30
0.0
 11
619.636157
 21
305.10016
 31
0.0
  0
ARC
  5
286
100
AcDbEntity
  8
0
  6
CONTINUOUS
 62
     7
100
AcDbCircle
 10
626.607662
 20
301.07516
 30
0.0
 40
8.05
100
AcDbArc
 50
150.0
 51
300.0
  0
LINE
  5
287
100
AcDbEntity
  8
0
  6
CONTINUOUS
 62
     7
100
AcDbLine
 10
630.632662
 20
294.103655
 30
0.0
 11
629.732662
 21
295.662497
 31
0.0
  0
LINE
  5
288
100
AcDbEntity
  8
0
  6
CONTINUOUS
 62
     7
100
AcDbLine
 10
634.107665
 20
512.137507
 30
0.0
 11
634.107665
 21
525.772472
 31
0.0
  0
LINE
  5
289
100
AcDbEntity
  8
0
  6
CONTINUOUS
 62
     7
100
AcDbLine
 10
630.632662
 20
523.046664
 30
0.0
 11
629.732662
 21
521.487822
 31
0.0
  0
ARC
  5
28A
100
AcDbEntity
  8
0
  6
CONTINUOUS
 62
     7
100
AcDbCircle
 10
626.607662
 20
516.07516
 30
0.0
 40
8.05
100
AcDbArc
 50
60.0
 51
210.0
  0
LINE
  5
28B
100
AcDbEntity
  8
0
  6
CONTINUOUS
 62
     7
100
AcDbLine
 10
621.195005
 20
512.950157
 30
0.0
 11
619.636157
 21
512.05016
 31
0.0
  0
LINE
  5
28C
100
AcDbEntity
  8
0
  6
CONTINUOUS
 62
     7
100
AcDbLine
 10
634.14956
 20
304.978882
 30
0.0
 11
634.14956
 21
291.419749
 31
0.0
  0
LINE
  5
28D
100
AcDbEntity
  8
0
  6
CONTINUOUS
 62
     7
100
AcDbLine
 10
634.14956
 20
512.171437
 30
0.0
 11
634.14956
 21
525.73057
 31
0.0
  0
LINE
  5
28E
100
AcDbEntity
  8
0
  6
CONTINUOUS
 62
     7
100
AcDbLine
 10
785.107658
 20
512.137507
 30
0.0
 11
785.107658
 21
525.772472
 31
0.0
  0
LINE
  5
28F
100
AcDbEntity
  8
0
  6
CONTINUOUS
 62
     7
100
AcDbLine
 10
798.020319
 20
512.950157
 30
0.0
 11
799.579166
 21
512.05016
 31
0.0
  0
ARC
  5
290
100
AcDbEntity
  8
0
  6
CONTINUOUS
 62
     7
100
AcDbCircle
 10
792.607662
 20
516.07516
 30
0.0
 40
8.05
100
AcDbArc
 50
330.0
 51
120.0
  0
LINE
  5
291
100
AcDbEntity
  8
0
  6
CONTINUOUS
 62
     7
100
AcDbLine
 10
788.582662
 20
523.046664
 30
0.0
 11
789.482662
 21
521.487822
 31
0.0
  0
LINE
  5
292
100
AcDbEntity
  8
0
  6
CONTINUOUS
 62
     7
100
AcDbLine
 10
785.107658
 20
305.012812
 30
0.0
 11
785.107658
 21
291.377847
 31
0.0
  0
LINE
  5
293
100
AcDbEntity
  8
0
  6
CONTINUOUS
 62
     7
100
AcDbLine
 10
788.582662
 20
294.103655
 30
0.0
 11
789.482662
 21
295.662497
 31
0.0
  0
ARC
  5
294
100
AcDbEntity
  8
0
  6
CONTINUOUS
 62
     7
100
AcDbCircle
 10
792.607662
 20
301.07516
 30
0.0
 40
8.05
100
AcDbArc
 50
240.0
 51
30.0
  0
LINE
  5
295
100
AcDbEntity
  8
0
  6
CONTINUOUS
 62
     7
100
AcDbLine
 10
798.020319
 20
304.200162
 30
0.0
 11
799.579166
 21
305.10016
 31
0.0
  0
LINE
  5
296
100
AcDbEntity
  8
0
  6
CONTINUOUS
 62
     7
100
AcDbLine
 10
785.065764
 20
304.978882
 30
0.0
 11
785.065764
 21
291.419749
 31
0.0
  0
LINE
  5
297
100
AcDbEntity
  8
0
  6
CONTINUOUS
 62
     7
100
AcDbLine
 10
785.065764
 20
512.171437
 30
0.0
 11
785.065764
 21
525.73057
 31
0.0
  0
LINE
  5
298
100
AcDbEntity
  8
0
  6
CONTINUOUS
 62
     7
100
AcDbLine
 10
634.239041
 20
304.966626
 30
0.0
 11
634.239041
 21
291.509231
 31
0.0
  0
LINE
  5
299
100
AcDbEntity
  8
0
  6
CONTINUOUS
 62
     7
100
AcDbLine
 10
634.239041
 20
525.641088
 30
0.0
 11
634.239041
 21
512.183693
 31
0.0
  0
LINE
  5
29A
100
AcDbEntity
  8
0
  6
CONTINUOUS
 62
     7
100
AcDbLine
 10
784.976282
 20
512.183693
 30
0.0
 11
784.976282
 21
525.641088
 31
0.0
  0
LINE
  5
29B
100
AcDbEntity
  8
0
  6
CONTINUOUS
 62
     7
100
AcDbLine
 10
784.976282
 20
291.509231
 30
0.0
 11
784.976282
 21
304.966626
 31
0.0
  0
LINE
  5
29C
100
AcDbEntity
  8
0
  6
CONTINUOUS
 62
     7
100
AcDbLine
 10
635.715478
 20
524.164652
 30
0.0
 11
635.715478
 21
513.439504
 31
0.0
  0
LINE
  5
29D
100
AcDbEntity
  8
0
  6
CONTINUOUS
 62
     7
100
AcDbLine
 10
783.499846
 20
524.164652
 30
0.0
 11
783.499846
 21
513.439504
 31
0.0
  0
LINE
  5
29E
100
AcDbEntity
  8
0
  6
CONTINUOUS
 62
     7
100
AcDbLine
 10
635.715478
 20
292.985668
 30
0.0
 11
635.715478
 21
303.710816
 31
0.0
  0
LINE
  5
29F
100
AcDbEntity
  8
0
  6
CONTINUOUS
 62
     7
100
AcDbLine
 10
783.499846
 20
292.985668
 30
0.0
 11
783.499846
 21
303.710816
 31
0.0
  0
ARC
  5
2A0
100
AcDbEntity
  8
0
  6
CONTINUOUS
 62
     7
100
AcDbCircle
 10
639.607662
 20
408.57516
 30
0.0
 40
3.369087
100
AcDbArc
 50
215.289361
 51
144.710639
  0
ARC
  5
2A1
100
AcDbEntity
  8
0
  6
CONTINUOUS
 62
     7
100
AcDbCircle
 10
634.107662
 20
408.57516
 30
0.0
 40
3.369087
100
AcDbArc
 50
282.862509
 51
324.710639
  0
LINE
  5
2A2
100
AcDbEntity
  8
0
  6
CONTINUOUS
 62
     7
100
AcDbLine
 10
634.857663
 20
402.075159
 30
0.0
 11
634.857662
 21
405.290613
 31
0.0
  0
LINE
  5
2A3
100
AcDbEntity
  8
0
  6
CONTINUOUS
 62
     7
100
AcDbLine
 10
633.35766
 20
402.075159
 30
0.0
 11
634.857663
 21
402.075159
 31
0.0
  0
LINE
  5
2A4
100
AcDbEntity
  8
0
  6
CONTINUOUS
 62
     7
100
AcDbLine
 10
633.357662
 20
405.290613
 30
0.0
 11
633.35766
 21
402.075159
 31
0.0
  0
ARC
  5
2A5
100
AcDbEntity
  8
0
  6
CONTINUOUS
 62
     7
100
AcDbCircle
 10
634.107662
 20
408.57516
 30
0.0
 40
3.369087
100
AcDbArc
 50
102.862509
 51
257.137491
  0
LINE
  5
2A6
100
AcDbEntity
  8
0
  6
CONTINUOUS
 62
     7
100
AcDbLine
 10
633.35766
 20
415.07516
 30
0.0
 11
633.357662
 21
411.859706
 31
0.0
  0
LINE
  5
2A7
100
AcDbEntity
  8
0
  6
CONTINUOUS
 62
     7
100
AcDbLine
 10
634.857663
 20
415.07516
 30
0.0
 11
633.35766
 21
415.07516
 31
0.0
  0
LINE
  5
2A8
100
AcDbEntity
  8
0
  6
CONTINUOUS
 62
     7
100
AcDbLine
 10
634.857662
 20
411.859706
 30
0.0
 11
634.857663
 21
415.07516
 31
0.0
  0
ARC
  5
2A9
100
AcDbEntity
  8
0
  6
CONTINUOUS
 62
     7
100
AcDbCircle
 10
634.107662
 20
408.57516
 30
0.0
 40
3.369087
100
AcDbArc
 50
35.289361
 51
77.137491
  0
CIRCLE
  5
2AA
100
AcDbEntity
  8
0
  6
CONTINUOUS
 62
     7
100
AcDbCircle
 10
639.607662
 20
408.57516
 30
0.0
 40
2.0
  0
CIRCLE
  5
2AB
100
AcDbEntity
  8
0
  6
CONTINUOUS
 62
     7
100
AcDbCircle
 10
634.107662
 20
408.57516
 30
0.0
 40
2.0
  0
LINE
  5
2AC
100
AcDbEntity
  8
0
  6
CONTINUOUS
 62
     7
100
AcDbLine
 10
633.226749
 20
405.187831
 30
0.0
 11
633.357662
 21
405.290613
 31
0.0
  0
ARC
  5
2AD
100
AcDbEntity
  8
0
  6
CONTINUOUS
 62
     7
100
AcDbCircle
 10
634.107662
 20
408.57516
 30
0.0
 40
3.5
100
AcDbArc
 50
104.577506
 51
255.422494
  0
LWPOLYLINE
  5
2AE
100
AcDbEntity
  8
0
  6
CONTINUOUS
 62
     7
100
AcDbPolyline
 90
        3
 70
   128
 43
0.0
 10
633.35766
 20
411.859706
 10
633.242094
 20
411.9506
 10
633.226746
 20
411.962488
  0
LINE
  5
2AF
100
AcDbEntity
  8
0
  6
CONTINUOUS
 62
     7
100
AcDbLine
 10
634.857663
 20
464.575161
 30
0.0
 11
634.857662
 21
467.790613
 31
0.0
  0
LINE
  5
2B0
100
AcDbEntity
  8
0
  6
CONTINUOUS
 62
     7
100
AcDbLine
 10
633.35766
 20
464.575161
 30
0.0
 11
634.857663
 21
464.575161
 31
0.0
  0
LINE
  5
2B1
100
AcDbEntity
  8
0
  6
CONTINUOUS
 62
     7
100
AcDbLine
 10
633.357662
 20
467.790613
 30
0.0
 11
633.35766
 21
464.575161
 31
0.0
  0
ARC
  5
2B2
100
AcDbEntity
  8
0
  6
CONTINUOUS
 62
     7
100
AcDbCircle
 10
634.107662
 20
471.07516
 30
0.0
 40
3.369087
100
AcDbArc
 50
102.862509
 51
257.137491
  0
LINE
  5
2B3
100
AcDbEntity
  8
0
  6
CONTINUOUS
 62
     7
100
AcDbLine
 10
633.35766
 20
477.575158
 30
0.0
 11
633.357662
 21
474.359706
 31
0.0
  0
LINE
  5
2B4
100
AcDbEntity
  8
0
  6
CONTINUOUS
 62
     7
100
AcDbLine
 10
634.857663
 20
477.575158
 30
0.0
 11
633.35766
 21
477.575158
 31
0.0
  0
LINE
  5
2B5
100
AcDbEntity
  8
0
  6
CONTINUOUS
 62
     7
100
AcDbLine
 10
634.857662
 20
474.359706
 30
0.0
 11
634.857663
 21
477.575158
 31
0.0
  0
ARC
  5
2B6
100
AcDbEntity
  8
0
  6
CONTINUOUS
 62
     7
100
AcDbCircle
 10
634.107662
 20
471.07516
 30
0.0
 40
3.369087
100
AcDbArc
 50
282.862509
 51
77.137491
  0
CIRCLE
  5
2B7
100
AcDbEntity
  8
0
  6
CONTINUOUS
 62
     7
100
AcDbCircle
 10
634.107662
 20
471.07516
 30
0.0
 40
2.0
  0
LINE
  5
2B8
100
AcDbEntity
  8
0
  6
CONTINUOUS
 62
     7
100
AcDbLine
 10
633.226749
 20
342.687831
 30
0.0
 11
633.357662
 21
342.790613
 31
0.0
  0
ARC
  5
2B9
100
AcDbEntity
  8
0
  6
CONTINUOUS
 62
     7
100
AcDbCircle
 10
634.107662
 20
346.07516
 30
0.0
 40
3.5
100
AcDbArc
 50
104.577506
 51
255.422494
  0
LWPOLYLINE
  5
2BA
100
AcDbEntity
  8
0
  6
CONTINUOUS
 62
     7
100
AcDbPolyline
 90
        3
 70
   128
 43
0.0
 10
633.35766
 20
349.359707
 10
633.242094
 20
349.4506
 10
633.226746
 20
349.462488
  0
ARC
  5
2BB
100
AcDbEntity
  8
0
  6
CONTINUOUS
 62
     7
100
AcDbCircle
 10
634.107662
 20
346.07516
 30
0.0
 40
3.369087
100
AcDbArc
 50
102.862509
 51
257.137491
  0
LINE
  5
2BC
100
AcDbEntity
  8
0
  6
CONTINUOUS
 62
     7
100
AcDbLine
 10
633.35766
 20
352.575158
 30
0.0
 11
633.357662
 21
349.359706
 31
0.0
  0
LINE
  5
2BD
100
AcDbEntity
  8
0
  6
CONTINUOUS
 62
     7
100
AcDbLine
 10
634.857663
 20
352.575158
 30
0.0
 11
633.35766
 21
352.575158
 31
0.0
  0
LINE
  5
2BE
100
AcDbEntity
  8
0
  6
CONTINUOUS
 62
     7
100
AcDbLine
 10
634.857662
 20
349.359706
 30
0.0
 11
634.857663
 21
352.575158
 31
0.0
  0
ARC
  5
2BF
100
AcDbEntity
  8
0
  6
CONTINUOUS
 62
     7
100
AcDbCircle
 10
634.107662
 20
346.07516
 30
0.0
 40
3.369087
100
AcDbArc
 50
282.862509
 51
77.137491
  0
LINE
  5
2C0
100
AcDbEntity
  8
0
  6
CONTINUOUS
 62
     7
100
AcDbLine
 10
634.857663
 20
339.575161
 30
0.0
 11
634.857662
 21
342.790613
 31
0.0
  0
LINE
  5
2C1
100
AcDbEntity
  8
0
  6
CONTINUOUS
 62
     7
100
AcDbLine
 10
633.35766
 20
339.575161
 30
0.0
 11
634.857663
 21
339.575161
 31
0.0
  0
LINE
  5
2C2
100
AcDbEntity
  8
0
  6
CONTINUOUS
 62
     7
100
AcDbLine
 10
633.357662
 20
342.790613
 30
0.0
 11
633.35766
 21
339.575161
 31
0.0
  0
CIRCLE
  5
2C3
100
AcDbEntity
  8
0
  6
CONTINUOUS
 62
     7
100
AcDbCircle
 10
634.107662
 20
346.07516
 30
0.0
 40
2.0
  0
LINE
  5
2C4
100
AcDbEntity
  8
0
  6
CONTINUOUS
 62
     7
100
AcDbLine
 10
633.226749
 20
467.687831
 30
0.0
 11
633.357662
 21
467.790613
 31
0.0
  0
ARC
  5
2C5
100
AcDbEntity
  8
0
  6
CONTINUOUS
 62
     7
100
AcDbCircle
 10
634.107662
 20
471.07516
 30
0.0
 40
3.5
100
AcDbArc
 50
104.577506
 51
255.422494
  0
LWPOLYLINE
  5
2C6
100
AcDbEntity
  8
0
  6
CONTINUOUS
 62
     7
100
AcDbPolyline
 90
        3
 70
   128
 43
0.0
 10
633.35766
 20
474.359703
 10
633.242094
 20
474.4506
 10
633.226746
 20
474.462484
  0
CIRCLE
  5
2C7
100
AcDbEntity
  8
0
  6
CONTINUOUS
 62
     7
100
AcDbCircle
 10
634.107662
 20
346.07516
 30
0.0
 40
1.982545
  0
CIRCLE
  5
2C8
100
AcDbEntity
  8
0
  6
CONTINUOUS
 62
     7
100
AcDbCircle
 10
634.107662
 20
408.57516
 30
0.0
 40
1.982545
  0
CIRCLE
  5
2C9
100
AcDbEntity
  8
0
  6
CONTINUOUS
 62
     7
100
AcDbCircle
 10
634.107662
 20
471.07516
 30
0.0
 40
1.982545
  0
LINE
  5
2CA
100
AcDbEntity
  8
0
  6
CONTINUOUS
 62
     7
100
AcDbLine
 10
633.226746
 20
464.444247
 30
0.0
 11
633.35766
 21
464.575161
 31
0.0
  0
LINE
  5
2CB
100
AcDbEntity
  8
0
  6
CONTINUOUS
 62
     7
100
AcDbLine
 10
633.226746
 20
464.444247
 30
0.0
 11
633.226749
 21
467.687831
 31
0.0
  0
LINE
  5
2CC
100
AcDbEntity
  8
0
  6
CONTINUOUS
 62
     7
100
AcDbLine
 10
633.226746
 20
401.944247
 30
0.0
 11
633.35766
 21
402.075159
 31
0.0
  0
LINE
  5
2CD
100
AcDbEntity
  8
0
  6
CONTINUOUS
 62
     7
100
AcDbLine
 10
634.988577
 20
401.944247
 30
0.0
 11
634.857663
 21
402.075159
 31
0.0
  0
LINE
  5
2CE
100
AcDbEntity
  8
0
  6
CONTINUOUS
 62
     7
100
AcDbLine
 10
634.988577
 20
401.944247
 30
0.0
 11
633.226746
 21
401.944247
 31
0.0
  0
LINE
  5
2CF
100
AcDbEntity
  8
0
  6
CONTINUOUS
 62
     7
100
AcDbLine
 10
633.226749
 20
474.462488
 30
0.0
 11
633.226746
 21
477.706072
 31
0.0
  0
LINE
  5
2D0
100
AcDbEntity
  8
0
  6
CONTINUOUS
 62
     7
100
AcDbLine
 10
633.226746
 20
477.706072
 30
0.0
 11
633.35766
 21
477.575158
 31
0.0
  0
LINE
  5
2D1
100
AcDbEntity
  8
0
  6
CONTINUOUS
 62
     7
100
AcDbLine
 10
634.988575
 20
405.187831
 30
0.0
 11
634.988577
 21
401.944247
 31
0.0
  0
LWPOLYLINE
  5
2D2
100
AcDbEntity
  8
0
  6
CONTINUOUS
 62
     7
100
AcDbPolyline
 90
        3
 70
   128
 43
0.0
 10
634.857663
 20
405.290613
 10
634.973229
 20
405.199719
 10
634.988577
 20
405.187831
  0
LINE
  5
2D3
100
AcDbEntity
  8
0
  6
CONTINUOUS
 62
     7
100
AcDbLine
 10
634.988577
 20
352.706072
 30
0.0
 11
634.857663
 21
352.575158
 31
0.0
  0
LINE
  5
2D4
100
AcDbEntity
  8
0
  6
CONTINUOUS
 62
     7
100
AcDbLine
 10
633.226746
 20
352.706072
 30
0.0
 11
633.35766
 21
352.575158
 31
0.0
  0
LINE
  5
2D5
100
AcDbEntity
  8
0
  6
CONTINUOUS
 62
     7
100
AcDbLine
 10
633.226746
 20
352.706072
 30
0.0
 11
634.988577
 21
352.706072
 31
0.0
  0
LINE
  5
2D6
100
AcDbEntity
  8
0
  6
CONTINUOUS
 62
     7
100
AcDbLine
 10
634.988575
 20
467.687831
 30
0.0
 11
634.988577
 21
464.444247
 31
0.0
  0
LINE
  5
2D7
100
AcDbEntity
  8
0
  6
CONTINUOUS
 62
     7
100
AcDbLine
 10
634.988577
 20
464.444247
 30
0.0
 11
634.857663
 21
464.575161
 31
0.0
  0
LWPOLYLINE
  5
2D8
100
AcDbEntity
  8
0
  6
CONTINUOUS
 62
     7
100
AcDbPolyline
 90
        3
 70
   128
 43
0.0
 10
634.857663
 20
467.790612
 10
634.973229
 20
467.699719
 10
634.988577
 20
467.687831
  0
LINE
  5
2D9
100
AcDbEntity
  8
0
  6
CONTINUOUS
 62
     7
100
AcDbLine
 10
633.226749
 20
411.962488
 30
0.0
 11
633.226746
 21
415.206072
 31
0.0
  0
LINE
  5
2DA
100
AcDbEntity
  8
0
  6
CONTINUOUS
 62
     7
100
AcDbLine
 10
633.226746
 20
415.206072
 30
0.0
 11
633.35766
 21
415.07516
 31
0.0
  0
LINE
  5
2DB
100
AcDbEntity
  8
0
  6
CONTINUOUS
 62
     7
100
AcDbLine
 10
634.988577
 20
464.444247
 30
0.0
 11
633.226746
 21
464.444247
 31
0.0
  0
LINE
  5
2DC
100
AcDbEntity
  8
0
  6
CONTINUOUS
 62
     7
100
AcDbLine
 10
633.226746
 20
401.944247
 30
0.0
 11
633.226749
 21
405.187831
 31
0.0
  0
LINE
  5
2DD
100
AcDbEntity
  8
0
  6
CONTINUOUS
 62
     7
100
AcDbLine
 10
634.988577
 20
477.706072
 30
0.0
 11
634.857663
 21
477.575158
 31
0.0
  0
LINE
  5
2DE
100
AcDbEntity
  8
0
  6
CONTINUOUS
 62
     7
100
AcDbLine
 10
633.226746
 20
477.706072
 30
0.0
 11
634.988577
 21
477.706072
 31
0.0
  0
LINE
  5
2DF
100
AcDbEntity
  8
0
  6
CONTINUOUS
 62
     7
100
AcDbLine
 10
636.857662
 20
406.628818
 30
0.0
 11
636.857662
 21
406.410096
 31
0.0
  0
ARC
  5
2E0
100
AcDbEntity
  8
0
  6
CONTINUOUS
 62
     7
100
AcDbCircle
 10
634.107662
 20
408.57516
 30
0.0
 40
3.5
100
AcDbArc
 50
284.577506
 51
321.786789
  0
LINE
  5
2E1
100
AcDbEntity
  8
0
  6
CONTINUOUS
 62
     7
100
AcDbLine
 10
633.226746
 20
339.444247
 30
0.0
 11
633.35766
 21
339.575161
 31
0.0
  0
LINE
  5
2E2
100
AcDbEntity
  8
0
  6
CONTINUOUS
 62
     7
100
AcDbLine
 10
634.988577
 20
339.444247
 30
0.0
 11
634.857663
 21
339.575161
 31
0.0
  0
LINE
  5
2E3
100
AcDbEntity
  8
0
  6
CONTINUOUS
 62
     7
100
AcDbLine
 10
634.988577
 20
339.444247
 30
0.0
 11
633.226746
 21
339.444247
 31
0.0
  0
LINE
  5
2E4
100
AcDbEntity
  8
0
  6
CONTINUOUS
 62
     7
100
AcDbLine
 10
634.988577
 20
477.706072
 30
0.0
 11
634.988575
 21
474.462488
 31
0.0
  0
LINE
  5
2E5
100
AcDbEntity
  8
0
  6
CONTINUOUS
 62
     7
100
AcDbLine
 10
634.988575
 20
474.462488
 30
0.0
 11
634.857662
 21
474.359706
 31
0.0
  0
LINE
  5
2E6
100
AcDbEntity
  8
0
  6
CONTINUOUS
 62
     7
100
AcDbLine
 10
634.988577
 20
352.706072
 30
0.0
 11
634.988575
 21
349.462488
 31
0.0
  0
LINE
  5
2E7
100
AcDbEntity
  8
0
  6
CONTINUOUS
 62
     7
100
AcDbLine
 10
634.988575
 20
349.462488
 30
0.0
 11
634.857662
 21
349.359706
 31
0.0
  0
LINE
  5
2E8
100
AcDbEntity
  8
0
  6
CONTINUOUS
 62
     7
100
AcDbLine
 10
636.857662
 20
410.521502
 30
0.0
 11
636.857662
 21
410.740223
 31
0.0
  0
LINE
  5
2E9
100
AcDbEntity
  8
0
  6
CONTINUOUS
 62
     7
100
AcDbLine
 10
634.988575
 20
411.962488
 30
0.0
 11
634.857662
 21
411.859706
 31
0.0
  0
ARC
  5
2EA
100
AcDbEntity
  8
0
  6
CONTINUOUS
 62
     7
100
AcDbCircle
 10
634.107662
 20
408.57516
 30
0.0
 40
3.5
100
AcDbArc
 50
38.213211
 51
75.422494
  0
LINE
  5
2EB
100
AcDbEntity
  8
0
  6
CONTINUOUS
 62
     7
100
AcDbLine
 10
633.226749
 20
349.462488
 30
0.0
 11
633.226746
 21
352.706072
 31
0.0
  0
ARC
  5
2EC
100
AcDbEntity
  8
0
  6
CONTINUOUS
 62
     7
100
AcDbCircle
 10
634.107662
 20
346.07516
 30
0.0
 40
3.5
100
AcDbArc
 50
284.577506
 51
75.422494
  0
LWPOLYLINE
  5
2ED
100
AcDbEntity
  8
0
  6
CONTINUOUS
 62
     7
100
AcDbPolyline
 90
        3
 70
   128
 43
0.0
 10
634.857663
 20
342.790616
 10
634.973229
 20
342.699719
 10
634.988577
 20
342.687835
  0
LINE
  5
2EE
100
AcDbEntity
  8
0
  6
CONTINUOUS
 62
     7
100
AcDbLine
 10
634.988577
 20
415.206072
 30
0.0
 11
634.857663
 21
415.07516
 31
0.0
  0
LINE
  5
2EF
100
AcDbEntity
  8
0
  6
CONTINUOUS
 62
     7
100
AcDbLine
 10
633.226746
 20
415.206072
 30
0.0
 11
634.988577
 21
415.206072
 31
0.0
  0
LINE
  5
2F0
100
AcDbEntity
  8
0
  6
CONTINUOUS
 62
     7
100
AcDbLine
 10
634.988575
 20
342.687831
 30
0.0
 11
634.988577
 21
339.444247
 31
0.0
  0
ARC
  5
2F1
100
AcDbEntity
  8
0
  6
CONTINUOUS
 62
     7
100
AcDbCircle
 10
634.107662
 20
471.07516
 30
0.0
 40
3.5
100
AcDbArc
 50
284.577506
 51
75.422494
  0
LINE
  5
2F2
100
AcDbEntity
  8
0
  6
CONTINUOUS
 62
     7
100
AcDbLine
 10
633.226746
 20
339.444247
 30
0.0
 11
633.226749
 21
342.687831
 31
0.0
  0
LINE
  5
2F3
100
AcDbEntity
  8
0
  6
CONTINUOUS
 62
     7
100
AcDbLine
 10
634.988577
 20
415.206072
 30
0.0
 11
634.988575
 21
411.962488
 31
0.0
  0
ARC
  5
2F4
100
AcDbEntity
  8
0
  6
CONTINUOUS
 62
     7
100
AcDbCircle
 10
639.607662
 20
408.57516
 30
0.0
 40
3.5
100
AcDbArc
 50
218.213211
 51
141.786789
  0
CIRCLE
  5
2F5
100
AcDbEntity
  8
0
  6
CONTINUOUS
 62
     7
100
AcDbCircle
 10
640.607662
 20
316.07516
 30
0.0
 40
3.369087
  0
CIRCLE
  5
2F6
100
AcDbEntity
  8
0
  6
CONTINUOUS
 62
     7
100
AcDbCircle
 10
640.607662
 20
316.07516
 30
0.0
 40
2.0
  0
CIRCLE
  5
2F7
100
AcDbEntity
  8
0
  6
CONTINUOUS
 62
     7
100
AcDbCircle
 10
640.607662
 20
501.07516
 30
0.0
 40
3.5
  0
CIRCLE
  5
2F8
100
AcDbEntity
  8
0
  6
CONTINUOUS
 62
     7
100
AcDbCircle
 10
640.607662
 20
501.07516
 30
0.0
 40
3.369087
  0
CIRCLE
  5
2F9
100
AcDbEntity
  8
0
  6
CONTINUOUS
 62
     7
100
AcDbCircle
 10
639.607662
 20
408.57516
 30
0.0
 40
1.982545
  0
CIRCLE
  5
2FA
100
AcDbEntity
  8
0
  6
CONTINUOUS
 62
     7
100
AcDbCircle
 10
640.607662
 20
501.07516
 30
0.0
 40
2.0
  0
CIRCLE
  5
2FB
100
AcDbEntity
  8
0
  6
CONTINUOUS
 62
     7
100
AcDbCircle
 10
640.607662
 20
316.07516
 30
0.0
 40
3.5
  0
CIRCLE
  5
2FC
100
AcDbEntity
  8
0
  6
CONTINUOUS
 62
     7
100
AcDbCircle
 10
640.607662
 20
501.07516
 30
0.0
 40
1.982545
  0
CIRCLE
  5
2FD
100
AcDbEntity
  8
0
  6
CONTINUOUS
 62
     7
100
AcDbCircle
 10
640.607662
 20
316.07516
 30
0.0
 40
1.982545
  0
CIRCLE
  5
2FE
100
AcDbEntity
  8
0
  6
CONTINUOUS
 62
     7
100
AcDbCircle
 10
644.607662
 20
333.57516
 30
0.0
 40
3.369087
  0
CIRCLE
  5
2FF
100
AcDbEntity
  8
0
  6
CONTINUOUS
 62
     7
100
AcDbCircle
 10
644.607662
 20
333.57516
 30
0.0
 40
2.0
  0
CIRCLE
  5
300
100
AcDbEntity
  8
0
  6
CONTINUOUS
 62
     7
100
AcDbCircle
 10
644.607662
 20
483.57516
 30
0.0
 40
3.5
  0
CIRCLE
  5
301
100
AcDbEntity
  8
0
  6
CONTINUOUS
 62
     7
100
AcDbCircle
 10
644.607662
 20
483.57516
 30
0.0
 40
3.369087
  0
CIRCLE
  5
302
100
AcDbEntity
  8
0
  6
CONTINUOUS
 62
     7
100
AcDbCircle
 10
644.607662
 20
333.57516
 30
0.0
 40
3.5
  0
CIRCLE
  5
303
100
AcDbEntity
  8
0
  6
CONTINUOUS
 62
     7
100
AcDbCircle
 10
644.607662
 20
483.57516
 30
0.0
 40
2.0
  0
CIRCLE
  5
304
100
AcDbEntity
  8
0
  6
CONTINUOUS
 62
     7
100
AcDbCircle
 10
644.607662
 20
333.57516
 30
0.0
 40
1.982545
  0
CIRCLE
  5
305
100
AcDbEntity
  8
0
  6
CONTINUOUS
 62
     7
100
AcDbCircle
 10
644.607662
 20
483.57516
 30
0.0
 40
1.982545
  0
CIRCLE
  5
306
100
AcDbEntity
  8
0
  6
CONTINUOUS
 62
     7
100
AcDbCircle
 10
669.607662
 20
480.57516
 30
0.0
 40
3.369087
  0
CIRCLE
  5
307
100
AcDbEntity
  8
0
  6
CONTINUOUS
 62
     7
100
AcDbCircle
 10
669.607662
 20
480.57516
 30
0.0
 40
2.0
  0
CIRCLE
  5
308
100
AcDbEntity
  8
0
  6
CONTINUOUS
 62
     7
100
AcDbCircle
 10
669.607662
 20
336.57516
 30
0.0
 40
3.369087
  0
CIRCLE
  5
309
100
AcDbEntity
  8
0
  6
CONTINUOUS
 62
     7
100
AcDbCircle
 10
669.607662
 20
336.57516
 30
0.0
 40
2.0
  0
CIRCLE
  5
30A
100
AcDbEntity
  8
0
  6
CONTINUOUS
 62
     7
100
AcDbCircle
 10
669.607662
 20
336.57516
 30
0.0
 40
3.5
  0
CIRCLE
  5
30B
100
AcDbEntity
  8
0
  6
CONTINUOUS
 62
     7
100
AcDbCircle
 10
669.607662
 20
480.57516
 30
0.0
 40
3.5
  0
CIRCLE
  5
30C
100
AcDbEntity
  8
0
  6
CONTINUOUS
 62
     7
100
AcDbCircle
 10
669.607662
 20
480.57516
 30
0.0
 40
1.982545
  0
CIRCLE
  5
30D
100
AcDbEntity
  8
0
  6
CONTINUOUS
 62
     7
100
AcDbCircle
 10
669.607662
 20
336.57516
 30
0.0
 40
1.982545
  0
LINE
  5
30E
100
AcDbEntity
  8
0
  6
CONTINUOUS
 62
     7
100
AcDbLine
 10
706.220334
 20
307.694247
 30
0.0
 11
702.976749
 21
307.694246
 31
0.0
  0
LINE
  5
30F
100
AcDbEntity
  8
0
  6
CONTINUOUS
 62
     7
100
AcDbLine
 10
702.976749
 20
307.694246
 30
0.0
 11
703.107662
 21
307.82516
 31
0.0
  0
LINE
  5
310
100
AcDbEntity
  8
0
  6
CONTINUOUS
 62
     7
100
AcDbLine
 10
703.107662
 20
307.82516
 30
0.0
 11
706.323115
 21
307.82516
 31
0.0
  0
LWPOLYLINE
  5
311
100
AcDbEntity
  8
0
  6
CONTINUOUS
 62
     7
100
AcDbPolyline
 90
        3
 70
   128
 43
0.0
 10
706.323115
 20
307.82516
 10
706.232221
 20
307.709594
 10
706.220334
 20
307.694246
  0
LINE
  5
312
100
AcDbEntity
  8
0
  6
CONTINUOUS
 62
     7
100
AcDbLine
 10
702.976749
 20
309.45607
 30
0.0
 11
703.107662
 21
309.325156
 31
0.0
  0
LINE
  5
313
100
AcDbEntity
  8
0
  6
CONTINUOUS
 62
     7
100
AcDbLine
 10
703.107662
 20
309.325156
 30
0.0
 11
703.107662
 21
307.82516
 31
0.0
  0
LINE
  5
314
100
AcDbEntity
  8
0
  6
CONTINUOUS
 62
     7
100
AcDbLine
 10
702.976749
 20
307.694246
 30
0.0
 11
702.976749
 21
309.45607
 31
0.0
  0
LINE
  5
315
100
AcDbEntity
  8
0
  6
CONTINUOUS
 62
     7
100
AcDbLine
 10
706.323115
 20
509.32516
 30
0.0
 11
703.107662
 21
509.325159
 31
0.0
  0
LINE
  5
316
100
AcDbEntity
  8
0
  6
CONTINUOUS
 62
     7
100
AcDbLine
 10
702.976749
 20
509.456073
 30
0.0
 11
703.107662
 21
509.325159
 31
0.0
  0
LINE
  5
317
100
AcDbEntity
  8
0
  6
CONTINUOUS
 62
     7
100
AcDbLine
 10
702.976749
 20
509.456073
 30
0.0
 11
706.220334
 21
509.456073
 31
0.0
  0
LINE
  5
318
100
AcDbEntity
  8
0
  6
CONTINUOUS
 62
     7
100
AcDbLine
 10
706.220334
 20
509.456073
 30
0.0
 11
706.323115
 21
509.32516
 31
0.0
  0
LINE
  5
319
100
AcDbEntity
  8
0
  6
CONTINUOUS
 62
     7
100
AcDbLine
 10
706.323115
 20
309.32516
 30
0.0
 11
703.107662
 21
309.325156
 31
0.0
  0
LINE
  5
31A
100
AcDbEntity
  8
0
  6
CONTINUOUS
 62
     7
100
AcDbLine
 10
702.976749
 20
309.45607
 30
0.0
 11
706.220334
 21
309.456073
 31
0.0
  0
LINE
  5
31B
100
AcDbEntity
  8
0
  6
CONTINUOUS
 62
     7
100
AcDbLine
 10
706.220334
 20
309.456073
 30
0.0
 11
706.323115
 21
309.32516
 31
0.0
  0
LINE
  5
31C
100
AcDbEntity
  8
0
  6
CONTINUOUS
 62
     7
100
AcDbLine
 10
703.107662
 20
509.325159
 30
0.0
 11
703.107662
 21
507.825163
 31
0.0
  0
LINE
  5
31D
100
AcDbEntity
  8
0
  6
CONTINUOUS
 62
     7
100
AcDbLine
 10
702.976749
 20
507.694249
 30
0.0
 11
703.107662
 21
507.825163
 31
0.0
  0
LINE
  5
31E
100
AcDbEntity
  8
0
  6
CONTINUOUS
 62
     7
100
AcDbLine
 10
702.976749
 20
507.694249
 30
0.0
 11
702.976749
 21
509.456073
 31
0.0
  0
LINE
  5
31F
100
AcDbEntity
  8
0
  6
CONTINUOUS
 62
     7
100
AcDbLine
 10
703.107662
 20
507.825163
 30
0.0
 11
706.323115
 21
507.82516
 31
0.0
  0
ARC
  5
320
100
AcDbEntity
  8
0
  6
CONTINUOUS
 62
     7
100
AcDbCircle
 10
709.607662
 20
508.57516
 30
0.0
 40
3.369087
100
AcDbArc
 50
12.862509
 51
167.137491
  0
LINE
  5
321
100
AcDbEntity
  8
0
  6
CONTINUOUS
 62
     7
100
AcDbLine
 10
716.107662
 20
509.325159
 30
0.0
 11
712.892209
 21
509.32516
 31
0.0
  0
LINE
  5
322
100
AcDbEntity
  8
0
  6
CONTINUOUS
 62
     7
100
AcDbLine
 10
716.107662
 20
507.825163
 30
0.0
 11
716.107662
 21
509.325159
 31
0.0
  0
LINE
  5
323
100
AcDbEntity
  8
0
  6
CONTINUOUS
 62
     7
100
AcDbLine
 10
712.892209
 20
507.82516
 30
0.0
 11
716.107662
 21
507.825163
 31
0.0
  0
ARC
  5
324
100
AcDbEntity
  8
0
  6
CONTINUOUS
 62
     7
100
AcDbCircle
 10
709.607662
 20
508.57516
 30
0.0
 40
3.369087
100
AcDbArc
 50
192.862509
 51
347.137491
  0
CIRCLE
  5
325
100
AcDbEntity
  8
0
  6
CONTINUOUS
 62
     7
100
AcDbCircle
 10
709.607662
 20
508.57516
 30
0.0
 40
2.0
  0
ARC
  5
326
100
AcDbEntity
  8
0
  6
CONTINUOUS
 62
     7
100
AcDbCircle
 10
709.607662
 20
308.57516
 30
0.0
 40
3.369087
100
AcDbArc
 50
12.862509
 51
167.137491
  0
LINE
  5
327
100
AcDbEntity
  8
0
  6
CONTINUOUS
 62
     7
100
AcDbLine
 10
716.107662
 20
309.325156
 30
0.0
 11
712.892209
 21
309.32516
 31
0.0
  0
LINE
  5
328
100
AcDbEntity
  8
0
  6
CONTINUOUS
 62
     7
100
AcDbLine
 10
716.107662
 20
307.82516
 30
0.0
 11
716.107662
 21
309.325156
 31
0.0
  0
LINE
  5
329
100
AcDbEntity
  8
0
  6
CONTINUOUS
 62
     7
100
AcDbLine
 10
712.892209
 20
307.82516
 30
0.0
 11
716.107662
 21
307.82516
 31
0.0
  0
ARC
  5
32A
100
AcDbEntity
  8
0
  6
CONTINUOUS
 62
     7
100
AcDbCircle
 10
709.607662
 20
308.57516
 30
0.0
 40
3.369087
100
AcDbArc
 50
192.862509
 51
347.137491
  0
CIRCLE
  5
32B
100
AcDbEntity
  8
0
  6
CONTINUOUS
 62
     7
100
AcDbCircle
 10
709.607662
 20
308.57516
 30
0.0
 40
2.0
  0
LINE
  5
32C
100
AcDbEntity
  8
0
  6
CONTINUOUS
 62
     7
100
AcDbLine
 10
706.220334
 20
507.694247
 30
0.0
 11
702.976749
 21
507.694249
 31
0.0
  0
LWPOLYLINE
  5
32D
100
AcDbEntity
  8
0
  6
CONTINUOUS
 62
     7
100
AcDbPolyline
 90
        3
 70
   128
 43
0.0
 10
706.323115
 20
507.825163
 10
706.232221
 20
507.709597
 10
706.220334
 20
507.694249
  0
ARC
  5
32E
100
AcDbEntity
  8
0
  6
CONTINUOUS
 62
     7
100
AcDbCircle
 10
709.607662
 20
508.57516
 30
0.0
 40
3.5
100
AcDbArc
 50
14.577506
 51
165.422494
  0
LWPOLYLINE
  5
32F
100
AcDbEntity
  8
0
  6
CONTINUOUS
 62
     7
100
AcDbPolyline
 90
        3
 70
   128
 43
0.0
 10
712.892209
 20
509.325159
 10
712.983103
 20
509.440725
 10
712.99499
 20
509.456073
  0
LINE
  5
330
100
AcDbEntity
  8
0
  6
CONTINUOUS
 62
     7
100
AcDbLine
 10
712.99499
 20
307.694247
 30
0.0
 11
712.892209
 21
307.82516
 31
0.0
  0
ARC
  5
331
100
AcDbEntity
  8
0
  6
CONTINUOUS
 62
     7
100
AcDbCircle
 10
709.607662
 20
308.57516
 30
0.0
 40
3.5
100
AcDbArc
 50
194.577506
 51
345.422494
  0
ARC
  5
332
100
AcDbEntity
  8
0
  6
CONTINUOUS
 62
     7
100
AcDbCircle
 10
709.607662
 20
308.57516
 30
0.0
 40
3.5
100
AcDbArc
 50
14.577506
 51
165.422494
  0
LWPOLYLINE
  5
333
100
AcDbEntity
  8
0
  6
CONTINUOUS
 62
     7
100
AcDbPolyline
 90
        3
 70
   128
 43
0.0
 10
712.892209
 20
309.325156
 10
712.983103
 20
309.440722
 10
712.99499
 20
309.45607
  0
LINE
  5
334
100
AcDbEntity
  8
0
  6
CONTINUOUS
 62
     7
100
AcDbLine
 10
712.99499
 20
507.694247
 30
0.0
 11
712.892209
 21
507.82516
 31
0.0
  0
ARC
  5
335
100
AcDbEntity
  8
0
  6
CONTINUOUS
 62
     7
100
AcDbCircle
 10
709.607662
 20
508.57516
 30
0.0
 40
3.5
100
AcDbArc
 50
194.577506
 51
345.422494
  0
CIRCLE
  5
336
100
AcDbEntity
  8
0
  6
CONTINUOUS
 62
     7
100
AcDbCircle
 10
709.607662
 20
508.57516
 30
0.0
 40
1.982545
  0
CIRCLE
  5
337
100
AcDbEntity
  8
0
  6
CONTINUOUS
 62
     7
100
AcDbCircle
 10
709.607662
 20
308.57516
 30
0.0
 40
1.982545
  0
LINE
  5
338
100
AcDbEntity
  8
0
  6
CONTINUOUS
 62
     7
100
AcDbLine
 10
712.99499
 20
509.456073
 30
0.0
 11
716.238575
 21
509.456073
 31
0.0
  0
LINE
  5
339
100
AcDbEntity
  8
0
  6
CONTINUOUS
 62
     7
100
AcDbLine
 10
716.238575
 20
509.456073
 30
0.0
 11
716.107662
 21
509.325159
 31
0.0
  0
LINE
  5
33A
100
AcDbEntity
  8
0
  6
CONTINUOUS
 62
     7
100
AcDbLine
 10
716.238575
 20
507.694249
 30
0.0
 11
716.107662
 21
507.825163
 31
0.0
  0
LINE
  5
33B
100
AcDbEntity
  8
0
  6
CONTINUOUS
 62
     7
100
AcDbLine
 10
716.238575
 20
507.694249
 30
0.0
 11
712.99499
 21
507.694247
 31
0.0
  0
LINE
  5
33C
100
AcDbEntity
  8
0
  6
CONTINUOUS
 62
     7
100
AcDbLine
 10
712.99499
 20
309.456073
 30
0.0
 11
716.238575
 21
309.45607
 31
0.0
  0
LINE
  5
33D
100
AcDbEntity
  8
0
  6
CONTINUOUS
 62
     7
100
AcDbLine
 10
716.238575
 20
309.45607
 30
0.0
 11
716.107662
 21
309.325156
 31
0.0
  0
LINE
  5
33E
100
AcDbEntity
  8
0
  6
CONTINUOUS
 62
     7
100
AcDbLine
 10
716.238575
 20
307.694246
 30
0.0
 11
716.107662
 21
307.82516
 31
0.0
  0
LINE
  5
33F
100
AcDbEntity
  8
0
  6
CONTINUOUS
 62
     7
100
AcDbLine
 10
716.238575
 20
307.694246
 30
0.0
 11
712.99499
 21
307.694247
 31
0.0
  0
LINE
  5
340
100
AcDbEntity
  8
0
  6
CONTINUOUS
 62
     7
100
AcDbLine
 10
716.238575
 20
509.456073
 30
0.0
 11
716.238575
 21
507.694249
 31
0.0
  0
LINE
  5
341
100
AcDbEntity
  8
0
  6
CONTINUOUS
 62
     7
100
AcDbLine
 10
716.238575
 20
309.45607
 30
0.0
 11
716.238575
 21
307.694246
 31
0.0
  0
CIRCLE
  5
342
100
AcDbEntity
  8
0
  6
CONTINUOUS
 62
     7
100
AcDbCircle
 10
749.607662
 20
480.57516
 30
0.0
 40
3.5
  0
CIRCLE
  5
343
100
AcDbEntity
  8
0
  6
CONTINUOUS
 62
     7
100
AcDbCircle
 10
749.607662
 20
480.57516
 30
0.0
 40
3.369087
  0
CIRCLE
  5
344
100
AcDbEntity
  8
0
  6
CONTINUOUS
 62
     7
100
AcDbCircle
 10
749.607662
 20
480.57516
 30
0.0
 40
2.0
  0
CIRCLE
  5
345
100
AcDbEntity
  8
0
  6
CONTINUOUS
 62
     7
100
AcDbCircle
 10
749.607662
 20
336.57516
 30
0.0
 40
3.369087
  0
CIRCLE
  5
346
100
AcDbEntity
  8
0
  6
CONTINUOUS
 62
     7
100
AcDbCircle
 10
749.607662
 20
336.57516
 30
0.0
 40
2.0
  0
CIRCLE
  5
347
100
AcDbEntity
  8
0
  6
CONTINUOUS
 62
     7
100
AcDbCircle
 10
749.607662
 20
336.57516
 30
0.0
 40
3.5
  0
CIRCLE
  5
348
100
AcDbEntity
  8
0
  6
CONTINUOUS
 62
     7
100
AcDbCircle
 10
749.607662
 20
480.57516
 30
0.0
 40
1.982545
  0
CIRCLE
  5
349
100
AcDbEntity
  8
0
  6
CONTINUOUS
 62
     7
100
AcDbCircle
 10
749.607662
 20
336.57516
 30
0.0
 40
1.982545
  0
CIRCLE
  5
34A
100
AcDbEntity
  8
0
  6
CONTINUOUS
 62
     7
100
AcDbCircle
 10
774.607662
 20
483.57516
 30
0.0
 40
3.5
  0
CIRCLE
  5
34B
100
AcDbEntity
  8
0
  6
CONTINUOUS
 62
     7
100
AcDbCircle
 10
774.607662
 20
483.57516
 30
0.0
 40
3.369087
  0
CIRCLE
  5
34C
100
AcDbEntity
  8
0
  6
CONTINUOUS
 62
     7
100
AcDbCircle
 10
774.607662
 20
483.57516
 30
0.0
 40
2.0
  0
CIRCLE
  5
34D
100
AcDbEntity
  8
0
  6
CONTINUOUS
 62
     7
100
AcDbCircle
 10
774.607662
 20
333.57516
 30
0.0
 40
3.5
  0
CIRCLE
  5
34E
100
AcDbEntity
  8
0
  6
CONTINUOUS
 62
     7
100
AcDbCircle
 10
774.607662
 20
333.57516
 30
0.0
 40
3.369087
  0
CIRCLE
  5
34F
100
AcDbEntity
  8
0
  6
CONTINUOUS
 62
     7
100
AcDbCircle
 10
774.607662
 20
333.57516
 30
0.0
 40
2.0
  0
CIRCLE
  5
350
100
AcDbEntity
  8
0
  6
CONTINUOUS
 62
     7
100
AcDbCircle
 10
774.607662
 20
333.57516
 30
0.0
 40
1.982545
  0
CIRCLE
  5
351
100
AcDbEntity
  8
0
  6
CONTINUOUS
 62
     7
100
AcDbCircle
 10
774.607662
 20
483.57516
 30
0.0
 40
1.982545
  0
CIRCLE
  5
352
100
AcDbEntity
  8
0
  6
CONTINUOUS
 62
     7
100
AcDbCircle
 10
778.607662
 20
316.07516
 30
0.0
 40
3.369087
  0
CIRCLE
  5
353
100
AcDbEntity
  8
0
  6
CONTINUOUS
 62
     7
100
AcDbCircle
 10
778.607662
 20
316.07516
 30
0.0
 40
2.0
  0
CIRCLE
  5
354
100
AcDbEntity
  8
0
  6
CONTINUOUS
 62
     7
100
AcDbCircle
 10
778.607662
 20
316.07516
 30
0.0
 40
3.5
  0
CIRCLE
  5
355
100
AcDbEntity
  8
0
  6
CONTINUOUS
 62
     7
100
AcDbCircle
 10
778.607662
 20
501.07516
 30
0.0
 40
3.369087
  0
CIRCLE
  5
356
100
AcDbEntity
  8
0
  6
CONTINUOUS
 62
     7
100
AcDbCircle
 10
778.607662
 20
501.07516
 30
0.0
 40
2.0
  0
CIRCLE
  5
357
100
AcDbEntity
  8
0
  6
CONTINUOUS
 62
     7
100
AcDbCircle
 10
778.607662
 20
501.07516
 30
0.0
 40
3.5
  0
LINE
  5
358
100
AcDbEntity
  8
0
  6
CONTINUOUS
 62
     7
100
AcDbLine
 10
782.357662
 20
410.521502
 30
0.0
 11
782.357662
 21
410.740223
 31
0.0
  0
ARC
  5
359
100
AcDbEntity
  8
0
  6
CONTINUOUS
 62
     7
100
AcDbCircle
 10
779.607662
 20
408.57516
 30
0.0
 40
3.369087
100
AcDbArc
 50
35.289361
 51
324.710639
  0
LINE
  5
35A
100
AcDbEntity
  8
0
  6
CONTINUOUS
 62
     7
100
AcDbLine
 10
782.357662
 20
406.628818
 30
0.0
 11
782.357662
 21
406.410096
 31
0.0
  0
ARC
  5
35B
100
AcDbEntity
  8
0
  6
CONTINUOUS
 62
     7
100
AcDbCircle
 10
779.607662
 20
408.57516
 30
0.0
 40
3.5
100
AcDbArc
 50
38.213211
 51
321.786789
  0
LINE
  5
35C
100
AcDbEntity
  8
0
  6
CONTINUOUS
 62
     7
100
AcDbLine
 10
785.857664
 20
402.075159
 30
0.0
 11
785.857662
 21
405.290613
 31
0.0
  0
LINE
  5
35D
100
AcDbEntity
  8
0
  6
CONTINUOUS
 62
     7
100
AcDbLine
 10
784.357661
 20
402.075159
 30
0.0
 11
785.857664
 21
402.075159
 31
0.0
  0
LINE
  5
35E
100
AcDbEntity
  8
0
  6
CONTINUOUS
 62
     7
100
AcDbLine
 10
784.357662
 20
405.290613
 30
0.0
 11
784.357661
 21
402.075159
 31
0.0
  0
ARC
  5
35F
100
AcDbEntity
  8
0
  6
CONTINUOUS
 62
     7
100
AcDbCircle
 10
785.107662
 20
408.57516
 30
0.0
 40
3.369087
100
AcDbArc
 50
215.289361
 51
257.137491
  0
ARC
  5
360
100
AcDbEntity
  8
0
  6
CONTINUOUS
 62
     7
100
AcDbCircle
 10
785.107662
 20
408.57516
 30
0.0
 40
3.369087
100
AcDbArc
 50
102.862509
 51
144.710639
  0
LINE
  5
361
100
AcDbEntity
  8
0
  6
CONTINUOUS
 62
     7
100
AcDbLine
 10
784.357661
 20
415.07516
 30
0.0
 11
784.357662
 21
411.859706
 31
0.0
  0
LINE
  5
362
100
AcDbEntity
  8
0
  6
CONTINUOUS
 62
     7
100
AcDbLine
 10
785.857664
 20
415.07516
 30
0.0
 11
784.357661
 21
415.07516
 31
0.0
  0
LINE
  5
363
100
AcDbEntity
  8
0
  6
CONTINUOUS
 62
     7
100
AcDbLine
 10
785.857662
 20
411.859706
 30
0.0
 11
785.857664
 21
415.07516
 31
0.0
  0
ARC
  5
364
100
AcDbEntity
  8
0
  6
CONTINUOUS
 62
     7
100
AcDbCircle
 10
785.107662
 20
408.57516
 30
0.0
 40
3.369087
100
AcDbArc
 50
282.862509
 51
77.137491
  0
CIRCLE
  5
365
100
AcDbEntity
  8
0
  6
CONTINUOUS
 62
     7
100
AcDbCircle
 10
785.107662
 20
408.57516
 30
0.0
 40
2.0
  0
CIRCLE
  5
366
100
AcDbEntity
  8
0
  6
CONTINUOUS
 62
     7
100
AcDbCircle
 10
779.607662
 20
408.57516
 30
0.0
 40
2.0
  0
CIRCLE
  5
367
100
AcDbEntity
  8
0
  6
CONTINUOUS
 62
     7
100
AcDbCircle
 10
779.607662
 20
408.57516
 30
0.0
 40
1.982545
  0
CIRCLE
  5
368
100
AcDbEntity
  8
0
  6
CONTINUOUS
 62
     7
100
AcDbCircle
 10
778.607662
 20
501.07516
 30
0.0
 40
1.982545
  0
CIRCLE
  5
369
100
AcDbEntity
  8
0
  6
CONTINUOUS
 62
     7
100
AcDbCircle
 10
778.607662
 20
316.07516
 30
0.0
 40
1.982545
  0
LINE
  5
36A
100
AcDbEntity
  8
0
  6
CONTINUOUS
 62
     7
100
AcDbLine
 10
784.357661
 20
352.575158
 30
0.0
 11
784.357662
 21
349.359706
 31
0.0
  0
LINE
  5
36B
100
AcDbEntity
  8
0
  6
CONTINUOUS
 62
     7
100
AcDbLine
 10
785.857664
 20
352.575158
 30
0.0
 11
784.357661
 21
352.575158
 31
0.0
  0
LINE
  5
36C
100
AcDbEntity
  8
0
  6
CONTINUOUS
 62
     7
100
AcDbLine
 10
785.857662
 20
349.359706
 30
0.0
 11
785.857664
 21
352.575158
 31
0.0
  0
ARC
  5
36D
100
AcDbEntity
  8
0
  6
CONTINUOUS
 62
     7
100
AcDbCircle
 10
785.107662
 20
346.07516
 30
0.0
 40
3.369087
100
AcDbArc
 50
282.862509
 51
77.137491
  0
LINE
  5
36E
100
AcDbEntity
  8
0
  6
CONTINUOUS
 62
     7
100
AcDbLine
 10
785.857664
 20
339.575161
 30
0.0
 11
785.857662
 21
342.790613
 31
0.0
  0
LINE
  5
36F
100
AcDbEntity
  8
0
  6
CONTINUOUS
 62
     7
100
AcDbLine
 10
784.357661
 20
339.575161
 30
0.0
 11
785.857664
 21
339.575161
 31
0.0
  0
LINE
  5
370
100
AcDbEntity
  8
0
  6
CONTINUOUS
 62
     7
100
AcDbLine
 10
784.357662
 20
342.790613
 30
0.0
 11
784.357661
 21
339.575161
 31
0.0
  0
ARC
  5
371
100
AcDbEntity
  8
0
  6
CONTINUOUS
 62
     7
100
AcDbCircle
 10
785.107662
 20
346.07516
 30
0.0
 40
3.369087
100
AcDbArc
 50
102.862509
 51
257.137491
  0
CIRCLE
  5
372
100
AcDbEntity
  8
0
  6
CONTINUOUS
 62
     7
100
AcDbCircle
 10
785.107662
 20
346.07516
 30
0.0
 40
2.0
  0
LINE
  5
373
100
AcDbEntity
  8
0
  6
CONTINUOUS
 62
     7
100
AcDbLine
 10
784.226749
 20
342.687831
 30
0.0
 11
784.357662
 21
342.790613
 31
0.0
  0
ARC
  5
374
100
AcDbEntity
  8
0
  6
CONTINUOUS
 62
     7
100
AcDbCircle
 10
785.107662
 20
346.07516
 30
0.0
 40
3.5
100
AcDbArc
 50
104.577506
 51
255.422494
  0
LWPOLYLINE
  5
375
100
AcDbEntity
  8
0
  6
CONTINUOUS
 62
     7
100
AcDbPolyline
 90
        3
 70
   128
 43
0.0
 10
784.357661
 20
349.359707
 10
784.242095
 20
349.4506
 10
784.226747
 20
349.462488
  0
LINE
  5
376
100
AcDbEntity
  8
0
  6
CONTINUOUS
 62
     7
100
AcDbLine
 10
784.226749
 20
467.687831
 30
0.0
 11
784.357662
 21
467.790613
 31
0.0
  0
ARC
  5
377
100
AcDbEntity
  8
0
  6
CONTINUOUS
 62
     7
100
AcDbCircle
 10
785.107662
 20
471.07516
 30
0.0
 40
3.5
100
AcDbArc
 50
104.577506
 51
255.422494
  0
LWPOLYLINE
  5
378
100
AcDbEntity
  8
0
  6
CONTINUOUS
 62
     7
100
AcDbPolyline
 90
        3
 70
   128
 43
0.0
 10
784.357661
 20
474.359703
 10
784.242095
 20
474.4506
 10
784.226747
 20
474.462484
  0
ARC
  5
379
100
AcDbEntity
  8
0
  6
CONTINUOUS
 62
     7
100
AcDbCircle
 10
785.107662
 20
471.07516
 30
0.0
 40
3.369087
100
AcDbArc
 50
102.862509
 51
257.137491
  0
LINE
  5
37A
100
AcDbEntity
  8
0
  6
CONTINUOUS
 62
     7
100
AcDbLine
 10
785.857664
 20
464.575161
 30
0.0
 11
785.857662
 21
467.790613
 31
0.0
  0
LINE
  5
37B
100
AcDbEntity
  8
0
  6
CONTINUOUS
 62
     7
100
AcDbLine
 10
784.357661
 20
464.575161
 30
0.0
 11
785.857664
 21
464.575161
 31
0.0
  0
LINE
  5
37C
100
AcDbEntity
  8
0
  6
CONTINUOUS
 62
     7
100
AcDbLine
 10
784.357662
 20
467.790613
 30
0.0
 11
784.357661
 21
464.575161
 31
0.0
  0
LINE
  5
37D
100
AcDbEntity
  8
0
  6
CONTINUOUS
 62
     7
100
AcDbLine
 10
784.357661
 20
477.575158
 30
0.0
 11
784.357662
 21
474.359706
 31
0.0
  0
LINE
  5
37E
100
AcDbEntity
  8
0
  6
CONTINUOUS
 62
     7
100
AcDbLine
 10
785.857664
 20
477.575158
 30
0.0
 11
784.357661
 21
477.575158
 31
0.0
  0
LINE
  5
37F
100
AcDbEntity
  8
0
  6
CONTINUOUS
 62
     7
100
AcDbLine
 10
785.857662
 20
474.359706
 30
0.0
 11
785.857664
 21
477.575158
 31
0.0
  0
ARC
  5
380
100
AcDbEntity
  8
0
  6
CONTINUOUS
 62
     7
100
AcDbCircle
 10
785.107662
 20
471.07516
 30
0.0
 40
3.369087
100
AcDbArc
 50
282.862509
 51
77.137491
  0
CIRCLE
  5
381
100
AcDbEntity
  8
0
  6
CONTINUOUS
 62
     7
100
AcDbCircle
 10
785.107662
 20
471.07516
 30
0.0
 40
2.0
  0
CIRCLE
  5
382
100
AcDbEntity
  8
0
  6
CONTINUOUS
 62
     7
100
AcDbCircle
 10
785.107662
 20
346.07516
 30
0.0
 40
1.982545
  0
CIRCLE
  5
383
100
AcDbEntity
  8
0
  6
CONTINUOUS
 62
     7
100
AcDbCircle
 10
785.107662
 20
471.07516
 30
0.0
 40
1.982545
  0
CIRCLE
  5
384
100
AcDbEntity
  8
0
  6
CONTINUOUS
 62
     7
100
AcDbCircle
 10
785.107662
 20
408.57516
 30
0.0
 40
1.982545
  0
ARC
  5
385
100
AcDbEntity
  8
0
  6
CONTINUOUS
 62
     7
100
AcDbCircle
 10
785.107662
 20
408.57516
 30
0.0
 40
3.5
100
AcDbArc
 50
104.577506
 51
141.786789
  0
LWPOLYLINE
  5
386
100
AcDbEntity
  8
0
  6
CONTINUOUS
 62
     7
100
AcDbPolyline
 90
        3
 70
   128
 43
0.0
 10
784.357661
 20
411.859706
 10
784.242095
 20
411.9506
 10
784.226747
 20
411.962488
  0
LINE
  5
387
100
AcDbEntity
  8
0
  6
CONTINUOUS
 62
     7
100
AcDbLine
 10
784.226749
 20
405.187831
 30
0.0
 11
784.357662
 21
405.290613
 31
0.0
  0
ARC
  5
388
100
AcDbEntity
  8
0
  6
CONTINUOUS
 62
     7
100
AcDbCircle
 10
785.107662
 20
408.57516
 30
0.0
 40
3.5
100
AcDbArc
 50
218.213211
 51
255.422494
  0
LINE
  5
389
100
AcDbEntity
  8
0
  6
CONTINUOUS
 62
     7
100
AcDbLine
 10
785.988575
 20
342.687831
 30
0.0
 11
785.988578
 21
339.444247
 31
0.0
  0
LINE
  5
38A
100
AcDbEntity
  8
0
  6
CONTINUOUS
 62
     7
100
AcDbLine
 10
785.988578
 20
339.444247
 30
0.0
 11
785.857664
 21
339.575161
 31
0.0
  0
LWPOLYLINE
  5
38B
100
AcDbEntity
  8
0
  6
CONTINUOUS
 62
     7
100
AcDbPolyline
 90
        3
 70
   128
 43
0.0
 10
785.857664
 20
342.790616
 10
785.97323
 20
342.699719
 10
785.988578
 20
342.687835
  0
LINE
  5
38C
100
AcDbEntity
  8
0
  6
CONTINUOUS
 62
     7
100
AcDbLine
 10
785.988575
 20
474.462488
 30
0.0
 11
785.857662
 21
474.359706
 31
0.0
  0
ARC
  5
38D
100
AcDbEntity
  8
0
  6
CONTINUOUS
 62
     7
100
AcDbCircle
 10
785.107662
 20
471.07516
 30
0.0
 40
3.5
100
AcDbArc
 50
284.577506
 51
75.422494
  0
LWPOLYLINE
  5
38E
100
AcDbEntity
  8
0
  6
CONTINUOUS
 62
     7
100
AcDbPolyline
 90
        3
 70
   128
 43
0.0
 10
785.857664
 20
467.790612
 10
785.97323
 20
467.699719
 10
785.988578
 20
467.687831
  0
LINE
  5
38F
100
AcDbEntity
  8
0
  6
CONTINUOUS
 62
     7
100
AcDbLine
 10
785.988578
 20
477.706072
 30
0.0
 11
785.857664
 21
477.575158
 31
0.0
  0
LINE
  5
390
100
AcDbEntity
  8
0
  6
CONTINUOUS
 62
     7
100
AcDbLine
 10
784.226747
 20
477.706072
 30
0.0
 11
784.357661
 21
477.575158
 31
0.0
  0
LINE
  5
391
100
AcDbEntity
  8
0
  6
CONTINUOUS
 62
     7
100
AcDbLine
 10
784.226747
 20
477.706072
 30
0.0
 11
785.988578
 21
477.706072
 31
0.0
  0
LINE
  5
392
100
AcDbEntity
  8
0
  6
CONTINUOUS
 62
     7
100
AcDbLine
 10
784.226747
 20
464.444247
 30
0.0
 11
784.357661
 21
464.575161
 31
0.0
  0
LINE
  5
393
100
AcDbEntity
  8
0
  6
CONTINUOUS
 62
     7
100
AcDbLine
 10
784.226747
 20
464.444247
 30
0.0
 11
784.226749
 21
467.687831
 31
0.0
  0
LINE
  5
394
100
AcDbEntity
  8
0
  6
CONTINUOUS
 62
     7
100
AcDbLine
 10
784.226747
 20
339.444247
 30
0.0
 11
784.357661
 21
339.575161
 31
0.0
  0
LINE
  5
395
100
AcDbEntity
  8
0
  6
CONTINUOUS
 62
     7
100
AcDbLine
 10
784.226747
 20
339.444247
 30
0.0
 11
784.226749
 21
342.687831
 31
0.0
  0
LINE
  5
396
100
AcDbEntity
  8
0
  6
CONTINUOUS
 62
     7
100
AcDbLine
 10
785.988575
 20
467.687831
 30
0.0
 11
785.988578
 21
464.444247
 31
0.0
  0
LINE
  5
397
100
AcDbEntity
  8
0
  6
CONTINUOUS
 62
     7
100
AcDbLine
 10
785.988578
 20
464.444247
 30
0.0
 11
785.857664
 21
464.575161
 31
0.0
  0
LINE
  5
398
100
AcDbEntity
  8
0
  6
CONTINUOUS
 62
     7
100
AcDbLine
 10
785.988578
 20
477.706072
 30
0.0
 11
785.988575
 21
474.462488
 31
0.0
  0
LINE
  5
399
100
AcDbEntity
  8
0
  6
CONTINUOUS
 62
     7
100
AcDbLine
 10
784.226749
 20
474.462488
 30
0.0
 11
784.226747
 21
477.706072
 31
0.0
  0
LINE
  5
39A
100
AcDbEntity
  8
0
  6
CONTINUOUS
 62
     7
100
AcDbLine
 10
784.226747
 20
401.944247
 30
0.0
 11
784.357661
 21
402.075159
 31
0.0
  0
LINE
  5
39B
100
AcDbEntity
  8
0
  6
CONTINUOUS
 62
     7
100
AcDbLine
 10
785.988578
 20
401.944247
 30
0.0
 11
785.857664
 21
402.075159
 31
0.0
  0
LINE
  5
39C
100
AcDbEntity
  8
0
  6
CONTINUOUS
 62
     7
100
AcDbLine
 10
785.988578
 20
401.944247
 30
0.0
 11
784.226747
 21
401.944247
 31
0.0
  0
LINE
  5
39D
100
AcDbEntity
  8
0
  6
CONTINUOUS
 62
     7
100
AcDbLine
 10
784.226749
 20
349.462488
 30
0.0
 11
784.226747
 21
352.706072
 31
0.0
  0
LINE
  5
39E
100
AcDbEntity
  8
0
  6
CONTINUOUS
 62
     7
100
AcDbLine
 10
784.226747
 20
352.706072
 30
0.0
 11
784.357661
 21
352.575158
 31
0.0
  0
LINE
  5
39F
100
AcDbEntity
  8
0
  6
CONTINUOUS
 62
     7
100
AcDbLine
 10
785.988578
 20
352.706072
 30
0.0
 11
785.857664
 21
352.575158
 31
0.0
  0
LINE
  5
3A0
100
AcDbEntity
  8
0
  6
CONTINUOUS
 62
     7
100
AcDbLine
 10
784.226747
 20
352.706072
 30
0.0
 11
785.988578
 21
352.706072
 31
0.0
  0
LINE
  5
3A1
100
AcDbEntity
  8
0
  6
CONTINUOUS
 62
     7
100
AcDbLine
 10
785.988575
 20
411.962488
 30
0.0
 11
785.857662
 21
411.859706
 31
0.0
  0
ARC
  5
3A2
100
AcDbEntity
  8
0
  6
CONTINUOUS
 62
     7
100
AcDbCircle
 10
785.107662
 20
408.57516
 30
0.0
 40
3.5
100
AcDbArc
 50
284.577506
 51
75.422494
  0
LWPOLYLINE
  5
3A3
100
AcDbEntity
  8
0
  6
CONTINUOUS
 62
     7
100
AcDbPolyline
 90
        3
 70
   128
 43
0.0
 10
785.857664
 20
405.290613
 10
785.97323
 20
405.199719
 10
785.988578
 20
405.187831
  0
LINE
  5
3A4
100
AcDbEntity
  8
0
  6
CONTINUOUS
 62
     7
100
AcDbLine
 10
785.988575
 20
349.462488
 30
0.0
 11
785.857662
 21
349.359706
 31
0.0
  0
ARC
  5
3A5
100
AcDbEntity
  8
0
  6
CONTINUOUS
 62
     7
100
AcDbCircle
 10
785.107662
 20
346.07516
 30
0.0
 40
3.5
100
AcDbArc
 50
284.577506
 51
75.422494
  0
LINE
  5
3A6
100
AcDbEntity
  8
0
  6
CONTINUOUS
 62
     7
100
AcDbLine
 10
785.988578
 20
415.206072
 30
0.0
 11
785.857664
 21
415.07516
 31
0.0
  0
LINE
  5
3A7
100
AcDbEntity
  8
0
  6
CONTINUOUS
 62
     7
100
AcDbLine
 10
785.988578
 20
415.206072
 30
0.0
 11
785.988575
 21
411.962488
 31
0.0
  0
LINE
  5
3A8
100
AcDbEntity
  8
0
  6
CONTINUOUS
 62
     7
100
AcDbLine
 10
784.226747
 20
415.206072
 30
0.0
 11
784.357661
 21
415.07516
 31
0.0
  0
LINE
  5
3A9
100
AcDbEntity
  8
0
  6
CONTINUOUS
 62
     7
100
AcDbLine
 10
784.226747
 20
415.206072
 30
0.0
 11
785.988578
 21
415.206072
 31
0.0
  0
LINE
  5
3AA
100
AcDbEntity
  8
0
  6
CONTINUOUS
 62
     7
100
AcDbLine
 10
785.988575
 20
405.187831
 30
0.0
 11
785.988578
 21
401.944247
 31
0.0
  0
LINE
  5
3AB
100
AcDbEntity
  8
0
  6
CONTINUOUS
 62
     7
100
AcDbLine
 10
785.988578
 20
464.444247
 30
0.0
 11
784.226747
 21
464.444247
 31
0.0
  0
LINE
  5
3AC
100
AcDbEntity
  8
0
  6
CONTINUOUS
 62
     7
100
AcDbLine
 10
785.988578
 20
352.706072
 30
0.0
 11
785.988575
 21
349.462488
 31
0.0
  0
LINE
  5
3AD
100
AcDbEntity
  8
0
  6
CONTINUOUS
 62
     7
100
AcDbLine
 10
784.226749
 20
411.962488
 30
0.0
 11
784.226747
 21
415.206072
 31
0.0
  0
LINE
  5
3AE
100
AcDbEntity
  8
0
  6
CONTINUOUS
 62
     7
100
AcDbLine
 10
785.988578
 20
339.444247
 30
0.0
 11
784.226747
 21
339.444247
 31
0.0
  0
LINE
  5
3AF
100
AcDbEntity
  8
0
  6
CONTINUOUS
 62
     7
100
AcDbLine
 10
784.226747
 20
401.944247
 30
0.0
 11
784.226749
 21
405.187831
 31
0.0
  0
CIRCLE
  5
3B0
100
AcDbEntity
  8
0
  6
CONTINUOUS
 62
     7
100
AcDbCircle
 10
634.107662
 20
408.57516
 30
0.0
 40
1.6
  0
CIRCLE
  5
3B1
100
AcDbEntity
  8
0
  6
CONTINUOUS
 62
     7
100
AcDbCircle
 10
634.107662
 20
346.07516
 30
0.0
 40
1.6
  0
CIRCLE
  5
3B2
100
AcDbEntity
  8
0
  6
CONTINUOUS
 62
     7
100
AcDbCircle
 10
634.107662
 20
346.07516
 30
0.0
 40
1.564657
  0
CIRCLE
  5
3B3
100
AcDbEntity
  8
0
  6
CONTINUOUS
 62
     7
100
AcDbCircle
 10
634.107662
 20
471.07516
 30
0.0
 40
1.6
  0
CIRCLE
  5
3B4
100
AcDbEntity
  8
0
  6
CONTINUOUS
 62
     7
100
AcDbCircle
 10
634.107662
 20
408.57516
 30
0.0
 40
1.564657
  0
CIRCLE
  5
3B5
100
AcDbEntity
  8
0
  6
CONTINUOUS
 62
     7
100
AcDbCircle
 10
634.107662
 20
471.07516
 30
0.0
 40
1.564657
  0
CIRCLE
  5
3B6
100
AcDbEntity
  8
0
  6
CONTINUOUS
 62
     7
100
AcDbCircle
 10
640.607662
 20
316.07516
 30
0.0
 40
1.6
  0
CIRCLE
  5
3B7
100
AcDbEntity
  8
0
  6
CONTINUOUS
 62
     7
100
AcDbCircle
 10
640.607662
 20
316.07516
 30
0.0
 40
1.564657
  0
CIRCLE
  5
3B8
100
AcDbEntity
  8
0
  6
CONTINUOUS
 62
     7
100
AcDbCircle
 10
639.607662
 20
408.57516
 30
0.0
 40
1.6
  0
CIRCLE
  5
3B9
100
AcDbEntity
  8
0
  6
CONTINUOUS
 62
     7
100
AcDbCircle
 10
639.607662
 20
408.57516
 30
0.0
 40
1.564657
  0
CIRCLE
  5
3BA
100
AcDbEntity
  8
0
  6
CONTINUOUS
 62
     7
100
AcDbCircle
 10
640.607662
 20
501.07516
 30
0.0
 40
1.6
  0
CIRCLE
  5
3BB
100
AcDbEntity
  8
0
  6
CONTINUOUS
 62
     7
100
AcDbCircle
 10
640.607662
 20
501.07516
 30
0.0
 40
1.564657
  0
CIRCLE
  5
3BC
100
AcDbEntity
  8
0
  6
CONTINUOUS
 62
     7
100
AcDbCircle
 10
644.607662
 20
333.57516
 30
0.0
 40
1.6
  0
CIRCLE
  5
3BD
100
AcDbEntity
  8
0
  6
CONTINUOUS
 62
     7
100
AcDbCircle
 10
644.607662
 20
333.57516
 30
0.0
 40
1.564657
  0
CIRCLE
  5
3BE
100
AcDbEntity
  8
0
  6
CONTINUOUS
 62
     7
100
AcDbCircle
 10
644.607662
 20
483.57516
 30
0.0
 40
1.6
  0
CIRCLE
  5
3BF
100
AcDbEntity
  8
0
  6
CONTINUOUS
 62
     7
100
AcDbCircle
 10
644.607662
 20
483.57516
 30
0.0
 40
1.564657
  0
CIRCLE
  5
3C0
100
AcDbEntity
  8
0
  6
CONTINUOUS
 62
     7
100
AcDbCircle
 10
669.607662
 20
480.57516
 30
0.0
 40
1.6
  0
CIRCLE
  5
3C1
100
AcDbEntity
  8
0
  6
CONTINUOUS
 62
     7
100
AcDbCircle
 10
669.607662
 20
480.57516
 30
0.0
 40
1.564657
  0
CIRCLE
  5
3C2
100
AcDbEntity
  8
0
  6
CONTINUOUS
 62
     7
100
AcDbCircle
 10
669.607662
 20
336.57516
 30
0.0
 40
1.6
  0
CIRCLE
  5
3C3
100
AcDbEntity
  8
0
  6
CONTINUOUS
 62
     7
100
AcDbCircle
 10
669.607662
 20
336.57516
 30
0.0
 40
1.564657
  0
CIRCLE
  5
3C4
100
AcDbEntity
  8
0
  6
CONTINUOUS
 62
     7
100
AcDbCircle
 10
709.607662
 20
508.57516
 30
0.0
 40
1.6
  0
CIRCLE
  5
3C5
100
AcDbEntity
  8
0
  6
CONTINUOUS
 62
     7
100
AcDbCircle
 10
709.607662
 20
508.57516
 30
0.0
 40
1.564657
  0
CIRCLE
  5
3C6
100
AcDbEntity
  8
0
  6
CONTINUOUS
 62
     7
100
AcDbCircle
 10
709.607662
 20
308.57516
 30
0.0
 40
1.6
  0
CIRCLE
  5
3C7
100
AcDbEntity
  8
0
  6
CONTINUOUS
 62
     7
100
AcDbCircle
 10
709.607662
 20
308.57516
 30
0.0
 40
1.564657
  0
CIRCLE
  5
3C8
100
AcDbEntity
  8
0
  6
CONTINUOUS
 62
     7
100
AcDbCircle
 10
749.607662
 20
480.57516
 30
0.0
 40
1.6
  0
CIRCLE
  5
3C9
100
AcDbEntity
  8
0
  6
CONTINUOUS
 62
     7
100
AcDbCircle
 10
749.607662
 20
480.57516
 30
0.0
 40
1.564657
  0
CIRCLE
  5
3CA
100
AcDbEntity
  8
0
  6
CONTINUOUS
 62
     7
100
AcDbCircle
 10
749.607662
 20
336.57516
 30
0.0
 40
1.6
  0
CIRCLE
  5
3CB
100
AcDbEntity
  8
0
  6
CONTINUOUS
 62
     7
100
AcDbCircle
 10
749.607662
 20
336.57516
 30
0.0
 40
1.564657
  0
CIRCLE
  5
3CC
100
AcDbEntity
  8
0
  6
CONTINUOUS
 62
     7
100
AcDbCircle
 10
774.607662
 20
483.57516
 30
0.0
 40
1.6
  0
CIRCLE
  5
3CD
100
AcDbEntity
  8
0
  6
CONTINUOUS
 62
     7
100
AcDbCircle
 10
774.607662
 20
483.57516
 30
0.0
 40
1.564657
  0
CIRCLE
  5
3CE
100
AcDbEntity
  8
0
  6
CONTINUOUS
 62
     7
100
AcDbCircle
 10
774.607662
 20
333.57516
 30
0.0
 40
1.6
  0
CIRCLE
  5
3CF
100
AcDbEntity
  8
0
  6
CONTINUOUS
 62
     7
100
AcDbCircle
 10
774.607662
 20
333.57516
 30
0.0
 40
1.564657
  0
CIRCLE
  5
3D0
100
AcDbEntity
  8
0
  6
CONTINUOUS
 62
     7
100
AcDbCircle
 10
779.607662
 20
408.57516
 30
0.0
 40
1.6
  0
CIRCLE
  5
3D1
100
AcDbEntity
  8
0
  6
CONTINUOUS
 62
     7
100
AcDbCircle
 10
778.607662
 20
501.07516
 30
0.0
 40
1.6
  0
CIRCLE
  5
3D2
100
AcDbEntity
  8
0
  6
CONTINUOUS
 62
     7
100
AcDbCircle
 10
779.607662
 20
408.57516
 30
0.0
 40
1.564657
  0
CIRCLE
  5
3D3
100
AcDbEntity
  8
0
  6
CONTINUOUS
 62
     7
100
AcDbCircle
 10
778.607662
 20
316.07516
 30
0.0
 40
1.6
  0
CIRCLE
  5
3D4
100
AcDbEntity
  8
0
  6
CONTINUOUS
 62
     7
100
AcDbCircle
 10
778.607662
 20
316.07516
 30
0.0
 40
1.564657
  0
CIRCLE
  5
3D5
100
AcDbEntity
  8
0
  6
CONTINUOUS
 62
     7
100
AcDbCircle
 10
778.607662
 20
501.07516
 30
0.0
 40
1.564657
  0
CIRCLE
  5
3D6
100
AcDbEntity
  8
0
  6
CONTINUOUS
 62
     7
100
AcDbCircle
 10
785.107662
 20
408.57516
 30
0.0
 40
1.6
  0
CIRCLE
  5
3D7
100
AcDbEntity
  8
0
  6
CONTINUOUS
 62
     7
100
AcDbCircle
 10
785.107662
 20
408.57516
 30
0.0
 40
1.564657
  0
CIRCLE
  5
3D8
100
AcDbEntity
  8
0
  6
CONTINUOUS
 62
     7
100
AcDbCircle
 10
785.107662
 20
471.07516
 30
0.0
 40
1.6
  0
CIRCLE
  5
3D9
100
AcDbEntity
  8
0
  6
CONTINUOUS
 62
     7
100
AcDbCircle
 10
785.107662
 20
471.07516
 30
0.0
 40
1.564657
  0
CIRCLE
  5
3DA
100
AcDbEntity
  8
0
  6
CONTINUOUS
 62
     7
100
AcDbCircle
 10
785.107662
 20
346.07516
 30
0.0
 40
1.6
  0
CIRCLE
  5
3DB
100
AcDbEntity
  8
0
  6
CONTINUOUS
 62
     7
100
AcDbCircle
 10
785.107662
 20
346.07516
 30
0.0
 40
1.564657
  0
CIRCLE
  5
3DC
100
AcDbEntity
  8
0
  6
CONTINUOUS
 62
     7
100
AcDbCircle
 10
628.307662
 20
322.57516
 30
0.0
 40
3.351632
  0
CIRCLE
  5
3DD
100
AcDbEntity
  8
0
  6
CONTINUOUS
 62
     7
100
AcDbCircle
 10
628.307662
 20
494.57516
 30
0.0
 40
3.351632
  0
CIRCLE
  5
3DE
100
AcDbEntity
  8
0
  6
CONTINUOUS
 62
     7
100
AcDbCircle
 10
628.307662
 20
494.57516
 30
0.0
 40
3.459853
  0
CIRCLE
  5
3DF
100
AcDbEntity
  8
0
  6
CONTINUOUS
 62
     7
100
AcDbCircle
 10
628.307662
 20
322.57516
 30
0.0
 40
3.459853
  0
CIRCLE
  5
3E0
100
AcDbEntity
  8
0
  6
CONTINUOUS
 62
     7
100
AcDbCircle
 10
661.107662
 20
514.37516
 30
0.0
 40
3.351632
  0
CIRCLE
  5
3E1
100
AcDbEntity
  8
0
  6
CONTINUOUS
 62
     7
100
AcDbCircle
 10
661.107662
 20
514.37516
 30
0.0
 40
3.459853
  0
CIRCLE
  5
3E2
100
AcDbEntity
  8
0
  6
CONTINUOUS
 62
     7
100
AcDbCircle
 10
661.107662
 20
302.77516
 30
0.0
 40
3.351632
  0
CIRCLE
  5
3E3
100
AcDbEntity
  8
0
  6
CONTINUOUS
 62
     7
100
AcDbCircle
 10
661.107662
 20
302.77516
 30
0.0
 40
3.459853
  0
CIRCLE
  5
3E4
100
AcDbEntity
  8
0
  6
CONTINUOUS
 62
     7
100
AcDbCircle
 10
758.107662
 20
302.77516
 30
0.0
 40
3.351632
  0
CIRCLE
  5
3E5
100
AcDbEntity
  8
0
  6
CONTINUOUS
 62
     7
100
AcDbCircle
 10
758.107662
 20
302.77516
 30
0.0
 40
3.459853
  0
CIRCLE
  5
3E6
100
AcDbEntity
  8
0
  6
CONTINUOUS
 62
     7
100
AcDbCircle
 10
758.107662
 20
514.37516
 30
0.0
 40
3.351632
  0
CIRCLE
  5
3E7
100
AcDbEntity
  8
0
  6
CONTINUOUS
 62
     7
100
AcDbCircle
 10
758.107662
 20
514.37516
 30
0.0
 40
3.459853
  0
CIRCLE
  5
3E8
100
AcDbEntity
  8
0
  6
CONTINUOUS
 62
     7
100
AcDbCircle
 10
790.907662
 20
322.57516
 30
0.0
 40
3.351632
  0
CIRCLE
  5
3E9
100
AcDbEntity
  8
0
  6
CONTINUOUS
 62
     7
100
AcDbCircle
 10
790.907662
 20
494.57516
 30
0.0
 40
3.351632
  0
CIRCLE
  5
3EA
100
AcDbEntity
  8
0
  6
CONTINUOUS
 62
     7
100
AcDbCircle
 10
790.907662
 20
322.57516
 30
0.0
 40
3.459853
  0
CIRCLE
  5
3EB
100
AcDbEntity
  8
0
  6
CONTINUOUS
 62
     7
100
AcDbCircle
 10
790.907662
 20
494.57516
 30
0.0
 40
3.459853
  0
CIRCLE
  5
3EC
100
AcDbEntity
  8
0
  6
CONTINUOUS
 62
     7
100
AcDbCircle
 10
639.707662
 20
299.07516
 30
0.0
 40
2.196003
  0
CIRCLE
  5
3ED
100
AcDbEntity
  8
0
  6
CONTINUOUS
 62
     7
100
AcDbCircle
 10
639.707662
 20
518.07516
 30
0.0
 40
2.196003
  0
CIRCLE
  5
3EE
100
AcDbEntity
  8
0
  6
CONTINUOUS
 62
     7
100
AcDbCircle
 10
639.707662
 20
299.07516
 30
0.0
 40
2.1
  0
CIRCLE
  5
3EF
100
AcDbEntity
  8
0
  6
CONTINUOUS
 62
     7
100
AcDbCircle
 10
639.707662
 20
518.07516
 30
0.0
 40
2.1
  0
CIRCLE
  5
3F0
100
AcDbEntity
  8
0
  6
CONTINUOUS
 62
     7
100
AcDbCircle
 10
779.507662
 20
299.07516
 30
0.0
 40
2.196003
  0
CIRCLE
  5
3F1
100
AcDbEntity
  8
0
  6
CONTINUOUS
 62
     7
100
AcDbCircle
 10
779.507662
 20
518.07516
 30
0.0
 40
2.196003
  0
CIRCLE
  5
3F2
100
AcDbEntity
  8
0
  6
CONTINUOUS
 62
     7
100
AcDbCircle
 10
779.507662
 20
518.07516
 30
0.0
 40
2.1
  0
CIRCLE
  5
3F3
100
AcDbEntity
  8
0
  6
CONTINUOUS
 62
     7
100
AcDbCircle
 10
779.507662
 20
299.07516
 30
0.0
 40
2.1
  0
LINE
  5
3F4
100
AcDbEntity
  8
0
  6
CONTINUOUS
 62
     7
100
AcDbLine
 10
775.007659
 20
638.361884
 30
0.0
 11
775.164885
 21
635.361885
 31
0.0
  0
LINE
  5
3F5
100
AcDbEntity
  8
0
  6
CONTINUOUS
 62
     7
100
AcDbLine
 10
644.050439
 20
635.361885
 30
0.0
 11
644.207665
 21
638.361884
 31
0.0
  0
LINE
  5
3F6
100
AcDbEntity
  8
0
  6
CONTINUOUS
 62
     7
100
AcDbLine
 10
656.107662
 20
638.361884
 30
0.0
 11
656.16007
 21
637.361885
 31
0.0
  0
LINE
  5
3F7
100
AcDbEntity
  8
0
  6
CONTINUOUS
 62
     7
100
AcDbLine
 10
666.055254
 20
637.361885
 30
0.0
 11
666.107663
 21
638.361884
 31
0.0
  0
LINE
  5
3F8
100
AcDbEntity
  8
0
  6
CONTINUOUS
 62
     7
100
AcDbLine
 10
753.107661
 20
638.361884
 30
0.0
 11
753.16007
 21
637.361885
 31
0.0
  0
LINE
  5
3F9
100
AcDbEntity
  8
0
  6
CONTINUOUS
 62
     7
100
AcDbLine
 10
763.055254
 20
637.361885
 30
0.0
 11
763.107662
 21
638.361884
 31
0.0
  0
LINE
  5
3FA
100
AcDbEntity
  8
0
  6
CONTINUOUS
 62
     7
100
AcDbLine
 10
754.85766
 20
637.361882
 30
0.0
 11
754.857662
 21
635.361885
 31
0.0
  0
LINE
  5
3FB
100
AcDbEntity
  8
0
  6
CONTINUOUS
 62
     7
100
AcDbLine
 10
761.357662
 20
635.361885
 30
0.0
 11
761.357662
 21
637.361882
 31
0.0
  0
LINE
  5
3FC
100
AcDbEntity
  8
0
  6
CONTINUOUS
 62
     7
100
AcDbLine
 10
657.857661
 20
637.361882
 30
0.0
 11
657.857662
 21
635.361885
 31
0.0
  0
LINE
  5
3FD
100
AcDbEntity
  8
0
  6
CONTINUOUS
 62
     7
100
AcDbLine
 10
664.357662
 20
635.361885
 30
0.0
 11
664.357663
 21
637.361882
 31
0.0
  0
LINE
  5
3FE
100
AcDbEntity
  8
0
  6
CONTINUOUS
 62
     7
100
AcDbLine
 10
765.355297
 20
635.361885
 30
0.0
 11
765.40766
 21
638.361884
 31
0.0
  0
LINE
  5
3FF
100
AcDbEntity
  8
0
  6
CONTINUOUS
 62
     7
100
AcDbLine
 10
653.807664
 20
638.361884
 30
0.0
 11
653.860027
 21
635.361885
 31
0.0
  0
LINE
  5
400
100
AcDbEntity
  8
0
  6
CONTINUOUS
 62
     7
100
AcDbLine
 10
668.355297
 20
635.361885
 30
0.0
 11
668.407661
 21
638.361884
 31
0.0
  0
LINE
  5
401
100
AcDbEntity
  8
0
  6
CONTINUOUS
 62
     7
100
AcDbLine
 10
750.807663
 20
638.361884
 30
0.0
 11
750.860027
 21
635.361885
 31
0.0
  0
LINE
  5
402
100
AcDbEntity
  8
0
  6
CONTINUOUS
 62
     7
100
AcDbLine
 10
644.156234
 20
637.380524
 30
0.0
 11
644.166989
 21
637.361885
 31
0.0
  0
LINE
  5
403
100
AcDbEntity
  8
0
  6
CONTINUOUS
 62
     7
100
AcDbLine
 10
775.048334
 20
637.361885
 30
0.0
 11
775.05909
 21
637.380524
 31
0.0
  0
LINE
  5
404
100
AcDbEntity
  8
0
  6
CONTINUOUS
 62
     7
100
AcDbLine
 10
620.107662
 20
716.761885
 30
0.0
 11
799.107662
 21
716.761885
 31
0.0
  0
LINE
  5
405
100
AcDbEntity
  8
0
  6
CONTINUOUS
 62
     7
100
AcDbLine
 10
799.107662
 20
635.361885
 30
0.0
 11
799.107662
 21
716.761885
 31
0.0
  0
LINE
  5
406
100
AcDbEntity
  8
0
  6
CONTINUOUS
 62
     7
100
AcDbLine
 10
799.107662
 20
635.361885
 30
0.0
 11
784.657658
 21
635.361886
 31
0.0
  0
LINE
  5
407
100
AcDbEntity
  8
0
  6
CONTINUOUS
 62
     7
100
AcDbLine
 10
784.657662
 20
708.461885
 30
0.0
 11
784.657658
 21
635.361886
 31
0.0
  0
ARC
  5
408
100
AcDbEntity
  8
0
  6
CONTINUOUS
 62
     7
100
AcDbCircle
 10
780.157662
 20
708.461885
 30
0.0
 40
4.5
100
AcDbArc
 50
0.0
 51
90.0
  0
LINE
  5
409
100
AcDbEntity
  8
0
  6
CONTINUOUS
 62
     7
100
AcDbLine
 10
639.057662
 20
712.961885
 30
0.0
 11
780.157662
 21
712.961885
 31
0.0
  0
ARC
  5
40A
100
AcDbEntity
  8
0
  6
CONTINUOUS
 62
     7
100
AcDbCircle
 10
639.057662
 20
708.461885
 30
0.0
 40
4.5
100
AcDbArc
 50
90.0
 51
180.0
  0
LINE
  5
40B
100
AcDbEntity
  8
0
  6
CONTINUOUS
 62
     7
100
AcDbLine
 10
634.557666
 20
635.361886
 30
0.0
 11
634.557662
 21
708.461885
 31
0.0
  0
LINE
  5
40C
100
AcDbEntity
  8
0
  6
CONTINUOUS
 62
     7
100
AcDbLine
 10
634.557666
 20
635.361886
 30
0.0
 11
620.107662
 21
635.361885
 31
0.0
  0
LINE
  5
40D
100
AcDbEntity
  8
0
  6
CONTINUOUS
 62
     7
100
AcDbLine
 10
620.107662
 20
716.761885
 30
0.0
 11
620.107662
 21
635.361885
 31
0.0
  0
LINE
  5
40E
100
AcDbEntity
  8
0
  6
CONTINUOUS
 62
     7
100
AcDbLine
 10
781.312787
 20
708.461885
 30
0.0
 11
784.657662
 21
708.461885
 31
0.0
  0
LINE
  5
40F
100
AcDbEntity
  8
0
  6
CONTINUOUS
 62
     7
100
AcDbLine
 10
784.657658
 20
635.361886
 30
0.0
 11
780.089185
 21
635.361885
 31
0.0
  0
LINE
  5
410
100
AcDbEntity
  8
0
  6
CONTINUOUS
 62
     7
100
AcDbLine
 10
780.089185
 20
635.361885
 30
0.0
 11
780.089186
 21
638.361884
 31
0.0
  0
LINE
  5
411
100
AcDbEntity
  8
0
  6
CONTINUOUS
 62
     7
100
AcDbLine
 10
781.312787
 20
708.461885
 30
0.0
 11
780.089186
 21
638.361884
 31
0.0
  0
LINE
  5
412
100
AcDbEntity
  8
0
  6
CONTINUOUS
 62
     7
100
AcDbLine
 10
637.902537
 20
708.461885
 30
0.0
 11
639.126138
 21
638.361884
 31
0.0
  0
LINE
  5
413
100
AcDbEntity
  8
0
  6
CONTINUOUS
 62
     7
100
AcDbLine
 10
639.126139
 20
635.361885
 30
0.0
 11
639.126138
 21
638.361884
 31
0.0
  0
LINE
  5
414
100
AcDbEntity
  8
0
  6
CONTINUOUS
 62
     7
100
AcDbLine
 10
637.902537
 20
708.461885
 30
0.0
 11
634.557662
 21
708.461885
 31
0.0
  0
LINE
  5
415
100
AcDbEntity
  8
0
  6
CONTINUOUS
 62
     7
100
AcDbLine
 10
639.126139
 20
635.361885
 30
0.0
 11
634.557666
 21
635.361886
 31
0.0
  0
LINE
  5
416
100
AcDbEntity
  8
0
  6
CONTINUOUS
 62
     7
100
AcDbLine
 10
799.107662
 20
716.761885
 30
0.0
 11
805.107662
 21
716.761885
 31
0.0
  0
LINE
  5
417
100
AcDbEntity
  8
0
  6
CONTINUOUS
 62
     7
100
AcDbLine
 10
805.107662
 20
716.761885
 30
0.0
 11
805.107662
 21
635.361885
 31
0.0
  0
LINE
  5
418
100
AcDbEntity
  8
0
  6
CONTINUOUS
 62
     7
100
AcDbLine
 10
805.107662
 20
635.361885
 30
0.0
 11
799.107662
 21
635.361885
 31
0.0
  0
LINE
  5
419
100
AcDbEntity
  8
0
  6
CONTINUOUS
 62
     7
100
AcDbLine
 10
614.107662
 20
716.761885
 30
0.0
 11
620.107662
 21
716.761885
 31
0.0
  0
LINE
  5
41A
100
AcDbEntity
  8
0
  6
CONTINUOUS
 62
     7
100
AcDbLine
 10
614.107662
 20
635.361885
 30
0.0
 11
614.107662
 21
716.761885
 31
0.0
  0
LINE
  5
41B
100
AcDbEntity
  8
0
  6
CONTINUOUS
 62
     7
100
AcDbLine
 10
620.107662
 20
635.361885
 30
0.0
 11
614.107662
 21
635.361885
 31
0.0
  0
LINE
  5
41C
100
AcDbEntity
  8
0
  6
CONTINUOUS
 62
     7
100
AcDbLine
 10
780.157664
 20
709.637529
 30
0.0
 11
639.05766
 21
709.637529
 31
0.0
  0
LINE
  5
41D
100
AcDbEntity
  8
0
  6
CONTINUOUS
 62
     7
100
AcDbLine
 10
639.05766
 20
709.637529
 30
0.0
 11
639.057662
 21
712.961885
 31
0.0
  0
LINE
  5
41E
100
AcDbEntity
  8
0
  6
CONTINUOUS
 62
     7
100
AcDbLine
 10
780.157664
 20
709.637529
 30
0.0
 11
780.157662
 21
712.961885
 31
0.0
  0
ELLIPSE
  5
41F
100
AcDbEntity
  8
0
  6
CONTINUOUS
 62
     7
100
AcDbEllipse
 10
639.057662
 20
708.482054
 30
0.0
 11
0.0
 21
1.155475010403534
 31
0.0
210
0.0
220
0.0
230
1.0
 40
0.999848
 41
0.0
 42
1.588252278210864
  0
ELLIPSE
  5
420
100
AcDbEntity
  8
0
  6
CONTINUOUS
 62
     7
100
AcDbEllipse
 10
780.157662
 20
708.482054
 30
0.0
 11
0.0
 21
1.155475010403534
 31
0.0
210
0.0
220
0.0
230
1.0
 40
0.999848
 41
4.694933028968735
 42
6.283185307179586
  0
LINE
  5
421
100
AcDbEntity
  8
0
  6
CONTINUOUS
 62
     7
100
AcDbLine
 10
780.089186
 20
638.361884
 30
0.0
 11
639.126138
 21
638.361884
 31
0.0
  0
LINE
  5
422
100
AcDbEntity
  8
0
  6
CONTINUOUS
 62
     7
100
AcDbLine
 10
780.089185
 20
635.361885
 30
0.0
 11
775.164885
 21
635.361885
 31
0.0
  0
LINE
  5
423
100
AcDbEntity
  8
0
  6
CONTINUOUS
 62
     7
100
AcDbLine
 10
639.707662
 20
635.361885
 30
0.0
 11
639.126139
 21
635.361885
 31
0.0
  0
LINE
  5
424
100
AcDbEntity
  8
0
  6
CONTINUOUS
 62
     7
100
AcDbLine
 10
644.050439
 20
635.361885
 30
0.0
 11
639.707662
 21
635.361885
 31
0.0
  0
LINE
  5
425
100
AcDbEntity
  8
0
  6
CONTINUOUS
 62
     7
100
AcDbLine
 10
666.055254
 20
637.361885
 30
0.0
 11
656.16007
 21
637.361885
 31
0.0
  0
LINE
  5
426
100
AcDbEntity
  8
0
  6
CONTINUOUS
 62
     7
100
AcDbLine
 10
758.107662
 20
637.361885
 30
0.0
 11
753.16007
 21
637.361885
 31
0.0
  0
LINE
  5
427
100
AcDbEntity
  8
0
  6
CONTINUOUS
 62
     7
100
AcDbLine
 10
763.055254
 20
637.361885
 30
0.0
 11
758.107662
 21
637.361885
 31
0.0
  0
LINE
  5
428
100
AcDbEntity
  8
0
  6
CONTINUOUS
 62
     7
100
AcDbLine
 10
758.107662
 20
635.361885
 30
0.0
 11
754.857662
 21
635.361885
 31
0.0
  0
LINE
  5
429
100
AcDbEntity
  8
0
  6
CONTINUOUS
 62
     7
100
AcDbLine
 10
761.357662
 20
635.361885
 30
0.0
 11
758.107662
 21
635.361885
 31
0.0
  0
LINE
  5
42A
100
AcDbEntity
  8
0
  6
CONTINUOUS
 62
     7
100
AcDbLine
 10
661.107662
 20
635.361885
 30
0.0
 11
657.857662
 21
635.361885
 31
0.0
  0
LINE
  5
42B
100
AcDbEntity
  8
0
  6
CONTINUOUS
 62
     7
100
AcDbLine
 10
664.357662
 20
635.361885
 30
0.0
 11
661.107662
 21
635.361885
 31
0.0
  0
LINE
  5
42C
100
AcDbEntity
  8
0
  6
CONTINUOUS
 62
     7
100
AcDbLine
 10
763.107662
 20
635.361885
 30
0.0
 11
761.357662
 21
635.361885
 31
0.0
  0
LINE
  5
42D
100
AcDbEntity
  8
0
  6
CONTINUOUS
 62
     7
100
AcDbLine
 10
765.355297
 20
635.361885
 30
0.0
 11
763.107662
 21
635.361885
 31
0.0
  0
LINE
  5
42E
100
AcDbEntity
  8
0
  6
CONTINUOUS
 62
     7
100
AcDbLine
 10
657.857662
 20
635.361885
 30
0.0
 11
653.860027
 21
635.361885
 31
0.0
  0
LINE
  5
42F
100
AcDbEntity
  8
0
  6
CONTINUOUS
 62
     7
100
AcDbLine
 10
668.355297
 20
635.361885
 30
0.0
 11
664.357662
 21
635.361885
 31
0.0
  0
LINE
  5
430
100
AcDbEntity
  8
0
  6
CONTINUOUS
 62
     7
100
AcDbLine
 10
753.107662
 20
635.361885
 30
0.0
 11
750.860027
 21
635.361885
 31
0.0
  0
LINE
  5
431
100
AcDbEntity
  8
0
  6
CONTINUOUS
 62
     7
100
AcDbLine
 10
754.857662
 20
635.361885
 30
0.0
 11
753.107662
 21
635.361885
 31
0.0
  0
LINE
  5
432
100
AcDbEntity
  8
0
  6
CONTINUOUS
 62
     7
100
AcDbLine
 10
649.789676
 20
637.361885
 30
0.0
 11
650.160791
 21
638.361884
 31
0.0
  0
LINE
  5
433
100
AcDbEntity
  8
0
  6
CONTINUOUS
 62
     7
100
AcDbLine
 10
644.166989
 20
637.361885
 30
0.0
 11
649.789676
 21
637.361885
 31
0.0
  0
LINE
  5
434
100
AcDbEntity
  8
0
  6
CONTINUOUS
 62
     7
100
AcDbLine
 10
775.048334
 20
637.361885
 30
0.0
 11
769.425648
 21
637.361885
 31
0.0
  0
LINE
  5
435
100
AcDbEntity
  8
0
  6
CONTINUOUS
 62
     7
100
AcDbLine
 10
769.425648
 20
637.361885
 30
0.0
 11
769.054533
 21
638.361884
 31
0.0
  0
LINE
  5
436
100
AcDbEntity
  8
0
  6
CONTINUOUS
 62
     7
100
AcDbLine
 10
649.789676
 20
637.361885
 30
0.0
 11
653.825117
 21
637.361882
 31
0.0
  0
LINE
  5
437
100
AcDbEntity
  8
0
  6
CONTINUOUS
 62
     7
100
AcDbLine
 10
769.425648
 20
637.361885
 30
0.0
 11
765.390207
 21
637.361882
 31
0.0
  0
LINE
  5
438
100
AcDbEntity
  8
0
  6
CONTINUOUS
 62
     7
100
AcDbLine
 10
672.571764
 20
637.361885
 30
0.0
 11
673.071762
 21
638.361884
 31
0.0
  0
LINE
  5
439
100
AcDbEntity
  8
0
  6
CONTINUOUS
 62
     7
100
AcDbLine
 10
672.571764
 20
637.361885
 30
0.0
 11
668.390207
 21
637.361885
 31
0.0
  0
LINE
  5
43A
100
AcDbEntity
  8
0
  6
CONTINUOUS
 62
     7
100
AcDbLine
 10
746.64356
 20
637.361885
 30
0.0
 11
746.143562
 21
638.361884
 31
0.0
  0
LINE
  5
43B
100
AcDbEntity
  8
0
  6
CONTINUOUS
 62
     7
100
AcDbLine
 10
746.64356
 20
637.361885
 30
0.0
 11
750.825117
 21
637.361885
 31
0.0
  0
LINE
  5
43C
100
AcDbEntity
  8
0
  6
CONTINUOUS
 62
     7
100
AcDbLine
 10
709.607662
 20
638.361884
 30
0.0
 11
709.607662
 21
637.361882
 31
0.0
  0
LINE
  5
43D
100
AcDbEntity
  8
0
  6
CONTINUOUS
 62
     7
100
AcDbLine
 10
709.607662
 20
637.361882
 30
0.0
 11
672.571764
 21
637.361885
 31
0.0
  0
LINE
  5
43E
100
AcDbEntity
  8
0
  6
CONTINUOUS
 62
     7
100
AcDbLine
 10
746.64356
 20
637.361885
 30
0.0
 11
709.607662
 21
637.361882
 31
0.0
  0
LINE
  5
43F
100
AcDbEntity
  8
0
  6
CONTINUOUS
 62
     7
100
AcDbLine
 10
805.107662
 20
708.461885
 30
0.0
 11
805.107662
 21
635.361885
 31
0.0
  0
LINE
  5
440
100
AcDbEntity
  8
0
  6
CONTINUOUS
 62
     7
100
AcDbLine
 10
614.107662
 20
708.461885
 30
0.0
 11
614.107662
 21
635.361885
 31
0.0
  0
LINE
  5
441
100
AcDbEntity
  8
0
  6
CONTINUOUS
 62
     7
100
AcDbLine
 10
805.107662
 20
712.961885
 30
0.0
 11
805.107662
 21
708.461885
 31
0.0
  0
LINE
  5
442
100
AcDbEntity
  8
0
  6
CONTINUOUS
 62
     7
100
AcDbLine
 10
614.107662
 20
712.961885
 30
0.0
 11
614.107662
 21
708.461885
 31
0.0
  0
INSERT
  5
44A
100
AcDbEntity
  8
0
  6
CONTINUOUS
 62
     7
100
AcDbBlockReference
  2
SW_CENTERMARKSYMBOL_2
 10
639.057662
 20
708.461885
 30
0.0
 41
5.0
 42
5.0
 43
5.0
  0
INSERT
  5
452
100
AcDbEntity
  8
0
  6
CONTINUOUS
 62
     7
100
AcDbBlockReference
  2
SW_CENTERMARKSYMBOL_3
 10
780.157662
 20
708.461885
 30
0.0
 41
5.0
 42
5.0
 43
5.0
  0
LINE
  5
453
100
AcDbEntity
  8
0
  6
CONTINUOUS
 62
     7
100
AcDbLine
 10
775.164885
 20
167.045071
 30
0.0
 11
775.007659
 21
164.045072
 31
0.0
  0
LINE
  5
454
100
AcDbEntity
  8
0
  6
CONTINUOUS
 62
     7
100
AcDbLine
 10
644.207665
 20
164.045072
 30
0.0
 11
644.050439
 21
167.045071
 31
0.0
  0
LINE
  5
455
100
AcDbEntity
  8
0
  6
CONTINUOUS
 62
     7
100
AcDbLine
 10
666.107663
 20
164.045072
 30
0.0
 11
666.055254
 21
165.045071
 31
0.0
  0
LINE
  5
456
100
AcDbEntity
  8
0
  6
CONTINUOUS
 62
     7
100
AcDbLine
 10
656.16007
 20
165.045071
 30
0.0
 11
656.107662
 21
164.045072
 31
0.0
  0
LINE
  5
457
100
AcDbEntity
  8
0
  6
CONTINUOUS
 62
     7
100
AcDbLine
 10
763.107662
 20
164.045072
 30
0.0
 11
763.055254
 21
165.045071
 31
0.0
  0
LINE
  5
458
100
AcDbEntity
  8
0
  6
CONTINUOUS
 62
     7
100
AcDbLine
 10
753.16007
 20
165.045071
 30
0.0
 11
753.107661
 21
164.045072
 31
0.0
  0
LINE
  5
459
100
AcDbEntity
  8
0
  6
CONTINUOUS
 62
     7
100
AcDbLine
 10
761.357662
 20
165.045074
 30
0.0
 11
761.357662
 21
167.045071
 31
0.0
  0
LINE
  5
45A
100
AcDbEntity
  8
0
  6
CONTINUOUS
 62
     7
100
AcDbLine
 10
754.857662
 20
167.045071
 30
0.0
 11
754.85766
 21
165.045074
 31
0.0
  0
LINE
  5
45B
100
AcDbEntity
  8
0
  6
CONTINUOUS
 62
     7
100
AcDbLine
 10
664.357663
 20
165.045074
 30
0.0
 11
664.357662
 21
167.045071
 31
0.0
  0
LINE
  5
45C
100
AcDbEntity
  8
0
  6
CONTINUOUS
 62
     7
100
AcDbLine
 10
657.857662
 20
167.045071
 30
0.0
 11
657.857661
 21
165.045074
 31
0.0
  0
LINE
  5
45D
100
AcDbEntity
  8
0
  6
CONTINUOUS
 62
     7
100
AcDbLine
 10
653.860027
 20
167.045071
 30
0.0
 11
653.807664
 21
164.045072
 31
0.0
  0
LINE
  5
45E
100
AcDbEntity
  8
0
  6
CONTINUOUS
 62
     7
100
AcDbLine
 10
668.407661
 20
164.045072
 30
0.0
 11
668.355297
 21
167.045071
 31
0.0
  0
LINE
  5
45F
100
AcDbEntity
  8
0
  6
CONTINUOUS
 62
     7
100
AcDbLine
 10
765.40766
 20
164.045072
 30
0.0
 11
765.355297
 21
167.045071
 31
0.0
  0
LINE
  5
460
100
AcDbEntity
  8
0
  6
CONTINUOUS
 62
     7
100
AcDbLine
 10
750.860027
 20
167.045071
 30
0.0
 11
750.807663
 21
164.045072
 31
0.0
  0
LINE
  5
461
100
AcDbEntity
  8
0
  6
CONTINUOUS
 62
     7
100
AcDbLine
 10
775.05909
 20
165.026433
 30
0.0
 11
775.048334
 21
165.045071
 31
0.0
  0
LINE
  5
462
100
AcDbEntity
  8
0
  6
CONTINUOUS
 62
     7
100
AcDbLine
 10
644.166989
 20
165.045071
 30
0.0
 11
644.156234
 21
165.026433
 31
0.0
  0
LINE
  5
463
100
AcDbEntity
  8
0
  6
CONTINUOUS
 62
     7
100
AcDbLine
 10
634.557666
 20
167.045071
 30
0.0
 11
634.557662
 21
93.945071
 31
0.0
  0
LINE
  5
464
100
AcDbEntity
  8
0
  6
CONTINUOUS
 62
     7
100
AcDbLine
 10
634.557666
 20
167.045071
 30
0.0
 11
639.126139
 21
167.045071
 31
0.0
  0
LINE
  5
465
100
AcDbEntity
  8
0
  6
CONTINUOUS
 62
     7
100
AcDbLine
 10
639.126139
 20
167.045071
 30
0.0
 11
639.126138
 21
164.045072
 31
0.0
  0
LINE
  5
466
100
AcDbEntity
  8
0
  6
CONTINUOUS
 62
     7
100
AcDbLine
 10
637.902537
 20
93.945071
 30
0.0
 11
639.126138
 21
164.045072
 31
0.0
  0
LINE
  5
467
100
AcDbEntity
  8
0
  6
CONTINUOUS
 62
     7
100
AcDbLine
 10
637.902537
 20
93.945071
 30
0.0
 11
634.557662
 21
93.945071
 31
0.0
  0
LINE
  5
468
100
AcDbEntity
  8
0
  6
CONTINUOUS
 62
     7
100
AcDbLine
 10
781.312787
 20
93.945071
 30
0.0
 11
784.657662
 21
93.945071
 31
0.0
  0
LINE
  5
469
100
AcDbEntity
  8
0
  6
CONTINUOUS
 62
     7
100
AcDbLine
 10
781.312787
 20
93.945071
 30
0.0
 11
780.089186
 21
164.045072
 31
0.0
  0
LINE
  5
46A
100
AcDbEntity
  8
0
  6
CONTINUOUS
 62
     7
100
AcDbLine
 10
780.089185
 20
167.045071
 30
0.0
 11
780.089186
 21
164.045072
 31
0.0
  0
LINE
  5
46B
100
AcDbEntity
  8
0
  6
CONTINUOUS
 62
     7
100
AcDbLine
 10
780.089185
 20
167.045071
 30
0.0
 11
784.657658
 21
167.045071
 31
0.0
  0
LINE
  5
46C
100
AcDbEntity
  8
0
  6
CONTINUOUS
 62
     7
100
AcDbLine
 10
784.657662
 20
93.945071
 30
0.0
 11
784.657658
 21
167.045071
 31
0.0
  0
LINE
  5
46D
100
AcDbEntity
  8
0
  6
CONTINUOUS
 62
     7
100
AcDbLine
 10
620.107662
 20
85.645071
 30
0.0
 11
614.107662
 21
85.645071
 31
0.0
  0
LINE
  5
46E
100
AcDbEntity
  8
0
  6
CONTINUOUS
 62
     7
100
AcDbLine
 10
614.107662
 20
85.645071
 30
0.0
 11
614.107662
 21
167.045071
 31
0.0
  0
LINE
  5
46F
100
AcDbEntity
  8
0
  6
CONTINUOUS
 62
     7
100
AcDbLine
 10
614.107662
 20
167.045071
 30
0.0
 11
620.107662
 21
167.045071
 31
0.0
  0
LINE
  5
470
100
AcDbEntity
  8
0
  6
CONTINUOUS
 62
     7
100
AcDbLine
 10
620.107662
 20
167.045071
 30
0.0
 11
620.107662
 21
85.645071
 31
0.0
  0
LINE
  5
471
100
AcDbEntity
  8
0
  6
CONTINUOUS
 62
     7
100
AcDbLine
 10
799.107662
 20
85.645071
 30
0.0
 11
799.107662
 21
167.045071
 31
0.0
  0
LINE
  5
472
100
AcDbEntity
  8
0
  6
CONTINUOUS
 62
     7
100
AcDbLine
 10
799.107662
 20
85.645071
 30
0.0
 11
620.107662
 21
85.645071
 31
0.0
  0
ARC
  5
473
100
AcDbEntity
  8
0
  6
CONTINUOUS
 62
     7
100
AcDbCircle
 10
639.057662
 20
93.945071
 30
0.0
 40
4.5
100
AcDbArc
 50
180.0
 51
270.0
  0
LINE
  5
474
100
AcDbEntity
  8
0
  6
CONTINUOUS
 62
     7
100
AcDbLine
 10
639.057662
 20
89.445071
 30
0.0
 11
780.157662
 21
89.445071
 31
0.0
  0
ARC
  5
475
100
AcDbEntity
  8
0
  6
CONTINUOUS
 62
     7
100
AcDbCircle
 10
780.157662
 20
93.945071
 30
0.0
 40
4.5
100
AcDbArc
 50
270.0
 51
0.0
  0
LINE
  5
476
100
AcDbEntity
  8
0
  6
CONTINUOUS
 62
     7
100
AcDbLine
 10
620.107662
 20
167.045071
 30
0.0
 11
634.557666
 21
167.045071
 31
0.0
  0
LINE
  5
477
100
AcDbEntity
  8
0
  6
CONTINUOUS
 62
     7
100
AcDbLine
 10
784.657658
 20
167.045071
 30
0.0
 11
799.107662
 21
167.045071
 31
0.0
  0
LINE
  5
478
100
AcDbEntity
  8
0
  6
CONTINUOUS
 62
     7
100
AcDbLine
 10
805.107662
 20
85.645071
 30
0.0
 11
799.107662
 21
85.645071
 31
0.0
  0
LINE
  5
479
100
AcDbEntity
  8
0
  6
CONTINUOUS
 62
     7
100
AcDbLine
 10
805.107662
 20
167.045071
 30
0.0
 11
805.107662
 21
85.645071
 31
0.0
  0
LINE
  5
47A
100
AcDbEntity
  8
0
  6
CONTINUOUS
 62
     7
100
AcDbLine
 10
799.107662
 20
167.045071
 30
0.0
 11
805.107662
 21
167.045071
 31
0.0
  0
LINE
  5
47B
100
AcDbEntity
  8
0
  6
CONTINUOUS
 62
     7
100
AcDbLine
 10
639.05766
 20
92.769427
 30
0.0
 11
639.057662
 21
89.445071
 31
0.0
  0
LINE
  5
47C
100
AcDbEntity
  8
0
  6
CONTINUOUS
 62
     7
100
AcDbLine
 10
780.157664
 20
92.769427
 30
0.0
 11
639.05766
 21
92.769427
 31
0.0
  0
LINE
  5
47D
100
AcDbEntity
  8
0
  6
CONTINUOUS
 62
     7
100
AcDbLine
 10
780.157664
 20
92.769427
 30
0.0
 11
780.157662
 21
89.445071
 31
0.0
  0
ELLIPSE
  5
47E
100
AcDbEntity
  8
0
  6
CONTINUOUS
 62
     7
100
AcDbEllipse
 10
639.057662
 20
93.924902
 30
0.0
 11
0.0
 21
1.155475010403463
 31
0.0
210
0.0
220
0.0
230
1.0
 40
0.999848
 41
1.553340375378989
 42
3.141592653589793
  0
ELLIPSE
  5
47F
100
AcDbEntity
  8
0
  6
CONTINUOUS
 62
     7
100
AcDbEllipse
 10
780.157662
 20
93.924902
 30
0.0
 11
0.0
 21
1.155475010403534
 31
0.0
210
0.0
220
0.0
230
1.0
 40
0.999848
 41
3.141592653589793
 42
4.729844931800611
  0
LINE
  5
480
100
AcDbEntity
  8
0
  6
CONTINUOUS
 62
     7
100
AcDbLine
 10
780.089186
 20
164.045072
 30
0.0
 11
639.126138
 21
164.045072
 31
0.0
  0
LINE
  5
481
100
AcDbEntity
  8
0
  6
CONTINUOUS
 62
     7
100
AcDbLine
 10
775.164885
 20
167.045071
 30
0.0
 11
780.089185
 21
167.045071
 31
0.0
  0
LINE
  5
482
100
AcDbEntity
  8
0
  6
CONTINUOUS
 62
     7
100
AcDbLine
 10
639.126139
 20
167.045071
 30
0.0
 11
644.050439
 21
167.045071
 31
0.0
  0
LINE
  5
483
100
AcDbEntity
  8
0
  6
CONTINUOUS
 62
     7
100
AcDbLine
 10
656.16007
 20
165.045071
 30
0.0
 11
666.055254
 21
165.045071
 31
0.0
  0
LINE
  5
484
100
AcDbEntity
  8
0
  6
CONTINUOUS
 62
     7
100
AcDbLine
 10
758.107662
 20
165.045071
 30
0.0
 11
763.055254
 21
165.045071
 31
0.0
  0
LINE
  5
485
100
AcDbEntity
  8
0
  6
CONTINUOUS
 62
     7
100
AcDbLine
 10
753.16007
 20
165.045071
 30
0.0
 11
758.107662
 21
165.045071
 31
0.0
  0
LINE
  5
486
100
AcDbEntity
  8
0
  6
CONTINUOUS
 62
     7
100
AcDbLine
 10
754.857662
 20
167.045071
 30
0.0
 11
761.357662
 21
167.045071
 31
0.0
  0
LINE
  5
487
100
AcDbEntity
  8
0
  6
CONTINUOUS
 62
     7
100
AcDbLine
 10
657.857662
 20
167.045071
 30
0.0
 11
664.357662
 21
167.045071
 31
0.0
  0
LINE
  5
488
100
AcDbEntity
  8
0
  6
CONTINUOUS
 62
     7
100
AcDbLine
 10
653.860027
 20
167.045071
 30
0.0
 11
657.857662
 21
167.045071
 31
0.0
  0
LINE
  5
489
100
AcDbEntity
  8
0
  6
CONTINUOUS
 62
     7
100
AcDbLine
 10
664.357662
 20
167.045071
 30
0.0
 11
668.355297
 21
167.045071
 31
0.0
  0
LINE
  5
48A
100
AcDbEntity
  8
0
  6
CONTINUOUS
 62
     7
100
AcDbLine
 10
763.107662
 20
167.045071
 30
0.0
 11
765.355297
 21
167.045071
 31
0.0
  0
LINE
  5
48B
100
AcDbEntity
  8
0
  6
CONTINUOUS
 62
     7
100
AcDbLine
 10
761.357662
 20
167.045071
 30
0.0
 11
763.107662
 21
167.045071
 31
0.0
  0
LINE
  5
48C
100
AcDbEntity
  8
0
  6
CONTINUOUS
 62
     7
100
AcDbLine
 10
753.107662
 20
167.045071
 30
0.0
 11
754.857662
 21
167.045071
 31
0.0
  0
LINE
  5
48D
100
AcDbEntity
  8
0
  6
CONTINUOUS
 62
     7
100
AcDbLine
 10
750.860027
 20
167.045071
 30
0.0
 11
753.107662
 21
167.045071
 31
0.0
  0
LINE
  5
48E
100
AcDbEntity
  8
0
  6
CONTINUOUS
 62
     7
100
AcDbLine
 10
769.425648
 20
165.045071
 30
0.0
 11
769.054533
 21
164.045072
 31
0.0
  0
LINE
  5
48F
100
AcDbEntity
  8
0
  6
CONTINUOUS
 62
     7
100
AcDbLine
 10
775.048334
 20
165.045071
 30
0.0
 11
769.425648
 21
165.045071
 31
0.0
  0
LINE
  5
490
100
AcDbEntity
  8
0
  6
CONTINUOUS
 62
     7
100
AcDbLine
 10
644.166989
 20
165.045071
 30
0.0
 11
649.789676
 21
165.045071
 31
0.0
  0
LINE
  5
491
100
AcDbEntity
  8
0
  6
CONTINUOUS
 62
     7
100
AcDbLine
 10
649.789676
 20
165.045071
 30
0.0
 11
650.160791
 21
164.045072
 31
0.0
  0
LINE
  5
492
100
AcDbEntity
  8
0
  6
CONTINUOUS
 62
     7
100
AcDbLine
 10
769.425648
 20
165.045071
 30
0.0
 11
765.390207
 21
165.045074
 31
0.0
  0
LINE
  5
493
100
AcDbEntity
  8
0
  6
CONTINUOUS
 62
     7
100
AcDbLine
 10
649.789676
 20
165.045071
 30
0.0
 11
653.825117
 21
165.045074
 31
0.0
  0
LINE
  5
494
100
AcDbEntity
  8
0
  6
CONTINUOUS
 62
     7
100
AcDbLine
 10
672.571764
 20
165.045071
 30
0.0
 11
673.071762
 21
164.045072
 31
0.0
  0
LINE
  5
495
100
AcDbEntity
  8
0
  6
CONTINUOUS
 62
     7
100
AcDbLine
 10
672.571764
 20
165.045071
 30
0.0
 11
668.390207
 21
165.045071
 31
0.0
  0
LINE
  5
496
100
AcDbEntity
  8
0
  6
CONTINUOUS
 62
     7
100
AcDbLine
 10
746.64356
 20
165.045071
 30
0.0
 11
746.143562
 21
164.045072
 31
0.0
  0
LINE
  5
497
100
AcDbEntity
  8
0
  6
CONTINUOUS
 62
     7
100
AcDbLine
 10
746.64356
 20
165.045071
 30
0.0
 11
750.825117
 21
165.045071
 31
0.0
  0
LINE
  5
498
100
AcDbEntity
  8
0
  6
CONTINUOUS
 62
     7
100
AcDbLine
 10
709.607662
 20
165.045074
 30
0.0
 11
709.607662
 21
164.045072
 31
0.0
  0
LINE
  5
499
100
AcDbEntity
  8
0
  6
CONTINUOUS
 62
     7
100
AcDbLine
 10
672.571764
 20
165.045071
 30
0.0
 11
709.607662
 21
165.045074
 31
0.0
  0
LINE
  5
49A
100
AcDbEntity
  8
0
  6
CONTINUOUS
 62
     7
100
AcDbLine
 10
746.64356
 20
165.045071
 30
0.0
 11
709.607662
 21
165.045074
 31
0.0
  0
LINE
  5
49B
100
AcDbEntity
  8
0
  6
CONTINUOUS
 62
     7
100
AcDbLine
 10
614.107662
 20
167.045071
 30
0.0
 11
614.107662
 21
93.945071
 31
0.0
  0
LINE
  5
49C
100
AcDbEntity
  8
0
  6
CONTINUOUS
 62
     7
100
AcDbLine
 10
805.107662
 20
167.045071
 30
0.0
 11
805.107662
 21
93.945071
 31
0.0
  0
LINE
  5
49D
100
AcDbEntity
  8
0
  6
CONTINUOUS
 62
     7
100
AcDbLine
 10
805.107662
 20
93.945071
 30
0.0
 11
805.107662
 21
89.445071
 31
0.0
  0
LINE
  5
49E
100
AcDbEntity
  8
0
  6
CONTINUOUS
 62
     7
100
AcDbLine
 10
614.107662
 20
93.945071
 30
0.0
 11
614.107662
 21
89.445071
 31
0.0
  0
INSERT
  5
4A6
100
AcDbEntity
  8
0
  6
CONTINUOUS
 62
     7
100
AcDbBlockReference
  2
SW_CENTERMARKSYMBOL_4
 10
639.057662
 20
93.945071
 30
0.0
 41
5.0
 42
5.0
 43
5.0
  0
INSERT
  5
4AE
100
AcDbEntity
  8
0
  6
CONTINUOUS
 62
     7
100
AcDbBlockReference
  2
SW_CENTERMARKSYMBOL_5
 10
780.157662
 20
93.945071
 30
0.0
 41
5.0
 42
5.0
 43
5.0
  0
LINE
  5
4B7
100
AcDbEntity
  8
0
  6
CONTINUOUS
 62
     7
100
AcDbLine
 10
944.819166
 20
315.327525
 30
0.0
 11
947.819165
 21
315.27516
 31
0.0
  0
LINE
  5
4B8
100
AcDbEntity
  8
0
  6
CONTINUOUS
 62
     7
100
AcDbLine
 10
944.819166
 20
487.327525
 30
0.0
 11
947.819165
 21
487.275158
 31
0.0
  0
LINE
  5
4B9
100
AcDbEntity
  8
0
  6
CONTINUOUS
 62
     7
100
AcDbLine
 10
947.819165
 20
329.875161
 30
0.0
 11
944.819166
 21
329.822794
 31
0.0
  0
LINE
  5
4BA
100
AcDbEntity
  8
0
  6
CONTINUOUS
 62
     7
100
AcDbLine
 10
947.819165
 20
501.875159
 30
0.0
 11
944.819166
 21
501.822794
 31
0.0
  0
LINE
  5
4BD
100
AcDbEntity
  8
0
  6
CONTINUOUS
 62
     7
100
AcDbLine
 10
947.819165
 20
314.075162
 30
0.0
 11
944.819166
 21
314.022794
 31
0.0
  0
LINE
  5
4BE
100
AcDbEntity
  8
0
  6
CONTINUOUS
 62
     7
100
AcDbLine
 10
944.819166
 20
503.127525
 30
0.0
 11
947.819165
 21
503.075157
 31
0.0
  0
LINE
  5
4BF
100
AcDbEntity
  8
0
  6
CONTINUOUS
 62
     7
100
AcDbLine
 10
1026.219166
 20
294.57516
 30
0.0
 11
1026.219166
 21
288.57516
 31
0.0
  0
LINE
  5
4C0
100
AcDbEntity
  8
0
  6
CONTINUOUS
 62
     7
100
AcDbLine
 10
1026.219166
 20
288.57516
 30
0.0
 11
944.819166
 21
288.57516
 31
0.0
  0
LINE
  5
4C1
100
AcDbEntity
  8
0
  6
CONTINUOUS
 62
     7
100
AcDbLine
 10
944.819166
 20
294.57516
 30
0.0
 11
1026.219166
 21
294.57516
 31
0.0
  0
LINE
  5
4C2
100
AcDbEntity
  8
0
  6
CONTINUOUS
 62
     7
100
AcDbLine
 10
944.819166
 20
288.57516
 30
0.0
 11
944.819166
 21
294.57516
 31
0.0
  0
LINE
  5
4C4
100
AcDbEntity
  8
0
  6
CONTINUOUS
 62
     7
100
AcDbLine
 10
1017.919166
 20
506.780279
 30
0.0
 11
947.819165
 21
505.556685
 31
0.0
  0
LINE
  5
4C7
100
AcDbEntity
  8
0
  6
CONTINUOUS
 62
     7
100
AcDbLine
 10
1017.919166
 20
510.12516
 30
0.0
 11
944.819167
 21
510.125158
 31
0.0
  0
LINE
  5
4C8
100
AcDbEntity
  8
0
  6
CONTINUOUS
 62
     7
100
AcDbLine
 10
944.819167
 20
307.025162
 30
0.0
 11
1017.919166
 21
307.02516
 31
0.0
  0
LINE
  5
4C9
100
AcDbEntity
  8
0
  6
CONTINUOUS
 62
     7
100
AcDbLine
 10
944.819166
 20
311.593637
 30
0.0
 11
947.819165
 21
311.593634
 31
0.0
  0
LINE
  5
4CA
100
AcDbEntity
  8
0
  6
CONTINUOUS
 62
     7
100
AcDbLine
 10
1017.919166
 20
310.37004
 30
0.0
 11
947.819165
 21
311.593634
 31
0.0
  0
LINE
  5
4CB
100
AcDbEntity
  8
0
  6
CONTINUOUS
 62
     7
100
AcDbLine
 10
1017.919166
 20
310.37004
 30
0.0
 11
1017.919166
 21
307.02516
 31
0.0
  0
LINE
  5
4CC
100
AcDbEntity
  8
0
  6
CONTINUOUS
 62
     7
100
AcDbLine
 10
944.819167
 20
307.025162
 30
0.0
 11
944.819166
 21
311.593637
 31
0.0
  0
LINE
  5
4CD
100
AcDbEntity
  8
0
  6
CONTINUOUS
 62
     7
100
AcDbLine
 10
944.819167
 20
510.125158
 30
0.0
 11
944.819166
 21
522.57516
 31
0.0
  0
LINE
  5
4CE
100
AcDbEntity
  8
0
  6
CONTINUOUS
 62
     7
100
AcDbLine
 10
1026.219166
 20
522.57516
 30
0.0
 11
944.819166
 21
522.57516
 31
0.0
  0
LINE
  5
4CF
100
AcDbEntity
  8
0
  6
CONTINUOUS
 62
     7
100
AcDbLine
 10
1026.219166
 20
522.57516
 30
0.0
 11
1026.219166
 21
294.57516
 31
0.0
  0
ARC
  5
4D0
100
AcDbEntity
  8
0
  6
CONTINUOUS
 62
     7
100
AcDbCircle
 10
1017.919166
 20
311.52516
 30
0.0
 40
4.5
100
AcDbArc
 50
270.0
 51
0.0
  0
LINE
  5
4D1
100
AcDbEntity
  8
0
  6
CONTINUOUS
 62
     7
100
AcDbLine
 10
1022.419166
 20
311.52516
 30
0.0
 11
1022.419166
 21
505.62516
 31
0.0
  0
ARC
  5
4D2
100
AcDbEntity
  8
0
  6
CONTINUOUS
 62
     7
100
AcDbCircle
 10
1017.919166
 20
505.62516
 30
0.0
 40
4.5
100
AcDbArc
 50
0.0
 51
90.0
  0
LINE
  5
4D3
100
AcDbEntity
  8
0
  6
CONTINUOUS
 62
     7
100
AcDbLine
 10
944.819166
 20
294.57516
 30
0.0
 11
944.819167
 21
307.025162
 31
0.0
  0
LINE
  5
4D4
100
AcDbEntity
  8
0
  6
CONTINUOUS
 62
     7
100
AcDbLine
 10
1026.219166
 20
528.57516
 30
0.0
 11
1026.219166
 21
522.57516
 31
0.0
  0
LINE
  5
4D5
100
AcDbEntity
  8
0
  6
CONTINUOUS
 62
     7
100
AcDbLine
 10
944.819166
 20
522.57516
 30
0.0
 11
944.819166
 21
528.57516
 31
0.0
  0
LINE
  5
4D6
100
AcDbEntity
  8
0
  6
CONTINUOUS
 62
     7
100
AcDbLine
 10
944.819166
 20
528.57516
 30
0.0
 11
1026.219166
 21
528.57516
 31
0.0
  0
ELLIPSE
  5
4D7
100
AcDbEntity
  8
0
  6
CONTINUOUS
 62
     7
100
AcDbEllipse
 10
1017.939335
 20
311.52516
 30
0.0
 11
1.155475010403534
 21
0.0
 31
0.0
210
0.0
220
0.0
230
1.0
 40
0.999848
 41
4.694933028968856
 42
6.283185307179586
  0
LINE
  5
4D8
100
AcDbEntity
  8
0
  6
CONTINUOUS
 62
     7
100
AcDbLine
 10
1019.09481
 20
311.525156
 30
0.0
 11
1022.419166
 21
311.52516
 31
0.0
  0
LINE
  5
4D9
100
AcDbEntity
  8
0
  6
CONTINUOUS
 62
     7
100
AcDbLine
 10
1019.09481
 20
505.625163
 30
0.0
 11
1022.419166
 21
505.62516
 31
0.0
  0
ELLIPSE
  5
4DA
100
AcDbEntity
  8
0
  6
CONTINUOUS
 62
     7
100
AcDbEllipse
 10
1017.939335
 20
505.62516
 30
0.0
 11
1.155475010403534
 21
0.0
 31
0.0
210
0.0
220
0.0
230
1.0
 40
0.999848
 41
0.0
 42
1.588252278210741
  0
LINE
  5
4DB
100
AcDbEntity
  8
0
  6
CONTINUOUS
 62
     7
100
AcDbLine
 10
1019.09481
 20
505.625163
 30
0.0
 11
1019.09481
 21
311.525156
 31
0.0
  0
LINE
  5
4DC
100
AcDbEntity
  8
0
  6
CONTINUOUS
 62
     7
100
AcDbLine
 10
947.819165
 20
505.556685
 30
0.0
 11
947.819165
 21
311.593634
 31
0.0
  0
LINE
  5
4DF
100
AcDbEntity
  8
0
  6
CONTINUOUS
 62
     7
100
AcDbLine
 10
944.819166
 20
491.32516
 30
0.0
 11
944.819166
 21
497.82516
 31
0.0
  0
LINE
  5
4E0
100
AcDbEntity
  8
0
  6
CONTINUOUS
 62
     7
100
AcDbLine
 10
944.819166
 20
319.32516
 30
0.0
 11
944.819166
 21
325.82516
 31
0.0
  0
LINE
  5
4E1
100
AcDbEntity
  8
0
  6
CONTINUOUS
 62
     7
100
AcDbLine
 10
944.819166
 20
315.327525
 30
0.0
 11
944.819166
 21
319.32516
 31
0.0
  0
LINE
  5
4E2
100
AcDbEntity
  8
0
  6
CONTINUOUS
 62
     7
100
AcDbLine
 10
944.819166
 20
487.327525
 30
0.0
 11
944.819166
 21
491.32516
 31
0.0
  0
LINE
  5
4E3
100
AcDbEntity
  8
0
  6
CONTINUOUS
 62
     7
100
AcDbLine
 10
944.819166
 20
325.82516
 30
0.0
 11
944.819166
 21
329.822794
 31
0.0
  0
LINE
  5
4E4
100
AcDbEntity
  8
0
  6
CONTINUOUS
 62
     7
100
AcDbLine
 10
944.819166
 20
497.82516
 30
0.0
 11
944.819166
 21
501.822794
 31
0.0
  0
LINE
  5
4E8
100
AcDbEntity
  8
0
  6
CONTINUOUS
 62
     7
100
AcDbLine
 10
946.819163
 20
329.857704
 30
0.0
 11
946.819166
 21
333.933696
 31
0.0
  0
LINE
  5
4EA
100
AcDbEntity
  8
0
  6
CONTINUOUS
 62
     7
100
AcDbLine
 10
946.819163
 20
487.292615
 30
0.0
 11
946.819166
 21
483.216623
 31
0.0
  0
LINE
  5
4EB
100
AcDbEntity
  8
0
  6
CONTINUOUS
 62
     7
100
AcDbLine
 10
944.819166
 20
311.593637
 30
0.0
 11
944.819166
 21
314.022794
 31
0.0
  0
LINE
  5
4EC
100
AcDbEntity
  8
0
  6
CONTINUOUS
 62
     7
100
AcDbLine
 10
944.819166
 20
503.127525
 30
0.0
 11
944.819167
 21
510.125158
 31
0.0
  0
LINE
  5
4EE
100
AcDbEntity
  8
0
  6
CONTINUOUS
 62
     7
100
AcDbLine
 10
946.819166
 20
476.145867
 30
0.0
 11
946.819166
 21
483.216623
 31
0.0
  0
LINE
  5
4F0
100
AcDbEntity
  8
0
  6
CONTINUOUS
 62
     7
100
AcDbLine
 10
946.819166
 20
341.004452
 30
0.0
 11
946.819166
 21
333.933696
 31
0.0
  0
LINE
  5
4F2
100
AcDbEntity
  8
0
  6
CONTINUOUS
 62
     7
100
AcDbLine
 10
946.819166
 20
341.004452
 30
0.0
 11
946.819163
 21
408.57516
 31
0.0
  0
LINE
  5
4F3
100
AcDbEntity
  8
0
  6
CONTINUOUS
 62
     7
100
AcDbLine
 10
946.819166
 20
476.145867
 30
0.0
 11
946.819163
 21
408.57516
 31
0.0
  0
LINE
  5
50B
100
AcDbEntity
  8
0
  6
HIDDEN
 62
     7
100
AcDbLine
 10
1011.719166
 20
294.57516
 30
0.0
 11
1026.219166
 21
294.57516
 31
0.0
  0
LINE
  5
52C
100
AcDbEntity
  8
0
  6
HIDDEN
 62
     1
100
AcDbLine
 10
950.119166
 20
316.644254
 30
0.0
 11
950.119166
 21
313.700078
 31
0.0
  0
LINE
  5
52D
100
AcDbEntity
  8
0
  6
HIDDEN
 62
     1
100
AcDbLine
 10
950.119166
 20
500.506066
 30
0.0
 11
950.119166
 21
316.644254
 31
0.0
  0
LINE
  5
52E
100
AcDbEntity
  8
0
  6
HIDDEN
 62
     1
100
AcDbLine
 10
950.119166
 20
500.506066
 30
0.0
 11
950.119166
 21
503.450241
 31
0.0
  0
LINE
  5
537
100
AcDbEntity
  8
0
  6
HIDDEN
 62
     1
100
AcDbLine
 10
956.319166
 20
319.223528
 30
0.0
 11
956.319166
 21
325.926792
 31
0.0
  0
LINE
  5
538
100
AcDbEntity
  8
0
  6
HIDDEN
 62
     1
100
AcDbLine
 10
956.319166
 20
491.223528
 30
0.0
 11
956.319166
 21
497.926792
 31
0.0
  0
LINE
  5
53F
100
AcDbEntity
  8
0
  6
HIDDEN
 62
     1
100
AcDbLine
 10
957.619166
 20
411.859706
 30
0.0
 11
957.619166
 21
405.290613
 31
0.0
  0
LINE
  5
542
100
AcDbEntity
  8
0
  6
HIDDEN
 62
     1
100
AcDbLine
 10
957.619166
 20
474.359706
 30
0.0
 11
957.619166
 21
467.790613
 31
0.0
  0
LINE
  5
545
100
AcDbEntity
  8
0
  6
HIDDEN
 62
     1
100
AcDbLine
 10
957.619166
 20
349.359706
 30
0.0
 11
957.619166
 21
342.790613
 31
0.0
  0
LINE
  5
555
100
AcDbEntity
  8
0
  6
HIDDEN
 62
     1
100
AcDbLine
 10
957.619166
 20
477.57516
 30
0.0
 11
957.619166
 21
474.359706
 31
0.0
  0
LINE
  5
556
100
AcDbEntity
  8
0
  6
HIDDEN
 62
     1
100
AcDbLine
 10
950.119167
 20
352.706072
 30
0.0
 11
957.619167
 21
352.575158
 31
0.0
  0
LINE
  5
557
100
AcDbEntity
  8
0
  6
HIDDEN
 62
     1
100
AcDbLine
 10
957.619167
 20
352.575158
 30
0.0
 11
957.619166
 21
349.359706
 31
0.0
  0
LINE
  5
558
100
AcDbEntity
  8
0
  6
HIDDEN
 62
     1
100
AcDbLine
 10
950.119167
 20
464.444247
 30
0.0
 11
957.619167
 21
464.575161
 31
0.0
  0
LINE
  5
559
100
AcDbEntity
  8
0
  6
HIDDEN
 62
     1
100
AcDbLine
 10
957.619166
 20
467.790613
 30
0.0
 11
957.619167
 21
464.575161
 31
0.0
  0
LINE
  5
55A
100
AcDbEntity
  8
0
  6
HIDDEN
 62
     1
100
AcDbLine
 10
950.119167
 20
415.206072
 30
0.0
 11
957.619167
 21
415.07516
 31
0.0
  0
LINE
  5
55B
100
AcDbEntity
  8
0
  6
HIDDEN
 62
     1
100
AcDbLine
 10
957.619167
 20
415.07516
 30
0.0
 11
957.619166
 21
411.859706
 31
0.0
  0
LINE
  5
55D
100
AcDbEntity
  8
0
  6
HIDDEN
 62
     1
100
AcDbLine
 10
957.619166
 20
342.790613
 30
0.0
 11
957.619166
 21
339.57516
 31
0.0
  0
LINE
  5
55E
100
AcDbEntity
  8
0
  6
HIDDEN
 62
     1
100
AcDbLine
 10
950.119167
 20
401.944247
 30
0.0
 11
957.619167
 21
402.075159
 31
0.0
  0
LINE
  5
55F
100
AcDbEntity
  8
0
  6
HIDDEN
 62
     1
100
AcDbLine
 10
957.619166
 20
405.290613
 30
0.0
 11
957.619167
 21
402.075159
 31
0.0
  0
LINE
  5
57E
100
AcDbEntity
  8
0
  6
HIDDEN
 62
     1
100
AcDbLine
 10
957.619166
 20
504.444247
 30
0.0
 11
957.619166
 21
497.706073
 31
0.0
  0
LINE
  5
57F
100
AcDbEntity
  8
0
  6
HIDDEN
 62
     1
100
AcDbLine
 10
957.619166
 20
319.444247
 30
0.0
 11
957.619166
 21
312.706073
 31
0.0
  0
LINE
  5
588
100
AcDbEntity
  8
0
  6
HIDDEN
 62
     1
100
AcDbLine
 10
957.619166
 20
486.944247
 30
0.0
 11
957.619166
 21
480.206073
 31
0.0
  0
LINE
  5
589
100
AcDbEntity
  8
0
  6
HIDDEN
 62
     1
100
AcDbLine
 10
957.619166
 20
336.944247
 30
0.0
 11
957.619166
 21
330.206073
 31
0.0
  0
LINE
  5
5B2
100
AcDbEntity
  8
0
  6
HIDDEN
 62
     1
100
AcDbLine
 10
957.619166
 20
477.57516
 30
0.0
 11
957.619166
 21
480.206073
 31
0.0
  0
LINE
  5
5B3
100
AcDbEntity
  8
0
  6
HIDDEN
 62
     1
100
AcDbLine
 10
957.619166
 20
336.944247
 30
0.0
 11
957.619166
 21
339.57516
 31
0.0
  0
LINE
  5
5EF
100
AcDbEntity
  8
0
  6
HIDDEN
 62
     7
100
AcDbLine
 10
944.819166
 20
522.57516
 30
0.0
 11
1026.219166
 21
522.57516
 31
0.0
  0
LINE
  5
5F1
100
AcDbEntity
  8
0
  6
HIDDEN
 62
     7
100
AcDbLine
 10
1026.219166
 20
294.57516
 30
0.0
 11
944.819166
 21
294.57516
 31
0.0
  0
LINE
  5
5F3
100
AcDbEntity
  8
0
  6
HIDDEN
 62
     7
100
AcDbLine
 10
1026.219166
 20
294.57516
 30
0.0
 11
1011.719166
 21
294.57516
 31
0.0
  0
LINE
  5
5F7
100
AcDbEntity
  8
0
  6
HIDDEN
 62
     7
100
AcDbLine
 10
1017.919166
 20
310.37004
 30
0.0
 11
1017.919166
 21
307.02516
 31
0.0
  0
LINE
  5
5F8
100
AcDbEntity
  8
0
  6
HIDDEN
 62
     7
100
AcDbLine
 10
1019.09481
 20
311.525156
 30
0.0
 11
1022.419166
 21
311.52516
 31
0.0
  0
LINE
  5
5F9
100
AcDbEntity
  8
0
  6
HIDDEN
 62
     7
100
AcDbLine
 10
1019.09481
 20
505.625163
 30
0.0
 11
1022.419166
 21
505.62516
 31
0.0
  0
LINE
  5
607
100
AcDbEntity
  8
0
  6
HIDDEN
 62
     1
100
AcDbLine
 10
956.319166
 20
325.926792
 30
0.0
 11
950.119167
 21
326.035013
 31
0.0
  0
LINE
  5
608
100
AcDbEntity
  8
0
  6
HIDDEN
 62
     1
100
AcDbLine
 10
950.119167
 20
491.115307
 30
0.0
 11
956.319166
 21
491.223528
 31
0.0
  0
LINE
  5
628
100
AcDbEntity
  8
0
  6
HIDDEN
 62
     1
100
AcDbLine
 10
950.119167
 20
497.575161
 30
0.0
 11
957.619166
 21
497.706073
 31
0.0
  0
LINE
  5
62A
100
AcDbEntity
  8
0
  6
HIDDEN
 62
     1
100
AcDbLine
 10
950.119167
 20
312.575159
 30
0.0
 11
957.619166
 21
312.706073
 31
0.0
  0
LINE
  5
62B
100
AcDbEntity
  8
0
  6
HIDDEN
 62
     1
100
AcDbLine
 10
957.619166
 20
319.444247
 30
0.0
 11
950.119167
 21
319.575158
 31
0.0
  0
LINE
  5
639
100
AcDbEntity
  8
0
  6
HIDDEN
 62
     1
100
AcDbLine
 10
957.619166
 20
486.944247
 30
0.0
 11
950.119167
 21
487.075162
 31
0.0
  0
LINE
  5
63A
100
AcDbEntity
  8
0
  6
HIDDEN
 62
     1
100
AcDbLine
 10
950.119167
 20
330.075157
 30
0.0
 11
957.619166
 21
330.206073
 31
0.0
  0
TEXT
  5
6DA
100
AcDbEntity
  8
0
100
AcDbText
 10
30.422518
 20
691.658939
 30
0.0
 40
10.0
  1
FIBOX Tempo 2419 Base
100
AcDbText
  0
ENDSEC
  0
SECTION
  2
OBJECTS
  0
DICTIONARY
  5
C
100
AcDbDictionary
  3
ACAD_GROUP
350
D
  3
ACAD_PLOTSTYLENAME
350
E
  3
ACAD_MLINESTYLE
350
17
  3
ACAD_PLOTSETTINGS
350
19
  3
ACAD_LAYOUT
350
1A
  3
ACDBHEADERROUNDTRIPXREC
350
68B
  0
DICTIONARY
  5
6BD
100
AcDbDictionary
280
     1
  3
ACAD_XREC_ROUNDTRIP
360
6BE
  0
DICTIONARY
  5
6BF
100
AcDbDictionary
280
     1
  3
ACAD_XREC_ROUNDTRIP
360
6C0
  0
DICTIONARY
  5
6C1
100
AcDbDictionary
280
     1
  3
ACAD_XREC_ROUNDTRIP
360
6C2
  0
DICTIONARY
  5
6BB
100
AcDbDictionary
280
     1
  3
ACAD_XREC_ROUNDTRIP
360
6BC
  0
DICTIONARY
  5
6C5
100
AcDbDictionary
280
     1
  3
ACAD_XREC_ROUNDTRIP
360
6C6
  0
DICTIONARY
  5
6B2
100
AcDbDictionary
280
     1
  3
ACAD_LAYOUTSELFREF
360
6B3
  3
ACAD_XREC_ROUNDTRIP
360
6B8
  0
DICTIONARY
  5
6B0
100
AcDbDictionary
280
     1
  3
ACAD_LAYOUTSELFREF
360
6B1
  3
ACAD_XREC_ROUNDTRIP
360
6B9
  0
DICTIONARY
  5
6B4
100
AcDbDictionary
280
     1
  3
ACAD_LAYOUTSELFREF
360
6B5
  3
ACAD_XREC_ROUNDTRIP
360
6BA
  0
DICTIONARY
  5
D
102
{ACAD_REACTORS
330
C
102
}
100
AcDbDictionary
  0
ACAD_PROXY_OBJECT
  5
E
102
{ACAD_XDICTIONARY
360
6AC
102
}
102
{ACAD_REACTORS
330
C
102
}
100
AcDbProxyObject
 90
      499
 91
      500
 93
       86
310
4050100419393D49350530
350
F
340
F
 94
        0
  0
DICTIONARY
  5
17
102
{ACAD_XDICTIONARY
360
6AE
102
}
102
{ACAD_REACTORS
330
C
102
}
100
AcDbDictionary
  3
STANDARD
350
18
  0
DICTIONARY
  5
19
102
{ACAD_REACTORS
330
C
102
}
100
AcDbDictionary
  0
DICTIONARY
  5
1A
102
{ACAD_XDICTIONARY
360
6B6
102
}
102
{ACAD_REACTORS
330
C
102
}
100
AcDbDictionary
  3
LAYOUT1
350
1E
  3
MODEL
350
22
  3
LAYOUT2
350
26
  0
DICTIONARY
  5
68B
102
{ACAD_REACTORS
330
C
102
}
100
AcDbDictionary
  3
TSTACKALIGN
350
68C
  3
TSTACKSIZE
350
68D
  3
HYPERLINKBASE
350
68E
  3
STYLESHEET
350
68F
  3
LAYOUTDICT
350
690
  3
PLOTSETDICT
350
691
  3
PLOTSTYLNAMDICT
350
692
  3
LWETCUNION
350
693
  3
INSUNITS
350
694
  3
CEPSNTYPE
350
695
  3
FINGERPRINTGUID
350
696
  3
VERSIONGUID
350
697
  3
PSVPSCALE
350
698
  3
PUCSORTHOREF
350
699
  3
PUCSORTHOVIEW
350
69A
  3
PUCSBASE
350
69B
  3
PUCSORGTOP
350
69C
  3
PUCSORGBOTTOM
350
69D
  3
PUCSORGLEFT
350
69E
  3
PUCSORGRIGHT
350
69F
  3
PUCSORGFRONT
350
6A0
  3
PUCSORGBACK
350
6A1
  3
UCSORTHOREF
350
6A2
  3
UCSORTHOVIEW
350
6A3
  3
UCSBASE
350
6A4
  3
UCSORGTOP
350
6A5
  3
UCSORGBOTTOM
350
6A6
  3
UCSORGLEFT
350
6A7
  3
UCSORGRIGHT
350
6A8
  3
UCSORGFRONT
350
6A9
  3
UCSORGBACK
350
6AA
  3
DIMSTYLEDATA
350
6AB
  0
XRECORD
  5
6BE
102
{ACAD_REACTORS
330
6BD
102
}
100
AcDbXrecord
102
EXTNAMES
  1
BYBLOCK
  2
ByBlock
  0
XRECORD
  5
6C0
102
{ACAD_REACTORS
330
6BF
102
}
100
AcDbXrecord
102
EXTNAMES
  1
BYLAYER
  2
ByLayer
  0
XRECORD
  5
6C2
102
{ACAD_REACTORS
330
6C1
102
}
100
AcDbXrecord
102
EXTNAMES
  1
CONTINUOUS
  2
Continuous
  0
XRECORD
  5
6BC
102
{ACAD_REACTORS
330
6BB
102
}
100
AcDbXrecord
102
EXTNAMES
  1
STANDARD
  2
Standard
  0
XRECORD
  5
6C6
102
{ACAD_REACTORS
330
6C5
102
}
100
AcDbXrecord
102
ACADR14ROUNDTRIP
1000
DSTYLE
1002
{
1070
   278
 70
    44
1002
}
  0
XRECORD
  5
6B3
102
{ACAD_REACTORS
330
6B2
102
}
100
AcDbXrecord
340
1F
  0
XRECORD
  5
6B8
102
{ACAD_REACTORS
330
6B2
102
}
100
AcDbXrecord
102
EXTNAMES
  1
*MODEL_SPACE
  2
*Model_Space
  0
XRECORD
  5
6B1
102
{ACAD_REACTORS
330
6B0
102
}
100
AcDbXrecord
340
1B
  0
XRECORD
  5
6B9
102
{ACAD_REACTORS
330
6B0
102
}
100
AcDbXrecord
102
EXTNAMES
  1
*PAPER_SPACE
  2
*Paper_Space
  0
XRECORD
  5
6B5
102
{ACAD_REACTORS
330
6B4
102
}
100
AcDbXrecord
340
23
  0
XRECORD
  5
6BA
102
{ACAD_REACTORS
330
6B4
102
}
100
AcDbXrecord
102
EXTNAMES
  1
*PAPER_SPACE
  2
*Paper_Space0
  0
DICTIONARY
  5
6AC
100
AcDbDictionary
280
     1
  3
ACAD_XREC_ROUNDTRIP
360
6AD
  0
ACAD_PROXY_OBJECT
  5
F
102
{ACAD_REACTORS
330
E
102
}
100
AcDbProxyObject
 90
      499
 91
      504
 93
        0
 94
        0
  0
DICTIONARY
  5
6AE
100
AcDbDictionary
280
     1
  3
ACAD_XREC_ROUNDTRIP
360
6AF
  0
MLINESTYLE
  5
18
102
{ACAD_REACTORS
330
17
102
}
100
AcDbMlineStyle
  2
STANDARD
 70
     0
  3

 62
   256
 51
90.0
 52
90.0
 71
     2
 49
0.5
 62
   256
  6
BYLAYER
 49
-0.5
 62
   256
  6
BYLAYER
  0
DICTIONARY
  5
6B6
100
AcDbDictionary
280
     1
  3
ACAD_XREC_ROUNDTRIP
360
6B7
  0
ACAD_PROXY_OBJECT
  5
1E
102
{ACAD_REACTORS
330
1A
102
}
100
AcDbProxyObject
 90
      499
 91
      505
 93
      468
310
A2C00AAAAAA416AA591069074C61796F75743140501A80000000000000000000000000000000000000000000000000000000000000002A6A6AAAA0
330
1B
330
0
340
0
340
0
 94
        0
  0
ACAD_PROXY_OBJECT
  5
22
102
{ACAD_REACTORS
330
1A
102
}
100
AcDbProxyObject
 90
      499
 91
      505
 93
      556
310
A2C01AAAAAAAAA5A69054D6F64656C901A80000000000000000000000000000000000000000000000000000000000000002A6A6AA80000000000407A400000000000241C9020
330
1F
330
0
340
0
340
0
 94
        0
  0
ACAD_PROXY_OBJECT
  5
26
102
{ACAD_REACTORS
330
1A
102
}
100
AcDbProxyObject
 90
      499
 91
      505
 93
      468
310
A2C00AAAAAA416AA591069074C61796F75743240901A80000000000000000000000000000000000000000000000000000000000000002A6A6AAAA0
330
23
330
0
340
0
340
0
 94
        0
  0
XRECORD
  5
68C
102
{ACAD_REACTORS
330
68B
102
}
100
AcDbXrecord
 90
        1
  0
XRECORD
  5
68D
102
{ACAD_REACTORS
330
68B
102
}
100
AcDbXrecord
 90
       70
  0
XRECORD
  5
68E
102
{ACAD_REACTORS
330
68B
102
}
100
AcDbXrecord
  1

  0
XRECORD
  5
68F
102
{ACAD_REACTORS
330
68B
102
}
100
AcDbXrecord
  1

  0
XRECORD
  5
690
102
{ACAD_REACTORS
330
68B
102
}
100
AcDbXrecord
340
1A
  0
XRECORD
  5
691
102
{ACAD_REACTORS
330
68B
102
}
100
AcDbXrecord
340
19
  0
XRECORD
  5
692
102
{ACAD_REACTORS
330
68B
102
}
100
AcDbXrecord
340
E
  0
XRECORD
  5
693
102
{ACAD_REACTORS
330
68B
102
}
100
AcDbXrecord
 90
    10269
  0
XRECORD
  5
694
102
{ACAD_REACTORS
330
68B
102
}
100
AcDbXrecord
 90
        4
  0
XRECORD
  5
695
102
{ACAD_REACTORS
330
68B
102
}
100
AcDbXrecord
 90
        0
  0
XRECORD
  5
696
102
{ACAD_REACTORS
330
68B
102
}
100
AcDbXrecord
  1
{E5CCB5CC-2126-4563-AD02-23AD0A51CA8B}
  0
XRECORD
  5
697
102
{ACAD_REACTORS
330
68B
102
}
100
AcDbXrecord
  1
{FAEB1C32-E019-11D5-929B-00C0DF256EC4}
  0
XRECORD
  5
698
102
{ACAD_REACTORS
330
68B
102
}
100
AcDbXrecord
 40
0.0
  0
XRECORD
  5
699
102
{ACAD_REACTORS
330
68B
102
}
100
AcDbXrecord
340
0
  0
XRECORD
  5
69A
102
{ACAD_REACTORS
330
68B
102
}
100
AcDbXrecord
 70
     0
  0
XRECORD
  5
69B
102
{ACAD_REACTORS
330
68B
102
}
100
AcDbXrecord
340
0
  0
XRECORD
  5
69C
102
{ACAD_REACTORS
330
68B
102
}
100
AcDbXrecord
 10
0.0
 20
0.0
 30
0.0
  0
XRECORD
  5
69D
102
{ACAD_REACTORS
330
68B
102
}
100
AcDbXrecord
 10
0.0
 20
0.0
 30
0.0
  0
XRECORD
  5
69E
102
{ACAD_REACTORS
330
68B
102
}
100
AcDbXrecord
 10
0.0
 20
0.0
 30
0.0
  0
XRECORD
  5
69F
102
{ACAD_REACTORS
330
68B
102
}
100
AcDbXrecord
 10
0.0
 20
0.0
 30
0.0
  0
XRECORD
  5
6A0
102
{ACAD_REACTORS
330
68B
102
}
100
AcDbXrecord
 10
0.0
 20
0.0
 30
0.0
  0
XRECORD
  5
6A1
102
{ACAD_REACTORS
330
68B
102
}
100
AcDbXrecord
 10
0.0
 20
0.0
 30
0.0
  0
XRECORD
  5
6A2
102
{ACAD_REACTORS
330
68B
102
}
100
AcDbXrecord
340
0
  0
XRECORD
  5
6A3
102
{ACAD_REACTORS
330
68B
102
}
100
AcDbXrecord
 70
     0
  0
XRECORD
  5
6A4
102
{ACAD_REACTORS
330
68B
102
}
100
AcDbXrecord
340
0
  0
XRECORD
  5
6A5
102
{ACAD_REACTORS
330
68B
102
}
100
AcDbXrecord
 10
0.0
 20
0.0
 30
0.0
  0
XRECORD
  5
6A6
102
{ACAD_REACTORS
330
68B
102
}
100
AcDbXrecord
 10
0.0
 20
0.0
 30
0.0
  0
XRECORD
  5
6A7
102
{ACAD_REACTORS
330
68B
102
}
100
AcDbXrecord
 10
0.0
 20
0.0
 30
0.0
  0
XRECORD
  5
6A8
102
{ACAD_REACTORS
330
68B
102
}
100
AcDbXrecord
 10
0.0
 20
0.0
 30
0.0
  0
XRECORD
  5
6A9
102
{ACAD_REACTORS
330
68B
102
}
100
AcDbXrecord
 10
0.0
 20
0.0
 30
0.0
  0
XRECORD
  5
6AA
102
{ACAD_REACTORS
330
68B
102
}
100
AcDbXrecord
 10
0.0
 20
0.0
 30
0.0
  0
XRECORD
  5
6AB
102
{ACAD_REACTORS
330
68B
102
}
100
AcDbXrecord
1000
DSTYLE
1002
{
1070
   143
 40
0.03937
1070
    41
 40
6.0
1070
    44
 40
1.0
1070
    42
 40
1.0
1070
   147
 40
1.524
1070
   144
 40
5.0
1070
    73
 70
     1
1070
    74
 70
     1
1070
   340
340
11
1070
   140
 40
3.5
1070
   284
 70
     0
1070
    78
 70
     0
1002
}
  0
XRECORD
  5
6AD
102
{ACAD_REACTORS
330
6AC
102
}
100
AcDbXrecord
102
EXTNAMES
  1
NORMAL
  2
Normal
  0
XRECORD
  5
6AF
102
{ACAD_REACTORS
330
6AE
102
}
100
AcDbXrecord
102
EXTNAMES
  1
STANDARD
  2
Standard
  0
XRECORD
  5
6B7
102
{ACAD_REACTORS
330
6B6
102
}
100
AcDbXrecord
102
EXTNAMES
  1
LAYOUT1
  2
Layout1
  1
LAYOUT2
  2
Layout2
  1
MODEL
  2
Model
  0
ENDSEC
  0
EOF
