  0
SECTION
  2
HEADER
  9
$ACADVER
  1
AC1014
  9
$ACADMAINTVER
 70
     0
  9
$DWGCODEPAGE
  3
ANSI_1252
  9
$INSBASE
 10
0.0
 20
0.0
 30
0.0
  9
$EXTMIN
 10
35.754041
 20
48.43845
 30
0.0
  9
$EXTMAX
 10
599.877326
 20
428.242151
 30
0.0
  9
$LIMMIN
 10
0.0
 20
0.0
  9
$LIMMAX
 10
0.0
 20
0.0
  9
$ORTHOMODE
 70
     0
  9
$REGENMODE
 70
     1
  9
$FILLMODE
 70
     1
  9
$QTEXTMODE
 70
     0
  9
$MIRRTEXT
 70
     1
  9
$DRAGMODE
 70
     2
  9
$LTSCALE
 40
3.0
  9
$OSMODE
 70
    37
  9
$ATTMODE
 70
     1
  9
$TEXTSIZE
 40
10.0
  9
$TRACEWID
 40
1.0
  9
$TEXTSTYLE
  7
STANDARD
  9
$CLAYER
  8
0
  9
$CELTYPE
  6
BYLAYER
  9
$CECOLOR
 62
   256
  9
$CELTSCALE
 40
1.0
  9
$DELOBJ
 70
     1
  9
$DISPSILH
 70
     0
  9
$DIMSCALE
 40
1.0
  9
$DIMASZ
 40
6.0
  9
$DIMEXO
 40
1.0
  9
$DIMDLI
 40
3.75
  9
$DIMRND
 40
0.0
  9
$DIMDLE
 40
0.0
  9
$DIMEXE
 40
1.0
  9
$DIMTP
 40
0.0
  9
$DIMTM
 40
0.0
  9
$DIMTXT
 40
3.5
  9
$DIMCEN
 40
2.5
  9
$DIMTSZ
 40
0.0
  9
$DIMTOL
 70
     0
  9
$DIMLIM
 70
     0
  9
$DIMTIH
 70
     1
  9
$DIMTOH
 70
     1
  9
$DIMSE1
 70
     0
  9
$DIMSE2
 70
     0
  9
$DIMTAD
 70
     1
  9
$DIMZIN
 70
     0
  9
$DIMBLK
  1

  9
$DIMASO
 70
     1
  9
$DIMSHO
 70
     1
  9
$DIMPOST
  1

  9
$DIMAPOST
  1

  9
$DIMALT
 70
     0
  9
$DIMALTD
 70
     3
  9
$DIMALTF
 40
0.03937
  9
$DIMLFAC
 40
1.0
  9
$DIMTOFL
 70
     1
  9
$DIMTVP
 40
0.0
  9
$DIMTIX
 70
     0
  9
$DIMSOXD
 70
     0
  9
$DIMSAH
 70
     0
  9
$DIMBLK1
  1

  9
$DIMBLK2
  1

  9
$DIMSTYLE
  2
ISO-25
  9
$DIMCLRD
 70
     0
  9
$DIMCLRE
 70
     0
  9
$DIMCLRT
 70
     0
  9
$DIMTFAC
 40
1.0
  9
$DIMGAP
 40
1.524
  9
$DIMJUST
 70
     0
  9
$DIMSD1
 70
     0
  9
$DIMSD2
 70
     0
  9
$DIMTOLJ
 70
     0
  9
$DIMTZIN
 70
     0
  9
$DIMALTZ
 70
     0
  9
$DIMALTTZ
 70
     0
  9
$DIMFIT
 70
     3
  9
$DIMUPT
 70
     0
  9
$DIMUNIT
 70
     2
  9
$DIMDEC
 70
     2
  9
$DIMTDEC
 70
     2
  9
$DIMALTU
 70
     2
  9
$DIMALTTD
 70
     3
  9
$DIMTXSTY
  7
STANDARD
  9
$DIMAUNIT
 70
     0
  9
$LUNITS
 70
     2
  9
$LUPREC
 70
     2
  9
$SKETCHINC
 40
1.0
  9
$FILLETRAD
 40
10.0
  9
$AUNITS
 70
     0
  9
$AUPREC
 70
     0
  9
$MENU
  1
.
  9
$ELEVATION
 40
0.0
  9
$PELEVATION
 40
0.0
  9
$THICKNESS
 40
0.0
  9
$LIMCHECK
 70
     0
  9
$BLIPMODE
 70
     0
  9
$CHAMFERA
 40
10.0
  9
$CHAMFERB
 40
10.0
  9
$CHAMFERC
 40
20.0
  9
$CHAMFERD
 40
0.0
  9
$SKPOLY
 70
     0
  9
$TDCREATE
 40
2454075.544107211
  9
$TDUPDATE
 40
2454075.630057546
  9
$TDINDWG
 40
0.0020697801
  9
$TDUSRTIMER
 40
0.0020697801
  9
$USRTIMER
 70
     1
  9
$ANGBASE
 50
0.0
  9
$ANGDIR
 70
     0
  9
$PDMODE
 70
     0
  9
$PDSIZE
 40
-1.0
  9
$PLINEWID
 40
0.0
  9
$COORDS
 70
     1
  9
$SPLFRAME
 70
     0
  9
$SPLINETYPE
 70
     6
  9
$SPLINESEGS
 70
     8
  9
$ATTDIA
 70
     0
  9
$ATTREQ
 70
     1
  9
$HANDLING
 70
     1
  9
$HANDSEED
  5
2B6
  9
$SURFTAB1
 70
     6
  9
$SURFTAB2
 70
     6
  9
$SURFTYPE
 70
     6
  9
$SURFU
 70
     6
  9
$SURFV
 70
     6
  9
$UCSNAME
  2

  9
$UCSORG
 10
0.0
 20
0.0
 30
0.0
  9
$UCSXDIR
 10
1.0
 20
0.0
 30
0.0
  9
$UCSYDIR
 10
0.0
 20
1.0
 30
0.0
  9
$PUCSNAME
  2

  9
$PUCSORG
 10
0.0
 20
0.0
 30
0.0
  9
$PUCSXDIR
 10
1.0
 20
0.0
 30
0.0
  9
$PUCSYDIR
 10
0.0
 20
1.0
 30
0.0
  9
$USERI1
 70
     0
  9
$USERI2
 70
     0
  9
$USERI3
 70
     0
  9
$USERI4
 70
     0
  9
$USERI5
 70
     0
  9
$USERR1
 40
0.0
  9
$USERR2
 40
0.0
  9
$USERR3
 40
0.0
  9
$USERR4
 40
0.0
  9
$USERR5
 40
0.0
  9
$WORLDVIEW
 70
     1
  9
$SHADEDGE
 70
     3
  9
$SHADEDIF
 70
    70
  9
$TILEMODE
 70
     1
  9
$MAXACTVP
 70
    64
  9
$PINSBASE
 10
0.0
 20
0.0
 30
0.0
  9
$PLIMCHECK
 70
     0
  9
$PEXTMIN
 10
1.000000E+20
 20
1.000000E+20
 30
1.000000E+20
  9
$PEXTMAX
 10
-1.000000E+20
 20
-1.000000E+20
 30
-1.000000E+20
  9
$PLIMMIN
 10
0.0
 20
0.0
  9
$PLIMMAX
 10
420.0
 20
297.0
  9
$UNITMODE
 70
     0
  9
$VISRETAIN
 70
     1
  9
$PLINEGEN
 70
     0
  9
$PSLTSCALE
 70
     1
  9
$TREEDEPTH
 70
  3020
  9
$PICKSTYLE
 70
     1
  9
$CMLSTYLE
  2
STANDARD
  9
$CMLJUST
 70
     0
  9
$CMLSCALE
 40
20.0
  9
$PROXYGRAPHICS
 70
     1
  9
$MEASUREMENT
 70
     1
  0
ENDSEC
  0
SECTION
  2
CLASSES
  0
CLASS
  1
ACDBDICTIONARYWDFLT
  2
AcDbDictionaryWithDefault
  3
ObjectDBX Classes
 90
        0
280
     0
281
     0
  0
CLASS
  1
XRECORD
  2
AcDbXrecord
  3
"<Built In>"
 90
        0
280
     0
281
     0
  0
CLASS
  1
LWPOLYLINE
  2
AcDbPolyline
  3
"AutoCAD"
 90
        0
280
     0
281
     1
  0
CLASS
  1
HATCH
  2
AcDbHatch
  3
"ACAD_SEDONA"
 90
        0
280
     0
281
     1
  0
CLASS
  1
ACDBPLACEHOLDER
  2
AcDbPlaceHolder
  3
ObjectDBX Classes
 90
        0
280
     0
281
     0
  0
CLASS
  1
LAYOUT
  2
AcDbLayout
  3
ObjectDBX Classes
 90
        0
280
     0
281
     0
  0
ENDSEC
  0
SECTION
  2
TABLES
  0
TABLE
  2
VPORT
  5
8
100
AcDbSymbolTable
 70
     2
  0
VPORT
  5
2B5
100
AcDbSymbolTableRecord
100
AcDbViewportTableRecord
  2
*ACTIVE
 70
     0
 10
0.0
 20
0.0
 11
1.0
 21
1.0
 12
299.938663
 22
214.121075
 13
0.0
 23
0.0
 14
10.0
 24
10.0
 15
10.0
 25
10.0
 16
0.0
 26
0.0
 36
1.0
 17
0.0
 27
0.0
 37
0.0
 40
431.37563
 41
1.440781
 42
50.0
 43
0.0
 44
0.0
 50
0.0
 51
0.0
 71
     0
 72
  2000
 73
     1
 74
     3
 75
     0
 76
     0
 77
     0
 78
     0
  0
ENDTAB
  0
TABLE
  2
LTYPE
  5
5
100
AcDbSymbolTable
 70
     6
  0
LTYPE
  5
14
102
{ACAD_XDICTIONARY
360
2A7
102
}
100
AcDbSymbolTableRecord
100
AcDbLinetypeTableRecord
  2
BYBLOCK
 70
     0
  3

 72
    65
 73
     0
 40
0.0
  0
LTYPE
  5
15
102
{ACAD_XDICTIONARY
360
2A9
102
}
100
AcDbSymbolTableRecord
100
AcDbLinetypeTableRecord
  2
BYLAYER
 70
     0
  3

 72
    65
 73
     0
 40
0.0
  0
LTYPE
  5
16
102
{ACAD_XDICTIONARY
360
2AB
102
}
100
AcDbSymbolTableRecord
100
AcDbLinetypeTableRecord
  2
CONTINUOUS
 70
     0
  3
Solid line
 72
    65
 73
     0
 40
0.0
  0
LTYPE
  5
2A
100
AcDbSymbolTableRecord
100
AcDbLinetypeTableRecord
  2
HIDDEN
 70
     0
  3
Hidden __ __ __ __ __ __ __ __ __ __ __ __ __ __
 72
    65
 73
     2
 40
1.905
 49
1.27
 74
     0
 49
-0.635
 74
     0
  0
LTYPE
  5
2B
100
AcDbSymbolTableRecord
100
AcDbLinetypeTableRecord
  2
PHANTOM
 70
     0
  3
Phantom ______  __  __  ______  __  __  ______
 72
    65
 73
     6
 40
12.7
 49
6.35
 74
     0
 49
-1.27
 74
     0
 49
1.27
 74
     0
 49
-1.27
 74
     0
 49
1.27
 74
     0
 49
-1.27
 74
     0
  0
LTYPE
  5
2C
100
AcDbSymbolTableRecord
100
AcDbLinetypeTableRecord
  2
CENTER
 70
     0
  3
Center ____ _ ____ _ ____ _ ____ _ ____ _ ____
 72
    65
 73
     4
 40
10.16
 49
6.35
 74
     0
 49
-1.27
 74
     0
 49
1.27
 74
     0
 49
-1.27
 74
     0
  0
LTYPE
  5
2D
100
AcDbSymbolTableRecord
100
AcDbLinetypeTableRecord
  2
CENTERX2
 70
     0
  3
Center (2x) ________  __  ________  __  _____
 72
    65
 73
     4
 40
20.32
 49
12.7
 74
     0
 49
-2.54
 74
     0
 49
2.54
 74
     0
 49
-2.54
 74
     0
  0
LTYPE
  5
2E
100
AcDbSymbolTableRecord
100
AcDbLinetypeTableRecord
  2
DOT2
 70
     0
  3
Dot (.5x) ........................................
 72
    65
 73
     2
 40
0.635
 49
0.0
 74
     0
 49
-0.635
 74
     0
  0
ENDTAB
  0
TABLE
  2
LAYER
  5
2
100
AcDbSymbolTable
 70
     1
  0
LAYER
  5
10
100
AcDbSymbolTableRecord
100
AcDbLayerTableRecord
  2
0
 70
     0
 62
     7
  6
CONTINUOUS
  0
ENDTAB
  0
TABLE
  2
STYLE
  5
3
100
AcDbSymbolTable
 70
     1
  0
STYLE
  5
11
102
{ACAD_XDICTIONARY
360
2A5
102
}
100
AcDbSymbolTableRecord
100
AcDbTextStyleTableRecord
  2
STANDARD
 70
     0
 40
0.0
 41
1.0
 50
0.0
 71
     0
 42
10.0
  3
txt
  4

  0
ENDTAB
  0
TABLE
  2
VIEW
  5
6
100
AcDbSymbolTable
 70
     0
  0
ENDTAB
  0
TABLE
  2
UCS
  5
7
100
AcDbSymbolTable
 70
     0
  0
ENDTAB
  0
TABLE
  2
APPID
  5
9
100
AcDbSymbolTable
 70
     1
  0
APPID
  5
12
100
AcDbSymbolTableRecord
100
AcDbRegAppTableRecord
  2
ACAD
 70
     0
  0
ENDTAB
  0
TABLE
  2
DIMSTYLE
  5
A
100
AcDbSymbolTable
 70
     1
  0
DIMSTYLE
105
27
102
{ACAD_XDICTIONARY
360
2AF
102
}
100
AcDbSymbolTableRecord
100
AcDbDimStyleTableRecord
  2
ISO-25
 70
     0
  3

  4

  5

  6

  7

 40
1.0
 41
2.5
 42
0.625
 43
3.75
 44
1.25
 45
0.0
 46
0.0
 47
0.0
 48
0.0
140
2.5
141
2.5
142
0.0
143
0.03937
144
1.0
145
0.0
146
1.0
147
0.625
 71
     0
 72
     0
 73
     0
 74
     0
 75
     0
 76
     0
 77
     1
 78
     8
170
     0
171
     3
172
     1
173
     0
174
     0
175
     0
176
     0
177
     0
178
     0
270
     2
271
     2
272
     2
273
     2
274
     3
340
11
275
     0
280
     0
281
     0
282
     0
283
     0
284
     8
285
     0
286
     0
287
     3
288
     0
  0
ENDTAB
  0
TABLE
  2
BLOCK_RECORD
  5
1
100
AcDbSymbolTable
 70
     5
  0
BLOCK_RECORD
  5
1F
102
{ACAD_XDICTIONARY
360
29C
102
}
100
AcDbSymbolTableRecord
100
AcDbBlockTableRecord
  2
*MODEL_SPACE
  0
BLOCK_RECORD
  5
1B
102
{ACAD_XDICTIONARY
360
29A
102
}
100
AcDbSymbolTableRecord
100
AcDbBlockTableRecord
  2
*PAPER_SPACE
  0
BLOCK_RECORD
  5
23
102
{ACAD_XDICTIONARY
360
29E
102
}
100
AcDbSymbolTableRecord
100
AcDbBlockTableRecord
  2
*PAPER_SPACE0
  0
BLOCK_RECORD
  5
15E
100
AcDbSymbolTableRecord
100
AcDbBlockTableRecord
  2
SW_CENTERMARKSYMBOL_0
  0
BLOCK_RECORD
  5
16A
100
AcDbSymbolTableRecord
100
AcDbBlockTableRecord
  2
SW_CENTERMARKSYMBOL_1
  0
BLOCK_RECORD
  5
176
100
AcDbSymbolTableRecord
100
AcDbBlockTableRecord
  2
SW_CENTERMARKSYMBOL_2
  0
BLOCK_RECORD
  5
182
100
AcDbSymbolTableRecord
100
AcDbBlockTableRecord
  2
SW_CENTERMARKSYMBOL_3
  0
ENDTAB
  0
ENDSEC
  0
SECTION
  2
BLOCKS
  0
BLOCK
  5
20
100
AcDbEntity
  8
0
100
AcDbBlockBegin
  2
*MODEL_SPACE
 70
     0
 10
0.0
 20
0.0
 30
0.0
  3
*MODEL_SPACE
  1

  0
ENDBLK
  5
21
100
AcDbEntity
  8
0
100
AcDbBlockEnd
  0
BLOCK
  5
1C
100
AcDbEntity
 67
     1
  8
0
100
AcDbBlockBegin
  2
*PAPER_SPACE
 70
     0
 10
0.0
 20
0.0
 30
0.0
  3
*PAPER_SPACE
  1

  0
ENDBLK
  5
1D
100
AcDbEntity
 67
     1
  8
0
100
AcDbBlockEnd
  0
BLOCK
  5
24
100
AcDbEntity
  8
0
100
AcDbBlockBegin
  2
*PAPER_SPACE0
 70
     0
 10
0.0
 20
0.0
 30
0.0
  3
*PAPER_SPACE0
  1

  0
ENDBLK
  5
25
100
AcDbEntity
  8
0
100
AcDbBlockEnd
  0
BLOCK
  5
15F
100
AcDbEntity
  8
0
100
AcDbBlockBegin
  2
SW_CENTERMARKSYMBOL_0
 70
     0
 10
0.0
 20
0.0
 30
0.0
  3
SW_CENTERMARKSYMBOL_0
  1

  0
LINE
  5
161
100
AcDbEntity
  8
0
  6
CONTINUOUS
 62
     7
100
AcDbLine
 10
0.0
 20
0.0
 30
0.0
 11
0.0
 21
1.25
 31
0.0
  0
LINE
  5
162
100
AcDbEntity
  8
0
  6
CONTINUOUS
 62
     7
100
AcDbLine
 10
0.0
 20
0.0
 30
0.0
 11
-1.25
 21
0.0
 31
0.0
  0
LINE
  5
163
100
AcDbEntity
  8
0
  6
CONTINUOUS
 62
     7
100
AcDbLine
 10
0.0
 20
0.0
 30
0.0
 11
0.0
 21
-1.25
 31
0.0
  0
LINE
  5
164
100
AcDbEntity
  8
0
  6
CONTINUOUS
 62
     7
100
AcDbLine
 10
0.0
 20
0.0
 30
0.0
 11
1.25
 21
0.0
 31
0.0
  0
LINE
  5
165
100
AcDbEntity
  8
0
  6
CONTINUOUS
 62
     7
100
AcDbLine
 10
0.0
 20
2.5
 30
0.0
 11
0.0
 21
4.55
 31
0.0
  0
LINE
  5
166
100
AcDbEntity
  8
0
  6
CONTINUOUS
 62
     7
100
AcDbLine
 10
-2.5
 20
0.0
 30
0.0
 11
-4.55
 21
0.0
 31
0.0
  0
LINE
  5
167
100
AcDbEntity
  8
0
  6
CONTINUOUS
 62
     7
100
AcDbLine
 10
0.0
 20
-2.5
 30
0.0
 11
0.0
 21
-4.55
 31
0.0
  0
LINE
  5
168
100
AcDbEntity
  8
0
  6
CONTINUOUS
 62
     7
100
AcDbLine
 10
2.5
 20
0.0
 30
0.0
 11
4.55
 21
0.0
 31
0.0
  0
ENDBLK
  5
160
100
AcDbEntity
  8
0
100
AcDbBlockEnd
  0
BLOCK
  5
16B
100
AcDbEntity
  8
0
100
AcDbBlockBegin
  2
SW_CENTERMARKSYMBOL_1
 70
     0
 10
0.0
 20
0.0
 30
0.0
  3
SW_CENTERMARKSYMBOL_1
  1

  0
LINE
  5
16D
100
AcDbEntity
  8
0
  6
CONTINUOUS
 62
     7
100
AcDbLine
 10
0.0
 20
0.0
 30
0.0
 11
0.0
 21
1.25
 31
0.0
  0
LINE
  5
16E
100
AcDbEntity
  8
0
  6
CONTINUOUS
 62
     7
100
AcDbLine
 10
0.0
 20
0.0
 30
0.0
 11
-1.25
 21
0.0
 31
0.0
  0
LINE
  5
16F
100
AcDbEntity
  8
0
  6
CONTINUOUS
 62
     7
100
AcDbLine
 10
0.0
 20
0.0
 30
0.0
 11
0.0
 21
-1.25
 31
0.0
  0
LINE
  5
170
100
AcDbEntity
  8
0
  6
CONTINUOUS
 62
     7
100
AcDbLine
 10
0.0
 20
0.0
 30
0.0
 11
1.25
 21
0.0
 31
0.0
  0
LINE
  5
171
100
AcDbEntity
  8
0
  6
CONTINUOUS
 62
     7
100
AcDbLine
 10
0.0
 20
2.5
 30
0.0
 11
0.0
 21
4.55
 31
0.0
  0
LINE
  5
172
100
AcDbEntity
  8
0
  6
CONTINUOUS
 62
     7
100
AcDbLine
 10
-2.5
 20
0.0
 30
0.0
 11
-4.55
 21
0.0
 31
0.0
  0
LINE
  5
173
100
AcDbEntity
  8
0
  6
CONTINUOUS
 62
     7
100
AcDbLine
 10
0.0
 20
-2.5
 30
0.0
 11
0.0
 21
-4.55
 31
0.0
  0
LINE
  5
174
100
AcDbEntity
  8
0
  6
CONTINUOUS
 62
     7
100
AcDbLine
 10
2.5
 20
0.0
 30
0.0
 11
4.55
 21
0.0
 31
0.0
  0
ENDBLK
  5
16C
100
AcDbEntity
  8
0
100
AcDbBlockEnd
  0
BLOCK
  5
177
100
AcDbEntity
  8
0
100
AcDbBlockBegin
  2
SW_CENTERMARKSYMBOL_2
 70
     0
 10
0.0
 20
0.0
 30
0.0
  3
SW_CENTERMARKSYMBOL_2
  1

  0
LINE
  5
179
100
AcDbEntity
  8
0
  6
CONTINUOUS
 62
     7
100
AcDbLine
 10
0.0
 20
0.0
 30
0.0
 11
0.0
 21
1.25
 31
0.0
  0
LINE
  5
17A
100
AcDbEntity
  8
0
  6
CONTINUOUS
 62
     7
100
AcDbLine
 10
0.0
 20
0.0
 30
0.0
 11
-1.25
 21
0.0
 31
0.0
  0
LINE
  5
17B
100
AcDbEntity
  8
0
  6
CONTINUOUS
 62
     7
100
AcDbLine
 10
0.0
 20
0.0
 30
0.0
 11
0.0
 21
-1.25
 31
0.0
  0
LINE
  5
17C
100
AcDbEntity
  8
0
  6
CONTINUOUS
 62
     7
100
AcDbLine
 10
0.0
 20
0.0
 30
0.0
 11
1.25
 21
0.0
 31
0.0
  0
LINE
  5
17D
100
AcDbEntity
  8
0
  6
CONTINUOUS
 62
     7
100
AcDbLine
 10
0.0
 20
2.5
 30
0.0
 11
0.0
 21
4.55
 31
0.0
  0
LINE
  5
17E
100
AcDbEntity
  8
0
  6
CONTINUOUS
 62
     7
100
AcDbLine
 10
-2.5
 20
0.0
 30
0.0
 11
-4.55
 21
0.0
 31
0.0
  0
LINE
  5
17F
100
AcDbEntity
  8
0
  6
CONTINUOUS
 62
     7
100
AcDbLine
 10
0.0
 20
-2.5
 30
0.0
 11
0.0
 21
-4.55
 31
0.0
  0
LINE
  5
180
100
AcDbEntity
  8
0
  6
CONTINUOUS
 62
     7
100
AcDbLine
 10
2.5
 20
0.0
 30
0.0
 11
4.55
 21
0.0
 31
0.0
  0
ENDBLK
  5
178
100
AcDbEntity
  8
0
100
AcDbBlockEnd
  0
BLOCK
  5
183
100
AcDbEntity
  8
0
100
AcDbBlockBegin
  2
SW_CENTERMARKSYMBOL_3
 70
     0
 10
0.0
 20
0.0
 30
0.0
  3
SW_CENTERMARKSYMBOL_3
  1

  0
LINE
  5
185
100
AcDbEntity
  8
0
  6
CONTINUOUS
 62
     7
100
AcDbLine
 10
0.0
 20
0.0
 30
0.0
 11
0.0
 21
1.25
 31
0.0
  0
LINE
  5
186
100
AcDbEntity
  8
0
  6
CONTINUOUS
 62
     7
100
AcDbLine
 10
0.0
 20
0.0
 30
0.0
 11
-1.25
 21
0.0
 31
0.0
  0
LINE
  5
187
100
AcDbEntity
  8
0
  6
CONTINUOUS
 62
     7
100
AcDbLine
 10
0.0
 20
0.0
 30
0.0
 11
0.0
 21
-1.25
 31
0.0
  0
LINE
  5
188
100
AcDbEntity
  8
0
  6
CONTINUOUS
 62
     7
100
AcDbLine
 10
0.0
 20
0.0
 30
0.0
 11
1.25
 21
0.0
 31
0.0
  0
LINE
  5
189
100
AcDbEntity
  8
0
  6
CONTINUOUS
 62
     7
100
AcDbLine
 10
0.0
 20
2.5
 30
0.0
 11
0.0
 21
4.55
 31
0.0
  0
LINE
  5
18A
100
AcDbEntity
  8
0
  6
CONTINUOUS
 62
     7
100
AcDbLine
 10
-2.5
 20
0.0
 30
0.0
 11
-4.55
 21
0.0
 31
0.0
  0
LINE
  5
18B
100
AcDbEntity
  8
0
  6
CONTINUOUS
 62
     7
100
AcDbLine
 10
0.0
 20
-2.5
 30
0.0
 11
0.0
 21
-4.55
 31
0.0
  0
LINE
  5
18C
100
AcDbEntity
  8
0
  6
CONTINUOUS
 62
     7
100
AcDbLine
 10
2.5
 20
0.0
 30
0.0
 11
4.55
 21
0.0
 31
0.0
  0
ENDBLK
  5
184
100
AcDbEntity
  8
0
100
AcDbBlockEnd
  0
ENDSEC
  0
SECTION
  2
ENTITIES
  0
LINE
  5
2F
100
AcDbEntity
  8
0
  6
CONTINUOUS
 62
     7
100
AcDbLine
 10
192.097993
 20
317.032866
 30
0.0
 11
173.519156
 21
319.643952
 31
0.0
  0
LINE
  5
30
100
AcDbEntity
  8
0
  6
CONTINUOUS
 62
     7
100
AcDbLine
 10
191.911812
 20
315.708116
 30
0.0
 11
192.097993
 21
317.032866
 31
0.0
  0
LINE
  5
31
100
AcDbEntity
  8
0
  6
CONTINUOUS
 62
     7
100
AcDbLine
 10
173.332975
 20
318.319201
 30
0.0
 11
191.911812
 21
315.708116
 31
0.0
  0
LINE
  5
32
100
AcDbEntity
  8
0
  6
CONTINUOUS
 62
     7
100
AcDbLine
 10
173.332975
 20
318.319201
 30
0.0
 11
173.519156
 21
319.643952
 31
0.0
  0
ARC
  5
33
100
AcDbEntity
  8
0
  6
CONTINUOUS
 62
     7
100
AcDbCircle
 10
191.192698
 20
310.591355
 30
0.0
 40
6.504816
100
AcDbArc
 50
0.0
 51
82.0
  0
LINE
  5
34
100
AcDbEntity
  8
0
  6
CONTINUOUS
 62
     7
100
AcDbLine
 10
196.359744
 20
310.591355
 30
0.0
 11
197.697514
 21
310.591355
 31
0.0
  0
ARC
  5
35
100
AcDbEntity
  8
0
  6
CONTINUOUS
 62
     7
100
AcDbCircle
 10
191.192698
 20
310.591355
 30
0.0
 40
5.167046
100
AcDbArc
 50
0.0
 51
82.0
  0
LINE
  5
36
100
AcDbEntity
  8
0
  6
CONTINUOUS
 62
     7
100
AcDbLine
 10
197.697514
 20
164.393773
 30
0.0
 11
197.697514
 21
310.591355
 31
0.0
  0
LINE
  5
37
100
AcDbEntity
  8
0
  6
CONTINUOUS
 62
     7
100
AcDbLine
 10
196.359744
 20
164.393773
 30
0.0
 11
197.697514
 21
164.393773
 31
0.0
  0
LINE
  5
38
100
AcDbEntity
  8
0
  6
CONTINUOUS
 62
     7
100
AcDbLine
 10
196.359744
 20
310.591355
 30
0.0
 11
196.359744
 21
164.393773
 31
0.0
  0
ARC
  5
39
100
AcDbEntity
  8
0
  6
CONTINUOUS
 62
     7
100
AcDbCircle
 10
191.192698
 20
164.393773
 30
0.0
 40
6.504816
100
AcDbArc
 50
278.0
 51
0.0
  0
LINE
  5
3A
100
AcDbEntity
  8
0
  6
CONTINUOUS
 62
     7
100
AcDbLine
 10
191.911812
 20
159.277012
 30
0.0
 11
192.097993
 21
157.952262
 31
0.0
  0
ARC
  5
3B
100
AcDbEntity
  8
0
  6
CONTINUOUS
 62
     7
100
AcDbCircle
 10
191.192698
 20
164.393773
 30
0.0
 40
5.167046
100
AcDbArc
 50
278.0
 51
0.0
  0
LINE
  5
3C
100
AcDbEntity
  8
0
  6
CONTINUOUS
 62
     7
100
AcDbLine
 10
173.519156
 20
155.341176
 30
0.0
 11
192.097993
 21
157.952262
 31
0.0
  0
LINE
  5
3D
100
AcDbEntity
  8
0
  6
CONTINUOUS
 62
     7
100
AcDbLine
 10
173.332975
 20
156.665927
 30
0.0
 11
173.519156
 21
155.341176
 31
0.0
  0
LINE
  5
3E
100
AcDbEntity
  8
0
  6
CONTINUOUS
 62
     7
100
AcDbLine
 10
191.911812
 20
159.277012
 30
0.0
 11
173.332975
 21
156.665927
 31
0.0
  0
ARC
  5
3F
100
AcDbEntity
  8
0
  6
CONTINUOUS
 62
     7
100
AcDbCircle
 10
174.492698
 20
148.414068
 30
0.0
 40
6.995184
100
AcDbArc
 50
98.0
 51
180.0
  0
LINE
  5
40
100
AcDbEntity
  8
0
  6
CONTINUOUS
 62
     7
100
AcDbLine
 10
166.159744
 20
148.414068
 30
0.0
 11
167.497514
 21
148.414068
 31
0.0
  0
ARC
  5
41
100
AcDbEntity
  8
0
  6
CONTINUOUS
 62
     7
100
AcDbCircle
 10
174.492698
 20
148.414068
 30
0.0
 40
8.332954
100
AcDbArc
 50
98.0
 51
180.0
  0
LINE
  5
42
100
AcDbEntity
  8
0
  6
CONTINUOUS
 62
     7
100
AcDbLine
 10
167.497514
 20
146.644972
 30
0.0
 11
167.497514
 21
148.414068
 31
0.0
  0
LINE
  5
43
100
AcDbEntity
  8
0
  6
CONTINUOUS
 62
     7
100
AcDbLine
 10
166.159744
 20
146.644972
 30
0.0
 11
167.497514
 21
146.644972
 31
0.0
  0
LINE
  5
44
100
AcDbEntity
  8
0
  6
CONTINUOUS
 62
     7
100
AcDbLine
 10
166.159744
 20
148.414068
 30
0.0
 11
166.159744
 21
146.644972
 31
0.0
  0
ARC
  5
45
100
AcDbEntity
  8
0
  6
CONTINUOUS
 62
     7
100
AcDbCircle
 10
160.992698
 20
146.644972
 30
0.0
 40
6.504816
100
AcDbArc
 50
270.0
 51
0.0
  0
LINE
  5
46
100
AcDbEntity
  8
0
  6
CONTINUOUS
 62
     7
100
AcDbLine
 10
160.992698
 20
141.477926
 30
0.0
 11
160.992698
 21
140.140156
 31
0.0
  0
ARC
  5
47
100
AcDbEntity
  8
0
  6
CONTINUOUS
 62
     7
100
AcDbCircle
 10
160.992698
 20
146.644972
 30
0.0
 40
5.167046
100
AcDbArc
 50
270.0
 51
0.0
  0
LINE
  5
48
100
AcDbEntity
  8
0
  6
CONTINUOUS
 62
     7
100
AcDbLine
 10
77.697514
 20
140.140156
 30
0.0
 11
160.992698
 21
140.140156
 31
0.0
  0
LINE
  5
49
100
AcDbEntity
  8
0
  6
CONTINUOUS
 62
     7
100
AcDbLine
 10
77.697514
 20
141.477926
 30
0.0
 11
77.697514
 21
140.140156
 31
0.0
  0
LINE
  5
4A
100
AcDbEntity
  8
0
  6
CONTINUOUS
 62
     7
100
AcDbLine
 10
160.992698
 20
141.477926
 30
0.0
 11
77.697514
 21
141.477926
 31
0.0
  0
ARC
  5
4B
100
AcDbEntity
  8
0
  6
CONTINUOUS
 62
     7
100
AcDbCircle
 10
77.697514
 20
146.644972
 30
0.0
 40
6.504816
100
AcDbArc
 50
180.0
 51
270.0
  0
LINE
  5
4C
100
AcDbEntity
  8
0
  6
CONTINUOUS
 62
     7
100
AcDbLine
 10
72.530468
 20
146.644972
 30
0.0
 11
71.192698
 21
146.644972
 31
0.0
  0
ARC
  5
4D
100
AcDbEntity
  8
0
  6
CONTINUOUS
 62
     7
100
AcDbCircle
 10
77.697514
 20
146.644972
 30
0.0
 40
5.167046
100
AcDbArc
 50
180.0
 51
270.0
  0
LINE
  5
4E
100
AcDbEntity
  8
0
  6
CONTINUOUS
 62
     7
100
AcDbLine
 10
71.192698
 20
148.414068
 30
0.0
 11
71.192698
 21
146.644972
 31
0.0
  0
LINE
  5
4F
100
AcDbEntity
  8
0
  6
CONTINUOUS
 62
     7
100
AcDbLine
 10
72.530468
 20
148.414068
 30
0.0
 11
71.192698
 21
148.414068
 31
0.0
  0
LINE
  5
50
100
AcDbEntity
  8
0
  6
CONTINUOUS
 62
     7
100
AcDbLine
 10
72.530468
 20
146.644972
 30
0.0
 11
72.530468
 21
148.414068
 31
0.0
  0
ARC
  5
51
100
AcDbEntity
  8
0
  6
CONTINUOUS
 62
     7
100
AcDbCircle
 10
64.197514
 20
148.414068
 30
0.0
 40
6.995184
100
AcDbArc
 50
0.0
 51
82.0
  0
LINE
  5
52
100
AcDbEntity
  8
0
  6
CONTINUOUS
 62
     7
100
AcDbLine
 10
65.357237
 20
156.665927
 30
0.0
 11
65.171055
 21
155.341176
 31
0.0
  0
ARC
  5
53
100
AcDbEntity
  8
0
  6
CONTINUOUS
 62
     7
100
AcDbCircle
 10
64.197514
 20
148.414068
 30
0.0
 40
8.332954
100
AcDbArc
 50
0.0
 51
82.0
  0
LINE
  5
54
100
AcDbEntity
  8
0
  6
CONTINUOUS
 62
     7
100
AcDbLine
 10
46.592218
 20
157.952262
 30
0.0
 11
65.171055
 21
155.341176
 31
0.0
  0
LINE
  5
55
100
AcDbEntity
  8
0
  6
CONTINUOUS
 62
     7
100
AcDbLine
 10
46.7784
 20
159.277012
 30
0.0
 11
46.592218
 21
157.952262
 31
0.0
  0
LINE
  5
56
100
AcDbEntity
  8
0
  6
CONTINUOUS
 62
     7
100
AcDbLine
 10
65.357237
 20
156.665927
 30
0.0
 11
46.7784
 21
159.277012
 31
0.0
  0
ARC
  5
57
100
AcDbEntity
  8
0
  6
CONTINUOUS
 62
     7
100
AcDbCircle
 10
47.497514
 20
164.393773
 30
0.0
 40
6.504816
100
AcDbArc
 50
180.0
 51
262.0
  0
LINE
  5
58
100
AcDbEntity
  8
0
  6
CONTINUOUS
 62
     7
100
AcDbLine
 10
42.330468
 20
164.393773
 30
0.0
 11
40.992698
 21
164.393773
 31
0.0
  0
ARC
  5
59
100
AcDbEntity
  8
0
  6
CONTINUOUS
 62
     7
100
AcDbCircle
 10
47.497514
 20
164.393773
 30
0.0
 40
5.167046
100
AcDbArc
 50
180.0
 51
262.0
  0
LINE
  5
5A
100
AcDbEntity
  8
0
  6
CONTINUOUS
 62
     7
100
AcDbLine
 10
40.992698
 20
310.591355
 30
0.0
 11
40.992698
 21
164.393773
 31
0.0
  0
LINE
  5
5B
100
AcDbEntity
  8
0
  6
CONTINUOUS
 62
     7
100
AcDbLine
 10
42.330468
 20
310.591355
 30
0.0
 11
40.992698
 21
310.591355
 31
0.0
  0
LINE
  5
5C
100
AcDbEntity
  8
0
  6
CONTINUOUS
 62
     7
100
AcDbLine
 10
42.330468
 20
164.393773
 30
0.0
 11
42.330468
 21
310.591355
 31
0.0
  0
ARC
  5
5D
100
AcDbEntity
  8
0
  6
CONTINUOUS
 62
     7
100
AcDbCircle
 10
47.497514
 20
310.591355
 30
0.0
 40
6.504816
100
AcDbArc
 50
98.0
 51
180.0
  0
LINE
  5
5E
100
AcDbEntity
  8
0
  6
CONTINUOUS
 62
     7
100
AcDbLine
 10
46.7784
 20
315.708116
 30
0.0
 11
46.592218
 21
317.032866
 31
0.0
  0
ARC
  5
5F
100
AcDbEntity
  8
0
  6
CONTINUOUS
 62
     7
100
AcDbCircle
 10
47.497514
 20
310.591355
 30
0.0
 40
5.167046
100
AcDbArc
 50
98.0
 51
180.0
  0
LINE
  5
60
100
AcDbEntity
  8
0
  6
CONTINUOUS
 62
     7
100
AcDbLine
 10
65.171055
 20
319.643952
 30
0.0
 11
46.592218
 21
317.032866
 31
0.0
  0
LINE
  5
61
100
AcDbEntity
  8
0
  6
CONTINUOUS
 62
     7
100
AcDbLine
 10
65.357237
 20
318.319201
 30
0.0
 11
65.171055
 21
319.643952
 31
0.0
  0
LINE
  5
62
100
AcDbEntity
  8
0
  6
CONTINUOUS
 62
     7
100
AcDbLine
 10
46.7784
 20
315.708116
 30
0.0
 11
65.357237
 21
318.319201
 31
0.0
  0
ARC
  5
63
100
AcDbEntity
  8
0
  6
CONTINUOUS
 62
     7
100
AcDbCircle
 10
64.197514
 20
326.57106
 30
0.0
 40
6.995184
100
AcDbArc
 50
278.0
 51
0.0
  0
LINE
  5
64
100
AcDbEntity
  8
0
  6
CONTINUOUS
 62
     7
100
AcDbLine
 10
72.530468
 20
326.57106
 30
0.0
 11
71.192698
 21
326.57106
 31
0.0
  0
ARC
  5
65
100
AcDbEntity
  8
0
  6
CONTINUOUS
 62
     7
100
AcDbCircle
 10
64.197514
 20
326.57106
 30
0.0
 40
8.332954
100
AcDbArc
 50
278.0
 51
0.0
  0
LINE
  5
66
100
AcDbEntity
  8
0
  6
CONTINUOUS
 62
     7
100
AcDbLine
 10
71.192698
 20
328.340156
 30
0.0
 11
71.192698
 21
326.57106
 31
0.0
  0
LINE
  5
67
100
AcDbEntity
  8
0
  6
CONTINUOUS
 62
     7
100
AcDbLine
 10
72.530468
 20
328.340156
 30
0.0
 11
71.192698
 21
328.340156
 31
0.0
  0
LINE
  5
68
100
AcDbEntity
  8
0
  6
CONTINUOUS
 62
     7
100
AcDbLine
 10
72.530468
 20
326.57106
 30
0.0
 11
72.530468
 21
328.340156
 31
0.0
  0
ARC
  5
69
100
AcDbEntity
  8
0
  6
CONTINUOUS
 62
     7
100
AcDbCircle
 10
77.697514
 20
328.340156
 30
0.0
 40
6.504816
100
AcDbArc
 50
90.0
 51
180.0
  0
LINE
  5
6A
100
AcDbEntity
  8
0
  6
CONTINUOUS
 62
     7
100
AcDbLine
 10
77.697514
 20
333.507202
 30
0.0
 11
77.697514
 21
334.844972
 31
0.0
  0
ARC
  5
6B
100
AcDbEntity
  8
0
  6
CONTINUOUS
 62
     7
100
AcDbCircle
 10
77.697514
 20
328.340156
 30
0.0
 40
5.167046
100
AcDbArc
 50
90.0
 51
180.0
  0
LINE
  5
6C
100
AcDbEntity
  8
0
  6
CONTINUOUS
 62
     7
100
AcDbLine
 10
160.992698
 20
334.844972
 30
0.0
 11
77.697514
 21
334.844972
 31
0.0
  0
LINE
  5
6D
100
AcDbEntity
  8
0
  6
CONTINUOUS
 62
     7
100
AcDbLine
 10
160.992698
 20
333.507202
 30
0.0
 11
160.992698
 21
334.844972
 31
0.0
  0
LINE
  5
6E
100
AcDbEntity
  8
0
  6
CONTINUOUS
 62
     7
100
AcDbLine
 10
77.697514
 20
333.507202
 30
0.0
 11
160.992698
 21
333.507202
 31
0.0
  0
ARC
  5
6F
100
AcDbEntity
  8
0
  6
CONTINUOUS
 62
     7
100
AcDbCircle
 10
160.992698
 20
328.340156
 30
0.0
 40
6.504816
100
AcDbArc
 50
0.0
 51
90.0
  0
LINE
  5
70
100
AcDbEntity
  8
0
  6
CONTINUOUS
 62
     7
100
AcDbLine
 10
166.159744
 20
328.340156
 30
0.0
 11
167.497514
 21
328.340156
 31
0.0
  0
ARC
  5
71
100
AcDbEntity
  8
0
  6
CONTINUOUS
 62
     7
100
AcDbCircle
 10
160.992698
 20
328.340156
 30
0.0
 40
5.167046
100
AcDbArc
 50
0.0
 51
90.0
  0
LINE
  5
72
100
AcDbEntity
  8
0
  6
CONTINUOUS
 62
     7
100
AcDbLine
 10
167.497514
 20
326.57106
 30
0.0
 11
167.497514
 21
328.340156
 31
0.0
  0
LINE
  5
73
100
AcDbEntity
  8
0
  6
CONTINUOUS
 62
     7
100
AcDbLine
 10
166.159744
 20
326.57106
 30
0.0
 11
167.497514
 21
326.57106
 31
0.0
  0
LINE
  5
74
100
AcDbEntity
  8
0
  6
CONTINUOUS
 62
     7
100
AcDbLine
 10
166.159744
 20
328.340156
 30
0.0
 11
166.159744
 21
326.57106
 31
0.0
  0
LINE
  5
75
100
AcDbEntity
  8
0
  6
CONTINUOUS
 62
     7
100
AcDbLine
 10
173.698741
 20
320.921763
 30
0.0
 11
173.713329
 21
321.025558
 31
0.0
  0
ARC
  5
76
100
AcDbEntity
  8
0
  6
CONTINUOUS
 62
     7
100
AcDbCircle
 10
174.492698
 20
326.57106
 30
0.0
 40
5.704816
100
AcDbArc
 50
180.0
 51
262.0
  0
LINE
  5
77
100
AcDbEntity
  8
0
  6
CONTINUOUS
 62
     7
100
AcDbLine
 10
168.787882
 20
326.57106
 30
0.0
 11
168.892698
 21
326.57106
 31
0.0
  0
ARC
  5
78
100
AcDbEntity
  8
0
  6
CONTINUOUS
 62
     7
100
AcDbCircle
 10
174.492698
 20
326.57106
 30
0.0
 40
5.6
100
AcDbArc
 50
180.0
 51
262.0
  0
LINE
  5
79
100
AcDbEntity
  8
0
  6
CONTINUOUS
 62
     7
100
AcDbLine
 10
168.787882
 20
326.57106
 30
0.0
 11
168.787882
 21
328.340156
 31
0.0
  0
LINE
  5
7A
100
AcDbEntity
  8
0
  6
CONTINUOUS
 62
     7
100
AcDbLine
 10
168.787882
 20
328.340156
 30
0.0
 11
168.892698
 21
328.340156
 31
0.0
  0
LINE
  5
7B
100
AcDbEntity
  8
0
  6
CONTINUOUS
 62
     7
100
AcDbLine
 10
168.892698
 20
326.57106
 30
0.0
 11
168.892698
 21
328.340156
 31
0.0
  0
LINE
  5
7C
100
AcDbEntity
  8
0
  6
CONTINUOUS
 62
     7
100
AcDbLine
 10
64.99147
 20
154.063365
 30
0.0
 11
64.976883
 21
153.95957
 31
0.0
  0
ARC
  5
7D
100
AcDbEntity
  8
0
  6
CONTINUOUS
 62
     7
100
AcDbCircle
 10
64.197514
 20
148.414068
 30
0.0
 40
5.704816
100
AcDbArc
 50
0.0
 51
82.0
  0
LINE
  5
7E
100
AcDbEntity
  8
0
  6
CONTINUOUS
 62
     7
100
AcDbLine
 10
69.902329
 20
148.414068
 30
0.0
 11
69.797514
 21
148.414068
 31
0.0
  0
ARC
  5
7F
100
AcDbEntity
  8
0
  6
CONTINUOUS
 62
     7
100
AcDbCircle
 10
64.197514
 20
148.414068
 30
0.0
 40
5.6
100
AcDbArc
 50
0.0
 51
82.0
  0
ARC
  5
80
100
AcDbEntity
  8
0
  6
CONTINUOUS
 62
     7
100
AcDbCircle
 10
174.492698
 20
326.57106
 30
0.0
 40
6.995184
100
AcDbArc
 50
180.0
 51
262.0
  0
ARC
  5
81
100
AcDbEntity
  8
0
  6
CONTINUOUS
 62
     7
100
AcDbCircle
 10
174.492698
 20
326.57106
 30
0.0
 40
8.332954
100
AcDbArc
 50
180.0
 51
262.0
  0
LINE
  5
82
100
AcDbEntity
  8
0
  6
CONTINUOUS
 62
     7
100
AcDbLine
 10
192.277578
 20
318.310678
 30
0.0
 11
173.698741
 21
320.921763
 31
0.0
  0
ARC
  5
83
100
AcDbEntity
  8
0
  6
CONTINUOUS
 62
     7
100
AcDbCircle
 10
191.192698
 20
310.591355
 30
0.0
 40
7.795184
100
AcDbArc
 50
0.0
 51
82.0
  0
LINE
  5
84
100
AcDbEntity
  8
0
  6
CONTINUOUS
 62
     7
100
AcDbLine
 10
198.987882
 20
164.393773
 30
0.0
 11
198.987882
 21
310.591355
 31
0.0
  0
ARC
  5
85
100
AcDbEntity
  8
0
  6
CONTINUOUS
 62
     7
100
AcDbCircle
 10
191.192698
 20
164.393773
 30
0.0
 40
7.795184
100
AcDbArc
 50
278.0
 51
0.0
  0
LINE
  5
86
100
AcDbEntity
  8
0
  6
CONTINUOUS
 62
     7
100
AcDbLine
 10
173.698741
 20
154.063365
 30
0.0
 11
192.277578
 21
156.67445
 31
0.0
  0
ARC
  5
87
100
AcDbEntity
  8
0
  6
CONTINUOUS
 62
     7
100
AcDbCircle
 10
174.492698
 20
148.414068
 30
0.0
 40
5.704816
100
AcDbArc
 50
98.0
 51
180.0
  0
LINE
  5
88
100
AcDbEntity
  8
0
  6
CONTINUOUS
 62
     7
100
AcDbLine
 10
168.787882
 20
146.644972
 30
0.0
 11
168.787882
 21
148.414068
 31
0.0
  0
ARC
  5
89
100
AcDbEntity
  8
0
  6
CONTINUOUS
 62
     7
100
AcDbCircle
 10
160.992698
 20
146.644972
 30
0.0
 40
7.795184
100
AcDbArc
 50
270.0
 51
0.0
  0
LINE
  5
8A
100
AcDbEntity
  8
0
  6
CONTINUOUS
 62
     7
100
AcDbLine
 10
77.697514
 20
138.849787
 30
0.0
 11
160.992698
 21
138.849787
 31
0.0
  0
ARC
  5
8B
100
AcDbEntity
  8
0
  6
CONTINUOUS
 62
     7
100
AcDbCircle
 10
77.697514
 20
146.644972
 30
0.0
 40
7.795184
100
AcDbArc
 50
180.0
 51
270.0
  0
LINE
  5
8C
100
AcDbEntity
  8
0
  6
CONTINUOUS
 62
     7
100
AcDbLine
 10
69.902329
 20
148.414068
 30
0.0
 11
69.902329
 21
146.644972
 31
0.0
  0
LINE
  5
8D
100
AcDbEntity
  8
0
  6
CONTINUOUS
 62
     7
100
AcDbLine
 10
46.412634
 20
156.67445
 30
0.0
 11
64.99147
 21
154.063365
 31
0.0
  0
ARC
  5
8E
100
AcDbEntity
  8
0
  6
CONTINUOUS
 62
     7
100
AcDbCircle
 10
47.497514
 20
164.393773
 30
0.0
 40
7.795184
100
AcDbArc
 50
180.0
 51
262.0
  0
LINE
  5
8F
100
AcDbEntity
  8
0
  6
CONTINUOUS
 62
     7
100
AcDbLine
 10
39.702329
 20
310.591355
 30
0.0
 11
39.702329
 21
164.393773
 31
0.0
  0
ARC
  5
90
100
AcDbEntity
  8
0
  6
CONTINUOUS
 62
     7
100
AcDbCircle
 10
47.497514
 20
310.591355
 30
0.0
 40
7.795184
100
AcDbArc
 50
98.0
 51
180.0
  0
LINE
  5
91
100
AcDbEntity
  8
0
  6
CONTINUOUS
 62
     7
100
AcDbLine
 10
64.99147
 20
320.921763
 30
0.0
 11
46.412634
 21
318.310678
 31
0.0
  0
ARC
  5
92
100
AcDbEntity
  8
0
  6
CONTINUOUS
 62
     7
100
AcDbCircle
 10
64.197514
 20
326.57106
 30
0.0
 40
5.704816
100
AcDbArc
 50
278.0
 51
0.0
  0
LINE
  5
93
100
AcDbEntity
  8
0
  6
CONTINUOUS
 62
     7
100
AcDbLine
 10
69.902329
 20
328.340156
 30
0.0
 11
69.902329
 21
326.57106
 31
0.0
  0
ARC
  5
94
100
AcDbEntity
  8
0
  6
CONTINUOUS
 62
     7
100
AcDbCircle
 10
77.697514
 20
328.340156
 30
0.0
 40
7.795184
100
AcDbArc
 50
90.0
 51
180.0
  0
LINE
  5
95
100
AcDbEntity
  8
0
  6
CONTINUOUS
 62
     7
100
AcDbLine
 10
160.992698
 20
336.135341
 30
0.0
 11
77.697514
 21
336.135341
 31
0.0
  0
ARC
  5
96
100
AcDbEntity
  8
0
  6
CONTINUOUS
 62
     7
100
AcDbCircle
 10
160.992698
 20
328.340156
 30
0.0
 40
7.795184
100
AcDbArc
 50
0.0
 51
90.0
  0
LINE
  5
97
100
AcDbEntity
  8
0
  6
CONTINUOUS
 62
     7
100
AcDbLine
 10
160.992698
 20
336.135341
 30
0.0
 11
160.992698
 21
336.240156
 31
0.0
  0
ARC
  5
98
100
AcDbEntity
  8
0
  6
CONTINUOUS
 62
     7
100
AcDbCircle
 10
160.992698
 20
328.340156
 30
0.0
 40
7.9
100
AcDbArc
 50
0.0
 51
90.0
  0
LINE
  5
99
100
AcDbEntity
  8
0
  6
CONTINUOUS
 62
     7
100
AcDbLine
 10
77.697514
 20
336.135341
 30
0.0
 11
77.697514
 21
336.240156
 31
0.0
  0
LINE
  5
9A
100
AcDbEntity
  8
0
  6
CONTINUOUS
 62
     7
100
AcDbLine
 10
160.992698
 20
336.240156
 30
0.0
 11
77.697514
 21
336.240156
 31
0.0
  0
LINE
  5
9B
100
AcDbEntity
  8
0
  6
CONTINUOUS
 62
     7
100
AcDbLine
 10
69.902329
 20
328.340156
 30
0.0
 11
69.797514
 21
328.340156
 31
0.0
  0
ARC
  5
9C
100
AcDbEntity
  8
0
  6
CONTINUOUS
 62
     7
100
AcDbCircle
 10
77.697514
 20
328.340156
 30
0.0
 40
7.9
100
AcDbArc
 50
90.0
 51
180.0
  0
LINE
  5
9D
100
AcDbEntity
  8
0
  6
CONTINUOUS
 62
     7
100
AcDbLine
 10
69.902329
 20
326.57106
 30
0.0
 11
69.797514
 21
326.57106
 31
0.0
  0
LINE
  5
9E
100
AcDbEntity
  8
0
  6
CONTINUOUS
 62
     7
100
AcDbLine
 10
69.797514
 20
328.340156
 30
0.0
 11
69.797514
 21
326.57106
 31
0.0
  0
LINE
  5
9F
100
AcDbEntity
  8
0
  6
CONTINUOUS
 62
     7
100
AcDbLine
 10
64.99147
 20
320.921763
 30
0.0
 11
64.976883
 21
321.025558
 31
0.0
  0
ARC
  5
A0
100
AcDbEntity
  8
0
  6
CONTINUOUS
 62
     7
100
AcDbCircle
 10
64.197514
 20
326.57106
 30
0.0
 40
5.6
100
AcDbArc
 50
278.0
 51
0.0
  0
LINE
  5
A1
100
AcDbEntity
  8
0
  6
CONTINUOUS
 62
     7
100
AcDbLine
 10
46.412634
 20
318.310678
 30
0.0
 11
46.398046
 21
318.414473
 31
0.0
  0
LINE
  5
A2
100
AcDbEntity
  8
0
  6
CONTINUOUS
 62
     7
100
AcDbLine
 10
64.976883
 20
321.025558
 30
0.0
 11
46.398046
 21
318.414473
 31
0.0
  0
LINE
  5
A3
100
AcDbEntity
  8
0
  6
CONTINUOUS
 62
     7
100
AcDbLine
 10
39.702329
 20
310.591355
 30
0.0
 11
39.597514
 21
310.591355
 31
0.0
  0
ARC
  5
A4
100
AcDbEntity
  8
0
  6
CONTINUOUS
 62
     7
100
AcDbCircle
 10
47.497514
 20
310.591355
 30
0.0
 40
7.9
100
AcDbArc
 50
98.0
 51
180.0
  0
LINE
  5
A5
100
AcDbEntity
  8
0
  6
CONTINUOUS
 62
     7
100
AcDbLine
 10
39.702329
 20
164.393773
 30
0.0
 11
39.597514
 21
164.393773
 31
0.0
  0
LINE
  5
A6
100
AcDbEntity
  8
0
  6
CONTINUOUS
 62
     7
100
AcDbLine
 10
39.597514
 20
310.591355
 30
0.0
 11
39.597514
 21
164.393773
 31
0.0
  0
LINE
  5
A7
100
AcDbEntity
  8
0
  6
CONTINUOUS
 62
     7
100
AcDbLine
 10
46.412634
 20
156.67445
 30
0.0
 11
46.398046
 21
156.570655
 31
0.0
  0
ARC
  5
A8
100
AcDbEntity
  8
0
  6
CONTINUOUS
 62
     7
100
AcDbCircle
 10
47.497514
 20
164.393773
 30
0.0
 40
7.9
100
AcDbArc
 50
180.0
 51
262.0
  0
LINE
  5
A9
100
AcDbEntity
  8
0
  6
CONTINUOUS
 62
     7
100
AcDbLine
 10
46.398046
 20
156.570655
 30
0.0
 11
64.976883
 21
153.95957
 31
0.0
  0
LINE
  5
AA
100
AcDbEntity
  8
0
  6
CONTINUOUS
 62
     7
100
AcDbLine
 10
168.787882
 20
148.414068
 30
0.0
 11
168.892698
 21
148.414068
 31
0.0
  0
LINE
  5
AB
100
AcDbEntity
  8
0
  6
CONTINUOUS
 62
     7
100
AcDbLine
 10
173.698741
 20
154.063365
 30
0.0
 11
173.713329
 21
153.95957
 31
0.0
  0
ARC
  5
AC
100
AcDbEntity
  8
0
  6
CONTINUOUS
 62
     7
100
AcDbCircle
 10
174.492698
 20
148.414068
 30
0.0
 40
5.6
100
AcDbArc
 50
98.0
 51
180.0
  0
LINE
  5
AD
100
AcDbEntity
  8
0
  6
CONTINUOUS
 62
     7
100
AcDbLine
 10
69.902329
 20
146.644972
 30
0.0
 11
69.797514
 21
146.644972
 31
0.0
  0
LINE
  5
AE
100
AcDbEntity
  8
0
  6
CONTINUOUS
 62
     7
100
AcDbLine
 10
69.797514
 20
148.414068
 30
0.0
 11
69.797514
 21
146.644972
 31
0.0
  0
LINE
  5
AF
100
AcDbEntity
  8
0
  6
CONTINUOUS
 62
     7
100
AcDbLine
 10
77.697514
 20
138.849787
 30
0.0
 11
77.697514
 21
138.744972
 31
0.0
  0
ARC
  5
B0
100
AcDbEntity
  8
0
  6
CONTINUOUS
 62
     7
100
AcDbCircle
 10
77.697514
 20
146.644972
 30
0.0
 40
7.9
100
AcDbArc
 50
180.0
 51
270.0
  0
LINE
  5
B1
100
AcDbEntity
  8
0
  6
CONTINUOUS
 62
     7
100
AcDbLine
 10
160.992698
 20
138.849787
 30
0.0
 11
160.992698
 21
138.744972
 31
0.0
  0
LINE
  5
B2
100
AcDbEntity
  8
0
  6
CONTINUOUS
 62
     7
100
AcDbLine
 10
77.697514
 20
138.744972
 30
0.0
 11
160.992698
 21
138.744972
 31
0.0
  0
LINE
  5
B3
100
AcDbEntity
  8
0
  6
CONTINUOUS
 62
     7
100
AcDbLine
 10
168.787882
 20
146.644972
 30
0.0
 11
168.892698
 21
146.644972
 31
0.0
  0
ARC
  5
B4
100
AcDbEntity
  8
0
  6
CONTINUOUS
 62
     7
100
AcDbCircle
 10
160.992698
 20
146.644972
 30
0.0
 40
7.9
100
AcDbArc
 50
270.0
 51
0.0
  0
LINE
  5
B5
100
AcDbEntity
  8
0
  6
CONTINUOUS
 62
     7
100
AcDbLine
 10
168.892698
 20
146.644972
 30
0.0
 11
168.892698
 21
148.414068
 31
0.0
  0
LINE
  5
B6
100
AcDbEntity
  8
0
  6
CONTINUOUS
 62
     7
100
AcDbLine
 10
198.987882
 20
164.393773
 30
0.0
 11
199.092698
 21
164.393773
 31
0.0
  0
LINE
  5
B7
100
AcDbEntity
  8
0
  6
CONTINUOUS
 62
     7
100
AcDbLine
 10
198.987882
 20
310.591355
 30
0.0
 11
199.092698
 21
310.591355
 31
0.0
  0
LINE
  5
B8
100
AcDbEntity
  8
0
  6
CONTINUOUS
 62
     7
100
AcDbLine
 10
199.092698
 20
164.393773
 30
0.0
 11
199.092698
 21
310.591355
 31
0.0
  0
LINE
  5
B9
100
AcDbEntity
  8
0
  6
CONTINUOUS
 62
     7
100
AcDbLine
 10
192.277578
 20
156.67445
 30
0.0
 11
192.292165
 21
156.570655
 31
0.0
  0
LINE
  5
BA
100
AcDbEntity
  8
0
  6
CONTINUOUS
 62
     7
100
AcDbLine
 10
173.713329
 20
153.95957
 30
0.0
 11
192.292165
 21
156.570655
 31
0.0
  0
ARC
  5
BB
100
AcDbEntity
  8
0
  6
CONTINUOUS
 62
     7
100
AcDbCircle
 10
191.192698
 20
164.393773
 30
0.0
 40
7.9
100
AcDbArc
 50
278.0
 51
0.0
  0
LINE
  5
BC
100
AcDbEntity
  8
0
  6
CONTINUOUS
 62
     7
100
AcDbLine
 10
192.277578
 20
318.310678
 30
0.0
 11
192.292165
 21
318.414473
 31
0.0
  0
ARC
  5
BD
100
AcDbEntity
  8
0
  6
CONTINUOUS
 62
     7
100
AcDbCircle
 10
191.192698
 20
310.591355
 30
0.0
 40
7.9
100
AcDbArc
 50
0.0
 51
82.0
  0
LINE
  5
BE
100
AcDbEntity
  8
0
  6
CONTINUOUS
 62
     7
100
AcDbLine
 10
192.292165
 20
318.414473
 30
0.0
 11
173.713329
 21
321.025558
 31
0.0
  0
ARC
  5
BF
100
AcDbEntity
  8
0
  6
CONTINUOUS
 62
     7
100
AcDbCircle
 10
194.956134
 20
332.103592
 30
0.0
 40
5.288973
100
AcDbArc
 50
359.969611
 51
90.030389
  0
LINE
  5
C0
100
AcDbEntity
  8
0
  6
CONTINUOUS
 62
     7
100
AcDbLine
 10
200.245106
 20
142.884341
 30
0.0
 11
200.245106
 21
332.100787
 31
0.0
  0
ARC
  5
C1
100
AcDbEntity
  8
0
  6
CONTINUOUS
 62
     7
100
AcDbCircle
 10
43.734078
 20
332.103592
 30
0.0
 40
5.288973
100
AcDbArc
 50
89.969611
 51
180.030389
  0
LINE
  5
C2
100
AcDbEntity
  8
0
  6
CONTINUOUS
 62
     7
100
AcDbLine
 10
38.445106
 20
332.100787
 30
0.0
 11
38.445106
 21
142.884341
 31
0.0
  0
LINE
  5
C3
100
AcDbEntity
  8
0
  6
CONTINUOUS
 62
     7
100
AcDbLine
 10
194.953329
 20
337.392564
 30
0.0
 11
43.736883
 21
337.392564
 31
0.0
  0
LINE
  5
C4
100
AcDbEntity
  8
0
  6
CONTINUOUS
 62
     7
100
AcDbLine
 10
43.736883
 20
137.592564
 30
0.0
 11
194.953329
 21
137.592564
 31
0.0
  0
ARC
  5
C5
100
AcDbEntity
  8
0
  6
CONTINUOUS
 62
     7
100
AcDbCircle
 10
194.956134
 20
142.881536
 30
0.0
 40
5.288973
100
AcDbArc
 50
269.969611
 51
0.030389
  0
ARC
  5
C6
100
AcDbEntity
  8
0
  6
CONTINUOUS
 62
     7
100
AcDbCircle
 10
43.734078
 20
142.881536
 30
0.0
 40
5.288973
100
AcDbArc
 50
179.969611
 51
270.030389
  0
ELLIPSE
  5
C7
100
AcDbEntity
  8
0
  6
CONTINUOUS
 62
     7
100
AcDbEllipse
 10
43.805748
 20
142.953206
 30
0.0
 11
4.254277460610354
 21
4.254277460610468
 31
0.0
210
0.0
220
0.0
230
1.0
 40
0.997265
 41
2.357564018062722
 42
3.925621289116848
  0
LINE
  5
C8
100
AcDbEntity
  8
0
  6
CONTINUOUS
 62
     7
100
AcDbLine
 10
37.797514
 20
332.048379
 30
0.0
 11
37.797514
 21
142.936749
 31
0.0
  0
ELLIPSE
  5
C9
100
AcDbEntity
  8
0
  6
CONTINUOUS
 62
     7
100
AcDbEllipse
 10
43.805748
 20
332.031922
 30
0.0
 11
4.254277460610354
 21
-4.254277460610468
 31
0.0
210
0.0
220
0.0
230
1.0
 40
0.997265
 41
2.357564018062752
 42
3.925621289116876
  0
LINE
  5
CA
100
AcDbEntity
  8
0
  6
CONTINUOUS
 62
     7
100
AcDbLine
 10
194.900921
 20
338.040156
 30
0.0
 11
43.789291
 21
338.040156
 31
0.0
  0
ELLIPSE
  5
CB
100
AcDbEntity
  8
0
  6
CONTINUOUS
 62
     7
100
AcDbEllipse
 10
194.884464
 20
332.031922
 30
0.0
 11
4.254277460610353
 21
4.254277460610411
 31
0.0
210
0.0
220
0.0
230
1.0
 40
0.997265
 41
5.499156671652543
 42
7.067213942706643
  0
LINE
  5
CC
100
AcDbEntity
  8
0
  6
CONTINUOUS
 62
     7
100
AcDbLine
 10
200.892698
 20
142.936749
 30
0.0
 11
200.892698
 21
332.048379
 31
0.0
  0
ELLIPSE
  5
CD
100
AcDbEntity
  8
0
  6
CONTINUOUS
 62
     7
100
AcDbEllipse
 10
194.884464
 20
142.953206
 30
0.0
 11
4.254277460610354
 21
-4.254277460610468
 31
0.0
210
0.0
220
0.0
230
1.0
 40
0.997265
 41
5.499156671652553
 42
7.067213942706668
  0
LINE
  5
CE
100
AcDbEntity
  8
0
  6
CONTINUOUS
 62
     7
100
AcDbLine
 10
43.789291
 20
136.944972
 30
0.0
 11
194.900921
 21
136.944972
 31
0.0
  0
ARC
  5
CF
100
AcDbEntity
  8
0
  6
CONTINUOUS
 62
     7
100
AcDbCircle
 10
64.197514
 20
148.414068
 30
0.0
 40
8.832269
100
AcDbArc
 50
0.0
 51
82.0
  0
LINE
  5
D0
100
AcDbEntity
  8
0
  6
CONTINUOUS
 62
     7
100
AcDbLine
 10
73.029783
 20
148.414068
 30
0.0
 11
72.530468
 21
148.414068
 31
0.0
  0
LINE
  5
D1
100
AcDbEntity
  8
0
  6
CONTINUOUS
 62
     7
100
AcDbLine
 10
65.426728
 20
157.160382
 30
0.0
 11
65.357237
 21
156.665927
 31
0.0
  0
ARC
  5
D2
100
AcDbEntity
  8
0
  6
CONTINUOUS
 62
     7
100
AcDbCircle
 10
191.192698
 20
164.393773
 30
0.0
 40
4.667731
100
AcDbArc
 50
278.0
 51
0.0
  0
LINE
  5
D3
100
AcDbEntity
  8
0
  6
CONTINUOUS
 62
     7
100
AcDbLine
 10
195.860429
 20
164.393773
 30
0.0
 11
196.359744
 21
164.393773
 31
0.0
  0
LINE
  5
D4
100
AcDbEntity
  8
0
  6
CONTINUOUS
 62
     7
100
AcDbLine
 10
191.842321
 20
159.771468
 30
0.0
 11
191.911812
 21
159.277012
 31
0.0
  0
LINE
  5
D5
100
AcDbEntity
  8
0
  6
CONTINUOUS
 62
     7
100
AcDbLine
 10
173.263484
 20
157.160382
 30
0.0
 11
191.842321
 21
159.771468
 31
0.0
  0
LINE
  5
D6
100
AcDbEntity
  8
0
  6
CONTINUOUS
 62
     7
100
AcDbLine
 10
173.263484
 20
157.160382
 30
0.0
 11
173.332975
 21
156.665927
 31
0.0
  0
LINE
  5
D7
100
AcDbEntity
  8
0
  6
CONTINUOUS
 62
     7
100
AcDbLine
 10
46.847891
 20
159.771468
 30
0.0
 11
65.426728
 21
157.160382
 31
0.0
  0
LINE
  5
D8
100
AcDbEntity
  8
0
  6
CONTINUOUS
 62
     7
100
AcDbLine
 10
46.7784
 20
159.277012
 30
0.0
 11
46.847891
 21
159.771468
 31
0.0
  0
ARC
  5
D9
100
AcDbEntity
  8
0
  6
CONTINUOUS
 62
     7
100
AcDbCircle
 10
191.192698
 20
310.591355
 30
0.0
 40
4.667731
100
AcDbArc
 50
0.0
 51
82.0
  0
LINE
  5
DA
100
AcDbEntity
  8
0
  6
CONTINUOUS
 62
     7
100
AcDbLine
 10
191.842321
 20
315.21366
 30
0.0
 11
191.911812
 21
315.708116
 31
0.0
  0
LINE
  5
DB
100
AcDbEntity
  8
0
  6
CONTINUOUS
 62
     7
100
AcDbLine
 10
195.860429
 20
310.591355
 30
0.0
 11
196.359744
 21
310.591355
 31
0.0
  0
LINE
  5
DC
100
AcDbEntity
  8
0
  6
CONTINUOUS
 62
     7
100
AcDbLine
 10
65.357237
 20
318.319201
 30
0.0
 11
65.426728
 21
317.824746
 31
0.0
  0
LINE
  5
DD
100
AcDbEntity
  8
0
  6
CONTINUOUS
 62
     7
100
AcDbLine
 10
65.426728
 20
317.824746
 30
0.0
 11
46.847891
 21
315.21366
 31
0.0
  0
LINE
  5
DE
100
AcDbEntity
  8
0
  6
CONTINUOUS
 62
     7
100
AcDbLine
 10
46.7784
 20
315.708116
 30
0.0
 11
46.847891
 21
315.21366
 31
0.0
  0
ARC
  5
DF
100
AcDbEntity
  8
0
  6
CONTINUOUS
 62
     7
100
AcDbCircle
 10
47.497514
 20
310.591355
 30
0.0
 40
4.667731
100
AcDbArc
 50
98.0
 51
180.0
  0
LINE
  5
E0
100
AcDbEntity
  8
0
  6
CONTINUOUS
 62
     7
100
AcDbLine
 10
42.330468
 20
310.591355
 30
0.0
 11
42.829783
 21
310.591355
 31
0.0
  0
LINE
  5
E1
100
AcDbEntity
  8
0
  6
CONTINUOUS
 62
     7
100
AcDbLine
 10
72.530468
 20
326.57106
 30
0.0
 11
73.029783
 21
326.57106
 31
0.0
  0
ARC
  5
E2
100
AcDbEntity
  8
0
  6
CONTINUOUS
 62
     7
100
AcDbCircle
 10
64.197514
 20
326.57106
 30
0.0
 40
8.832269
100
AcDbArc
 50
278.0
 51
0.0
  0
ARC
  5
E3
100
AcDbEntity
  8
0
  6
CONTINUOUS
 62
     7
100
AcDbCircle
 10
174.492698
 20
148.414068
 30
0.0
 40
8.832269
100
AcDbArc
 50
98.0
 51
180.0
  0
LINE
  5
E4
100
AcDbEntity
  8
0
  6
CONTINUOUS
 62
     7
100
AcDbLine
 10
165.660429
 20
148.414068
 30
0.0
 11
166.159744
 21
148.414068
 31
0.0
  0
LINE
  5
E5
100
AcDbEntity
  8
0
  6
CONTINUOUS
 62
     7
100
AcDbLine
 10
191.842321
 20
315.21366
 30
0.0
 11
173.263484
 21
317.824746
 31
0.0
  0
LINE
  5
E6
100
AcDbEntity
  8
0
  6
CONTINUOUS
 62
     7
100
AcDbLine
 10
173.332975
 20
318.319201
 30
0.0
 11
173.263484
 21
317.824746
 31
0.0
  0
LINE
  5
E7
100
AcDbEntity
  8
0
  6
CONTINUOUS
 62
     7
100
AcDbLine
 10
42.330468
 20
164.393773
 30
0.0
 11
42.829783
 21
164.393773
 31
0.0
  0
ARC
  5
E8
100
AcDbEntity
  8
0
  6
CONTINUOUS
 62
     7
100
AcDbCircle
 10
47.497514
 20
164.393773
 30
0.0
 40
4.667731
100
AcDbArc
 50
180.0
 51
262.0
  0
LINE
  5
E9
100
AcDbEntity
  8
0
  6
CONTINUOUS
 62
     7
100
AcDbLine
 10
195.860429
 20
164.393773
 30
0.0
 11
195.860429
 21
310.591355
 31
0.0
  0
LINE
  5
EA
100
AcDbEntity
  8
0
  6
CONTINUOUS
 62
     7
100
AcDbLine
 10
72.530468
 20
328.340156
 30
0.0
 11
73.029783
 21
328.340156
 31
0.0
  0
LINE
  5
EB
100
AcDbEntity
  8
0
  6
CONTINUOUS
 62
     7
100
AcDbLine
 10
73.029783
 20
328.340156
 30
0.0
 11
73.029783
 21
326.57106
 31
0.0
  0
LINE
  5
EC
100
AcDbEntity
  8
0
  6
CONTINUOUS
 62
     7
100
AcDbLine
 10
77.697514
 20
141.977241
 30
0.0
 11
160.992698
 21
141.977241
 31
0.0
  0
LINE
  5
ED
100
AcDbEntity
  8
0
  6
CONTINUOUS
 62
     7
100
AcDbLine
 10
160.992698
 20
141.977241
 30
0.0
 11
160.992698
 21
141.477926
 31
0.0
  0
LINE
  5
EE
100
AcDbEntity
  8
0
  6
CONTINUOUS
 62
     7
100
AcDbLine
 10
77.697514
 20
141.977241
 30
0.0
 11
77.697514
 21
141.477926
 31
0.0
  0
LINE
  5
EF
100
AcDbEntity
  8
0
  6
CONTINUOUS
 62
     7
100
AcDbLine
 10
165.660429
 20
146.644972
 30
0.0
 11
165.660429
 21
148.414068
 31
0.0
  0
LINE
  5
F0
100
AcDbEntity
  8
0
  6
CONTINUOUS
 62
     7
100
AcDbLine
 10
165.660429
 20
146.644972
 30
0.0
 11
166.159744
 21
146.644972
 31
0.0
  0
LINE
  5
F1
100
AcDbEntity
  8
0
  6
CONTINUOUS
 62
     7
100
AcDbLine
 10
166.159744
 20
328.340156
 30
0.0
 11
165.660429
 21
328.340156
 31
0.0
  0
ARC
  5
F2
100
AcDbEntity
  8
0
  6
CONTINUOUS
 62
     7
100
AcDbCircle
 10
160.992698
 20
328.340156
 30
0.0
 40
4.667731
100
AcDbArc
 50
0.0
 51
90.0
  0
LINE
  5
F3
100
AcDbEntity
  8
0
  6
CONTINUOUS
 62
     7
100
AcDbLine
 10
160.992698
 20
333.507202
 30
0.0
 11
160.992698
 21
333.007887
 31
0.0
  0
LINE
  5
F4
100
AcDbEntity
  8
0
  6
CONTINUOUS
 62
     7
100
AcDbLine
 10
166.159744
 20
326.57106
 30
0.0
 11
165.660429
 21
326.57106
 31
0.0
  0
LINE
  5
F5
100
AcDbEntity
  8
0
  6
CONTINUOUS
 62
     7
100
AcDbLine
 10
165.660429
 20
326.57106
 30
0.0
 11
165.660429
 21
328.340156
 31
0.0
  0
ARC
  5
F6
100
AcDbEntity
  8
0
  6
CONTINUOUS
 62
     7
100
AcDbCircle
 10
77.697514
 20
146.644972
 30
0.0
 40
4.667731
100
AcDbArc
 50
180.0
 51
270.0
  0
LINE
  5
F7
100
AcDbEntity
  8
0
  6
CONTINUOUS
 62
     7
100
AcDbLine
 10
73.029783
 20
146.644972
 30
0.0
 11
72.530468
 21
146.644972
 31
0.0
  0
ARC
  5
F8
100
AcDbEntity
  8
0
  6
CONTINUOUS
 62
     7
100
AcDbCircle
 10
174.492698
 20
326.57106
 30
0.0
 40
8.832269
100
AcDbArc
 50
180.0
 51
262.0
  0
LINE
  5
F9
100
AcDbEntity
  8
0
  6
CONTINUOUS
 62
     7
100
AcDbLine
 10
73.029783
 20
148.414068
 30
0.0
 11
73.029783
 21
146.644972
 31
0.0
  0
LINE
  5
FA
100
AcDbEntity
  8
0
  6
CONTINUOUS
 62
     7
100
AcDbLine
 10
160.992698
 20
333.007887
 30
0.0
 11
77.697514
 21
333.007887
 31
0.0
  0
LINE
  5
FB
100
AcDbEntity
  8
0
  6
CONTINUOUS
 62
     7
100
AcDbLine
 10
77.697514
 20
333.507202
 30
0.0
 11
77.697514
 21
333.007887
 31
0.0
  0
LINE
  5
FC
100
AcDbEntity
  8
0
  6
CONTINUOUS
 62
     7
100
AcDbLine
 10
42.829783
 20
310.591355
 30
0.0
 11
42.829783
 21
164.393773
 31
0.0
  0
ARC
  5
FD
100
AcDbEntity
  8
0
  6
CONTINUOUS
 62
     7
100
AcDbCircle
 10
160.992698
 20
146.644972
 30
0.0
 40
4.667731
100
AcDbArc
 50
270.0
 51
0.0
  0
ARC
  5
FE
100
AcDbEntity
  8
0
  6
CONTINUOUS
 62
     7
100
AcDbCircle
 10
77.697514
 20
328.340156
 30
0.0
 40
4.667731
100
AcDbArc
 50
90.0
 51
180.0
  0
LINE
  5
FF
100
AcDbEntity
  8
0
  6
CONTINUOUS
 62
     7
100
AcDbLine
 10
277.981256
 20
332.048379
 30
0.0
 11
277.981256
 21
142.936749
 31
0.0
  0
LINE
  5
100
100
AcDbEntity
  8
0
  6
CONTINUOUS
 62
     7
100
AcDbLine
 10
254.479201
 20
144.16844
 30
0.0
 11
277.981256
 21
142.936749
 31
0.0
  0
LINE
  5
101
100
AcDbEntity
  8
0
  6
CONTINUOUS
 62
     7
100
AcDbLine
 10
254.479201
 20
330.816688
 30
0.0
 11
254.479201
 21
144.16844
 31
0.0
  0
LINE
  5
102
100
AcDbEntity
  8
0
  6
CONTINUOUS
 62
     7
100
AcDbLine
 10
277.981256
 20
332.048379
 30
0.0
 11
254.479201
 21
330.816688
 31
0.0
  0
LINE
  5
103
100
AcDbEntity
  8
0
  6
CONTINUOUS
 62
     7
100
AcDbLine
 10
277.981256
 20
136.944972
 30
0.0
 11
277.981256
 21
142.936749
 31
0.0
  0
LINE
  5
104
100
AcDbEntity
  8
0
  6
CONTINUOUS
 62
     7
100
AcDbLine
 10
277.981256
 20
136.944972
 30
0.0
 11
254.479201
 21
138.176662
 31
0.0
  0
ARC
  5
105
100
AcDbEntity
  8
0
  6
CONTINUOUS
 62
     7
100
AcDbCircle
 10
348.299034
 20
141.172551
 30
0.0
 40
93.867654
100
AcDbArc
 50
178.171032
 51
181.828968
  0
LINE
  5
106
100
AcDbEntity
  8
0
  6
CONTINUOUS
 62
     7
100
AcDbLine
 10
277.981256
 20
332.048379
 30
0.0
 11
277.981256
 21
338.040156
 31
0.0
  0
ARC
  5
107
100
AcDbEntity
  8
0
  6
CONTINUOUS
 62
     7
100
AcDbCircle
 10
348.299034
 20
333.812577
 30
0.0
 40
93.867654
100
AcDbArc
 50
178.171032
 51
181.828968
  0
LINE
  5
108
100
AcDbEntity
  8
0
  6
CONTINUOUS
 62
     7
100
AcDbLine
 10
254.479201
 20
336.808466
 30
0.0
 11
277.981256
 21
338.040156
 31
0.0
  0
LINE
  5
109
100
AcDbEntity
  8
0
  6
CONTINUOUS
 62
     7
100
AcDbLine
 10
277.981256
 20
332.100787
 30
0.0
 11
278.981256
 21
332.100787
 31
0.0
  0
LINE
  5
10A
100
AcDbEntity
  8
0
  6
CONTINUOUS
 62
     7
100
AcDbLine
 10
277.981256
 20
337.392564
 30
0.0
 11
278.981256
 21
337.392564
 31
0.0
  0
LINE
  5
10B
100
AcDbEntity
  8
0
  6
CONTINUOUS
 62
     7
100
AcDbLine
 10
278.981256
 20
337.392564
 30
0.0
 11
278.981256
 21
332.100787
 31
0.0
  0
LINE
  5
10C
100
AcDbEntity
  8
0
  6
CONTINUOUS
 62
     7
100
AcDbLine
 10
277.981256
 20
142.884341
 30
0.0
 11
278.981256
 21
142.884341
 31
0.0
  0
LINE
  5
10D
100
AcDbEntity
  8
0
  6
CONTINUOUS
 62
     7
100
AcDbLine
 10
278.981256
 20
332.100787
 30
0.0
 11
278.981256
 21
142.884341
 31
0.0
  0
LINE
  5
10E
100
AcDbEntity
  8
0
  6
CONTINUOUS
 62
     7
100
AcDbLine
 10
277.981256
 20
137.592564
 30
0.0
 11
278.981256
 21
137.592564
 31
0.0
  0
LINE
  5
10F
100
AcDbEntity
  8
0
  6
CONTINUOUS
 62
     7
100
AcDbLine
 10
278.981256
 20
142.884341
 30
0.0
 11
278.981256
 21
137.592564
 31
0.0
  0
LINE
  5
110
100
AcDbEntity
  8
0
  6
CONTINUOUS
 62
     7
100
AcDbLine
 10
254.479201
 20
330.816688
 30
0.0
 11
252.981256
 21
330.816688
 31
0.0
  0
LINE
  5
111
100
AcDbEntity
  8
0
  6
CONTINUOUS
 62
     7
100
AcDbLine
 10
252.981256
 20
330.816688
 30
0.0
 11
252.981256
 21
335.14483
 31
0.0
  0
LINE
  5
112
100
AcDbEntity
  8
0
  6
CONTINUOUS
 62
     7
100
AcDbLine
 10
254.479201
 20
336.808466
 30
0.0
 11
252.981256
 21
335.14483
 31
0.0
  0
LINE
  5
113
100
AcDbEntity
  8
0
  6
CONTINUOUS
 62
     7
100
AcDbLine
 10
252.981256
 20
139.840298
 30
0.0
 11
252.981256
 21
144.16844
 31
0.0
  0
LINE
  5
114
100
AcDbEntity
  8
0
  6
CONTINUOUS
 62
     7
100
AcDbLine
 10
252.981256
 20
144.16844
 30
0.0
 11
254.479201
 21
144.16844
 31
0.0
  0
LINE
  5
115
100
AcDbEntity
  8
0
  6
CONTINUOUS
 62
     7
100
AcDbLine
 10
252.981256
 20
139.840298
 30
0.0
 11
254.479201
 21
138.176662
 31
0.0
  0
LINE
  5
116
100
AcDbEntity
  8
0
  6
CONTINUOUS
 62
     7
100
AcDbLine
 10
252.981256
 20
144.16844
 30
0.0
 11
252.981256
 21
330.816688
 31
0.0
  0
LINE
  5
117
100
AcDbEntity
  8
0
  6
CONTINUOUS
 62
     7
100
AcDbLine
 10
280.981256
 20
310.591355
 30
0.0
 11
278.981256
 21
310.591355
 31
0.0
  0
LINE
  5
118
100
AcDbEntity
  8
0
  6
CONTINUOUS
 62
     7
100
AcDbLine
 10
280.981256
 20
310.591355
 30
0.0
 11
280.981256
 21
164.393773
 31
0.0
  0
LINE
  5
119
100
AcDbEntity
  8
0
  6
CONTINUOUS
 62
     7
100
AcDbLine
 10
280.981256
 20
164.393773
 30
0.0
 11
278.981256
 21
164.393773
 31
0.0
  0
LINE
  5
11A
100
AcDbEntity
  8
0
  6
CONTINUOUS
 62
     7
100
AcDbLine
 10
280.981256
 20
164.393773
 30
0.0
 11
280.981256
 21
156.67445
 31
0.0
  0
LINE
  5
11B
100
AcDbEntity
  8
0
  6
CONTINUOUS
 62
     7
100
AcDbLine
 10
280.981256
 20
156.67445
 30
0.0
 11
278.981256
 21
156.570655
 31
0.0
  0
LINE
  5
11C
100
AcDbEntity
  8
0
  6
CONTINUOUS
 62
     7
100
AcDbLine
 10
280.981256
 20
318.310678
 30
0.0
 11
278.981256
 21
318.414473
 31
0.0
  0
LINE
  5
11D
100
AcDbEntity
  8
0
  6
CONTINUOUS
 62
     7
100
AcDbLine
 10
280.981256
 20
318.310678
 30
0.0
 11
280.981256
 21
310.591355
 31
0.0
  0
LINE
  5
11E
100
AcDbEntity
  8
0
  6
CONTINUOUS
 62
     7
100
AcDbLine
 10
280.981256
 20
154.063365
 30
0.0
 11
278.981256
 21
153.95957
 31
0.0
  0
LINE
  5
11F
100
AcDbEntity
  8
0
  6
CONTINUOUS
 62
     7
100
AcDbLine
 10
280.981256
 20
156.67445
 30
0.0
 11
280.981256
 21
154.063365
 31
0.0
  0
LINE
  5
120
100
AcDbEntity
  8
0
  6
CONTINUOUS
 62
     7
100
AcDbLine
 10
280.981256
 20
320.921763
 30
0.0
 11
278.981256
 21
321.025558
 31
0.0
  0
LINE
  5
121
100
AcDbEntity
  8
0
  6
CONTINUOUS
 62
     7
100
AcDbLine
 10
280.981256
 20
320.921763
 30
0.0
 11
280.981256
 21
318.310678
 31
0.0
  0
LINE
  5
122
100
AcDbEntity
  8
0
  6
CONTINUOUS
 62
     7
100
AcDbLine
 10
280.981256
 20
326.57106
 30
0.0
 11
278.981256
 21
326.57106
 31
0.0
  0
LINE
  5
123
100
AcDbEntity
  8
0
  6
CONTINUOUS
 62
     7
100
AcDbLine
 10
280.981256
 20
326.57106
 30
0.0
 11
280.981256
 21
320.921763
 31
0.0
  0
LINE
  5
124
100
AcDbEntity
  8
0
  6
CONTINUOUS
 62
     7
100
AcDbLine
 10
280.981256
 20
148.414068
 30
0.0
 11
278.981256
 21
148.414068
 31
0.0
  0
LINE
  5
125
100
AcDbEntity
  8
0
  6
CONTINUOUS
 62
     7
100
AcDbLine
 10
280.981256
 20
154.063365
 30
0.0
 11
280.981256
 21
148.414068
 31
0.0
  0
LINE
  5
126
100
AcDbEntity
  8
0
  6
CONTINUOUS
 62
     7
100
AcDbLine
 10
280.981256
 20
146.644972
 30
0.0
 11
278.981256
 21
146.644972
 31
0.0
  0
LINE
  5
127
100
AcDbEntity
  8
0
  6
CONTINUOUS
 62
     7
100
AcDbLine
 10
280.981256
 20
148.414068
 30
0.0
 11
280.981256
 21
146.644972
 31
0.0
  0
LINE
  5
128
100
AcDbEntity
  8
0
  6
CONTINUOUS
 62
     7
100
AcDbLine
 10
280.981256
 20
328.340156
 30
0.0
 11
278.981256
 21
328.340156
 31
0.0
  0
LINE
  5
129
100
AcDbEntity
  8
0
  6
CONTINUOUS
 62
     7
100
AcDbLine
 10
280.981256
 20
328.340156
 30
0.0
 11
280.981256
 21
326.57106
 31
0.0
  0
LINE
  5
12A
100
AcDbEntity
  8
0
  6
CONTINUOUS
 62
     7
100
AcDbLine
 10
280.981256
 20
138.849787
 30
0.0
 11
278.981256
 21
138.744972
 31
0.0
  0
LINE
  5
12B
100
AcDbEntity
  8
0
  6
CONTINUOUS
 62
     7
100
AcDbLine
 10
280.981256
 20
146.644972
 30
0.0
 11
280.981256
 21
138.849787
 31
0.0
  0
LINE
  5
12C
100
AcDbEntity
  8
0
  6
CONTINUOUS
 62
     7
100
AcDbLine
 10
280.981256
 20
336.135341
 30
0.0
 11
278.981256
 21
336.240156
 31
0.0
  0
LINE
  5
12D
100
AcDbEntity
  8
0
  6
CONTINUOUS
 62
     7
100
AcDbLine
 10
280.981256
 20
336.135341
 30
0.0
 11
280.981256
 21
328.340156
 31
0.0
  0
ARC
  5
12E
100
AcDbEntity
  8
0
  6
CONTINUOUS
 62
     7
100
AcDbCircle
 10
344.10456
 20
330.812755
 30
0.0
 40
5.995712
100
AcDbArc
 50
90.037585
 51
179.962415
  0
LINE
  5
12F
100
AcDbEntity
  8
0
  6
CONTINUOUS
 62
     7
100
AcDbLine
 10
344.100627
 20
336.808466
 30
0.0
 11
344.100627
 21
335.14483
 31
0.0
  0
ARC
  5
130
100
AcDbEntity
  8
0
  6
CONTINUOUS
 62
     7
100
AcDbCircle
 10
344.10337
 20
330.813946
 30
0.0
 40
4.330885
100
AcDbArc
 50
90.036285
 51
179.963715
  0
LINE
  5
131
100
AcDbEntity
  8
0
  6
CONTINUOUS
 62
     7
100
AcDbLine
 10
338.10885
 20
330.816688
 30
0.0
 11
339.772486
 21
330.816688
 31
0.0
  0
LINE
  5
132
100
AcDbEntity
  8
0
  6
CONTINUOUS
 62
     7
100
AcDbLine
 10
339.772486
 20
330.816688
 30
0.0
 11
339.772486
 21
144.16844
 31
0.0
  0
LINE
  5
133
100
AcDbEntity
  8
0
  6
CONTINUOUS
 62
     7
100
AcDbLine
 10
339.772486
 20
144.16844
 30
0.0
 11
338.10885
 21
144.16844
 31
0.0
  0
LINE
  5
134
100
AcDbEntity
  8
0
  6
CONTINUOUS
 62
     7
100
AcDbLine
 10
338.10885
 20
144.16844
 30
0.0
 11
338.10885
 21
330.816688
 31
0.0
  0
ARC
  5
135
100
AcDbEntity
  8
0
  6
CONTINUOUS
 62
     7
100
AcDbCircle
 10
344.10337
 20
144.171182
 30
0.0
 40
4.330885
100
AcDbArc
 50
180.036285
 51
269.963715
  0
LINE
  5
136
100
AcDbEntity
  8
0
  6
CONTINUOUS
 62
     7
100
AcDbLine
 10
344.100627
 20
139.840298
 30
0.0
 11
344.100627
 21
138.176662
 31
0.0
  0
ARC
  5
137
100
AcDbEntity
  8
0
  6
CONTINUOUS
 62
     7
100
AcDbCircle
 10
344.10456
 20
144.172373
 30
0.0
 40
5.995712
100
AcDbArc
 50
180.037585
 51
269.962415
  0
CIRCLE
  5
138
100
AcDbEntity
  8
0
  6
CONTINUOUS
 62
     7
100
AcDbCircle
 10
349.324752
 20
149.392564
 30
0.0
 40
6.6
  0
CIRCLE
  5
139
100
AcDbEntity
  8
0
  6
CONTINUOUS
 62
     7
100
AcDbCircle
 10
349.324752
 20
325.592564
 30
0.0
 40
6.6
  0
CIRCLE
  5
13A
100
AcDbEntity
  8
0
  6
CONTINUOUS
 62
     7
100
AcDbCircle
 10
487.524752
 20
325.592564
 30
0.0
 40
6.6
  0
CIRCLE
  5
13B
100
AcDbEntity
  8
0
  6
CONTINUOUS
 62
     7
100
AcDbCircle
 10
487.524752
 20
149.392564
 30
0.0
 40
6.6
  0
LINE
  5
13C
100
AcDbEntity
  8
0
  6
CONTINUOUS
 62
     7
100
AcDbLine
 10
344.100627
 20
139.840298
 30
0.0
 11
492.748876
 21
139.840298
 31
0.0
  0
LINE
  5
13D
100
AcDbEntity
  8
0
  6
CONTINUOUS
 62
     7
100
AcDbLine
 10
492.748876
 20
335.14483
 30
0.0
 11
344.100627
 21
335.14483
 31
0.0
  0
ARC
  5
13E
100
AcDbEntity
  8
0
  6
CONTINUOUS
 62
     7
100
AcDbCircle
 10
492.746133
 20
330.813946
 30
0.0
 40
4.330885
100
AcDbArc
 50
0.036285
 51
89.963715
  0
LINE
  5
13F
100
AcDbEntity
  8
0
  6
CONTINUOUS
 62
     7
100
AcDbLine
 10
497.077018
 20
144.16844
 30
0.0
 11
497.077018
 21
330.816688
 31
0.0
  0
ARC
  5
140
100
AcDbEntity
  8
0
  6
CONTINUOUS
 62
     7
100
AcDbCircle
 10
492.746133
 20
144.171182
 30
0.0
 40
4.330885
100
AcDbArc
 50
270.036285
 51
359.963715
  0
LINE
  5
141
100
AcDbEntity
  8
0
  6
CONTINUOUS
 62
     7
100
AcDbLine
 10
492.748876
 20
139.840298
 30
0.0
 11
492.748876
 21
138.176662
 31
0.0
  0
LINE
  5
142
100
AcDbEntity
  8
0
  6
CONTINUOUS
 62
     7
100
AcDbLine
 10
492.748876
 20
138.176662
 30
0.0
 11
344.100627
 21
138.176662
 31
0.0
  0
LINE
  5
143
100
AcDbEntity
  8
0
  6
CONTINUOUS
 62
     7
100
AcDbLine
 10
344.100627
 20
336.808466
 30
0.0
 11
492.748876
 21
336.808466
 31
0.0
  0
LINE
  5
144
100
AcDbEntity
  8
0
  6
CONTINUOUS
 62
     7
100
AcDbLine
 10
492.748876
 20
336.808466
 30
0.0
 11
492.748876
 21
335.14483
 31
0.0
  0
LINE
  5
145
100
AcDbEntity
  8
0
  6
CONTINUOUS
 62
     7
100
AcDbLine
 10
497.077018
 20
144.16844
 30
0.0
 11
498.740653
 21
144.16844
 31
0.0
  0
ARC
  5
146
100
AcDbEntity
  8
0
  6
CONTINUOUS
 62
     7
100
AcDbCircle
 10
492.744943
 20
144.172373
 30
0.0
 40
5.995712
100
AcDbArc
 50
270.037591
 51
359.962409
  0
ARC
  5
147
100
AcDbEntity
  8
0
  6
CONTINUOUS
 62
     7
100
AcDbCircle
 10
492.744943
 20
330.812755
 30
0.0
 40
5.995712
100
AcDbArc
 50
0.037591
 51
89.962409
  0
LINE
  5
148
100
AcDbEntity
  8
0
  6
CONTINUOUS
 62
     7
100
AcDbLine
 10
498.740653
 20
330.816688
 30
0.0
 11
497.077018
 21
330.816688
 31
0.0
  0
LINE
  5
149
100
AcDbEntity
  8
0
  6
CONTINUOUS
 62
     7
100
AcDbLine
 10
498.740653
 20
330.816688
 30
0.0
 11
498.740653
 21
144.16844
 31
0.0
  0
CIRCLE
  5
14A
100
AcDbEntity
  8
0
  6
CONTINUOUS
 62
     7
100
AcDbCircle
 10
349.324752
 20
149.392564
 30
0.0
 40
6.510986
  0
CIRCLE
  5
14B
100
AcDbEntity
  8
0
  6
CONTINUOUS
 62
     7
100
AcDbCircle
 10
349.324752
 20
325.592564
 30
0.0
 40
6.510986
  0
CIRCLE
  5
14C
100
AcDbEntity
  8
0
  6
CONTINUOUS
 62
     7
100
AcDbCircle
 10
487.524752
 20
325.592564
 30
0.0
 40
6.510986
  0
CIRCLE
  5
14D
100
AcDbEntity
  8
0
  6
CONTINUOUS
 62
     7
100
AcDbCircle
 10
487.524752
 20
149.392564
 30
0.0
 40
6.510986
  0
ELLIPSE
  5
14E
100
AcDbEntity
  8
0
  6
CONTINUOUS
 62
     7
100
AcDbEllipse
 10
342.885394
 20
142.953206
 30
0.0
 11
4.254277460610352
 21
4.254277460610438
 31
0.0
210
0.0
220
0.0
230
1.0
 40
0.997265
 41
2.357564018062728
 42
3.925621289116861
  0
LINE
  5
14F
100
AcDbEntity
  8
0
  6
CONTINUOUS
 62
     7
100
AcDbLine
 10
336.87716
 20
142.936749
 30
0.0
 11
338.10885
 21
144.16844
 31
0.0
  0
LINE
  5
150
100
AcDbEntity
  8
0
  6
CONTINUOUS
 62
     7
100
AcDbLine
 10
344.100627
 20
138.176662
 30
0.0
 11
342.868937
 21
136.944972
 31
0.0
  0
ELLIPSE
  5
151
100
AcDbEntity
  8
0
  6
CONTINUOUS
 62
     7
100
AcDbEllipse
 10
342.885394
 20
332.031922
 30
0.0
 11
4.254277460610354
 21
-4.254277460610468
 31
0.0
210
0.0
220
0.0
230
1.0
 40
0.997265
 41
2.357564018062751
 42
3.925621289116874
  0
LINE
  5
152
100
AcDbEntity
  8
0
  6
CONTINUOUS
 62
     7
100
AcDbLine
 10
342.868937
 20
338.040156
 30
0.0
 11
344.100627
 21
336.808466
 31
0.0
  0
LINE
  5
153
100
AcDbEntity
  8
0
  6
CONTINUOUS
 62
     7
100
AcDbLine
 10
338.10885
 20
330.816688
 30
0.0
 11
336.87716
 21
332.048379
 31
0.0
  0
ELLIPSE
  5
154
100
AcDbEntity
  8
0
  6
CONTINUOUS
 62
     7
100
AcDbEllipse
 10
493.96411
 20
332.031922
 30
0.0
 11
4.254277460610297
 21
4.254277460610468
 31
0.0
210
0.0
220
0.0
230
1.0
 40
0.997265
 41
5.499156671652524
 42
7.067213942706635
  0
LINE
  5
155
100
AcDbEntity
  8
0
  6
CONTINUOUS
 62
     7
100
AcDbLine
 10
499.972344
 20
332.048379
 30
0.0
 11
498.740653
 21
330.816688
 31
0.0
  0
LINE
  5
156
100
AcDbEntity
  8
0
  6
CONTINUOUS
 62
     7
100
AcDbLine
 10
492.748876
 20
336.808466
 30
0.0
 11
493.980567
 21
338.040156
 31
0.0
  0
ELLIPSE
  5
157
100
AcDbEntity
  8
0
  6
CONTINUOUS
 62
     7
100
AcDbEllipse
 10
493.96411
 20
142.953206
 30
0.0
 11
4.254277460610297
 21
-4.254277460610468
 31
0.0
210
0.0
220
0.0
230
1.0
 40
0.997265
 41
5.499156671652566
 42
7.067213942706673
  0
LINE
  5
158
100
AcDbEntity
  8
0
  6
CONTINUOUS
 62
     7
100
AcDbLine
 10
493.980567
 20
136.944972
 30
0.0
 11
492.748876
 21
138.176662
 31
0.0
  0
LINE
  5
159
100
AcDbEntity
  8
0
  6
CONTINUOUS
 62
     7
100
AcDbLine
 10
498.740653
 20
144.16844
 30
0.0
 11
499.972344
 21
142.936749
 31
0.0
  0
LINE
  5
15A
100
AcDbEntity
  8
0
  6
CONTINUOUS
 62
     7
100
AcDbLine
 10
336.87716
 20
142.936749
 30
0.0
 11
336.87716
 21
332.048379
 31
0.0
  0
LINE
  5
15B
100
AcDbEntity
  8
0
  6
CONTINUOUS
 62
     7
100
AcDbLine
 10
493.980567
 20
136.944972
 30
0.0
 11
342.868937
 21
136.944972
 31
0.0
  0
LINE
  5
15C
100
AcDbEntity
  8
0
  6
CONTINUOUS
 62
     7
100
AcDbLine
 10
342.868937
 20
338.040156
 30
0.0
 11
493.980567
 21
338.040156
 31
0.0
  0
LINE
  5
15D
100
AcDbEntity
  8
0
  6
CONTINUOUS
 62
     7
100
AcDbLine
 10
499.972344
 20
332.048379
 30
0.0
 11
499.972344
 21
142.936749
 31
0.0
  0
INSERT
  5
169
100
AcDbEntity
  8
0
  6
CONTINUOUS
 62
     7
100
AcDbBlockReference
  2
SW_CENTERMARKSYMBOL_0
 10
349.324752
 20
149.392564
 30
0.0
 41
2.0
 42
2.0
 43
2.0
  0
INSERT
  5
175
100
AcDbEntity
  8
0
  6
CONTINUOUS
 62
     7
100
AcDbBlockReference
  2
SW_CENTERMARKSYMBOL_1
 10
349.324752
 20
325.592564
 30
0.0
 41
2.0
 42
2.0
 43
2.0
  0
INSERT
  5
181
100
AcDbEntity
  8
0
  6
CONTINUOUS
 62
     7
100
AcDbBlockReference
  2
SW_CENTERMARKSYMBOL_2
 10
487.524752
 20
325.592564
 30
0.0
 41
2.0
 42
2.0
 43
2.0
  0
INSERT
  5
18D
100
AcDbEntity
  8
0
  6
CONTINUOUS
 62
     7
100
AcDbBlockReference
  2
SW_CENTERMARKSYMBOL_3
 10
487.524752
 20
149.392564
 30
0.0
 41
2.0
 42
2.0
 43
2.0
  0
LINE
  5
18E
100
AcDbEntity
  8
0
  6
CONTINUOUS
 62
     7
100
AcDbLine
 10
336.87716
 20
403.210396
 30
0.0
 11
342.868937
 21
403.210396
 31
0.0
  0
LINE
  5
18F
100
AcDbEntity
  8
0
  6
CONTINUOUS
 62
     7
100
AcDbLine
 10
336.87716
 20
403.210396
 30
0.0
 11
338.10885
 21
426.712452
 31
0.0
  0
ARC
  5
190
100
AcDbEntity
  8
0
  6
CONTINUOUS
 62
     7
100
AcDbCircle
 10
341.104739
 20
332.887278
 30
0.0
 40
93.872991
100
AcDbArc
 50
88.171136
 51
91.828864
  0
LINE
  5
191
100
AcDbEntity
  8
0
  6
CONTINUOUS
 62
     7
100
AcDbLine
 10
344.100627
 20
426.712452
 30
0.0
 11
342.868937
 21
403.210396
 31
0.0
  0
LINE
  5
192
100
AcDbEntity
  8
0
  6
CONTINUOUS
 62
     7
100
AcDbLine
 10
493.980567
 20
403.210396
 30
0.0
 11
342.868937
 21
403.210396
 31
0.0
  0
LINE
  5
193
100
AcDbEntity
  8
0
  6
CONTINUOUS
 62
     7
100
AcDbLine
 10
492.748876
 20
426.712452
 30
0.0
 11
344.100627
 21
426.712452
 31
0.0
  0
LINE
  5
194
100
AcDbEntity
  8
0
  6
CONTINUOUS
 62
     7
100
AcDbLine
 10
493.980567
 20
403.210396
 30
0.0
 11
492.748876
 21
426.712452
 31
0.0
  0
LINE
  5
195
100
AcDbEntity
  8
0
  6
CONTINUOUS
 62
     7
100
AcDbLine
 10
493.980567
 20
403.210396
 30
0.0
 11
499.972344
 21
403.210396
 31
0.0
  0
ARC
  5
196
100
AcDbEntity
  8
0
  6
CONTINUOUS
 62
     7
100
AcDbCircle
 10
495.744765
 20
332.892618
 30
0.0
 40
93.867654
100
AcDbArc
 50
88.171032
 51
91.828968
  0
LINE
  5
197
100
AcDbEntity
  8
0
  6
CONTINUOUS
 62
     7
100
AcDbLine
 10
498.740653
 20
426.712452
 30
0.0
 11
499.972344
 21
403.210396
 31
0.0
  0
LINE
  5
198
100
AcDbEntity
  8
0
  6
CONTINUOUS
 62
     7
100
AcDbLine
 10
337.524752
 20
403.210396
 30
0.0
 11
337.524752
 21
402.210396
 31
0.0
  0
LINE
  5
199
100
AcDbEntity
  8
0
  6
CONTINUOUS
 62
     7
100
AcDbLine
 10
342.816529
 20
403.210396
 30
0.0
 11
342.816529
 21
402.210396
 31
0.0
  0
LINE
  5
19A
100
AcDbEntity
  8
0
  6
CONTINUOUS
 62
     7
100
AcDbLine
 10
342.816529
 20
402.210396
 30
0.0
 11
337.524752
 21
402.210396
 31
0.0
  0
LINE
  5
19B
100
AcDbEntity
  8
0
  6
CONTINUOUS
 62
     7
100
AcDbLine
 10
494.032975
 20
403.210396
 30
0.0
 11
494.032975
 21
402.210396
 31
0.0
  0
LINE
  5
19C
100
AcDbEntity
  8
0
  6
CONTINUOUS
 62
     7
100
AcDbLine
 10
494.032975
 20
402.210396
 30
0.0
 11
342.816529
 21
402.210396
 31
0.0
  0
LINE
  5
19D
100
AcDbEntity
  8
0
  6
CONTINUOUS
 62
     7
100
AcDbLine
 10
499.324752
 20
403.210396
 30
0.0
 11
499.324752
 21
402.210396
 31
0.0
  0
LINE
  5
19E
100
AcDbEntity
  8
0
  6
CONTINUOUS
 62
     7
100
AcDbLine
 10
499.324752
 20
402.210396
 30
0.0
 11
494.032975
 21
402.210396
 31
0.0
  0
LINE
  5
19F
100
AcDbEntity
  8
0
  6
CONTINUOUS
 62
     7
100
AcDbLine
 10
339.772486
 20
428.210396
 30
0.0
 11
344.100627
 21
428.210396
 31
0.0
  0
LINE
  5
1A0
100
AcDbEntity
  8
0
  6
CONTINUOUS
 62
     7
100
AcDbLine
 10
344.100627
 20
428.210396
 30
0.0
 11
344.100627
 21
426.712452
 31
0.0
  0
LINE
  5
1A1
100
AcDbEntity
  8
0
  6
CONTINUOUS
 62
     7
100
AcDbLine
 10
339.772486
 20
428.210396
 30
0.0
 11
338.10885
 21
426.712452
 31
0.0
  0
LINE
  5
1A2
100
AcDbEntity
  8
0
  6
CONTINUOUS
 62
     7
100
AcDbLine
 10
492.748876
 20
428.210396
 30
0.0
 11
497.077018
 21
428.210396
 31
0.0
  0
LINE
  5
1A3
100
AcDbEntity
  8
0
  6
CONTINUOUS
 62
     7
100
AcDbLine
 10
497.077018
 20
428.210396
 30
0.0
 11
498.740653
 21
426.712452
 31
0.0
  0
LINE
  5
1A4
100
AcDbEntity
  8
0
  6
CONTINUOUS
 62
     7
100
AcDbLine
 10
492.748876
 20
428.210396
 30
0.0
 11
492.748876
 21
426.712452
 31
0.0
  0
LINE
  5
1A5
100
AcDbEntity
  8
0
  6
CONTINUOUS
 62
     7
100
AcDbLine
 10
344.100627
 20
428.210396
 30
0.0
 11
492.748876
 21
428.210396
 31
0.0
  0
LINE
  5
1A6
100
AcDbEntity
  8
0
  6
CONTINUOUS
 62
     7
100
AcDbLine
 10
376.77716
 20
400.210396
 30
0.0
 11
376.77716
 21
402.210396
 31
0.0
  0
LINE
  5
1A7
100
AcDbEntity
  8
0
  6
CONTINUOUS
 62
     7
100
AcDbLine
 10
376.77716
 20
400.210396
 30
0.0
 11
368.981975
 21
400.210396
 31
0.0
  0
LINE
  5
1A8
100
AcDbEntity
  8
0
  6
CONTINUOUS
 62
     7
100
AcDbLine
 10
368.981975
 20
400.210396
 30
0.0
 11
368.87716
 21
402.210396
 31
0.0
  0
LINE
  5
1A9
100
AcDbEntity
  8
0
  6
CONTINUOUS
 62
     7
100
AcDbLine
 10
460.072344
 20
400.210396
 30
0.0
 11
460.072344
 21
402.210396
 31
0.0
  0
LINE
  5
1AA
100
AcDbEntity
  8
0
  6
CONTINUOUS
 62
     7
100
AcDbLine
 10
460.072344
 20
400.210396
 30
0.0
 11
376.77716
 21
400.210396
 31
0.0
  0
LINE
  5
1AB
100
AcDbEntity
  8
0
  6
CONTINUOUS
 62
     7
100
AcDbLine
 10
467.867528
 20
400.210396
 30
0.0
 11
467.972344
 21
402.210396
 31
0.0
  0
LINE
  5
1AC
100
AcDbEntity
  8
0
  6
CONTINUOUS
 62
     7
100
AcDbLine
 10
467.867528
 20
400.210396
 30
0.0
 11
460.072344
 21
400.210396
 31
0.0
  0
LINE
  5
1AD
100
AcDbEntity
  8
0
  6
CONTINUOUS
 62
     7
100
AcDbLine
 10
364.071116
 20
400.210396
 30
0.0
 11
364.056529
 21
402.210396
 31
0.0
  0
LINE
  5
1AE
100
AcDbEntity
  8
0
  6
CONTINUOUS
 62
     7
100
AcDbLine
 10
368.981975
 20
400.210396
 30
0.0
 11
364.071116
 21
400.210396
 31
0.0
  0
LINE
  5
1AF
100
AcDbEntity
  8
0
  6
CONTINUOUS
 62
     7
100
AcDbLine
 10
472.778387
 20
400.210396
 30
0.0
 11
472.792975
 21
402.210396
 31
0.0
  0
LINE
  5
1B0
100
AcDbEntity
  8
0
  6
CONTINUOUS
 62
     7
100
AcDbLine
 10
472.778387
 20
400.210396
 30
0.0
 11
467.867528
 21
400.210396
 31
0.0
  0
LINE
  5
1B1
100
AcDbEntity
  8
0
  6
CONTINUOUS
 62
     7
100
AcDbLine
 10
491.357224
 20
400.210396
 30
0.0
 11
491.371811
 21
402.210396
 31
0.0
  0
LINE
  5
1B2
100
AcDbEntity
  8
0
  6
CONTINUOUS
 62
     7
100
AcDbLine
 10
491.357224
 20
400.210396
 30
0.0
 11
472.778387
 21
400.210396
 31
0.0
  0
LINE
  5
1B3
100
AcDbEntity
  8
0
  6
CONTINUOUS
 62
     7
100
AcDbLine
 10
345.49228
 20
400.210396
 30
0.0
 11
345.477692
 21
402.210396
 31
0.0
  0
LINE
  5
1B4
100
AcDbEntity
  8
0
  6
CONTINUOUS
 62
     7
100
AcDbLine
 10
364.071116
 20
400.210396
 30
0.0
 11
345.49228
 21
400.210396
 31
0.0
  0
LINE
  5
1B5
100
AcDbEntity
  8
0
  6
CONTINUOUS
 62
     7
100
AcDbLine
 10
498.067528
 20
400.210396
 30
0.0
 11
498.172344
 21
402.210396
 31
0.0
  0
LINE
  5
1B6
100
AcDbEntity
  8
0
  6
CONTINUOUS
 62
     7
100
AcDbLine
 10
498.067528
 20
400.210396
 30
0.0
 11
491.357224
 21
400.210396
 31
0.0
  0
LINE
  5
1B7
100
AcDbEntity
  8
0
  6
CONTINUOUS
 62
     7
100
AcDbLine
 10
338.781975
 20
400.210396
 30
0.0
 11
338.67716
 21
402.210396
 31
0.0
  0
LINE
  5
1B8
100
AcDbEntity
  8
0
  6
CONTINUOUS
 62
     7
100
AcDbLine
 10
345.49228
 20
400.210396
 30
0.0
 11
338.781975
 21
400.210396
 31
0.0
  0
LINE
  5
1B9
100
AcDbEntity
  8
0
  6
CONTINUOUS
 62
     7
100
AcDbLine
 10
342.868937
 20
73.459688
 30
0.0
 11
493.980567
 21
73.459688
 31
0.0
  0
LINE
  5
1BA
100
AcDbEntity
  8
0
  6
CONTINUOUS
 62
     7
100
AcDbLine
 10
492.748876
 20
49.957632
 30
0.0
 11
493.980567
 21
73.459688
 31
0.0
  0
LINE
  5
1BB
100
AcDbEntity
  8
0
  6
CONTINUOUS
 62
     7
100
AcDbLine
 10
344.100627
 20
49.957632
 30
0.0
 11
492.748876
 21
49.957632
 31
0.0
  0
LINE
  5
1BC
100
AcDbEntity
  8
0
  6
CONTINUOUS
 62
     7
100
AcDbLine
 10
342.868937
 20
73.459688
 30
0.0
 11
344.100627
 21
49.957632
 31
0.0
  0
LINE
  5
1BD
100
AcDbEntity
  8
0
  6
CONTINUOUS
 62
     7
100
AcDbLine
 10
342.868937
 20
73.459688
 30
0.0
 11
336.87716
 21
73.459688
 31
0.0
  0
ARC
  5
1BE
100
AcDbEntity
  8
0
  6
CONTINUOUS
 62
     7
100
AcDbCircle
 10
341.104739
 20
143.782806
 30
0.0
 40
93.872991
100
AcDbArc
 50
268.171136
 51
271.828864
  0
LINE
  5
1BF
100
AcDbEntity
  8
0
  6
CONTINUOUS
 62
     7
100
AcDbLine
 10
338.10885
 20
49.957632
 30
0.0
 11
336.87716
 21
73.459688
 31
0.0
  0
LINE
  5
1C0
100
AcDbEntity
  8
0
  6
CONTINUOUS
 62
     7
100
AcDbLine
 10
499.972344
 20
73.459688
 30
0.0
 11
493.980567
 21
73.459688
 31
0.0
  0
LINE
  5
1C1
100
AcDbEntity
  8
0
  6
CONTINUOUS
 62
     7
100
AcDbLine
 10
499.972344
 20
73.459688
 30
0.0
 11
498.740653
 21
49.957632
 31
0.0
  0
ARC
  5
1C2
100
AcDbEntity
  8
0
  6
CONTINUOUS
 62
     7
100
AcDbCircle
 10
495.744765
 20
143.777466
 30
0.0
 40
93.867654
100
AcDbArc
 50
268.171032
 51
271.828968
  0
LINE
  5
1C3
100
AcDbEntity
  8
0
  6
CONTINUOUS
 62
     7
100
AcDbLine
 10
342.816529
 20
73.459688
 30
0.0
 11
342.816529
 21
74.459688
 31
0.0
  0
LINE
  5
1C4
100
AcDbEntity
  8
0
  6
CONTINUOUS
 62
     7
100
AcDbLine
 10
337.524752
 20
73.459688
 30
0.0
 11
337.524752
 21
74.459688
 31
0.0
  0
LINE
  5
1C5
100
AcDbEntity
  8
0
  6
CONTINUOUS
 62
     7
100
AcDbLine
 10
337.524752
 20
74.459688
 30
0.0
 11
342.816529
 21
74.459688
 31
0.0
  0
LINE
  5
1C6
100
AcDbEntity
  8
0
  6
CONTINUOUS
 62
     7
100
AcDbLine
 10
494.032975
 20
73.459688
 30
0.0
 11
494.032975
 21
74.459688
 31
0.0
  0
LINE
  5
1C7
100
AcDbEntity
  8
0
  6
CONTINUOUS
 62
     7
100
AcDbLine
 10
342.816529
 20
74.459688
 30
0.0
 11
494.032975
 21
74.459688
 31
0.0
  0
LINE
  5
1C8
100
AcDbEntity
  8
0
  6
CONTINUOUS
 62
     7
100
AcDbLine
 10
499.324752
 20
73.459688
 30
0.0
 11
499.324752
 21
74.459688
 31
0.0
  0
LINE
  5
1C9
100
AcDbEntity
  8
0
  6
CONTINUOUS
 62
     7
100
AcDbLine
 10
494.032975
 20
74.459688
 30
0.0
 11
499.324752
 21
74.459688
 31
0.0
  0
LINE
  5
1CA
100
AcDbEntity
  8
0
  6
CONTINUOUS
 62
     7
100
AcDbLine
 10
344.100627
 20
49.957632
 30
0.0
 11
344.100627
 21
48.459688
 31
0.0
  0
LINE
  5
1CB
100
AcDbEntity
  8
0
  6
CONTINUOUS
 62
     7
100
AcDbLine
 10
344.100627
 20
48.459688
 30
0.0
 11
339.772486
 21
48.459688
 31
0.0
  0
LINE
  5
1CC
100
AcDbEntity
  8
0
  6
CONTINUOUS
 62
     7
100
AcDbLine
 10
338.10885
 20
49.957632
 30
0.0
 11
339.772486
 21
48.459688
 31
0.0
  0
LINE
  5
1CD
100
AcDbEntity
  8
0
  6
CONTINUOUS
 62
     7
100
AcDbLine
 10
498.740653
 20
49.957632
 30
0.0
 11
497.077018
 21
48.459688
 31
0.0
  0
LINE
  5
1CE
100
AcDbEntity
  8
0
  6
CONTINUOUS
 62
     7
100
AcDbLine
 10
497.077018
 20
48.459688
 30
0.0
 11
492.748876
 21
48.459688
 31
0.0
  0
LINE
  5
1CF
100
AcDbEntity
  8
0
  6
CONTINUOUS
 62
     7
100
AcDbLine
 10
492.748876
 20
49.957632
 30
0.0
 11
492.748876
 21
48.459688
 31
0.0
  0
LINE
  5
1D0
100
AcDbEntity
  8
0
  6
CONTINUOUS
 62
     7
100
AcDbLine
 10
492.748876
 20
48.459688
 30
0.0
 11
344.100627
 21
48.459688
 31
0.0
  0
LINE
  5
1D1
100
AcDbEntity
  8
0
  6
CONTINUOUS
 62
     7
100
AcDbLine
 10
376.77716
 20
76.459688
 30
0.0
 11
376.77716
 21
74.459688
 31
0.0
  0
LINE
  5
1D2
100
AcDbEntity
  8
0
  6
CONTINUOUS
 62
     7
100
AcDbLine
 10
376.77716
 20
76.459688
 30
0.0
 11
460.072344
 21
76.459688
 31
0.0
  0
LINE
  5
1D3
100
AcDbEntity
  8
0
  6
CONTINUOUS
 62
     7
100
AcDbLine
 10
460.072344
 20
76.459688
 30
0.0
 11
460.072344
 21
74.459688
 31
0.0
  0
LINE
  5
1D4
100
AcDbEntity
  8
0
  6
CONTINUOUS
 62
     7
100
AcDbLine
 10
460.072344
 20
76.459688
 30
0.0
 11
467.867528
 21
76.459688
 31
0.0
  0
LINE
  5
1D5
100
AcDbEntity
  8
0
  6
CONTINUOUS
 62
     7
100
AcDbLine
 10
467.867528
 20
76.459688
 30
0.0
 11
467.972344
 21
74.459688
 31
0.0
  0
LINE
  5
1D6
100
AcDbEntity
  8
0
  6
CONTINUOUS
 62
     7
100
AcDbLine
 10
368.981975
 20
76.459688
 30
0.0
 11
368.87716
 21
74.459688
 31
0.0
  0
LINE
  5
1D7
100
AcDbEntity
  8
0
  6
CONTINUOUS
 62
     7
100
AcDbLine
 10
368.981975
 20
76.459688
 30
0.0
 11
376.77716
 21
76.459688
 31
0.0
  0
LINE
  5
1D8
100
AcDbEntity
  8
0
  6
CONTINUOUS
 62
     7
100
AcDbLine
 10
472.778387
 20
76.459688
 30
0.0
 11
472.792975
 21
74.459688
 31
0.0
  0
LINE
  5
1D9
100
AcDbEntity
  8
0
  6
CONTINUOUS
 62
     7
100
AcDbLine
 10
467.867528
 20
76.459688
 30
0.0
 11
472.778387
 21
76.459688
 31
0.0
  0
LINE
  5
1DA
100
AcDbEntity
  8
0
  6
CONTINUOUS
 62
     7
100
AcDbLine
 10
364.071116
 20
76.459688
 30
0.0
 11
364.056529
 21
74.459688
 31
0.0
  0
LINE
  5
1DB
100
AcDbEntity
  8
0
  6
CONTINUOUS
 62
     7
100
AcDbLine
 10
364.071116
 20
76.459688
 30
0.0
 11
368.981975
 21
76.459688
 31
0.0
  0
LINE
  5
1DC
100
AcDbEntity
  8
0
  6
CONTINUOUS
 62
     7
100
AcDbLine
 10
345.49228
 20
76.459688
 30
0.0
 11
345.477692
 21
74.459688
 31
0.0
  0
LINE
  5
1DD
100
AcDbEntity
  8
0
  6
CONTINUOUS
 62
     7
100
AcDbLine
 10
345.49228
 20
76.459688
 30
0.0
 11
364.071116
 21
76.459688
 31
0.0
  0
LINE
  5
1DE
100
AcDbEntity
  8
0
  6
CONTINUOUS
 62
     7
100
AcDbLine
 10
491.357224
 20
76.459688
 30
0.0
 11
491.371811
 21
74.459688
 31
0.0
  0
LINE
  5
1DF
100
AcDbEntity
  8
0
  6
CONTINUOUS
 62
     7
100
AcDbLine
 10
472.778387
 20
76.459688
 30
0.0
 11
491.357224
 21
76.459688
 31
0.0
  0
LINE
  5
1E0
100
AcDbEntity
  8
0
  6
CONTINUOUS
 62
     7
100
AcDbLine
 10
338.781975
 20
76.459688
 30
0.0
 11
338.67716
 21
74.459688
 31
0.0
  0
LINE
  5
1E1
100
AcDbEntity
  8
0
  6
CONTINUOUS
 62
     7
100
AcDbLine
 10
338.781975
 20
76.459688
 30
0.0
 11
345.49228
 21
76.459688
 31
0.0
  0
LINE
  5
1E2
100
AcDbEntity
  8
0
  6
CONTINUOUS
 62
     7
100
AcDbLine
 10
498.067528
 20
76.459688
 30
0.0
 11
498.172344
 21
74.459688
 31
0.0
  0
LINE
  5
1E3
100
AcDbEntity
  8
0
  6
CONTINUOUS
 62
     7
100
AcDbLine
 10
491.357224
 20
76.459688
 30
0.0
 11
498.067528
 21
76.459688
 31
0.0
  0
LINE
  5
1E4
100
AcDbEntity
  8
0
  6
CONTINUOUS
 62
     7
100
AcDbLine
 10
574.875327
 20
142.936749
 30
0.0
 11
574.875327
 21
136.944972
 31
0.0
  0
LINE
  5
1E5
100
AcDbEntity
  8
0
  6
CONTINUOUS
 62
     7
100
AcDbLine
 10
574.875327
 20
142.936749
 30
0.0
 11
598.377383
 21
144.16844
 31
0.0
  0
ARC
  5
1E6
100
AcDbEntity
  8
0
  6
CONTINUOUS
 62
     7
100
AcDbCircle
 10
504.545487
 20
141.172551
 30
0.0
 40
93.87971
100
AcDbArc
 50
358.171267
 51
1.828733
  0
LINE
  5
1E7
100
AcDbEntity
  8
0
  6
CONTINUOUS
 62
     7
100
AcDbLine
 10
598.377383
 20
138.176662
 30
0.0
 11
574.875327
 21
136.944972
 31
0.0
  0
LINE
  5
1E8
100
AcDbEntity
  8
0
  6
CONTINUOUS
 62
     7
100
AcDbLine
 10
574.875327
 20
338.040156
 30
0.0
 11
574.875327
 21
332.048379
 31
0.0
  0
LINE
  5
1E9
100
AcDbEntity
  8
0
  6
CONTINUOUS
 62
     7
100
AcDbLine
 10
574.875327
 20
338.040156
 30
0.0
 11
598.377383
 21
336.808466
 31
0.0
  0
ARC
  5
1EA
100
AcDbEntity
  8
0
  6
CONTINUOUS
 62
     7
100
AcDbCircle
 10
504.545487
 20
333.812577
 30
0.0
 40
93.87971
100
AcDbArc
 50
358.171267
 51
1.828733
  0
LINE
  5
1EB
100
AcDbEntity
  8
0
  6
CONTINUOUS
 62
     7
100
AcDbLine
 10
598.377383
 20
330.816688
 30
0.0
 11
574.875327
 21
332.048379
 31
0.0
  0
LINE
  5
1EC
100
AcDbEntity
  8
0
  6
CONTINUOUS
 62
     7
100
AcDbLine
 10
574.875327
 20
142.936749
 30
0.0
 11
574.875327
 21
332.048379
 31
0.0
  0
LINE
  5
1ED
100
AcDbEntity
  8
0
  6
CONTINUOUS
 62
     7
100
AcDbLine
 10
598.377383
 20
144.16844
 30
0.0
 11
598.377383
 21
330.816688
 31
0.0
  0
LINE
  5
1EE
100
AcDbEntity
  8
0
  6
CONTINUOUS
 62
     7
100
AcDbLine
 10
574.875327
 20
142.884341
 30
0.0
 11
573.875327
 21
142.884341
 31
0.0
  0
LINE
  5
1EF
100
AcDbEntity
  8
0
  6
CONTINUOUS
 62
     7
100
AcDbLine
 10
574.875327
 20
137.592564
 30
0.0
 11
573.875327
 21
137.592564
 31
0.0
  0
LINE
  5
1F0
100
AcDbEntity
  8
0
  6
CONTINUOUS
 62
     7
100
AcDbLine
 10
573.875327
 20
137.592564
 30
0.0
 11
573.875327
 21
142.884341
 31
0.0
  0
LINE
  5
1F1
100
AcDbEntity
  8
0
  6
CONTINUOUS
 62
     7
100
AcDbLine
 10
574.875327
 20
332.100787
 30
0.0
 11
573.875327
 21
332.100787
 31
0.0
  0
LINE
  5
1F2
100
AcDbEntity
  8
0
  6
CONTINUOUS
 62
     7
100
AcDbLine
 10
573.875327
 20
142.884341
 30
0.0
 11
573.875327
 21
332.100787
 31
0.0
  0
LINE
  5
1F3
100
AcDbEntity
  8
0
  6
CONTINUOUS
 62
     7
100
AcDbLine
 10
574.875327
 20
337.392564
 30
0.0
 11
573.875327
 21
337.392564
 31
0.0
  0
LINE
  5
1F4
100
AcDbEntity
  8
0
  6
CONTINUOUS
 62
     7
100
AcDbLine
 10
573.875327
 20
332.100787
 30
0.0
 11
573.875327
 21
337.392564
 31
0.0
  0
LINE
  5
1F5
100
AcDbEntity
  8
0
  6
CONTINUOUS
 62
     7
100
AcDbLine
 10
598.377383
 20
336.808466
 30
0.0
 11
599.875327
 21
335.14483
 31
0.0
  0
LINE
  5
1F6
100
AcDbEntity
  8
0
  6
CONTINUOUS
 62
     7
100
AcDbLine
 10
599.875327
 20
335.14483
 30
0.0
 11
599.875327
 21
330.816688
 31
0.0
  0
LINE
  5
1F7
100
AcDbEntity
  8
0
  6
CONTINUOUS
 62
     7
100
AcDbLine
 10
598.377383
 20
330.816688
 30
0.0
 11
599.875327
 21
330.816688
 31
0.0
  0
LINE
  5
1F8
100
AcDbEntity
  8
0
  6
CONTINUOUS
 62
     7
100
AcDbLine
 10
599.875327
 20
144.16844
 30
0.0
 11
599.875327
 21
139.840298
 31
0.0
  0
LINE
  5
1F9
100
AcDbEntity
  8
0
  6
CONTINUOUS
 62
     7
100
AcDbLine
 10
599.875327
 20
139.840298
 30
0.0
 11
598.377383
 21
138.176662
 31
0.0
  0
LINE
  5
1FA
100
AcDbEntity
  8
0
  6
CONTINUOUS
 62
     7
100
AcDbLine
 10
599.875327
 20
144.16844
 30
0.0
 11
598.377383
 21
144.16844
 31
0.0
  0
LINE
  5
1FB
100
AcDbEntity
  8
0
  6
CONTINUOUS
 62
     7
100
AcDbLine
 10
599.875327
 20
330.816688
 30
0.0
 11
599.875327
 21
144.16844
 31
0.0
  0
LINE
  5
1FC
100
AcDbEntity
  8
0
  6
CONTINUOUS
 62
     7
100
AcDbLine
 10
571.875327
 20
164.393773
 30
0.0
 11
573.875327
 21
164.393773
 31
0.0
  0
LINE
  5
1FD
100
AcDbEntity
  8
0
  6
CONTINUOUS
 62
     7
100
AcDbLine
 10
571.875327
 20
164.393773
 30
0.0
 11
571.875327
 21
310.591355
 31
0.0
  0
LINE
  5
1FE
100
AcDbEntity
  8
0
  6
CONTINUOUS
 62
     7
100
AcDbLine
 10
571.875327
 20
310.591355
 30
0.0
 11
573.875327
 21
310.591355
 31
0.0
  0
LINE
  5
1FF
100
AcDbEntity
  8
0
  6
CONTINUOUS
 62
     7
100
AcDbLine
 10
571.875327
 20
310.591355
 30
0.0
 11
571.875327
 21
318.310678
 31
0.0
  0
LINE
  5
200
100
AcDbEntity
  8
0
  6
CONTINUOUS
 62
     7
100
AcDbLine
 10
571.875327
 20
318.310678
 30
0.0
 11
573.875327
 21
318.414473
 31
0.0
  0
LINE
  5
201
100
AcDbEntity
  8
0
  6
CONTINUOUS
 62
     7
100
AcDbLine
 10
571.875327
 20
156.67445
 30
0.0
 11
573.875327
 21
156.570655
 31
0.0
  0
LINE
  5
202
100
AcDbEntity
  8
0
  6
CONTINUOUS
 62
     7
100
AcDbLine
 10
571.875327
 20
156.67445
 30
0.0
 11
571.875327
 21
164.393773
 31
0.0
  0
LINE
  5
203
100
AcDbEntity
  8
0
  6
CONTINUOUS
 62
     7
100
AcDbLine
 10
571.875327
 20
154.063365
 30
0.0
 11
573.875327
 21
153.95957
 31
0.0
  0
LINE
  5
204
100
AcDbEntity
  8
0
  6
CONTINUOUS
 62
     7
100
AcDbLine
 10
571.875327
 20
154.063365
 30
0.0
 11
571.875327
 21
156.67445
 31
0.0
  0
LINE
  5
205
100
AcDbEntity
  8
0
  6
CONTINUOUS
 62
     7
100
AcDbLine
 10
571.875327
 20
320.921763
 30
0.0
 11
573.875327
 21
321.025558
 31
0.0
  0
LINE
  5
206
100
AcDbEntity
  8
0
  6
CONTINUOUS
 62
     7
100
AcDbLine
 10
571.875327
 20
318.310678
 30
0.0
 11
571.875327
 21
320.921763
 31
0.0
  0
LINE
  5
207
100
AcDbEntity
  8
0
  6
CONTINUOUS
 62
     7
100
AcDbLine
 10
571.875327
 20
148.414068
 30
0.0
 11
573.875327
 21
148.414068
 31
0.0
  0
LINE
  5
208
100
AcDbEntity
  8
0
  6
CONTINUOUS
 62
     7
100
AcDbLine
 10
571.875327
 20
148.414068
 30
0.0
 11
571.875327
 21
154.063365
 31
0.0
  0
LINE
  5
209
100
AcDbEntity
  8
0
  6
CONTINUOUS
 62
     7
100
AcDbLine
 10
571.875327
 20
326.57106
 30
0.0
 11
573.875327
 21
326.57106
 31
0.0
  0
LINE
  5
20A
100
AcDbEntity
  8
0
  6
CONTINUOUS
 62
     7
100
AcDbLine
 10
571.875327
 20
320.921763
 30
0.0
 11
571.875327
 21
326.57106
 31
0.0
  0
LINE
  5
20B
100
AcDbEntity
  8
0
  6
CONTINUOUS
 62
     7
100
AcDbLine
 10
571.875327
 20
328.340156
 30
0.0
 11
573.875327
 21
328.340156
 31
0.0
  0
LINE
  5
20C
100
AcDbEntity
  8
0
  6
CONTINUOUS
 62
     7
100
AcDbLine
 10
571.875327
 20
326.57106
 30
0.0
 11
571.875327
 21
328.340156
 31
0.0
  0
LINE
  5
20D
100
AcDbEntity
  8
0
  6
CONTINUOUS
 62
     7
100
AcDbLine
 10
571.875327
 20
146.644972
 30
0.0
 11
573.875327
 21
146.644972
 31
0.0
  0
LINE
  5
20E
100
AcDbEntity
  8
0
  6
CONTINUOUS
 62
     7
100
AcDbLine
 10
571.875327
 20
146.644972
 30
0.0
 11
571.875327
 21
148.414068
 31
0.0
  0
LINE
  5
20F
100
AcDbEntity
  8
0
  6
CONTINUOUS
 62
     7
100
AcDbLine
 10
571.875327
 20
336.135341
 30
0.0
 11
573.875327
 21
336.240156
 31
0.0
  0
LINE
  5
210
100
AcDbEntity
  8
0
  6
CONTINUOUS
 62
     7
100
AcDbLine
 10
571.875327
 20
328.340156
 30
0.0
 11
571.875327
 21
336.135341
 31
0.0
  0
LINE
  5
211
100
AcDbEntity
  8
0
  6
CONTINUOUS
 62
     7
100
AcDbLine
 10
571.875327
 20
138.849787
 30
0.0
 11
573.875327
 21
138.744972
 31
0.0
  0
LINE
  5
212
100
AcDbEntity
  8
0
  6
CONTINUOUS
 62
     7
100
AcDbLine
 10
571.875327
 20
138.849787
 30
0.0
 11
571.875327
 21
146.644972
 31
0.0
  0
LINE
  5
215
100
AcDbEntity
  8
0
  6
HIDDEN
 62
     1
100
AcDbLine
 10
597.875327
 20
310.591355
 30
0.0
 11
597.875327
 21
315.21366
 31
0.0
  0
LINE
  5
219
100
AcDbEntity
  8
0
  6
HIDDEN
 62
     1
100
AcDbLine
 10
597.875327
 20
164.393773
 30
0.0
 11
597.875327
 21
310.591355
 31
0.0
  0
LINE
  5
21C
100
AcDbEntity
  8
0
  6
HIDDEN
 62
     1
100
AcDbLine
 10
597.875327
 20
159.771468
 30
0.0
 11
597.875327
 21
164.393773
 31
0.0
  0
ARC
  5
223
100
AcDbEntity
  8
0
  6
HIDDEN
 62
     1
100
AcDbCircle
 10
597.37805
 20
157.162656
 30
0.0
 40
0.497282
100
AcDbArc
 50
272.702286
 51
359.738018
  0
LINE
  5
225
100
AcDbEntity
  8
0
  6
HIDDEN
 62
     1
100
AcDbLine
 10
597.875327
 20
157.160382
 30
0.0
 11
597.875327
 21
159.771468
 31
0.0
  0
ARC
  5
226
100
AcDbEntity
  8
0
  6
HIDDEN
 62
     1
100
AcDbCircle
 10
597.37805
 20
317.822472
 30
0.0
 40
0.497282
100
AcDbArc
 50
0.261982
 51
87.297714
  0
LINE
  5
228
100
AcDbEntity
  8
0
  6
HIDDEN
 62
     1
100
AcDbLine
 10
597.875327
 20
315.21366
 30
0.0
 11
597.875327
 21
317.824746
 31
0.0
  0
LINE
  5
229
100
AcDbEntity
  8
0
  6
HIDDEN
 62
     1
100
AcDbLine
 10
597.401495
 20
318.319201
 30
0.0
 11
571.875327
 21
319.643952
 31
0.0
  0
LINE
  5
22A
100
AcDbEntity
  8
0
  6
HIDDEN
 62
     1
100
AcDbLine
 10
597.401495
 20
156.665927
 30
0.0
 11
571.875327
 21
155.341176
 31
0.0
  0
LINE
  5
22D
100
AcDbEntity
  8
0
  6
HIDDEN
 62
     1
100
AcDbLine
 10
597.875327
 20
317.824746
 30
0.0
 11
597.875327
 21
326.57106
 31
0.0
  0
LINE
  5
230
100
AcDbEntity
  8
0
  6
HIDDEN
 62
     1
100
AcDbLine
 10
597.875327
 20
148.414068
 30
0.0
 11
597.875327
 21
157.160382
 31
0.0
  0
LINE
  5
232
100
AcDbEntity
  8
0
  6
HIDDEN
 62
     1
100
AcDbLine
 10
597.401495
 20
141.477926
 30
0.0
 11
571.875327
 21
140.140156
 31
0.0
  0
LINE
  5
236
100
AcDbEntity
  8
0
  6
HIDDEN
 62
     1
100
AcDbLine
 10
597.401495
 20
333.507202
 30
0.0
 11
571.875327
 21
334.844972
 31
0.0
  0
ARC
  5
23A
100
AcDbEntity
  8
0
  6
HIDDEN
 62
     1
100
AcDbCircle
 10
597.375327
 20
141.977241
 30
0.0
 40
0.5
100
AcDbArc
 50
273.0
 51
0.0
  0
LINE
  5
23B
100
AcDbEntity
  8
0
  6
HIDDEN
 62
     1
100
AcDbLine
 10
597.875327
 20
141.977241
 30
0.0
 11
597.875327
 21
146.644972
 31
0.0
  0
LINE
  5
23E
100
AcDbEntity
  8
0
  6
HIDDEN
 62
     1
100
AcDbLine
 10
597.875327
 20
326.57106
 30
0.0
 11
597.875327
 21
328.340156
 31
0.0
  0
ARC
  5
241
100
AcDbEntity
  8
0
  6
HIDDEN
 62
     1
100
AcDbCircle
 10
597.375327
 20
333.007887
 30
0.0
 40
0.5
100
AcDbArc
 50
0.0
 51
87.0
  0
LINE
  5
242
100
AcDbEntity
  8
0
  6
HIDDEN
 62
     1
100
AcDbLine
 10
597.875327
 20
328.340156
 30
0.0
 11
597.875327
 21
333.007887
 31
0.0
  0
LINE
  5
243
100
AcDbEntity
  8
0
  6
HIDDEN
 62
     7
100
AcDbLine
 10
571.875327
 20
328.340156
 30
0.0
 11
573.875327
 21
328.340156
 31
0.0
  0
LINE
  5
248
100
AcDbEntity
  8
0
  6
HIDDEN
 62
     7
100
AcDbLine
 10
571.875327
 20
146.644972
 30
0.0
 11
573.875327
 21
146.644972
 31
0.0
  0
ARC
  5
24E
100
AcDbEntity
  8
0
  6
HIDDEN
 62
     1
100
AcDbCircle
 10
597.37805
 20
317.822472
 30
0.0
 40
0.497282
100
AcDbArc
 50
0.261982
 51
87.297714
  0
ARC
  5
252
100
AcDbEntity
  8
0
  6
HIDDEN
 62
     1
100
AcDbCircle
 10
597.37805
 20
157.162656
 30
0.0
 40
0.497282
100
AcDbArc
 50
272.702286
 51
359.738018
  0
LINE
  5
254
100
AcDbEntity
  8
0
  6
HIDDEN
 62
     1
100
AcDbLine
 10
597.401495
 20
318.319201
 30
0.0
 11
571.875327
 21
319.643952
 31
0.0
  0
LINE
  5
256
100
AcDbEntity
  8
0
  6
HIDDEN
 62
     1
100
AcDbLine
 10
597.401495
 20
156.665927
 30
0.0
 11
571.875327
 21
155.341176
 31
0.0
  0
LINE
  5
257
100
AcDbEntity
  8
0
  6
HIDDEN
 62
     7
100
AcDbLine
 10
571.875327
 20
326.57106
 30
0.0
 11
573.875327
 21
326.57106
 31
0.0
  0
LINE
  5
258
100
AcDbEntity
  8
0
  6
HIDDEN
 62
     7
100
AcDbLine
 10
571.875327
 20
148.414068
 30
0.0
 11
573.875327
 21
148.414068
 31
0.0
  0
LINE
  5
25F
100
AcDbEntity
  8
0
  6
HIDDEN
 62
     7
100
AcDbLine
 10
571.875327
 20
154.063365
 30
0.0
 11
573.875327
 21
153.95957
 31
0.0
  0
LINE
  5
260
100
AcDbEntity
  8
0
  6
HIDDEN
 62
     7
100
AcDbLine
 10
571.875327
 20
320.921763
 30
0.0
 11
573.875327
 21
321.025558
 31
0.0
  0
LINE
  5
267
100
AcDbEntity
  8
0
  6
HIDDEN
 62
     7
100
AcDbLine
 10
571.875327
 20
156.67445
 30
0.0
 11
573.875327
 21
156.570655
 31
0.0
  0
LINE
  5
268
100
AcDbEntity
  8
0
  6
HIDDEN
 62
     7
100
AcDbLine
 10
571.875327
 20
318.310678
 30
0.0
 11
573.875327
 21
318.414473
 31
0.0
  0
LINE
  5
269
100
AcDbEntity
  8
0
  6
HIDDEN
 62
     7
100
AcDbLine
 10
574.875327
 20
332.048379
 30
0.0
 11
598.377383
 21
330.816688
 31
0.0
  0
LINE
  5
26A
100
AcDbEntity
  8
0
  6
HIDDEN
 62
     7
100
AcDbLine
 10
598.377383
 20
144.16844
 30
0.0
 11
574.875327
 21
142.936749
 31
0.0
  0
LINE
  5
26B
100
AcDbEntity
  8
0
  6
HIDDEN
 62
     7
100
AcDbLine
 10
574.875327
 20
332.100787
 30
0.0
 11
573.875327
 21
332.100787
 31
0.0
  0
LINE
  5
26D
100
AcDbEntity
  8
0
  6
HIDDEN
 62
     7
100
AcDbLine
 10
571.875327
 20
310.591355
 30
0.0
 11
573.875327
 21
310.591355
 31
0.0
  0
LINE
  5
26E
100
AcDbEntity
  8
0
  6
HIDDEN
 62
     7
100
AcDbLine
 10
571.875327
 20
164.393773
 30
0.0
 11
573.875327
 21
164.393773
 31
0.0
  0
LINE
  5
26F
100
AcDbEntity
  8
0
  6
HIDDEN
 62
     7
100
AcDbLine
 10
574.875327
 20
142.884341
 30
0.0
 11
573.875327
 21
142.884341
 31
0.0
  0
TEXT
  5
2B4
100
AcDbEntity
  8
0
100
AcDbText
 10
35.754041
 20
408.503143
 30
0.0
 40
10.0
  1
FIBOX Tempo 2016 Cover
100
AcDbText
  0
ENDSEC
  0
SECTION
  2
OBJECTS
  0
DICTIONARY
  5
C
100
AcDbDictionary
  3
ACAD_GROUP
350
D
  3
ACAD_PLOTSTYLENAME
350
E
  3
ACAD_MLINESTYLE
350
17
  3
ACAD_PLOTSETTINGS
350
19
  3
ACAD_LAYOUT
350
1A
  3
ACDBHEADERROUNDTRIPXREC
350
275
  0
DICTIONARY
  5
2A7
100
AcDbDictionary
280
     1
  3
ACAD_XREC_ROUNDTRIP
360
2A8
  0
DICTIONARY
  5
2A9
100
AcDbDictionary
280
     1
  3
ACAD_XREC_ROUNDTRIP
360
2AA
  0
DICTIONARY
  5
2AB
100
AcDbDictionary
280
     1
  3
ACAD_XREC_ROUNDTRIP
360
2AC
  0
DICTIONARY
  5
2A5
100
AcDbDictionary
280
     1
  3
ACAD_XREC_ROUNDTRIP
360
2A6
  0
DICTIONARY
  5
2AF
100
AcDbDictionary
280
     1
  3
ACAD_XREC_ROUNDTRIP
360
2B0
  0
DICTIONARY
  5
29C
100
AcDbDictionary
280
     1
  3
ACAD_LAYOUTSELFREF
360
29D
  3
ACAD_XREC_ROUNDTRIP
360
2A2
  0
DICTIONARY
  5
29A
100
AcDbDictionary
280
     1
  3
ACAD_LAYOUTSELFREF
360
29B
  3
ACAD_XREC_ROUNDTRIP
360
2A3
  0
DICTIONARY
  5
29E
100
AcDbDictionary
280
     1
  3
ACAD_LAYOUTSELFREF
360
29F
  3
ACAD_XREC_ROUNDTRIP
360
2A4
  0
DICTIONARY
  5
D
102
{ACAD_REACTORS
330
C
102
}
100
AcDbDictionary
  0
ACAD_PROXY_OBJECT
  5
E
102
{ACAD_XDICTIONARY
360
296
102
}
102
{ACAD_REACTORS
330
C
102
}
100
AcDbProxyObject
 90
      499
 91
      500
 93
       86
310
4050100419393D49350530
350
F
340
F
 94
        0
  0
DICTIONARY
  5
17
102
{ACAD_XDICTIONARY
360
298
102
}
102
{ACAD_REACTORS
330
C
102
}
100
AcDbDictionary
  3
STANDARD
350
18
  0
DICTIONARY
  5
19
102
{ACAD_REACTORS
330
C
102
}
100
AcDbDictionary
  0
DICTIONARY
  5
1A
102
{ACAD_XDICTIONARY
360
2A0
102
}
102
{ACAD_REACTORS
330
C
102
}
100
AcDbDictionary
  3
LAYOUT1
350
1E
  3
MODEL
350
22
  3
LAYOUT2
350
26
  0
DICTIONARY
  5
275
102
{ACAD_REACTORS
330
C
102
}
100
AcDbDictionary
  3
TSTACKALIGN
350
276
  3
TSTACKSIZE
350
277
  3
HYPERLINKBASE
350
278
  3
STYLESHEET
350
279
  3
LAYOUTDICT
350
27A
  3
PLOTSETDICT
350
27B
  3
PLOTSTYLNAMDICT
350
27C
  3
LWETCUNION
350
27D
  3
INSUNITS
350
27E
  3
CEPSNTYPE
350
27F
  3
FINGERPRINTGUID
350
280
  3
VERSIONGUID
350
281
  3
PSVPSCALE
350
282
  3
PUCSORTHOREF
350
283
  3
PUCSORTHOVIEW
350
284
  3
PUCSBASE
350
285
  3
PUCSORGTOP
350
286
  3
PUCSORGBOTTOM
350
287
  3
PUCSORGLEFT
350
288
  3
PUCSORGRIGHT
350
289
  3
PUCSORGFRONT
350
28A
  3
PUCSORGBACK
350
28B
  3
UCSORTHOREF
350
28C
  3
UCSORTHOVIEW
350
28D
  3
UCSBASE
350
28E
  3
UCSORGTOP
350
28F
  3
UCSORGBOTTOM
350
290
  3
UCSORGLEFT
350
291
  3
UCSORGRIGHT
350
292
  3
UCSORGFRONT
350
293
  3
UCSORGBACK
350
294
  3
DIMSTYLEDATA
350
295
  0
XRECORD
  5
2A8
102
{ACAD_REACTORS
330
2A7
102
}
100
AcDbXrecord
102
EXTNAMES
  1
BYBLOCK
  2
ByBlock
  0
XRECORD
  5
2AA
102
{ACAD_REACTORS
330
2A9
102
}
100
AcDbXrecord
102
EXTNAMES
  1
BYLAYER
  2
ByLayer
  0
XRECORD
  5
2AC
102
{ACAD_REACTORS
330
2AB
102
}
100
AcDbXrecord
102
EXTNAMES
  1
CONTINUOUS
  2
Continuous
  0
XRECORD
  5
2A6
102
{ACAD_REACTORS
330
2A5
102
}
100
AcDbXrecord
102
EXTNAMES
  1
STANDARD
  2
Standard
  0
XRECORD
  5
2B0
102
{ACAD_REACTORS
330
2AF
102
}
100
AcDbXrecord
102
ACADR14ROUNDTRIP
1000
DSTYLE
1002
{
1070
   278
 70
    44
1002
}
  0
XRECORD
  5
29D
102
{ACAD_REACTORS
330
29C
102
}
100
AcDbXrecord
340
1F
  0
XRECORD
  5
2A2
102
{ACAD_REACTORS
330
29C
102
}
100
AcDbXrecord
102
EXTNAMES
  1
*MODEL_SPACE
  2
*Model_Space
  0
XRECORD
  5
29B
102
{ACAD_REACTORS
330
29A
102
}
100
AcDbXrecord
340
1B
  0
XRECORD
  5
2A3
102
{ACAD_REACTORS
330
29A
102
}
100
AcDbXrecord
102
EXTNAMES
  1
*PAPER_SPACE
  2
*Paper_Space
  0
XRECORD
  5
29F
102
{ACAD_REACTORS
330
29E
102
}
100
AcDbXrecord
340
23
  0
XRECORD
  5
2A4
102
{ACAD_REACTORS
330
29E
102
}
100
AcDbXrecord
102
EXTNAMES
  1
*PAPER_SPACE
  2
*Paper_Space0
  0
DICTIONARY
  5
296
100
AcDbDictionary
280
     1
  3
ACAD_XREC_ROUNDTRIP
360
297
  0
ACAD_PROXY_OBJECT
  5
F
102
{ACAD_REACTORS
330
E
102
}
100
AcDbProxyObject
 90
      499
 91
      504
 93
        0
 94
        0
  0
DICTIONARY
  5
298
100
AcDbDictionary
280
     1
  3
ACAD_XREC_ROUNDTRIP
360
299
  0
MLINESTYLE
  5
18
102
{ACAD_REACTORS
330
17
102
}
100
AcDbMlineStyle
  2
STANDARD
 70
     0
  3

 62
   256
 51
90.0
 52
90.0
 71
     2
 49
0.5
 62
   256
  6
BYLAYER
 49
-0.5
 62
   256
  6
BYLAYER
  0
DICTIONARY
  5
2A0
100
AcDbDictionary
280
     1
  3
ACAD_XREC_ROUNDTRIP
360
2A1
  0
ACAD_PROXY_OBJECT
  5
1E
102
{ACAD_REACTORS
330
1A
102
}
100
AcDbProxyObject
 90
      499
 91
      505
 93
      468
310
A2C00AAAAAA416AA591069074C61796F75743140501A80000000000000000000000000000000000000000000000000000000000000002A6A6AAAA0
330
1B
330
0
340
0
340
0
 94
        0
  0
ACAD_PROXY_OBJECT
  5
22
102
{ACAD_REACTORS
330
1A
102
}
100
AcDbProxyObject
 90
      499
 91
      505
 93
      556
310
A2C01AAAAAAAAA5A69054D6F64656C901A80000000000000000000000000000000000000000000000000000000000000002A6A6AA80000000000407A400000000000241C902A
330
1F
330
0
340
0
340
0
 94
        0
  0
ACAD_PROXY_OBJECT
  5
26
102
{ACAD_REACTORS
330
1A
102
}
100
AcDbProxyObject
 90
      499
 91
      505
 93
      468
310
A2C00AAAAAA416AA591069074C61796F75743240901A80000000000000000000000000000000000000000000000000000000000000002A6A6AAAA0
330
23
330
0
340
0
340
0
 94
        0
  0
XRECORD
  5
276
102
{ACAD_REACTORS
330
275
102
}
100
AcDbXrecord
 90
        1
  0
XRECORD
  5
277
102
{ACAD_REACTORS
330
275
102
}
100
AcDbXrecord
 90
       70
  0
XRECORD
  5
278
102
{ACAD_REACTORS
330
275
102
}
100
AcDbXrecord
  1

  0
XRECORD
  5
279
102
{ACAD_REACTORS
330
275
102
}
100
AcDbXrecord
  1

  0
XRECORD
  5
27A
102
{ACAD_REACTORS
330
275
102
}
100
AcDbXrecord
340
1A
  0
XRECORD
  5
27B
102
{ACAD_REACTORS
330
275
102
}
100
AcDbXrecord
340
19
  0
XRECORD
  5
27C
102
{ACAD_REACTORS
330
275
102
}
100
AcDbXrecord
340
E
  0
XRECORD
  5
27D
102
{ACAD_REACTORS
330
275
102
}
100
AcDbXrecord
 90
    10269
  0
XRECORD
  5
27E
102
{ACAD_REACTORS
330
275
102
}
100
AcDbXrecord
 90
        4
  0
XRECORD
  5
27F
102
{ACAD_REACTORS
330
275
102
}
100
AcDbXrecord
 90
        0
  0
XRECORD
  5
280
102
{ACAD_REACTORS
330
275
102
}
100
AcDbXrecord
  1
{07EEC3C8-DFA7-4826-9869-336DADE0EA24}
  0
XRECORD
  5
281
102
{ACAD_REACTORS
330
275
102
}
100
AcDbXrecord
  1
{FAEB1C32-E019-11D5-929B-00C0DF256EC4}
  0
XRECORD
  5
282
102
{ACAD_REACTORS
330
275
102
}
100
AcDbXrecord
 40
0.0
  0
XRECORD
  5
283
102
{ACAD_REACTORS
330
275
102
}
100
AcDbXrecord
340
0
  0
XRECORD
  5
284
102
{ACAD_REACTORS
330
275
102
}
100
AcDbXrecord
 70
     0
  0
XRECORD
  5
285
102
{ACAD_REACTORS
330
275
102
}
100
AcDbXrecord
340
0
  0
XRECORD
  5
286
102
{ACAD_REACTORS
330
275
102
}
100
AcDbXrecord
 10
0.0
 20
0.0
 30
0.0
  0
XRECORD
  5
287
102
{ACAD_REACTORS
330
275
102
}
100
AcDbXrecord
 10
0.0
 20
0.0
 30
0.0
  0
XRECORD
  5
288
102
{ACAD_REACTORS
330
275
102
}
100
AcDbXrecord
 10
0.0
 20
0.0
 30
0.0
  0
XRECORD
  5
289
102
{ACAD_REACTORS
330
275
102
}
100
AcDbXrecord
 10
0.0
 20
0.0
 30
0.0
  0
XRECORD
  5
28A
102
{ACAD_REACTORS
330
275
102
}
100
AcDbXrecord
 10
0.0
 20
0.0
 30
0.0
  0
XRECORD
  5
28B
102
{ACAD_REACTORS
330
275
102
}
100
AcDbXrecord
 10
0.0
 20
0.0
 30
0.0
  0
XRECORD
  5
28C
102
{ACAD_REACTORS
330
275
102
}
100
AcDbXrecord
340
0
  0
XRECORD
  5
28D
102
{ACAD_REACTORS
330
275
102
}
100
AcDbXrecord
 70
     0
  0
XRECORD
  5
28E
102
{ACAD_REACTORS
330
275
102
}
100
AcDbXrecord
340
0
  0
XRECORD
  5
28F
102
{ACAD_REACTORS
330
275
102
}
100
AcDbXrecord
 10
0.0
 20
0.0
 30
0.0
  0
XRECORD
  5
290
102
{ACAD_REACTORS
330
275
102
}
100
AcDbXrecord
 10
0.0
 20
0.0
 30
0.0
  0
XRECORD
  5
291
102
{ACAD_REACTORS
330
275
102
}
100
AcDbXrecord
 10
0.0
 20
0.0
 30
0.0
  0
XRECORD
  5
292
102
{ACAD_REACTORS
330
275
102
}
100
AcDbXrecord
 10
0.0
 20
0.0
 30
0.0
  0
XRECORD
  5
293
102
{ACAD_REACTORS
330
275
102
}
100
AcDbXrecord
 10
0.0
 20
0.0
 30
0.0
  0
XRECORD
  5
294
102
{ACAD_REACTORS
330
275
102
}
100
AcDbXrecord
 10
0.0
 20
0.0
 30
0.0
  0
XRECORD
  5
295
102
{ACAD_REACTORS
330
275
102
}
100
AcDbXrecord
1000
DSTYLE
1002
{
1070
   143
 40
0.03937
1070
    41
 40
6.0
1070
    44
 40
1.0
1070
    42
 40
1.0
1070
   147
 40
1.524
1070
   144
 40
2.0
1070
    73
 70
     1
1070
    74
 70
     1
1070
   340
340
11
1070
   140
 40
3.5
1070
   284
 70
     0
1070
    78
 70
     0
1002
}
  0
XRECORD
  5
297
102
{ACAD_REACTORS
330
296
102
}
100
AcDbXrecord
102
EXTNAMES
  1
NORMAL
  2
Normal
  0
XRECORD
  5
299
102
{ACAD_REACTORS
330
298
102
}
100
AcDbXrecord
102
EXTNAMES
  1
STANDARD
  2
Standard
  0
XRECORD
  5
2A1
102
{ACAD_REACTORS
330
2A0
102
}
100
AcDbXrecord
102
EXTNAMES
  1
LAYOUT1
  2
Layout1
  1
LAYOUT2
  2
Layout2
  1
MODEL
  2
Model
  0
ENDSEC
  0
EOF
