  0
SECTION
  2
HEADER
  9
$ACADVER
  1
AC1014
  9
$ACADMAINTVER
 70
     0
  9
$DWGCODEPAGE
  3
ANSI_1252
  9
$INSBASE
 10
0.0
 20
0.0
 30
0.0
  9
$EXTMIN
 10
33.344422
 20
30.580994
 30
-0.001526
  9
$EXTMAX
 10
738.813173
 20
501.509263
 30
0.0
  9
$LIMMIN
 10
0.0
 20
0.0
  9
$LIMMAX
 10
0.0
 20
0.0
  9
$ORTHOMODE
 70
     0
  9
$REGENMODE
 70
     1
  9
$FILLMODE
 70
     1
  9
$QTEXTMODE
 70
     0
  9
$MIRRTEXT
 70
     1
  9
$DRAGMODE
 70
     2
  9
$LTSCALE
 40
1.0
  9
$OSMODE
 70
    37
  9
$ATTMODE
 70
     1
  9
$TEXTSIZE
 40
10.0
  9
$TRACEWID
 40
1.0
  9
$TEXTSTYLE
  7
STANDARD
  9
$CLAYER
  8
0
  9
$CELTYPE
  6
BYLAYER
  9
$CECOLOR
 62
   256
  9
$CELTSCALE
 40
1.0
  9
$DELOBJ
 70
     1
  9
$DISPSILH
 70
     0
  9
$DIMSCALE
 40
1.0
  9
$DIMASZ
 40
6.0
  9
$DIMEXO
 40
1.0
  9
$DIMDLI
 40
3.75
  9
$DIMRND
 40
0.0
  9
$DIMDLE
 40
0.0
  9
$DIMEXE
 40
1.0
  9
$DIMTP
 40
0.0
  9
$DIMTM
 40
0.0
  9
$DIMTXT
 40
3.5
  9
$DIMCEN
 40
2.5
  9
$DIMTSZ
 40
0.0
  9
$DIMTOL
 70
     0
  9
$DIMLIM
 70
     0
  9
$DIMTIH
 70
     1
  9
$DIMTOH
 70
     1
  9
$DIMSE1
 70
     0
  9
$DIMSE2
 70
     0
  9
$DIMTAD
 70
     1
  9
$DIMZIN
 70
     0
  9
$DIMBLK
  1

  9
$DIMASO
 70
     1
  9
$DIMSHO
 70
     1
  9
$DIMPOST
  1

  9
$DIMAPOST
  1

  9
$DIMALT
 70
     0
  9
$DIMALTD
 70
     3
  9
$DIMALTF
 40
0.03937
  9
$DIMLFAC
 40
1.0
  9
$DIMTOFL
 70
     1
  9
$DIMTVP
 40
0.0
  9
$DIMTIX
 70
     0
  9
$DIMSOXD
 70
     0
  9
$DIMSAH
 70
     0
  9
$DIMBLK1
  1

  9
$DIMBLK2
  1

  9
$DIMSTYLE
  2
ISO-25
  9
$DIMCLRD
 70
     0
  9
$DIMCLRE
 70
     0
  9
$DIMCLRT
 70
     0
  9
$DIMTFAC
 40
1.0
  9
$DIMGAP
 40
1.524
  9
$DIMJUST
 70
     0
  9
$DIMSD1
 70
     0
  9
$DIMSD2
 70
     0
  9
$DIMTOLJ
 70
     0
  9
$DIMTZIN
 70
     0
  9
$DIMALTZ
 70
     0
  9
$DIMALTTZ
 70
     0
  9
$DIMFIT
 70
     3
  9
$DIMUPT
 70
     0
  9
$DIMUNIT
 70
     2
  9
$DIMDEC
 70
     2
  9
$DIMTDEC
 70
     2
  9
$DIMALTU
 70
     2
  9
$DIMALTTD
 70
     3
  9
$DIMTXSTY
  7
STANDARD
  9
$DIMAUNIT
 70
     0
  9
$LUNITS
 70
     2
  9
$LUPREC
 70
     2
  9
$SKETCHINC
 40
1.0
  9
$FILLETRAD
 40
10.0
  9
$AUNITS
 70
     0
  9
$AUPREC
 70
     0
  9
$MENU
  1
.
  9
$ELEVATION
 40
0.0
  9
$PELEVATION
 40
0.0
  9
$THICKNESS
 40
0.0
  9
$LIMCHECK
 70
     0
  9
$BLIPMODE
 70
     0
  9
$CHAMFERA
 40
10.0
  9
$CHAMFERB
 40
10.0
  9
$CHAMFERC
 40
20.0
  9
$CHAMFERD
 40
0.0
  9
$SKPOLY
 70
     0
  9
$TDCREATE
 40
2454075.504601458
  9
$TDUPDATE
 40
2454075.625676562
  9
$TDINDWG
 40
0.0058186806
  9
$TDUSRTIMER
 40
0.0058186806
  9
$USRTIMER
 70
     1
  9
$ANGBASE
 50
0.0
  9
$ANGDIR
 70
     0
  9
$PDMODE
 70
     0
  9
$PDSIZE
 40
-1.0
  9
$PLINEWID
 40
0.0
  9
$COORDS
 70
     1
  9
$SPLFRAME
 70
     0
  9
$SPLINETYPE
 70
     6
  9
$SPLINESEGS
 70
     8
  9
$ATTDIA
 70
     0
  9
$ATTREQ
 70
     1
  9
$HANDLING
 70
     1
  9
$HANDSEED
  5
70E
  9
$SURFTAB1
 70
     6
  9
$SURFTAB2
 70
     6
  9
$SURFTYPE
 70
     6
  9
$SURFU
 70
     6
  9
$SURFV
 70
     6
  9
$UCSNAME
  2

  9
$UCSORG
 10
0.0
 20
0.0
 30
0.0
  9
$UCSXDIR
 10
1.0
 20
0.0
 30
0.0
  9
$UCSYDIR
 10
0.0
 20
1.0
 30
0.0
  9
$PUCSNAME
  2

  9
$PUCSORG
 10
0.0
 20
0.0
 30
0.0
  9
$PUCSXDIR
 10
1.0
 20
0.0
 30
0.0
  9
$PUCSYDIR
 10
0.0
 20
1.0
 30
0.0
  9
$USERI1
 70
     0
  9
$USERI2
 70
     0
  9
$USERI3
 70
     0
  9
$USERI4
 70
     0
  9
$USERI5
 70
     0
  9
$USERR1
 40
0.0
  9
$USERR2
 40
0.0
  9
$USERR3
 40
0.0
  9
$USERR4
 40
0.0
  9
$USERR5
 40
0.0
  9
$WORLDVIEW
 70
     1
  9
$SHADEDGE
 70
     3
  9
$SHADEDIF
 70
    70
  9
$TILEMODE
 70
     1
  9
$MAXACTVP
 70
    64
  9
$PINSBASE
 10
0.0
 20
0.0
 30
0.0
  9
$PLIMCHECK
 70
     0
  9
$PEXTMIN
 10
1.000000E+20
 20
1.000000E+20
 30
1.000000E+20
  9
$PEXTMAX
 10
-1.000000E+20
 20
-1.000000E+20
 30
-1.000000E+20
  9
$PLIMMIN
 10
0.0
 20
0.0
  9
$PLIMMAX
 10
420.0
 20
297.0
  9
$UNITMODE
 70
     0
  9
$VISRETAIN
 70
     1
  9
$PLINEGEN
 70
     0
  9
$PSLTSCALE
 70
     1
  9
$TREEDEPTH
 70
  3020
  9
$PICKSTYLE
 70
     1
  9
$CMLSTYLE
  2
STANDARD
  9
$CMLJUST
 70
     0
  9
$CMLSCALE
 40
20.0
  9
$PROXYGRAPHICS
 70
     1
  9
$MEASUREMENT
 70
     1
  0
ENDSEC
  0
SECTION
  2
CLASSES
  0
CLASS
  1
ACDBDICTIONARYWDFLT
  2
AcDbDictionaryWithDefault
  3
ObjectDBX Classes
 90
        0
280
     0
281
     0
  0
CLASS
  1
XRECORD
  2
AcDbXrecord
  3
"<Built In>"
 90
        0
280
     0
281
     0
  0
CLASS
  1
LWPOLYLINE
  2
AcDbPolyline
  3
"AutoCAD"
 90
        0
280
     0
281
     1
  0
CLASS
  1
HATCH
  2
AcDbHatch
  3
"ACAD_SEDONA"
 90
        0
280
     0
281
     1
  0
CLASS
  1
ACDBPLACEHOLDER
  2
AcDbPlaceHolder
  3
ObjectDBX Classes
 90
        0
280
     0
281
     0
  0
CLASS
  1
LAYOUT
  2
AcDbLayout
  3
ObjectDBX Classes
 90
        0
280
     0
281
     0
  0
ENDSEC
  0
SECTION
  2
TABLES
  0
TABLE
  2
VPORT
  5
8
100
AcDbSymbolTable
 70
     4
  0
VPORT
  5
70D
100
AcDbSymbolTableRecord
100
AcDbViewportTableRecord
  2
*ACTIVE
 70
     0
 10
0.0
 20
0.0
 11
1.0
 21
1.0
 12
369.406586
 22
250.754632
 13
0.0
 23
0.0
 14
10.0
 24
10.0
 15
10.0
 25
10.0
 16
0.0
 26
0.0
 36
1.0
 17
0.0
 27
0.0
 37
0.0
 40
515.39064
 41
1.440781
 42
50.0
 43
0.0
 44
0.0
 50
0.0
 51
0.0
 71
     0
 72
  2000
 73
     1
 74
     3
 75
     0
 76
     0
 77
     0
 78
     0
  0
ENDTAB
  0
TABLE
  2
LTYPE
  5
5
100
AcDbSymbolTable
 70
     6
  0
LTYPE
  5
14
102
{ACAD_XDICTIONARY
360
6FD
102
}
100
AcDbSymbolTableRecord
100
AcDbLinetypeTableRecord
  2
BYBLOCK
 70
     0
  3

 72
    65
 73
     0
 40
0.0
  0
LTYPE
  5
15
102
{ACAD_XDICTIONARY
360
6FF
102
}
100
AcDbSymbolTableRecord
100
AcDbLinetypeTableRecord
  2
BYLAYER
 70
     0
  3

 72
    65
 73
     0
 40
0.0
  0
LTYPE
  5
16
102
{ACAD_XDICTIONARY
360
701
102
}
100
AcDbSymbolTableRecord
100
AcDbLinetypeTableRecord
  2
CONTINUOUS
 70
     0
  3
Solid line
 72
    65
 73
     0
 40
0.0
  0
LTYPE
  5
2A
100
AcDbSymbolTableRecord
100
AcDbLinetypeTableRecord
  2
HIDDEN
 70
     0
  3
Hidden __ __ __ __ __ __ __ __ __ __ __ __ __ __
 72
    65
 73
     2
 40
1.905
 49
1.27
 74
     0
 49
-0.635
 74
     0
  0
LTYPE
  5
2B
100
AcDbSymbolTableRecord
100
AcDbLinetypeTableRecord
  2
PHANTOM
 70
     0
  3
Phantom ______  __  __  ______  __  __  ______
 72
    65
 73
     6
 40
12.7
 49
6.35
 74
     0
 49
-1.27
 74
     0
 49
1.27
 74
     0
 49
-1.27
 74
     0
 49
1.27
 74
     0
 49
-1.27
 74
     0
  0
LTYPE
  5
2C
100
AcDbSymbolTableRecord
100
AcDbLinetypeTableRecord
  2
CENTER
 70
     0
  3
Center ____ _ ____ _ ____ _ ____ _ ____ _ ____
 72
    65
 73
     4
 40
10.16
 49
6.35
 74
     0
 49
-1.27
 74
     0
 49
1.27
 74
     0
 49
-1.27
 74
     0
  0
LTYPE
  5
2D
100
AcDbSymbolTableRecord
100
AcDbLinetypeTableRecord
  2
CENTERX2
 70
     0
  3
Center (2x) ________  __  ________  __  _____
 72
    65
 73
     4
 40
20.32
 49
12.7
 74
     0
 49
-2.54
 74
     0
 49
2.54
 74
     0
 49
-2.54
 74
     0
  0
LTYPE
  5
2E
100
AcDbSymbolTableRecord
100
AcDbLinetypeTableRecord
  2
DOT2
 70
     0
  3
Dot (.5x) ........................................
 72
    65
 73
     2
 40
0.635
 49
0.0
 74
     0
 49
-0.635
 74
     0
  0
ENDTAB
  0
TABLE
  2
LAYER
  5
2
100
AcDbSymbolTable
 70
     1
  0
LAYER
  5
10
100
AcDbSymbolTableRecord
100
AcDbLayerTableRecord
  2
0
 70
     0
 62
     7
  6
CONTINUOUS
  0
ENDTAB
  0
TABLE
  2
STYLE
  5
3
100
AcDbSymbolTable
 70
     1
  0
STYLE
  5
11
102
{ACAD_XDICTIONARY
360
6FB
102
}
100
AcDbSymbolTableRecord
100
AcDbTextStyleTableRecord
  2
STANDARD
 70
     0
 40
0.0
 41
1.0
 50
0.0
 71
     0
 42
10.0
  3
txt
  4

  0
ENDTAB
  0
TABLE
  2
VIEW
  5
6
100
AcDbSymbolTable
 70
     0
  0
ENDTAB
  0
TABLE
  2
UCS
  5
7
100
AcDbSymbolTable
 70
     0
  0
ENDTAB
  0
TABLE
  2
APPID
  5
9
100
AcDbSymbolTable
 70
     1
  0
APPID
  5
12
100
AcDbSymbolTableRecord
100
AcDbRegAppTableRecord
  2
ACAD
 70
     0
  0
ENDTAB
  0
TABLE
  2
DIMSTYLE
  5
A
100
AcDbSymbolTable
 70
     1
  0
DIMSTYLE
105
27
102
{ACAD_XDICTIONARY
360
705
102
}
100
AcDbSymbolTableRecord
100
AcDbDimStyleTableRecord
  2
ISO-25
 70
     0
  3

  4

  5

  6

  7

 40
1.0
 41
2.5
 42
0.625
 43
3.75
 44
1.25
 45
0.0
 46
0.0
 47
0.0
 48
0.0
140
2.5
141
2.5
142
0.0
143
0.03937
144
1.0
145
0.0
146
1.0
147
0.625
 71
     0
 72
     0
 73
     0
 74
     0
 75
     0
 76
     0
 77
     1
 78
     8
170
     0
171
     3
172
     1
173
     0
174
     0
175
     0
176
     0
177
     0
178
     0
270
     2
271
     2
272
     2
273
     2
274
     3
340
11
275
     0
280
     0
281
     0
282
     0
283
     0
284
     8
285
     0
286
     0
287
     3
288
     0
  0
ENDTAB
  0
TABLE
  2
BLOCK_RECORD
  5
1
100
AcDbSymbolTable
 70
     9
  0
BLOCK_RECORD
  5
1F
102
{ACAD_XDICTIONARY
360
6F2
102
}
100
AcDbSymbolTableRecord
100
AcDbBlockTableRecord
  2
*MODEL_SPACE
  0
BLOCK_RECORD
  5
1B
102
{ACAD_XDICTIONARY
360
6F0
102
}
100
AcDbSymbolTableRecord
100
AcDbBlockTableRecord
  2
*PAPER_SPACE
  0
BLOCK_RECORD
  5
23
102
{ACAD_XDICTIONARY
360
6F4
102
}
100
AcDbSymbolTableRecord
100
AcDbBlockTableRecord
  2
*PAPER_SPACE0
  0
BLOCK_RECORD
  5
14F
100
AcDbSymbolTableRecord
100
AcDbBlockTableRecord
  2
SW_CENTERMARKSYMBOL_0
  0
BLOCK_RECORD
  5
157
100
AcDbSymbolTableRecord
100
AcDbBlockTableRecord
  2
SW_CENTERMARKSYMBOL_1
  0
BLOCK_RECORD
  5
463
100
AcDbSymbolTableRecord
100
AcDbBlockTableRecord
  2
SW_CENTERMARKSYMBOL_2
  0
BLOCK_RECORD
  5
46B
100
AcDbSymbolTableRecord
100
AcDbBlockTableRecord
  2
SW_CENTERMARKSYMBOL_3
  0
BLOCK_RECORD
  5
4B5
100
AcDbSymbolTableRecord
100
AcDbBlockTableRecord
  2
SW_CENTERMARKSYMBOL_4
  0
BLOCK_RECORD
  5
4BD
100
AcDbSymbolTableRecord
100
AcDbBlockTableRecord
  2
SW_CENTERMARKSYMBOL_5
  0
BLOCK_RECORD
  5
6BA
100
AcDbSymbolTableRecord
100
AcDbBlockTableRecord
  2
SW_CENTERMARKSYMBOL_6
  0
BLOCK_RECORD
  5
6C2
100
AcDbSymbolTableRecord
100
AcDbBlockTableRecord
  2
SW_CENTERMARKSYMBOL_7
  0
ENDTAB
  0
ENDSEC
  0
SECTION
  2
BLOCKS
  0
BLOCK
  5
20
100
AcDbEntity
  8
0
100
AcDbBlockBegin
  2
*MODEL_SPACE
 70
     0
 10
0.0
 20
0.0
 30
0.0
  3
*MODEL_SPACE
  1

  0
ENDBLK
  5
21
100
AcDbEntity
  8
0
100
AcDbBlockEnd
  0
BLOCK
  5
1C
100
AcDbEntity
 67
     1
  8
0
100
AcDbBlockBegin
  2
*PAPER_SPACE
 70
     0
 10
0.0
 20
0.0
 30
0.0
  3
*PAPER_SPACE
  1

  0
ENDBLK
  5
1D
100
AcDbEntity
 67
     1
  8
0
100
AcDbBlockEnd
  0
BLOCK
  5
24
100
AcDbEntity
  8
0
100
AcDbBlockBegin
  2
*PAPER_SPACE0
 70
     0
 10
0.0
 20
0.0
 30
0.0
  3
*PAPER_SPACE0
  1

  0
ENDBLK
  5
25
100
AcDbEntity
  8
0
100
AcDbBlockEnd
  0
BLOCK
  5
150
100
AcDbEntity
  8
0
100
AcDbBlockBegin
  2
SW_CENTERMARKSYMBOL_0
 70
     0
 10
0.0
 20
0.0
 30
0.0
  3
SW_CENTERMARKSYMBOL_0
  1

  0
LINE
  5
152
100
AcDbEntity
  8
0
  6
CONTINUOUS
 62
     7
100
AcDbLine
 10
0.0
 20
0.0
 30
0.0
 11
0.0
 21
1.25
 31
0.0
  0
LINE
  5
153
100
AcDbEntity
  8
0
  6
CONTINUOUS
 62
     7
100
AcDbLine
 10
0.0
 20
0.0
 30
0.0
 11
-1.25
 21
0.0
 31
0.0
  0
LINE
  5
154
100
AcDbEntity
  8
0
  6
CONTINUOUS
 62
     7
100
AcDbLine
 10
0.0
 20
0.0
 30
0.0
 11
0.0
 21
-1.25
 31
0.0
  0
LINE
  5
155
100
AcDbEntity
  8
0
  6
CONTINUOUS
 62
     7
100
AcDbLine
 10
0.0
 20
0.0
 30
0.0
 11
1.25
 21
0.0
 31
0.0
  0
ENDBLK
  5
151
100
AcDbEntity
  8
0
100
AcDbBlockEnd
  0
BLOCK
  5
158
100
AcDbEntity
  8
0
100
AcDbBlockBegin
  2
SW_CENTERMARKSYMBOL_1
 70
     0
 10
0.0
 20
0.0
 30
0.0
  3
SW_CENTERMARKSYMBOL_1
  1

  0
LINE
  5
15A
100
AcDbEntity
  8
0
  6
CONTINUOUS
 62
     7
100
AcDbLine
 10
0.0
 20
0.0
 30
0.0
 11
0.0
 21
1.25
 31
0.0
  0
LINE
  5
15B
100
AcDbEntity
  8
0
  6
CONTINUOUS
 62
     7
100
AcDbLine
 10
0.0
 20
0.0
 30
0.0
 11
-1.25
 21
0.0
 31
0.0
  0
LINE
  5
15C
100
AcDbEntity
  8
0
  6
CONTINUOUS
 62
     7
100
AcDbLine
 10
0.0
 20
0.0
 30
0.0
 11
0.0
 21
-1.25
 31
0.0
  0
LINE
  5
15D
100
AcDbEntity
  8
0
  6
CONTINUOUS
 62
     7
100
AcDbLine
 10
0.0
 20
0.0
 30
0.0
 11
1.25
 21
0.0
 31
0.0
  0
ENDBLK
  5
159
100
AcDbEntity
  8
0
100
AcDbBlockEnd
  0
BLOCK
  5
464
100
AcDbEntity
  8
0
100
AcDbBlockBegin
  2
SW_CENTERMARKSYMBOL_2
 70
     0
 10
0.0
 20
0.0
 30
0.0
  3
SW_CENTERMARKSYMBOL_2
  1

  0
LINE
  5
466
100
AcDbEntity
  8
0
  6
CONTINUOUS
 62
     7
100
AcDbLine
 10
0.0
 20
0.0
 30
0.0
 11
0.0
 21
1.25
 31
0.0
  0
LINE
  5
467
100
AcDbEntity
  8
0
  6
CONTINUOUS
 62
     7
100
AcDbLine
 10
0.0
 20
0.0
 30
0.0
 11
-1.25
 21
0.0
 31
0.0
  0
LINE
  5
468
100
AcDbEntity
  8
0
  6
CONTINUOUS
 62
     7
100
AcDbLine
 10
0.0
 20
0.0
 30
0.0
 11
0.0
 21
-1.25
 31
0.0
  0
LINE
  5
469
100
AcDbEntity
  8
0
  6
CONTINUOUS
 62
     7
100
AcDbLine
 10
0.0
 20
0.0
 30
0.0
 11
1.25
 21
0.0
 31
0.0
  0
ENDBLK
  5
465
100
AcDbEntity
  8
0
100
AcDbBlockEnd
  0
BLOCK
  5
46C
100
AcDbEntity
  8
0
100
AcDbBlockBegin
  2
SW_CENTERMARKSYMBOL_3
 70
     0
 10
0.0
 20
0.0
 30
0.0
  3
SW_CENTERMARKSYMBOL_3
  1

  0
LINE
  5
46E
100
AcDbEntity
  8
0
  6
CONTINUOUS
 62
     7
100
AcDbLine
 10
0.0
 20
0.0
 30
0.0
 11
0.0
 21
1.25
 31
0.0
  0
LINE
  5
46F
100
AcDbEntity
  8
0
  6
CONTINUOUS
 62
     7
100
AcDbLine
 10
0.0
 20
0.0
 30
0.0
 11
-1.25
 21
0.0
 31
0.0
  0
LINE
  5
470
100
AcDbEntity
  8
0
  6
CONTINUOUS
 62
     7
100
AcDbLine
 10
0.0
 20
0.0
 30
0.0
 11
0.0
 21
-1.25
 31
0.0
  0
LINE
  5
471
100
AcDbEntity
  8
0
  6
CONTINUOUS
 62
     7
100
AcDbLine
 10
0.0
 20
0.0
 30
0.0
 11
1.25
 21
0.0
 31
0.0
  0
ENDBLK
  5
46D
100
AcDbEntity
  8
0
100
AcDbBlockEnd
  0
BLOCK
  5
4B6
100
AcDbEntity
  8
0
100
AcDbBlockBegin
  2
SW_CENTERMARKSYMBOL_4
 70
     0
 10
0.0
 20
0.0
 30
0.0
  3
SW_CENTERMARKSYMBOL_4
  1

  0
LINE
  5
4B8
100
AcDbEntity
  8
0
  6
CONTINUOUS
 62
     7
100
AcDbLine
 10
0.0
 20
0.0
 30
0.0
 11
0.0
 21
1.25
 31
0.0
  0
LINE
  5
4B9
100
AcDbEntity
  8
0
  6
CONTINUOUS
 62
     7
100
AcDbLine
 10
0.0
 20
0.0
 30
0.0
 11
-1.25
 21
0.0
 31
0.0
  0
LINE
  5
4BA
100
AcDbEntity
  8
0
  6
CONTINUOUS
 62
     7
100
AcDbLine
 10
0.0
 20
0.0
 30
0.0
 11
0.0
 21
-1.25
 31
0.0
  0
LINE
  5
4BB
100
AcDbEntity
  8
0
  6
CONTINUOUS
 62
     7
100
AcDbLine
 10
0.0
 20
0.0
 30
0.0
 11
1.25
 21
0.0
 31
0.0
  0
ENDBLK
  5
4B7
100
AcDbEntity
  8
0
100
AcDbBlockEnd
  0
BLOCK
  5
4BE
100
AcDbEntity
  8
0
100
AcDbBlockBegin
  2
SW_CENTERMARKSYMBOL_5
 70
     0
 10
0.0
 20
0.0
 30
0.0
  3
SW_CENTERMARKSYMBOL_5
  1

  0
LINE
  5
4C0
100
AcDbEntity
  8
0
  6
CONTINUOUS
 62
     7
100
AcDbLine
 10
0.0
 20
0.0
 30
0.0
 11
0.0
 21
1.25
 31
0.0
  0
LINE
  5
4C1
100
AcDbEntity
  8
0
  6
CONTINUOUS
 62
     7
100
AcDbLine
 10
0.0
 20
0.0
 30
0.0
 11
-1.25
 21
0.0
 31
0.0
  0
LINE
  5
4C2
100
AcDbEntity
  8
0
  6
CONTINUOUS
 62
     7
100
AcDbLine
 10
0.0
 20
0.0
 30
0.0
 11
0.0
 21
-1.25
 31
0.0
  0
LINE
  5
4C3
100
AcDbEntity
  8
0
  6
CONTINUOUS
 62
     7
100
AcDbLine
 10
0.0
 20
0.0
 30
0.0
 11
1.25
 21
0.0
 31
0.0
  0
ENDBLK
  5
4BF
100
AcDbEntity
  8
0
100
AcDbBlockEnd
  0
BLOCK
  5
6BB
100
AcDbEntity
  8
0
100
AcDbBlockBegin
  2
SW_CENTERMARKSYMBOL_6
 70
     0
 10
0.0
 20
0.0
 30
0.0
  3
SW_CENTERMARKSYMBOL_6
  1

  0
LINE
  5
6BD
100
AcDbEntity
  8
0
  6
CONTINUOUS
 62
     7
100
AcDbLine
 10
0.0
 20
0.0
 30
0.0
 11
0.0
 21
1.25
 31
0.0
  0
LINE
  5
6BE
100
AcDbEntity
  8
0
  6
CONTINUOUS
 62
     7
100
AcDbLine
 10
0.0
 20
0.0
 30
0.0
 11
-1.25
 21
0.0
 31
0.0
  0
LINE
  5
6BF
100
AcDbEntity
  8
0
  6
CONTINUOUS
 62
     7
100
AcDbLine
 10
0.0
 20
0.0
 30
0.0
 11
0.0
 21
-1.25
 31
0.0
  0
LINE
  5
6C0
100
AcDbEntity
  8
0
  6
CONTINUOUS
 62
     7
100
AcDbLine
 10
0.0
 20
0.0
 30
0.0
 11
1.25
 21
0.0
 31
0.0
  0
ENDBLK
  5
6BC
100
AcDbEntity
  8
0
100
AcDbBlockEnd
  0
BLOCK
  5
6C3
100
AcDbEntity
  8
0
100
AcDbBlockBegin
  2
SW_CENTERMARKSYMBOL_7
 70
     0
 10
0.0
 20
0.0
 30
0.0
  3
SW_CENTERMARKSYMBOL_7
  1

  0
LINE
  5
6C5
100
AcDbEntity
  8
0
  6
CONTINUOUS
 62
     7
100
AcDbLine
 10
0.0
 20
0.0
 30
0.0
 11
0.0
 21
1.25
 31
0.0
  0
LINE
  5
6C6
100
AcDbEntity
  8
0
  6
CONTINUOUS
 62
     7
100
AcDbLine
 10
0.0
 20
0.0
 30
0.0
 11
-1.25
 21
0.0
 31
0.0
  0
LINE
  5
6C7
100
AcDbEntity
  8
0
  6
CONTINUOUS
 62
     7
100
AcDbLine
 10
0.0
 20
0.0
 30
0.0
 11
0.0
 21
-1.25
 31
0.0
  0
LINE
  5
6C8
100
AcDbEntity
  8
0
  6
CONTINUOUS
 62
     7
100
AcDbLine
 10
0.0
 20
0.0
 30
0.0
 11
1.25
 21
0.0
 31
0.0
  0
ENDBLK
  5
6C4
100
AcDbEntity
  8
0
100
AcDbBlockEnd
  0
ENDSEC
  0
SECTION
  2
ENTITIES
  0
CIRCLE
  5
2F
100
AcDbEntity
  8
0
  6
CONTINUOUS
 62
     7
100
AcDbCircle
 10
57.437062
 20
209.051116
 30
0.0
 40
2.247635
  0
CIRCLE
  5
30
100
AcDbEntity
  8
0
  6
CONTINUOUS
 62
     7
100
AcDbCircle
 10
57.437062
 20
339.051116
 30
0.0
 40
2.3
  0
CIRCLE
  5
31
100
AcDbEntity
  8
0
  6
CONTINUOUS
 62
     7
100
AcDbCircle
 10
57.437062
 20
339.051116
 30
0.0
 40
2.247635
  0
LINE
  5
32
100
AcDbEntity
  8
0
  6
CONTINUOUS
 62
     7
100
AcDbLine
 10
36.937061
 20
359.903806
 30
0.0
 11
36.937062
 21
368.651116
 31
0.0
  0
LINE
  5
33
100
AcDbEntity
  8
0
  6
CONTINUOUS
 62
     7
100
AcDbLine
 10
40.14844
 20
356.692427
 30
0.0
 11
36.937061
 21
359.903806
 31
0.0
  0
LINE
  5
34
100
AcDbEntity
  8
0
  6
CONTINUOUS
 62
     7
100
AcDbLine
 10
38.648444
 20
354.939738
 30
0.0
 11
40.14844
 21
356.692427
 31
0.0
  0
LINE
  5
35
100
AcDbEntity
  8
0
  6
CONTINUOUS
 62
     7
100
AcDbLine
 10
34.637062
 20
358.951116
 30
0.0
 11
38.648444
 21
354.939738
 31
0.0
  0
LINE
  5
36
100
AcDbEntity
  8
0
  6
CONTINUOUS
 62
     7
100
AcDbLine
 10
34.637062
 20
368.651116
 30
0.0
 11
34.637062
 21
358.951116
 31
0.0
  0
ARC
  5
37
100
AcDbEntity
  8
0
  6
CONTINUOUS
 62
     7
100
AcDbCircle
 10
40.637062
 20
368.651116
 30
0.0
 40
6.0
100
AcDbArc
 50
90.0
 51
180.0
  0
LINE
  5
38
100
AcDbEntity
  8
0
  6
CONTINUOUS
 62
     7
100
AcDbLine
 10
52.037062
 20
374.651116
 30
0.0
 11
40.637062
 21
374.651116
 31
0.0
  0
LINE
  5
39
100
AcDbEntity
  8
0
  6
CONTINUOUS
 62
     7
100
AcDbLine
 10
56.048445
 20
370.639735
 30
0.0
 11
52.037062
 21
374.651116
 31
0.0
  0
LINE
  5
3A
100
AcDbEntity
  8
0
  6
CONTINUOUS
 62
     7
100
AcDbLine
 10
54.032772
 20
369.402716
 30
0.0
 11
56.048445
 21
370.639735
 31
0.0
  0
LINE
  5
3B
100
AcDbEntity
  8
0
  6
CONTINUOUS
 62
     7
100
AcDbLine
 10
51.084372
 20
372.351119
 30
0.0
 11
54.032772
 21
369.402716
 31
0.0
  0
LINE
  5
3C
100
AcDbEntity
  8
0
  6
CONTINUOUS
 62
     7
100
AcDbLine
 10
40.637062
 20
372.351116
 30
0.0
 11
51.084372
 21
372.351119
 31
0.0
  0
ARC
  5
3D
100
AcDbEntity
  8
0
  6
CONTINUOUS
 62
     7
100
AcDbCircle
 10
40.637062
 20
368.651116
 30
0.0
 40
3.7
100
AcDbArc
 50
90.0
 51
180.0
  0
CIRCLE
  5
3E
100
AcDbEntity
  8
0
  6
CONTINUOUS
 62
     7
100
AcDbCircle
 10
48.437062
 20
344.051116
 30
0.0
 40
3.197628
  0
CIRCLE
  5
3F
100
AcDbEntity
  8
0
  6
CONTINUOUS
 62
     7
100
AcDbCircle
 10
48.437062
 20
344.051116
 30
0.0
 40
3.25
  0
CIRCLE
  5
40
100
AcDbEntity
  8
0
  6
CONTINUOUS
 62
     7
100
AcDbCircle
 10
48.437062
 20
344.051116
 30
0.0
 40
2.0
  0
CIRCLE
  5
41
100
AcDbEntity
  8
0
  6
CONTINUOUS
 62
     7
100
AcDbCircle
 10
48.437062
 20
204.051116
 30
0.0
 40
3.197628
  0
CIRCLE
  5
42
100
AcDbEntity
  8
0
  6
CONTINUOUS
 62
     7
100
AcDbCircle
 10
48.437062
 20
204.051116
 30
0.0
 40
3.25
  0
CIRCLE
  5
43
100
AcDbEntity
  8
0
  6
CONTINUOUS
 62
     7
100
AcDbCircle
 10
48.437062
 20
204.051116
 30
0.0
 40
2.0
  0
CIRCLE
  5
44
100
AcDbEntity
  8
0
  6
CONTINUOUS
 62
     7
100
AcDbCircle
 10
81.237062
 20
187.251116
 30
0.0
 40
3.197628
  0
CIRCLE
  5
45
100
AcDbEntity
  8
0
  6
CONTINUOUS
 62
     7
100
AcDbCircle
 10
81.237062
 20
187.251116
 30
0.0
 40
2.0
  0
CIRCLE
  5
46
100
AcDbEntity
  8
0
  6
CONTINUOUS
 62
     7
100
AcDbCircle
 10
151.237062
 20
187.251116
 30
0.0
 40
3.197628
  0
CIRCLE
  5
47
100
AcDbEntity
  8
0
  6
CONTINUOUS
 62
     7
100
AcDbCircle
 10
151.237062
 20
187.251116
 30
0.0
 40
3.25
  0
CIRCLE
  5
48
100
AcDbEntity
  8
0
  6
CONTINUOUS
 62
     7
100
AcDbCircle
 10
151.237062
 20
187.251116
 30
0.0
 40
2.0
  0
CIRCLE
  5
49
100
AcDbEntity
  8
0
  6
CONTINUOUS
 62
     7
100
AcDbCircle
 10
184.037062
 20
204.051116
 30
0.0
 40
3.197628
  0
CIRCLE
  5
4A
100
AcDbEntity
  8
0
  6
CONTINUOUS
 62
     7
100
AcDbCircle
 10
184.037062
 20
204.051116
 30
0.0
 40
3.25
  0
CIRCLE
  5
4B
100
AcDbEntity
  8
0
  6
CONTINUOUS
 62
     7
100
AcDbCircle
 10
172.837062
 20
364.451116
 30
0.0
 40
2.1
  0
CIRCLE
  5
4C
100
AcDbEntity
  8
0
  6
CONTINUOUS
 62
     7
100
AcDbCircle
 10
172.837062
 20
364.451116
 30
0.0
 40
4.342777
  0
CIRCLE
  5
4D
100
AcDbEntity
  8
0
  6
CONTINUOUS
 62
     7
100
AcDbCircle
 10
172.837062
 20
364.451116
 30
0.0
 40
4.5
  0
CIRCLE
  5
4E
100
AcDbEntity
  8
0
  6
CONTINUOUS
 62
     7
100
AcDbCircle
 10
59.637062
 20
364.451116
 30
0.0
 40
2.1
  0
CIRCLE
  5
4F
100
AcDbEntity
  8
0
  6
CONTINUOUS
 62
     7
100
AcDbCircle
 10
59.637062
 20
364.451116
 30
0.0
 40
4.342777
  0
CIRCLE
  5
50
100
AcDbEntity
  8
0
  6
CONTINUOUS
 62
     7
100
AcDbCircle
 10
59.637062
 20
364.451116
 30
0.0
 40
4.5
  0
CIRCLE
  5
51
100
AcDbEntity
  8
0
  6
CONTINUOUS
 62
     7
100
AcDbCircle
 10
59.637062
 20
183.651116
 30
0.0
 40
2.1
  0
CIRCLE
  5
52
100
AcDbEntity
  8
0
  6
CONTINUOUS
 62
     7
100
AcDbCircle
 10
59.637062
 20
183.651116
 30
0.0
 40
4.342777
  0
CIRCLE
  5
53
100
AcDbEntity
  8
0
  6
CONTINUOUS
 62
     7
100
AcDbCircle
 10
59.637062
 20
183.651116
 30
0.0
 40
4.5
  0
CIRCLE
  5
54
100
AcDbEntity
  8
0
  6
CONTINUOUS
 62
     7
100
AcDbCircle
 10
172.837062
 20
183.651116
 30
0.0
 40
2.1
  0
CIRCLE
  5
55
100
AcDbEntity
  8
0
  6
CONTINUOUS
 62
     7
100
AcDbCircle
 10
172.837062
 20
183.651116
 30
0.0
 40
4.342777
  0
CIRCLE
  5
56
100
AcDbEntity
  8
0
  6
CONTINUOUS
 62
     7
100
AcDbCircle
 10
172.837062
 20
183.651116
 30
0.0
 40
4.5
  0
CIRCLE
  5
57
100
AcDbEntity
  8
0
  6
CONTINUOUS
 62
     7
100
AcDbCircle
 10
57.437062
 20
209.051116
 30
0.0
 40
2.3
  0
CIRCLE
  5
58
100
AcDbEntity
  8
0
  6
CONTINUOUS
 62
     7
100
AcDbCircle
 10
81.237062
 20
360.851116
 30
0.0
 40
2.0
  0
CIRCLE
  5
59
100
AcDbEntity
  8
0
  6
CONTINUOUS
 62
     7
100
AcDbCircle
 10
81.237062
 20
360.851116
 30
0.0
 40
1.982545
  0
CIRCLE
  5
5A
100
AcDbEntity
  8
0
  6
CONTINUOUS
 62
     7
100
AcDbCircle
 10
48.437062
 20
344.051116
 30
0.0
 40
1.982545
  0
CIRCLE
  5
5B
100
AcDbEntity
  8
0
  6
CONTINUOUS
 62
     7
100
AcDbCircle
 10
48.437062
 20
204.051116
 30
0.0
 40
1.982545
  0
CIRCLE
  5
5C
100
AcDbEntity
  8
0
  6
CONTINUOUS
 62
     7
100
AcDbCircle
 10
81.237062
 20
187.251116
 30
0.0
 40
1.982545
  0
LINE
  5
5D
100
AcDbEntity
  8
0
  6
CONTINUOUS
 62
     7
100
AcDbLine
 10
180.437062
 20
374.651116
 30
0.0
 11
176.42568
 21
370.639735
 31
0.0
  0
LINE
  5
5E
100
AcDbEntity
  8
0
  6
CONTINUOUS
 62
     7
100
AcDbLine
 10
191.837062
 20
374.651116
 30
0.0
 11
180.437062
 21
374.651116
 31
0.0
  0
ARC
  5
5F
100
AcDbEntity
  8
0
  6
CONTINUOUS
 62
     7
100
AcDbCircle
 10
191.837062
 20
368.651116
 30
0.0
 40
6.0
100
AcDbArc
 50
0.0
 51
90.0
  0
LINE
  5
60
100
AcDbEntity
  8
0
  6
CONTINUOUS
 62
     7
100
AcDbLine
 10
197.837062
 20
358.951116
 30
0.0
 11
197.837062
 21
368.651116
 31
0.0
  0
LINE
  5
61
100
AcDbEntity
  8
0
  6
CONTINUOUS
 62
     7
100
AcDbLine
 10
193.82568
 20
354.939738
 30
0.0
 11
197.837062
 21
358.951116
 31
0.0
  0
LINE
  5
62
100
AcDbEntity
  8
0
  6
CONTINUOUS
 62
     7
100
AcDbLine
 10
176.42568
 20
370.639735
 30
0.0
 11
178.441352
 21
369.402716
 31
0.0
  0
LINE
  5
63
100
AcDbEntity
  8
0
  6
CONTINUOUS
 62
     7
100
AcDbLine
 10
192.325684
 20
356.692427
 30
0.0
 11
193.82568
 21
354.939738
 31
0.0
  0
ARC
  5
64
100
AcDbEntity
  8
0
  6
CONTINUOUS
 62
     7
100
AcDbCircle
 10
191.837062
 20
368.651116
 30
0.0
 40
3.7
100
AcDbArc
 50
0.0
 51
90.0
  0
LINE
  5
65
100
AcDbEntity
  8
0
  6
CONTINUOUS
 62
     7
100
AcDbLine
 10
195.537063
 20
359.903806
 30
0.0
 11
192.325684
 21
356.692427
 31
0.0
  0
LINE
  5
66
100
AcDbEntity
  8
0
  6
CONTINUOUS
 62
     7
100
AcDbLine
 10
181.389752
 20
372.351119
 30
0.0
 11
191.837062
 21
372.351116
 31
0.0
  0
LINE
  5
67
100
AcDbEntity
  8
0
  6
CONTINUOUS
 62
     7
100
AcDbLine
 10
195.537062
 20
368.651116
 30
0.0
 11
195.537063
 21
359.903806
 31
0.0
  0
LINE
  5
68
100
AcDbEntity
  8
0
  6
CONTINUOUS
 62
     7
100
AcDbLine
 10
178.441352
 20
369.402716
 30
0.0
 11
181.389752
 21
372.351119
 31
0.0
  0
CIRCLE
  5
69
100
AcDbEntity
  8
0
  6
CONTINUOUS
 62
     7
100
AcDbCircle
 10
156.237062
 20
351.851116
 30
0.0
 40
2.3
  0
CIRCLE
  5
6A
100
AcDbEntity
  8
0
  6
CONTINUOUS
 62
     7
100
AcDbCircle
 10
156.237062
 20
351.851116
 30
0.0
 40
2.247635
  0
CIRCLE
  5
6B
100
AcDbEntity
  8
0
  6
CONTINUOUS
 62
     7
100
AcDbCircle
 10
146.237062
 20
351.851116
 30
0.0
 40
2.3
  0
CIRCLE
  5
6C
100
AcDbEntity
  8
0
  6
CONTINUOUS
 62
     7
100
AcDbCircle
 10
146.237062
 20
351.851116
 30
0.0
 40
2.247635
  0
CIRCLE
  5
6D
100
AcDbEntity
  8
0
  6
CONTINUOUS
 62
     7
100
AcDbCircle
 10
86.237062
 20
351.851116
 30
0.0
 40
2.3
  0
CIRCLE
  5
6E
100
AcDbEntity
  8
0
  6
CONTINUOUS
 62
     7
100
AcDbCircle
 10
86.237062
 20
351.851116
 30
0.0
 40
2.247635
  0
CIRCLE
  5
6F
100
AcDbEntity
  8
0
  6
CONTINUOUS
 62
     7
100
AcDbCircle
 10
76.237062
 20
351.851116
 30
0.0
 40
2.3
  0
CIRCLE
  5
70
100
AcDbEntity
  8
0
  6
CONTINUOUS
 62
     7
100
AcDbCircle
 10
76.237062
 20
351.851116
 30
0.0
 40
2.247635
  0
CIRCLE
  5
71
100
AcDbEntity
  8
0
  6
CONTINUOUS
 62
     7
100
AcDbCircle
 10
76.237062
 20
196.251116
 30
0.0
 40
2.3
  0
CIRCLE
  5
72
100
AcDbEntity
  8
0
  6
CONTINUOUS
 62
     7
100
AcDbCircle
 10
76.237062
 20
196.251116
 30
0.0
 40
2.247635
  0
CIRCLE
  5
73
100
AcDbEntity
  8
0
  6
CONTINUOUS
 62
     7
100
AcDbCircle
 10
86.237062
 20
196.251116
 30
0.0
 40
2.3
  0
CIRCLE
  5
74
100
AcDbEntity
  8
0
  6
CONTINUOUS
 62
     7
100
AcDbCircle
 10
86.237062
 20
196.251116
 30
0.0
 40
2.247635
  0
CIRCLE
  5
75
100
AcDbEntity
  8
0
  6
CONTINUOUS
 62
     7
100
AcDbCircle
 10
146.237062
 20
196.251116
 30
0.0
 40
2.3
  0
CIRCLE
  5
76
100
AcDbEntity
  8
0
  6
CONTINUOUS
 62
     7
100
AcDbCircle
 10
146.237062
 20
196.251116
 30
0.0
 40
2.247635
  0
CIRCLE
  5
77
100
AcDbEntity
  8
0
  6
CONTINUOUS
 62
     7
100
AcDbCircle
 10
156.237062
 20
196.251116
 30
0.0
 40
2.3
  0
CIRCLE
  5
78
100
AcDbEntity
  8
0
  6
CONTINUOUS
 62
     7
100
AcDbCircle
 10
156.237062
 20
196.251116
 30
0.0
 40
2.247635
  0
CIRCLE
  5
79
100
AcDbEntity
  8
0
  6
CONTINUOUS
 62
     7
100
AcDbCircle
 10
175.037062
 20
349.051116
 30
0.0
 40
2.3
  0
CIRCLE
  5
7A
100
AcDbEntity
  8
0
  6
CONTINUOUS
 62
     7
100
AcDbCircle
 10
175.037062
 20
349.051116
 30
0.0
 40
2.247635
  0
CIRCLE
  5
7B
100
AcDbEntity
  8
0
  6
CONTINUOUS
 62
     7
100
AcDbCircle
 10
175.037062
 20
339.051116
 30
0.0
 40
2.3
  0
CIRCLE
  5
7C
100
AcDbEntity
  8
0
  6
CONTINUOUS
 62
     7
100
AcDbCircle
 10
175.037062
 20
339.051116
 30
0.0
 40
2.247635
  0
CIRCLE
  5
7D
100
AcDbEntity
  8
0
  6
CONTINUOUS
 62
     7
100
AcDbCircle
 10
175.037062
 20
209.051116
 30
0.0
 40
2.3
  0
CIRCLE
  5
7E
100
AcDbEntity
  8
0
  6
CONTINUOUS
 62
     7
100
AcDbCircle
 10
175.037062
 20
209.051116
 30
0.0
 40
2.247635
  0
CIRCLE
  5
7F
100
AcDbEntity
  8
0
  6
CONTINUOUS
 62
     7
100
AcDbCircle
 10
175.037062
 20
199.051116
 30
0.0
 40
2.3
  0
CIRCLE
  5
80
100
AcDbEntity
  8
0
  6
CONTINUOUS
 62
     7
100
AcDbCircle
 10
175.037062
 20
199.051116
 30
0.0
 40
2.247635
  0
CIRCLE
  5
81
100
AcDbEntity
  8
0
  6
CONTINUOUS
 62
     7
100
AcDbCircle
 10
57.437062
 20
199.051116
 30
0.0
 40
2.3
  0
CIRCLE
  5
82
100
AcDbEntity
  8
0
  6
CONTINUOUS
 62
     7
100
AcDbCircle
 10
57.437062
 20
199.051116
 30
0.0
 40
2.247635
  0
CIRCLE
  5
83
100
AcDbEntity
  8
0
  6
CONTINUOUS
 62
     7
100
AcDbCircle
 10
81.237062
 20
360.851116
 30
0.0
 40
3.197628
  0
CIRCLE
  5
84
100
AcDbEntity
  8
0
  6
CONTINUOUS
 62
     7
100
AcDbCircle
 10
184.037062
 20
204.051116
 30
0.0
 40
2.0
  0
CIRCLE
  5
85
100
AcDbEntity
  8
0
  6
CONTINUOUS
 62
     7
100
AcDbCircle
 10
184.037062
 20
204.051116
 30
0.0
 40
1.982545
  0
LINE
  5
86
100
AcDbEntity
  8
0
  6
CONTINUOUS
 62
     7
100
AcDbLine
 10
38.648444
 20
193.162495
 30
0.0
 11
34.637062
 21
189.151116
 31
0.0
  0
LINE
  5
87
100
AcDbEntity
  8
0
  6
CONTINUOUS
 62
     7
100
AcDbLine
 10
52.037062
 20
173.451116
 30
0.0
 11
56.048445
 21
177.462497
 31
0.0
  0
LINE
  5
88
100
AcDbEntity
  8
0
  6
CONTINUOUS
 62
     7
100
AcDbLine
 10
40.637062
 20
173.451116
 30
0.0
 11
52.037062
 21
173.451116
 31
0.0
  0
ARC
  5
89
100
AcDbEntity
  8
0
  6
CONTINUOUS
 62
     7
100
AcDbCircle
 10
40.637062
 20
179.451116
 30
0.0
 40
6.0
100
AcDbArc
 50
180.0
 51
270.0
  0
LINE
  5
8A
100
AcDbEntity
  8
0
  6
CONTINUOUS
 62
     7
100
AcDbLine
 10
40.14844
 20
191.409805
 30
0.0
 11
38.648444
 21
193.162495
 31
0.0
  0
LINE
  5
8B
100
AcDbEntity
  8
0
  6
CONTINUOUS
 62
     7
100
AcDbLine
 10
34.637062
 20
189.151116
 30
0.0
 11
34.637062
 21
179.451116
 31
0.0
  0
LINE
  5
8C
100
AcDbEntity
  8
0
  6
CONTINUOUS
 62
     7
100
AcDbLine
 10
56.048445
 20
177.462497
 30
0.0
 11
54.032772
 21
178.699517
 31
0.0
  0
ARC
  5
8D
100
AcDbEntity
  8
0
  6
CONTINUOUS
 62
     7
100
AcDbCircle
 10
40.637062
 20
179.451116
 30
0.0
 40
3.7
100
AcDbArc
 50
180.0
 51
270.0
  0
LINE
  5
8E
100
AcDbEntity
  8
0
  6
CONTINUOUS
 62
     7
100
AcDbLine
 10
36.937061
 20
188.198426
 30
0.0
 11
40.14844
 21
191.409805
 31
0.0
  0
LINE
  5
8F
100
AcDbEntity
  8
0
  6
CONTINUOUS
 62
     7
100
AcDbLine
 10
51.084372
 20
175.751114
 30
0.0
 11
40.637062
 21
175.751116
 31
0.0
  0
LINE
  5
90
100
AcDbEntity
  8
0
  6
CONTINUOUS
 62
     7
100
AcDbLine
 10
36.937062
 20
179.451116
 30
0.0
 11
36.937061
 21
188.198426
 31
0.0
  0
LINE
  5
91
100
AcDbEntity
  8
0
  6
CONTINUOUS
 62
     7
100
AcDbLine
 10
54.032772
 20
178.699517
 30
0.0
 11
51.084372
 21
175.751114
 31
0.0
  0
CIRCLE
  5
92
100
AcDbEntity
  8
0
  6
CONTINUOUS
 62
     7
100
AcDbCircle
 10
151.237062
 20
360.851116
 30
0.0
 40
2.0
  0
CIRCLE
  5
93
100
AcDbEntity
  8
0
  6
CONTINUOUS
 62
     7
100
AcDbCircle
 10
151.237062
 20
360.851116
 30
0.0
 40
1.982545
  0
LINE
  5
94
100
AcDbEntity
  8
0
  6
CONTINUOUS
 62
     7
100
AcDbLine
 10
197.837062
 20
179.451116
 30
0.0
 11
197.837062
 21
189.151116
 31
0.0
  0
ARC
  5
95
100
AcDbEntity
  8
0
  6
CONTINUOUS
 62
     7
100
AcDbCircle
 10
191.837062
 20
179.451116
 30
0.0
 40
6.0
100
AcDbArc
 50
270.0
 51
0.0
  0
LINE
  5
96
100
AcDbEntity
  8
0
  6
CONTINUOUS
 62
     7
100
AcDbLine
 10
180.437062
 20
173.451116
 30
0.0
 11
191.837062
 21
173.451116
 31
0.0
  0
LINE
  5
97
100
AcDbEntity
  8
0
  6
CONTINUOUS
 62
     7
100
AcDbLine
 10
191.837062
 20
175.751116
 30
0.0
 11
181.389752
 21
175.751114
 31
0.0
  0
LINE
  5
98
100
AcDbEntity
  8
0
  6
CONTINUOUS
 62
     7
100
AcDbLine
 10
178.441352
 20
178.699517
 30
0.0
 11
176.42568
 21
177.462497
 31
0.0
  0
LINE
  5
99
100
AcDbEntity
  8
0
  6
CONTINUOUS
 62
     7
100
AcDbLine
 10
181.389752
 20
175.751114
 30
0.0
 11
178.441352
 21
178.699517
 31
0.0
  0
LINE
  5
9A
100
AcDbEntity
  8
0
  6
CONTINUOUS
 62
     7
100
AcDbLine
 10
197.837062
 20
189.151116
 30
0.0
 11
193.82568
 21
193.162495
 31
0.0
  0
LINE
  5
9B
100
AcDbEntity
  8
0
  6
CONTINUOUS
 62
     7
100
AcDbLine
 10
176.42568
 20
177.462497
 30
0.0
 11
180.437062
 21
173.451116
 31
0.0
  0
LINE
  5
9C
100
AcDbEntity
  8
0
  6
CONTINUOUS
 62
     7
100
AcDbLine
 10
193.82568
 20
193.162495
 30
0.0
 11
192.325684
 21
191.409805
 31
0.0
  0
LINE
  5
9D
100
AcDbEntity
  8
0
  6
CONTINUOUS
 62
     7
100
AcDbLine
 10
192.325684
 20
191.409805
 30
0.0
 11
195.537063
 21
188.198426
 31
0.0
  0
ARC
  5
9E
100
AcDbEntity
  8
0
  6
CONTINUOUS
 62
     7
100
AcDbCircle
 10
191.837062
 20
179.451116
 30
0.0
 40
3.7
100
AcDbArc
 50
270.0
 51
0.0
  0
LINE
  5
9F
100
AcDbEntity
  8
0
  6
CONTINUOUS
 62
     7
100
AcDbLine
 10
195.537063
 20
188.198426
 30
0.0
 11
195.537062
 21
179.451116
 31
0.0
  0
CIRCLE
  5
A0
100
AcDbEntity
  8
0
  6
CONTINUOUS
 62
     7
100
AcDbCircle
 10
81.237062
 20
360.851116
 30
0.0
 40
3.25
  0
CIRCLE
  5
A1
100
AcDbEntity
  8
0
  6
CONTINUOUS
 62
     7
100
AcDbCircle
 10
81.237062
 20
187.251116
 30
0.0
 40
3.25
  0
CIRCLE
  5
A2
100
AcDbEntity
  8
0
  6
CONTINUOUS
 62
     7
100
AcDbCircle
 10
57.437062
 20
349.051116
 30
0.0
 40
2.247635
  0
CIRCLE
  5
A3
100
AcDbEntity
  8
0
  6
CONTINUOUS
 62
     7
100
AcDbCircle
 10
151.237062
 20
360.851116
 30
0.0
 40
3.197628
  0
CIRCLE
  5
A4
100
AcDbEntity
  8
0
  6
CONTINUOUS
 62
     7
100
AcDbCircle
 10
151.237062
 20
360.851116
 30
0.0
 40
3.25
  0
CIRCLE
  5
A5
100
AcDbEntity
  8
0
  6
CONTINUOUS
 62
     7
100
AcDbCircle
 10
151.237062
 20
187.251116
 30
0.0
 40
1.982545
  0
CIRCLE
  5
A6
100
AcDbEntity
  8
0
  6
CONTINUOUS
 62
     7
100
AcDbCircle
 10
184.037062
 20
344.051116
 30
0.0
 40
3.197628
  0
CIRCLE
  5
A7
100
AcDbEntity
  8
0
  6
CONTINUOUS
 62
     7
100
AcDbCircle
 10
184.037062
 20
344.051116
 30
0.0
 40
2.0
  0
CIRCLE
  5
A8
100
AcDbEntity
  8
0
  6
CONTINUOUS
 62
     7
100
AcDbCircle
 10
184.037062
 20
344.051116
 30
0.0
 40
1.982545
  0
CIRCLE
  5
A9
100
AcDbEntity
  8
0
  6
CONTINUOUS
 62
     7
100
AcDbCircle
 10
184.037062
 20
344.051116
 30
0.0
 40
3.25
  0
CIRCLE
  5
AA
100
AcDbEntity
  8
0
  6
CONTINUOUS
 62
     7
100
AcDbCircle
 10
57.437062
 20
349.051116
 30
0.0
 40
2.3
  0
LINE
  5
AB
100
AcDbEntity
  8
0
  6
CONTINUOUS
 62
     7
100
AcDbLine
 10
156.237062
 20
326.37387
 30
0.0
 11
156.237062
 21
326.559717
 31
0.0
  0
ARC
  5
AC
100
AcDbEntity
  8
0
  6
CONTINUOUS
 62
     7
100
AcDbCircle
 10
146.237062
 20
324.051116
 30
0.0
 40
10.266216
100
AcDbArc
 50
13.076522
 51
346.923478
  0
LINE
  5
AD
100
AcDbEntity
  8
0
  6
CONTINUOUS
 62
     7
100
AcDbLine
 10
156.237062
 20
321.728363
 30
0.0
 11
156.237062
 21
321.542516
 31
0.0
  0
ARC
  5
AE
100
AcDbEntity
  8
0
  6
CONTINUOUS
 62
     7
100
AcDbCircle
 10
146.237062
 20
324.051116
 30
0.0
 40
10.309853
100
AcDbArc
 50
14.082612
 51
345.917388
  0
LINE
  5
AF
100
AcDbEntity
  8
0
  6
CONTINUOUS
 62
     7
100
AcDbLine
 10
76.237062
 20
321.728363
 30
0.0
 11
76.237062
 21
321.542516
 31
0.0
  0
ARC
  5
B0
100
AcDbEntity
  8
0
  6
CONTINUOUS
 62
     7
100
AcDbCircle
 10
86.237062
 20
324.051116
 30
0.0
 40
10.266216
100
AcDbArc
 50
193.076522
 51
166.923478
  0
LINE
  5
B1
100
AcDbEntity
  8
0
  6
CONTINUOUS
 62
     7
100
AcDbLine
 10
76.237062
 20
326.37387
 30
0.0
 11
76.237062
 21
326.559717
 31
0.0
  0
ARC
  5
B2
100
AcDbEntity
  8
0
  6
CONTINUOUS
 62
     7
100
AcDbCircle
 10
86.237062
 20
324.051116
 30
0.0
 40
10.309853
100
AcDbArc
 50
194.082612
 51
165.917388
  0
ARC
  5
B3
100
AcDbEntity
  8
0
  6
CONTINUOUS
 62
     7
100
AcDbCircle
 10
66.237062
 20
324.051116
 30
0.0
 40
10.266216
100
AcDbArc
 50
13.076522
 51
346.923478
  0
ARC
  5
B4
100
AcDbEntity
  8
0
  6
CONTINUOUS
 62
     7
100
AcDbCircle
 10
166.237062
 20
324.051116
 30
0.0
 40
10.266216
100
AcDbArc
 50
193.076522
 51
166.923478
  0
LINE
  5
B5
100
AcDbEntity
  8
0
  6
CONTINUOUS
 62
     7
100
AcDbLine
 10
156.237062
 20
221.728363
 30
0.0
 11
156.237062
 21
221.542516
 31
0.0
  0
ARC
  5
B6
100
AcDbEntity
  8
0
  6
CONTINUOUS
 62
     7
100
AcDbCircle
 10
166.237062
 20
224.051116
 30
0.0
 40
10.266216
100
AcDbArc
 50
193.076522
 51
166.923478
  0
LINE
  5
B7
100
AcDbEntity
  8
0
  6
CONTINUOUS
 62
     7
100
AcDbLine
 10
156.237062
 20
226.37387
 30
0.0
 11
156.237062
 21
226.559717
 31
0.0
  0
ARC
  5
B8
100
AcDbEntity
  8
0
  6
CONTINUOUS
 62
     7
100
AcDbCircle
 10
166.237062
 20
224.051116
 30
0.0
 40
10.309853
100
AcDbArc
 50
194.082612
 51
165.917388
  0
ARC
  5
B9
100
AcDbEntity
  8
0
  6
CONTINUOUS
 62
     7
100
AcDbCircle
 10
146.237062
 20
224.051116
 30
0.0
 40
10.266216
100
AcDbArc
 50
13.076522
 51
346.923478
  0
ARC
  5
BA
100
AcDbEntity
  8
0
  6
CONTINUOUS
 62
     7
100
AcDbCircle
 10
146.237062
 20
224.051116
 30
0.0
 40
10.309853
100
AcDbArc
 50
14.082612
 51
345.917388
  0
ARC
  5
BB
100
AcDbEntity
  8
0
  6
CONTINUOUS
 62
     7
100
AcDbCircle
 10
166.237062
 20
324.051116
 30
0.0
 40
10.309853
100
AcDbArc
 50
194.082612
 51
165.917388
  0
ARC
  5
BC
100
AcDbEntity
  8
0
  6
CONTINUOUS
 62
     7
100
AcDbCircle
 10
66.237062
 20
224.051116
 30
0.0
 40
10.266216
100
AcDbArc
 50
13.076522
 51
346.923478
  0
ARC
  5
BD
100
AcDbEntity
  8
0
  6
CONTINUOUS
 62
     7
100
AcDbCircle
 10
86.237062
 20
224.051116
 30
0.0
 40
10.266216
100
AcDbArc
 50
193.076522
 51
166.923478
  0
LINE
  5
BE
100
AcDbEntity
  8
0
  6
CONTINUOUS
 62
     7
100
AcDbLine
 10
76.237062
 20
226.37387
 30
0.0
 11
76.237062
 21
226.559717
 31
0.0
  0
LINE
  5
BF
100
AcDbEntity
  8
0
  6
CONTINUOUS
 62
     7
100
AcDbLine
 10
76.237062
 20
221.728363
 30
0.0
 11
76.237062
 21
221.542516
 31
0.0
  0
ARC
  5
C0
100
AcDbEntity
  8
0
  6
CONTINUOUS
 62
     7
100
AcDbCircle
 10
66.237062
 20
224.051116
 30
0.0
 40
10.309853
100
AcDbArc
 50
14.082612
 51
345.917388
  0
ARC
  5
C1
100
AcDbEntity
  8
0
  6
CONTINUOUS
 62
     7
100
AcDbCircle
 10
86.237062
 20
224.051116
 30
0.0
 40
10.309853
100
AcDbArc
 50
194.082612
 51
165.917388
  0
ARC
  5
C2
100
AcDbEntity
  8
0
  6
CONTINUOUS
 62
     7
100
AcDbCircle
 10
66.237062
 20
324.051116
 30
0.0
 40
10.309853
100
AcDbArc
 50
14.082612
 51
345.917388
  0
CIRCLE
  5
C3
100
AcDbEntity
  8
0
  6
CONTINUOUS
 62
     7
100
AcDbCircle
 10
151.237062
 20
187.251116
 30
0.0
 40
1.6
  0
CIRCLE
  5
C4
100
AcDbEntity
  8
0
  6
CONTINUOUS
 62
     7
100
AcDbCircle
 10
151.237062
 20
187.251116
 30
0.0
 40
1.558548
  0
CIRCLE
  5
C5
100
AcDbEntity
  8
0
  6
CONTINUOUS
 62
     7
100
AcDbCircle
 10
184.037062
 20
204.051116
 30
0.0
 40
1.6
  0
CIRCLE
  5
C6
100
AcDbEntity
  8
0
  6
CONTINUOUS
 62
     7
100
AcDbCircle
 10
184.037062
 20
204.051116
 30
0.0
 40
1.558548
  0
CIRCLE
  5
C7
100
AcDbEntity
  8
0
  6
CONTINUOUS
 62
     7
100
AcDbCircle
 10
81.237062
 20
360.851116
 30
0.0
 40
1.6
  0
CIRCLE
  5
C8
100
AcDbEntity
  8
0
  6
CONTINUOUS
 62
     7
100
AcDbCircle
 10
48.437062
 20
344.051116
 30
0.0
 40
1.6
  0
CIRCLE
  5
C9
100
AcDbEntity
  8
0
  6
CONTINUOUS
 62
     7
100
AcDbCircle
 10
151.237062
 20
360.851116
 30
0.0
 40
1.6
  0
CIRCLE
  5
CA
100
AcDbEntity
  8
0
  6
CONTINUOUS
 62
     7
100
AcDbCircle
 10
151.237062
 20
360.851116
 30
0.0
 40
1.558548
  0
CIRCLE
  5
CB
100
AcDbEntity
  8
0
  6
CONTINUOUS
 62
     7
100
AcDbCircle
 10
184.037062
 20
344.051116
 30
0.0
 40
1.6
  0
CIRCLE
  5
CC
100
AcDbEntity
  8
0
  6
CONTINUOUS
 62
     7
100
AcDbCircle
 10
184.037062
 20
344.051116
 30
0.0
 40
1.558548
  0
CIRCLE
  5
CD
100
AcDbEntity
  8
0
  6
CONTINUOUS
 62
     7
100
AcDbCircle
 10
81.237062
 20
187.251116
 30
0.0
 40
1.6
  0
CIRCLE
  5
CE
100
AcDbEntity
  8
0
  6
CONTINUOUS
 62
     7
100
AcDbCircle
 10
81.237062
 20
187.251116
 30
0.0
 40
1.558548
  0
CIRCLE
  5
CF
100
AcDbEntity
  8
0
  6
CONTINUOUS
 62
     7
100
AcDbCircle
 10
48.437062
 20
204.051116
 30
0.0
 40
1.6
  0
CIRCLE
  5
D0
100
AcDbEntity
  8
0
  6
CONTINUOUS
 62
     7
100
AcDbCircle
 10
48.437062
 20
344.051116
 30
0.0
 40
1.558548
  0
CIRCLE
  5
D1
100
AcDbEntity
  8
0
  6
CONTINUOUS
 62
     7
100
AcDbCircle
 10
81.237062
 20
360.851116
 30
0.0
 40
1.558548
  0
CIRCLE
  5
D2
100
AcDbEntity
  8
0
  6
CONTINUOUS
 62
     7
100
AcDbCircle
 10
48.437062
 20
204.051116
 30
0.0
 40
1.558548
  0
CIRCLE
  5
D3
100
AcDbEntity
  8
0
  6
CONTINUOUS
 62
     7
100
AcDbCircle
 10
184.037062
 20
344.051116
 30
0.0
 40
4.947592
  0
CIRCLE
  5
D4
100
AcDbEntity
  8
0
  6
CONTINUOUS
 62
     7
100
AcDbCircle
 10
151.237062
 20
187.251116
 30
0.0
 40
4.947592
  0
CIRCLE
  5
D5
100
AcDbEntity
  8
0
  6
CONTINUOUS
 62
     7
100
AcDbCircle
 10
184.037062
 20
204.051116
 30
0.0
 40
4.947592
  0
CIRCLE
  5
D6
100
AcDbEntity
  8
0
  6
CONTINUOUS
 62
     7
100
AcDbCircle
 10
151.237062
 20
360.851116
 30
0.0
 40
4.947592
  0
CIRCLE
  5
D7
100
AcDbEntity
  8
0
  6
CONTINUOUS
 62
     7
100
AcDbCircle
 10
48.437062
 20
344.051116
 30
0.0
 40
4.947592
  0
CIRCLE
  5
D8
100
AcDbEntity
  8
0
  6
CONTINUOUS
 62
     7
100
AcDbCircle
 10
184.037062
 20
344.051116
 30
0.0
 40
5.0
  0
CIRCLE
  5
D9
100
AcDbEntity
  8
0
  6
CONTINUOUS
 62
     7
100
AcDbCircle
 10
184.037062
 20
204.051116
 30
0.0
 40
5.0
  0
CIRCLE
  5
DA
100
AcDbEntity
  8
0
  6
CONTINUOUS
 62
     7
100
AcDbCircle
 10
81.237062
 20
360.851116
 30
0.0
 40
5.0
  0
CIRCLE
  5
DB
100
AcDbEntity
  8
0
  6
CONTINUOUS
 62
     7
100
AcDbCircle
 10
81.237062
 20
360.851116
 30
0.0
 40
4.947592
  0
CIRCLE
  5
DC
100
AcDbEntity
  8
0
  6
CONTINUOUS
 62
     7
100
AcDbCircle
 10
151.237062
 20
187.251116
 30
0.0
 40
5.0
  0
CIRCLE
  5
DD
100
AcDbEntity
  8
0
  6
CONTINUOUS
 62
     7
100
AcDbCircle
 10
48.437062
 20
204.051116
 30
0.0
 40
5.0
  0
CIRCLE
  5
DE
100
AcDbEntity
  8
0
  6
CONTINUOUS
 62
     7
100
AcDbCircle
 10
48.437062
 20
204.051116
 30
0.0
 40
4.947592
  0
CIRCLE
  5
DF
100
AcDbEntity
  8
0
  6
CONTINUOUS
 62
     7
100
AcDbCircle
 10
48.437062
 20
344.051116
 30
0.0
 40
5.0
  0
CIRCLE
  5
E0
100
AcDbEntity
  8
0
  6
CONTINUOUS
 62
     7
100
AcDbCircle
 10
151.237062
 20
360.851116
 30
0.0
 40
5.0
  0
CIRCLE
  5
E1
100
AcDbEntity
  8
0
  6
CONTINUOUS
 62
     7
100
AcDbCircle
 10
81.237062
 20
187.251116
 30
0.0
 40
4.947592
  0
CIRCLE
  5
E2
100
AcDbEntity
  8
0
  6
CONTINUOUS
 62
     7
100
AcDbCircle
 10
81.237062
 20
187.251116
 30
0.0
 40
5.0
  0
LINE
  5
E3
100
AcDbEntity
  8
0
  6
CONTINUOUS
 62
     7
100
AcDbLine
 10
56.048445
 20
177.462497
 30
0.0
 11
176.42568
 21
177.462497
 31
0.0
  0
LINE
  5
E4
100
AcDbEntity
  8
0
  6
CONTINUOUS
 62
     7
100
AcDbLine
 10
38.648444
 20
354.939738
 30
0.0
 11
38.648444
 21
193.162495
 31
0.0
  0
LINE
  5
E5
100
AcDbEntity
  8
0
  6
CONTINUOUS
 62
     7
100
AcDbLine
 10
56.048445
 20
370.639735
 30
0.0
 11
176.42568
 21
370.639735
 31
0.0
  0
LINE
  5
E6
100
AcDbEntity
  8
0
  6
CONTINUOUS
 62
     7
100
AcDbLine
 10
193.82568
 20
354.939738
 30
0.0
 11
193.82568
 21
193.162495
 31
0.0
  0
CIRCLE
  5
E7
100
AcDbEntity
  8
0
  6
CONTINUOUS
 62
     7
100
AcDbCircle
 10
116.237062
 20
234.051116
 30
0.0
 40
10.4
  0
CIRCLE
  5
E8
100
AcDbEntity
  8
0
  6
CONTINUOUS
 62
     7
100
AcDbCircle
 10
116.237062
 20
314.051116
 30
0.0
 40
10.4
  0
ELLIPSE
  5
E9
100
AcDbEntity
  8
0
  6
CONTINUOUS
 62
     7
100
AcDbEllipse
 10
37.581465
 20
193.651116
 30
0.0
 11
0.0
 21
1.555359922126058
 31
0.0
210
0.0
220
0.0
230
1.0
 40
0.017458
 41
1.570796326794915
 42
3.159048605006344
  0
LINE
  5
EA
100
AcDbEntity
  8
0
  6
CONTINUOUS
 62
     7
100
AcDbLine
 10
37.554312
 20
354.451114
 30
0.0
 11
37.554312
 21
193.651119
 31
0.0
  0
ELLIPSE
  5
EB
100
AcDbEntity
  8
0
  6
CONTINUOUS
 62
     7
100
AcDbEllipse
 10
37.581465
 20
354.451116
 30
0.0
 11
0.0
 21
1.555359922126115
 31
0.0
210
0.0
220
0.0
230
1.0
 40
0.017458
 41
6.265729355764665
 42
7.853981633974482
  0
ELLIPSE
  5
EC
100
AcDbEntity
  8
0
  6
CONTINUOUS
 62
     7
100
AcDbEllipse
 10
194.892659
 20
354.451116
 30
0.0
 11
0.0
 21
1.555359922126115
 31
0.0
210
0.0
220
0.0
230
1.0
 40
0.017458
 41
4.712388980384689
 42
6.300641258596097
  0
LINE
  5
ED
100
AcDbEntity
  8
0
  6
CONTINUOUS
 62
     7
100
AcDbLine
 10
194.919813
 20
354.451114
 30
0.0
 11
194.919813
 21
193.651119
 31
0.0
  0
ELLIPSE
  5
EE
100
AcDbEntity
  8
0
  6
CONTINUOUS
 62
     7
100
AcDbEllipse
 10
194.892659
 20
193.651116
 30
0.0
 11
0.0
 21
1.555359922126058
 31
0.0
210
0.0
220
0.0
230
1.0
 40
0.017458
 41
3.12413670217405
 42
4.712388980384671
  0
CIRCLE
  5
EF
100
AcDbEntity
  8
0
  6
CONTINUOUS
 62
     7
100
AcDbCircle
 10
116.237062
 20
234.051116
 30
0.0
 40
10.363315
  0
CIRCLE
  5
F0
100
AcDbEntity
  8
0
  6
CONTINUOUS
 62
     7
100
AcDbCircle
 10
116.237062
 20
234.051116
 30
0.0
 40
9.759169
  0
ELLIPSE
  5
F1
100
AcDbEntity
  8
0
  6
CONTINUOUS
 62
     7
100
AcDbEllipse
 10
56.537062
 20
371.706713
 30
0.0
 11
1.555359922126129
 21
0.0
 31
0.0
210
0.0
220
0.0
230
1.0
 40
0.017458
 41
1.570796326794887
 42
3.159048605006354
  0
LINE
  5
F2
100
AcDbEntity
  8
0
  6
CONTINUOUS
 62
     7
100
AcDbLine
 10
56.537061
 20
371.733868
 30
0.0
 11
175.937063
 21
371.733868
 31
0.0
  0
ELLIPSE
  5
F3
100
AcDbEntity
  8
0
  6
CONTINUOUS
 62
     7
100
AcDbEllipse
 10
175.937062
 20
371.706713
 30
0.0
 11
1.555359922126143
 21
0.0
 31
0.0
210
0.0
220
0.0
230
1.0
 40
0.017458
 41
6.265729355764656
 42
7.853981633974482
  0
CIRCLE
  5
F4
100
AcDbEntity
  8
0
  6
CONTINUOUS
 62
     7
100
AcDbCircle
 10
116.237062
 20
314.051116
 30
0.0
 40
10.363315
  0
CIRCLE
  5
F5
100
AcDbEntity
  8
0
  6
CONTINUOUS
 62
     7
100
AcDbCircle
 10
116.237062
 20
234.051116
 30
0.0
 40
10.163315
  0
CIRCLE
  5
F6
100
AcDbEntity
  8
0
  6
CONTINUOUS
 62
     7
100
AcDbCircle
 10
116.237062
 20
314.051116
 30
0.0
 40
9.759169
  0
CIRCLE
  5
F7
100
AcDbEntity
  8
0
  6
CONTINUOUS
 62
     7
100
AcDbCircle
 10
116.237062
 20
314.051116
 30
0.0
 40
10.163315
  0
ELLIPSE
  5
F8
100
AcDbEntity
  8
0
  6
CONTINUOUS
 62
     7
100
AcDbEllipse
 10
175.937062
 20
176.395519
 30
0.0
 11
1.555359922126143
 21
0.0
 31
0.0
210
0.0
220
0.0
230
1.0
 40
0.017458
 41
4.712388980384689
 42
6.300641258596097
  0
LINE
  5
F9
100
AcDbEntity
  8
0
  6
CONTINUOUS
 62
     7
100
AcDbLine
 10
56.537061
 20
176.368365
 30
0.0
 11
175.937063
 21
176.368365
 31
0.0
  0
ELLIPSE
  5
FA
100
AcDbEntity
  8
0
  6
CONTINUOUS
 62
     7
100
AcDbEllipse
 10
56.537062
 20
176.395519
 30
0.0
 11
1.555359922126129
 21
0.0
 31
0.0
210
0.0
220
0.0
230
1.0
 40
0.017458
 41
3.124136702174049
 42
4.712388980384698
  0
LINE
  5
FB
100
AcDbEntity
  8
0
  6
CONTINUOUS
 62
     7
100
AcDbLine
 10
37.554312
 20
193.651119
 30
0.0
 11
34.637062
 21
193.651116
 31
0.0
  0
LINE
  5
FC
100
AcDbEntity
  8
0
  6
CONTINUOUS
 62
     7
100
AcDbLine
 10
34.637062
 20
189.151116
 30
0.0
 11
34.637062
 21
193.651116
 31
0.0
  0
LINE
  5
FD
100
AcDbEntity
  8
0
  6
CONTINUOUS
 62
     7
100
AcDbLine
 10
194.919813
 20
193.651119
 30
0.0
 11
197.837062
 21
193.651116
 31
0.0
  0
LINE
  5
FE
100
AcDbEntity
  8
0
  6
CONTINUOUS
 62
     7
100
AcDbLine
 10
197.837062
 20
189.151116
 30
0.0
 11
197.837062
 21
193.651116
 31
0.0
  0
LINE
  5
FF
100
AcDbEntity
  8
0
  6
CONTINUOUS
 62
     7
100
AcDbLine
 10
194.919813
 20
354.451114
 30
0.0
 11
197.837062
 21
354.451116
 31
0.0
  0
LINE
  5
100
100
AcDbEntity
  8
0
  6
CONTINUOUS
 62
     7
100
AcDbLine
 10
197.837062
 20
354.451116
 30
0.0
 11
197.837062
 21
358.951116
 31
0.0
  0
LINE
  5
101
100
AcDbEntity
  8
0
  6
CONTINUOUS
 62
     7
100
AcDbLine
 10
175.937063
 20
176.368365
 30
0.0
 11
175.937062
 21
173.451116
 31
0.0
  0
LINE
  5
102
100
AcDbEntity
  8
0
  6
CONTINUOUS
 62
     7
100
AcDbLine
 10
180.437062
 20
173.451116
 30
0.0
 11
175.937062
 21
173.451116
 31
0.0
  0
LINE
  5
103
100
AcDbEntity
  8
0
  6
CONTINUOUS
 62
     7
100
AcDbLine
 10
56.537061
 20
176.368365
 30
0.0
 11
56.537062
 21
173.451116
 31
0.0
  0
LINE
  5
104
100
AcDbEntity
  8
0
  6
CONTINUOUS
 62
     7
100
AcDbLine
 10
56.537062
 20
173.451116
 30
0.0
 11
52.037062
 21
173.451116
 31
0.0
  0
LINE
  5
105
100
AcDbEntity
  8
0
  6
CONTINUOUS
 62
     7
100
AcDbLine
 10
56.537061
 20
371.733868
 30
0.0
 11
56.537062
 21
374.651116
 31
0.0
  0
LINE
  5
106
100
AcDbEntity
  8
0
  6
CONTINUOUS
 62
     7
100
AcDbLine
 10
56.537062
 20
374.651116
 30
0.0
 11
52.037062
 21
374.651116
 31
0.0
  0
LINE
  5
107
100
AcDbEntity
  8
0
  6
CONTINUOUS
 62
     7
100
AcDbLine
 10
37.554312
 20
354.451114
 30
0.0
 11
34.637062
 21
354.451116
 31
0.0
  0
LINE
  5
108
100
AcDbEntity
  8
0
  6
CONTINUOUS
 62
     7
100
AcDbLine
 10
34.637062
 20
354.451116
 30
0.0
 11
34.637062
 21
358.951116
 31
0.0
  0
LINE
  5
109
100
AcDbEntity
  8
0
  6
CONTINUOUS
 62
     7
100
AcDbLine
 10
175.937063
 20
371.733868
 30
0.0
 11
175.937062
 21
374.651116
 31
0.0
  0
LINE
  5
10A
100
AcDbEntity
  8
0
  6
CONTINUOUS
 62
     7
100
AcDbLine
 10
180.437062
 20
374.651116
 30
0.0
 11
175.937062
 21
374.651116
 31
0.0
  0
LINE
  5
10B
100
AcDbEntity
  8
0
  6
CONTINUOUS
 62
     7
100
AcDbLine
 10
34.637062
 20
193.651116
 30
0.0
 11
34.637062
 21
354.451116
 31
0.0
  0
LINE
  5
10C
100
AcDbEntity
  8
0
  6
CONTINUOUS
 62
     7
100
AcDbLine
 10
197.837062
 20
193.651116
 30
0.0
 11
197.837062
 21
354.451116
 31
0.0
  0
LINE
  5
10D
100
AcDbEntity
  8
0
  6
CONTINUOUS
 62
     7
100
AcDbLine
 10
175.937062
 20
173.451116
 30
0.0
 11
56.537062
 21
173.451116
 31
0.0
  0
LINE
  5
10E
100
AcDbEntity
  8
0
  6
CONTINUOUS
 62
     7
100
AcDbLine
 10
175.937062
 20
374.651116
 30
0.0
 11
56.537062
 21
374.651116
 31
0.0
  0
LINE
  5
10F
100
AcDbEntity
  8
0
  6
CONTINUOUS
 62
     7
100
AcDbLine
 10
339.83706
 20
199.051113
 30
0.0
 11
340.837062
 21
199.103524
 31
0.0
  0
LINE
  5
110
100
AcDbEntity
  8
0
  6
CONTINUOUS
 62
     7
100
AcDbLine
 10
340.837062
 20
208.998709
 30
0.0
 11
339.83706
 21
209.051119
 31
0.0
  0
LINE
  5
111
100
AcDbEntity
  8
0
  6
CONTINUOUS
 62
     7
100
AcDbLine
 10
339.83706
 20
339.051114
 30
0.0
 11
340.837062
 21
339.103524
 31
0.0
  0
LINE
  5
112
100
AcDbEntity
  8
0
  6
CONTINUOUS
 62
     7
100
AcDbLine
 10
340.837062
 20
348.998709
 30
0.0
 11
339.83706
 21
349.051119
 31
0.0
  0
LINE
  5
113
100
AcDbEntity
  8
0
  6
CONTINUOUS
 62
     7
100
AcDbLine
 10
340.837062
 20
200.801113
 30
0.0
 11
342.837062
 21
200.853488
 31
0.0
  0
LINE
  5
114
100
AcDbEntity
  8
0
  6
CONTINUOUS
 62
     7
100
AcDbLine
 10
342.837062
 20
207.248745
 30
0.0
 11
340.837062
 21
207.301119
 31
0.0
  0
LINE
  5
115
100
AcDbEntity
  8
0
  6
CONTINUOUS
 62
     7
100
AcDbLine
 10
340.837062
 20
340.801114
 30
0.0
 11
342.837062
 21
340.853488
 31
0.0
  0
LINE
  5
116
100
AcDbEntity
  8
0
  6
CONTINUOUS
 62
     7
100
AcDbLine
 10
342.837062
 20
347.248745
 30
0.0
 11
340.837062
 21
347.30112
 31
0.0
  0
LINE
  5
117
100
AcDbEntity
  8
0
  6
CONTINUOUS
 62
     7
100
AcDbLine
 10
342.837062
 20
211.298751
 30
0.0
 11
339.83706
 21
211.351113
 31
0.0
  0
LINE
  5
118
100
AcDbEntity
  8
0
  6
CONTINUOUS
 62
     7
100
AcDbLine
 10
339.83706
 20
336.75112
 30
0.0
 11
342.837062
 21
336.803482
 31
0.0
  0
LINE
  5
119
100
AcDbEntity
  8
0
  6
CONTINUOUS
 62
     7
100
AcDbLine
 10
342.837062
 20
351.298751
 30
0.0
 11
339.83706
 21
351.351114
 31
0.0
  0
LINE
  5
11A
100
AcDbEntity
  8
0
  6
CONTINUOUS
 62
     7
100
AcDbLine
 10
339.83706
 20
196.751119
 30
0.0
 11
342.837062
 21
196.803482
 31
0.0
  0
LINE
  5
11B
100
AcDbEntity
  8
0
  6
CONTINUOUS
 62
     7
100
AcDbLine
 10
339.83706
 20
213.741263
 30
0.0
 11
342.337062
 21
213.784901
 31
0.0
  0
LINE
  5
11C
100
AcDbEntity
  8
0
  6
CONTINUOUS
 62
     7
100
AcDbLine
 10
342.337062
 20
234.317332
 30
0.0
 11
339.83706
 21
234.360968
 31
0.0
  0
LINE
  5
11D
100
AcDbEntity
  8
0
  6
CONTINUOUS
 62
     7
100
AcDbLine
 10
339.83706
 20
313.741264
 30
0.0
 11
342.337062
 21
313.784901
 31
0.0
  0
LINE
  5
11E
100
AcDbEntity
  8
0
  6
CONTINUOUS
 62
     7
100
AcDbLine
 10
342.337062
 20
334.317332
 30
0.0
 11
339.83706
 21
334.36097
 31
0.0
  0
LINE
  5
11F
100
AcDbEntity
  8
0
  6
CONTINUOUS
 62
     7
100
AcDbLine
 10
339.83706
 20
193.951116
 30
0.0
 11
342.837062
 21
194.003482
 31
0.0
  0
LINE
  5
120
100
AcDbEntity
  8
0
  6
CONTINUOUS
 62
     7
100
AcDbLine
 10
342.837062
 20
354.098751
 30
0.0
 11
339.83706
 21
354.151116
 31
0.0
  0
LINE
  5
121
100
AcDbEntity
  8
0
  6
CONTINUOUS
 62
     7
100
AcDbLine
 10
270.437062
 20
179.451116
 30
0.0
 11
342.837062
 21
179.451116
 31
0.0
  0
LINE
  5
122
100
AcDbEntity
  8
0
  6
CONTINUOUS
 62
     7
100
AcDbLine
 10
342.837062
 20
179.451116
 30
0.0
 11
342.837062
 21
173.451116
 31
0.0
  0
LINE
  5
123
100
AcDbEntity
  8
0
  6
CONTINUOUS
 62
     7
100
AcDbLine
 10
342.837062
 20
173.451116
 30
0.0
 11
270.437062
 21
173.451116
 31
0.0
  0
LINE
  5
124
100
AcDbEntity
  8
0
  6
CONTINUOUS
 62
     7
100
AcDbLine
 10
270.437062
 20
173.451116
 30
0.0
 11
270.437062
 21
179.451116
 31
0.0
  0
LINE
  5
125
100
AcDbEntity
  8
0
  6
CONTINUOUS
 62
     7
100
AcDbLine
 10
270.437062
 20
374.651116
 30
0.0
 11
342.837062
 21
374.651116
 31
0.0
  0
LINE
  5
126
100
AcDbEntity
  8
0
  6
CONTINUOUS
 62
     7
100
AcDbLine
 10
342.837062
 20
374.651116
 30
0.0
 11
342.837062
 21
368.651116
 31
0.0
  0
LINE
  5
127
100
AcDbEntity
  8
0
  6
CONTINUOUS
 62
     7
100
AcDbLine
 10
342.837062
 20
368.651116
 30
0.0
 11
270.437062
 21
368.651116
 31
0.0
  0
LINE
  5
128
100
AcDbEntity
  8
0
  6
CONTINUOUS
 62
     7
100
AcDbLine
 10
270.437062
 20
368.651116
 30
0.0
 11
270.437062
 21
374.651116
 31
0.0
  0
LINE
  5
129
100
AcDbEntity
  8
0
  6
CONTINUOUS
 62
     7
100
AcDbLine
 10
342.837062
 20
368.651116
 30
0.0
 11
342.837066
 21
358.951116
 31
0.0
  0
LINE
  5
12A
100
AcDbEntity
  8
0
  6
CONTINUOUS
 62
     7
100
AcDbLine
 10
278.737062
 20
358.951116
 30
0.0
 11
342.837066
 21
358.951116
 31
0.0
  0
ARC
  5
12B
100
AcDbEntity
  8
0
  6
CONTINUOUS
 62
     7
100
AcDbCircle
 10
278.737062
 20
354.451116
 30
0.0
 40
4.5
100
AcDbArc
 50
90.0
 51
180.0
  0
LINE
  5
12C
100
AcDbEntity
  8
0
  6
CONTINUOUS
 62
     7
100
AcDbLine
 10
274.237062
 20
193.651116
 30
0.0
 11
274.237062
 21
354.451116
 31
0.0
  0
ARC
  5
12D
100
AcDbEntity
  8
0
  6
CONTINUOUS
 62
     7
100
AcDbCircle
 10
278.737062
 20
193.651116
 30
0.0
 40
4.5
100
AcDbArc
 50
180.0
 51
270.0
  0
LINE
  5
12E
100
AcDbEntity
  8
0
  6
CONTINUOUS
 62
     7
100
AcDbLine
 10
342.837066
 20
189.151117
 30
0.0
 11
278.737062
 21
189.151116
 31
0.0
  0
LINE
  5
12F
100
AcDbEntity
  8
0
  6
CONTINUOUS
 62
     7
100
AcDbLine
 10
342.837066
 20
189.151117
 30
0.0
 11
342.837062
 21
179.451116
 31
0.0
  0
LINE
  5
130
100
AcDbEntity
  8
0
  6
CONTINUOUS
 62
     7
100
AcDbLine
 10
270.437062
 20
179.451116
 30
0.0
 11
270.437062
 21
368.651116
 31
0.0
  0
ELLIPSE
  5
131
100
AcDbEntity
  8
0
  6
CONTINUOUS
 62
     7
100
AcDbEllipse
 10
278.709909
 20
354.451116
 30
0.0
 11
1.555596919263166
 21
0.0
 31
0.0
210
0.0
220
0.0
230
1.0
 40
0.999848
 41
1.553340375378965
 42
3.141592653589793
  0
LINE
  5
132
100
AcDbEntity
  8
0
  6
CONTINUOUS
 62
     7
100
AcDbLine
 10
277.154312
 20
354.451114
 30
0.0
 11
274.237062
 21
354.451116
 31
0.0
  0
LINE
  5
133
100
AcDbEntity
  8
0
  6
CONTINUOUS
 62
     7
100
AcDbLine
 10
278.737062
 20
356.006236
 30
0.0
 11
278.737062
 21
358.951116
 31
0.0
  0
ELLIPSE
  5
134
100
AcDbEntity
  8
0
  6
CONTINUOUS
 62
     7
100
AcDbEllipse
 10
278.709909
 20
193.651116
 30
0.0
 11
1.555596919263166
 21
0.0
 31
0.0
210
0.0
220
0.0
230
1.0
 40
0.999848
 41
3.141592653589825
 42
4.729844931800634
  0
LINE
  5
135
100
AcDbEntity
  8
0
  6
CONTINUOUS
 62
     7
100
AcDbLine
 10
278.737062
 20
192.095996
 30
0.0
 11
278.737062
 21
189.151116
 31
0.0
  0
LINE
  5
136
100
AcDbEntity
  8
0
  6
CONTINUOUS
 62
     7
100
AcDbLine
 10
277.154312
 20
193.651119
 30
0.0
 11
274.237062
 21
193.651116
 31
0.0
  0
LINE
  5
137
100
AcDbEntity
  8
0
  6
CONTINUOUS
 62
     7
100
AcDbLine
 10
277.154312
 20
354.451114
 30
0.0
 11
277.154312
 21
193.651119
 31
0.0
  0
LINE
  5
138
100
AcDbEntity
  8
0
  6
CONTINUOUS
 62
     7
100
AcDbLine
 10
278.737062
 20
192.095996
 30
0.0
 11
339.83706
 21
193.162495
 31
0.0
  0
LINE
  5
139
100
AcDbEntity
  8
0
  6
CONTINUOUS
 62
     7
100
AcDbLine
 10
342.837066
 20
193.162495
 30
0.0
 11
339.83706
 21
193.162495
 31
0.0
  0
LINE
  5
13A
100
AcDbEntity
  8
0
  6
CONTINUOUS
 62
     7
100
AcDbLine
 10
342.837066
 20
193.162495
 30
0.0
 11
342.837066
 21
189.151117
 31
0.0
  0
LINE
  5
13B
100
AcDbEntity
  8
0
  6
CONTINUOUS
 62
     7
100
AcDbLine
 10
342.837066
 20
358.951116
 30
0.0
 11
342.837066
 21
354.939738
 31
0.0
  0
LINE
  5
13C
100
AcDbEntity
  8
0
  6
CONTINUOUS
 62
     7
100
AcDbLine
 10
342.837066
 20
354.939738
 30
0.0
 11
339.83706
 21
354.939738
 31
0.0
  0
LINE
  5
13D
100
AcDbEntity
  8
0
  6
CONTINUOUS
 62
     7
100
AcDbLine
 10
278.737062
 20
356.006236
 30
0.0
 11
339.83706
 21
354.939738
 31
0.0
  0
LINE
  5
13E
100
AcDbEntity
  8
0
  6
CONTINUOUS
 62
     7
100
AcDbLine
 10
339.83706
 20
354.939738
 30
0.0
 11
339.83706
 21
193.162495
 31
0.0
  0
LINE
  5
13F
100
AcDbEntity
  8
0
  6
CONTINUOUS
 62
     7
100
AcDbLine
 10
340.837062
 20
208.998709
 30
0.0
 11
340.837062
 21
199.103524
 31
0.0
  0
LINE
  5
140
100
AcDbEntity
  8
0
  6
CONTINUOUS
 62
     7
100
AcDbLine
 10
340.837062
 20
348.998709
 30
0.0
 11
340.837062
 21
339.103524
 31
0.0
  0
LINE
  5
141
100
AcDbEntity
  8
0
  6
CONTINUOUS
 62
     7
100
AcDbLine
 10
342.837062
 20
207.248745
 30
0.0
 11
342.837062
 21
200.853488
 31
0.0
  0
LINE
  5
142
100
AcDbEntity
  8
0
  6
CONTINUOUS
 62
     7
100
AcDbLine
 10
342.837062
 20
347.248745
 30
0.0
 11
342.837062
 21
340.853488
 31
0.0
  0
LINE
  5
143
100
AcDbEntity
  8
0
  6
CONTINUOUS
 62
     7
100
AcDbLine
 10
342.837062
 20
211.298751
 30
0.0
 11
342.837062
 21
207.248745
 31
0.0
  0
LINE
  5
144
100
AcDbEntity
  8
0
  6
CONTINUOUS
 62
     7
100
AcDbLine
 10
342.837062
 20
340.853488
 30
0.0
 11
342.837062
 21
336.803482
 31
0.0
  0
LINE
  5
145
100
AcDbEntity
  8
0
  6
CONTINUOUS
 62
     7
100
AcDbLine
 10
342.837062
 20
351.298751
 30
0.0
 11
342.837062
 21
347.248745
 31
0.0
  0
LINE
  5
146
100
AcDbEntity
  8
0
  6
CONTINUOUS
 62
     7
100
AcDbLine
 10
342.837062
 20
200.853488
 30
0.0
 11
342.837062
 21
196.803482
 31
0.0
  0
LINE
  5
147
100
AcDbEntity
  8
0
  6
CONTINUOUS
 62
     7
100
AcDbLine
 10
342.337062
 20
213.784901
 30
0.0
 11
342.337062
 21
234.317332
 31
0.0
  0
LINE
  5
148
100
AcDbEntity
  8
0
  6
CONTINUOUS
 62
     7
100
AcDbLine
 10
342.337062
 20
313.784901
 30
0.0
 11
342.337062
 21
334.317332
 31
0.0
  0
LINE
  5
149
100
AcDbEntity
  8
0
  6
CONTINUOUS
 62
     7
100
AcDbLine
 10
342.837062
 20
196.803482
 30
0.0
 11
342.837062
 21
194.003482
 31
0.0
  0
LINE
  5
14A
100
AcDbEntity
  8
0
  6
CONTINUOUS
 62
     7
100
AcDbLine
 10
342.837062
 20
354.098751
 30
0.0
 11
342.837062
 21
351.298751
 31
0.0
  0
LINE
  5
14B
100
AcDbEntity
  8
0
  6
CONTINUOUS
 62
     7
100
AcDbLine
 10
278.737062
 20
374.651116
 30
0.0
 11
274.237062
 21
374.651116
 31
0.0
  0
LINE
  5
14C
100
AcDbEntity
  8
0
  6
CONTINUOUS
 62
     7
100
AcDbLine
 10
278.737062
 20
173.451116
 30
0.0
 11
274.237062
 21
173.451116
 31
0.0
  0
LINE
  5
14D
100
AcDbEntity
  8
0
  6
CONTINUOUS
 62
     7
100
AcDbLine
 10
342.837062
 20
374.651116
 30
0.0
 11
278.737062
 21
374.651116
 31
0.0
  0
LINE
  5
14E
100
AcDbEntity
  8
0
  6
CONTINUOUS
 62
     7
100
AcDbLine
 10
342.837062
 20
173.451116
 30
0.0
 11
278.737062
 21
173.451116
 31
0.0
  0
INSERT
  5
156
100
AcDbEntity
  8
0
  6
CONTINUOUS
 62
     7
100
AcDbBlockReference
  2
SW_CENTERMARKSYMBOL_0
 10
278.737062
 20
354.451116
 30
0.0
 41
2.0
 42
2.0
 43
2.0
  0
INSERT
  5
15E
100
AcDbEntity
  8
0
  6
CONTINUOUS
 62
     7
100
AcDbBlockReference
  2
SW_CENTERMARKSYMBOL_1
 10
278.737062
 20
193.651116
 30
0.0
 41
2.0
 42
2.0
 43
2.0
  0
CIRCLE
  5
15F
100
AcDbEntity
  8
0
  6
CONTINUOUS
 62
     7
100
AcDbCircle
 10
569.906974
 20
185.551116
 30
0.0
 40
5.4
  0
ARC
  5
160
100
AcDbEntity
  8
0
  6
CONTINUOUS
 62
     7
100
AcDbCircle
 10
555.806974
 20
184.696712
 30
0.0
 40
4.1
100
AcDbArc
 50
97.8
 51
180.0
  0
LINE
  5
161
100
AcDbEntity
  8
0
  6
CONTINUOUS
 62
     7
100
AcDbLine
 10
551.706974
 20
184.696712
 30
0.0
 11
551.706974
 21
182.951116
 31
0.0
  0
ARC
  5
162
100
AcDbEntity
  8
0
  6
CONTINUOUS
 62
     7
100
AcDbCircle
 10
542.206974
 20
182.951116
 30
0.0
 40
9.5
100
AcDbArc
 50
310.721048
 51
0.0
  0
LINE
  5
163
100
AcDbEntity
  8
0
  6
CONTINUOUS
 62
     7
100
AcDbLine
 10
548.404554
 20
175.751116
 30
0.0
 11
576.006974
 21
175.751116
 31
0.0
  0
ARC
  5
164
100
AcDbEntity
  8
0
  6
CONTINUOUS
 62
     7
100
AcDbCircle
 10
576.006974
 20
179.451116
 30
0.0
 40
3.7
100
AcDbArc
 50
270.0
 51
0.0
  0
LINE
  5
165
100
AcDbEntity
  8
0
  6
CONTINUOUS
 62
     7
100
AcDbLine
 10
579.706974
 20
179.451116
 30
0.0
 11
579.706974
 21
194.513752
 31
0.0
  0
ARC
  5
166
100
AcDbEntity
  8
0
  6
CONTINUOUS
 62
     7
100
AcDbCircle
 10
572.506974
 20
200.711332
 30
0.0
 40
9.5
100
AcDbArc
 50
277.8
 51
319.278952
  0
LINE
  5
167
100
AcDbEntity
  8
0
  6
CONTINUOUS
 62
     7
100
AcDbLine
 10
573.796272
 20
191.299228
 30
0.0
 11
572.689388
 21
191.147604
 31
0.0
  0
ARC
  5
168
100
AcDbEntity
  8
0
  6
CONTINUOUS
 62
     7
100
AcDbCircle
 10
569.906974
 20
185.551116
 30
0.0
 40
6.25
100
AcDbArc
 50
132.035263
 51
63.564737
  0
LINE
  5
169
100
AcDbEntity
  8
0
  6
CONTINUOUS
 62
     7
100
AcDbLine
 10
565.72205
 20
190.193197
 30
0.0
 11
555.25054
 21
188.758778
 31
0.0
  0
CIRCLE
  5
16A
100
AcDbEntity
  8
0
  6
CONTINUOUS
 62
     7
100
AcDbCircle
 10
430.906974
 20
185.551116
 30
0.0
 40
5.4
  0
LINE
  5
16B
100
AcDbEntity
  8
0
  6
CONTINUOUS
 62
     7
100
AcDbLine
 10
427.017676
 20
191.299228
 30
0.0
 11
428.124559
 21
191.147604
 31
0.0
  0
ARC
  5
16C
100
AcDbEntity
  8
0
  6
CONTINUOUS
 62
     7
100
AcDbCircle
 10
428.306974
 20
200.711332
 30
0.0
 40
9.5
100
AcDbArc
 50
220.721048
 51
262.2
  0
LINE
  5
16D
100
AcDbEntity
  8
0
  6
CONTINUOUS
 62
     7
100
AcDbLine
 10
421.106974
 20
194.513752
 30
0.0
 11
421.106974
 21
179.451116
 31
0.0
  0
ARC
  5
16E
100
AcDbEntity
  8
0
  6
CONTINUOUS
 62
     7
100
AcDbCircle
 10
424.806974
 20
179.451116
 30
0.0
 40
3.7
100
AcDbArc
 50
180.0
 51
270.0
  0
LINE
  5
16F
100
AcDbEntity
  8
0
  6
CONTINUOUS
 62
     7
100
AcDbLine
 10
424.806974
 20
175.751116
 30
0.0
 11
452.409393
 21
175.751116
 31
0.0
  0
ARC
  5
170
100
AcDbEntity
  8
0
  6
CONTINUOUS
 62
     7
100
AcDbCircle
 10
458.606974
 20
182.951116
 30
0.0
 40
9.5
100
AcDbArc
 50
180.0
 51
229.278952
  0
LINE
  5
171
100
AcDbEntity
  8
0
  6
CONTINUOUS
 62
     7
100
AcDbLine
 10
449.106974
 20
184.696712
 30
0.0
 11
449.106974
 21
182.951116
 31
0.0
  0
ARC
  5
172
100
AcDbEntity
  8
0
  6
CONTINUOUS
 62
     7
100
AcDbCircle
 10
445.006974
 20
184.696712
 30
0.0
 40
4.1
100
AcDbArc
 50
0.0
 51
82.2
  0
LINE
  5
173
100
AcDbEntity
  8
0
  6
CONTINUOUS
 62
     7
100
AcDbLine
 10
435.091898
 20
190.193197
 30
0.0
 11
445.563407
 21
188.758778
 31
0.0
  0
ARC
  5
174
100
AcDbEntity
  8
0
  6
CONTINUOUS
 62
     7
100
AcDbCircle
 10
430.906974
 20
185.551116
 30
0.0
 40
6.25
100
AcDbArc
 50
116.435263
 51
47.964737
  0
CIRCLE
  5
175
100
AcDbEntity
  8
0
  6
CONTINUOUS
 62
     7
100
AcDbCircle
 10
430.906974
 20
362.551116
 30
0.0
 40
5.4
  0
ARC
  5
176
100
AcDbEntity
  8
0
  6
CONTINUOUS
 62
     7
100
AcDbCircle
 10
445.006974
 20
363.405521
 30
0.0
 40
4.1
100
AcDbArc
 50
277.8
 51
0.0
  0
LINE
  5
177
100
AcDbEntity
  8
0
  6
CONTINUOUS
 62
     7
100
AcDbLine
 10
449.106974
 20
363.405521
 30
0.0
 11
449.106974
 21
365.151116
 31
0.0
  0
ARC
  5
178
100
AcDbEntity
  8
0
  6
CONTINUOUS
 62
     7
100
AcDbCircle
 10
458.606974
 20
365.151116
 30
0.0
 40
9.5
100
AcDbArc
 50
130.721048
 51
180.0
  0
LINE
  5
179
100
AcDbEntity
  8
0
  6
CONTINUOUS
 62
     7
100
AcDbLine
 10
452.409393
 20
372.351116
 30
0.0
 11
424.806974
 21
372.351116
 31
0.0
  0
ARC
  5
17A
100
AcDbEntity
  8
0
  6
CONTINUOUS
 62
     7
100
AcDbCircle
 10
424.806974
 20
368.651116
 30
0.0
 40
3.7
100
AcDbArc
 50
90.0
 51
180.0
  0
LINE
  5
17B
100
AcDbEntity
  8
0
  6
CONTINUOUS
 62
     7
100
AcDbLine
 10
421.106974
 20
368.651116
 30
0.0
 11
421.106974
 21
353.588481
 31
0.0
  0
ARC
  5
17C
100
AcDbEntity
  8
0
  6
CONTINUOUS
 62
     7
100
AcDbCircle
 10
428.306974
 20
347.390901
 30
0.0
 40
9.5
100
AcDbArc
 50
97.8
 51
139.278952
  0
LINE
  5
17D
100
AcDbEntity
  8
0
  6
CONTINUOUS
 62
     7
100
AcDbLine
 10
427.017676
 20
356.803005
 30
0.0
 11
428.124559
 21
356.954629
 31
0.0
  0
ARC
  5
17E
100
AcDbEntity
  8
0
  6
CONTINUOUS
 62
     7
100
AcDbCircle
 10
430.906974
 20
362.551116
 30
0.0
 40
6.25
100
AcDbArc
 50
312.035263
 51
243.564737
  0
LINE
  5
17F
100
AcDbEntity
  8
0
  6
CONTINUOUS
 62
     7
100
AcDbLine
 10
435.091898
 20
357.909036
 30
0.0
 11
445.563407
 21
359.343454
 31
0.0
  0
CIRCLE
  5
180
100
AcDbEntity
  8
0
  6
CONTINUOUS
 62
     7
100
AcDbCircle
 10
569.906974
 20
362.551116
 30
0.0
 40
5.4
  0
LINE
  5
181
100
AcDbEntity
  8
0
  6
CONTINUOUS
 62
     7
100
AcDbLine
 10
454.306974
 20
365.151116
 30
0.0
 11
454.306974
 21
363.405521
 31
0.0
  0
ARC
  5
182
100
AcDbEntity
  8
0
  6
CONTINUOUS
 62
     7
100
AcDbCircle
 10
445.006974
 20
363.405521
 30
0.0
 40
9.3
100
AcDbArc
 50
277.8
 51
0.0
  0
LINE
  5
183
100
AcDbEntity
  8
0
  6
CONTINUOUS
 62
     7
100
AcDbLine
 10
446.269128
 20
354.191566
 30
0.0
 11
427.723397
 21
351.651116
 31
0.0
  0
ARC
  5
184
100
AcDbEntity
  8
0
  6
CONTINUOUS
 62
     7
100
AcDbCircle
 10
428.306974
 20
347.390901
 30
0.0
 40
4.3
100
AcDbArc
 50
97.8
 51
180.0
  0
LINE
  5
185
100
AcDbEntity
  8
0
  6
CONTINUOUS
 62
     7
100
AcDbLine
 10
424.006974
 20
200.711332
 30
0.0
 11
424.006974
 21
347.390901
 31
0.0
  0
ARC
  5
186
100
AcDbEntity
  8
0
  6
CONTINUOUS
 62
     7
100
AcDbCircle
 10
428.306974
 20
200.711332
 30
0.0
 40
4.3
100
AcDbArc
 50
180.0
 51
262.2
  0
LINE
  5
187
100
AcDbEntity
  8
0
  6
CONTINUOUS
 62
     7
100
AcDbLine
 10
446.269128
 20
193.910667
 30
0.0
 11
427.723397
 21
196.451116
 31
0.0
  0
ARC
  5
188
100
AcDbEntity
  8
0
  6
CONTINUOUS
 62
     7
100
AcDbCircle
 10
445.006974
 20
184.696712
 30
0.0
 40
9.3
100
AcDbArc
 50
0.0
 51
82.2
  0
LINE
  5
189
100
AcDbEntity
  8
0
  6
CONTINUOUS
 62
     7
100
AcDbLine
 10
454.306974
 20
182.951116
 30
0.0
 11
454.306974
 21
184.696712
 31
0.0
  0
ARC
  5
18A
100
AcDbEntity
  8
0
  6
CONTINUOUS
 62
     7
100
AcDbCircle
 10
458.606974
 20
182.951116
 30
0.0
 40
4.3
100
AcDbArc
 50
180.0
 51
270.0
  0
LINE
  5
18B
100
AcDbEntity
  8
0
  6
CONTINUOUS
 62
     7
100
AcDbLine
 10
458.606974
 20
178.651116
 30
0.0
 11
542.206974
 21
178.651116
 31
0.0
  0
ARC
  5
18C
100
AcDbEntity
  8
0
  6
CONTINUOUS
 62
     7
100
AcDbCircle
 10
542.206974
 20
182.951116
 30
0.0
 40
4.3
100
AcDbArc
 50
270.0
 51
0.0
  0
LINE
  5
18D
100
AcDbEntity
  8
0
  6
CONTINUOUS
 62
     7
100
AcDbLine
 10
546.506974
 20
182.951116
 30
0.0
 11
546.506974
 21
184.696712
 31
0.0
  0
ARC
  5
18E
100
AcDbEntity
  8
0
  6
CONTINUOUS
 62
     7
100
AcDbCircle
 10
555.806974
 20
184.696712
 30
0.0
 40
9.3
100
AcDbArc
 50
97.8
 51
180.0
  0
LINE
  5
18F
100
AcDbEntity
  8
0
  6
CONTINUOUS
 62
     7
100
AcDbLine
 10
554.544819
 20
193.910667
 30
0.0
 11
573.090551
 21
196.451116
 31
0.0
  0
ARC
  5
190
100
AcDbEntity
  8
0
  6
CONTINUOUS
 62
     7
100
AcDbCircle
 10
572.506974
 20
200.711332
 30
0.0
 40
4.3
100
AcDbArc
 50
277.8
 51
0.0
  0
LINE
  5
191
100
AcDbEntity
  8
0
  6
CONTINUOUS
 62
     7
100
AcDbLine
 10
576.806974
 20
347.390901
 30
0.0
 11
576.806974
 21
200.711332
 31
0.0
  0
ARC
  5
192
100
AcDbEntity
  8
0
  6
CONTINUOUS
 62
     7
100
AcDbCircle
 10
572.506974
 20
347.390901
 30
0.0
 40
4.3
100
AcDbArc
 50
0.0
 51
82.2
  0
LINE
  5
193
100
AcDbEntity
  8
0
  6
CONTINUOUS
 62
     7
100
AcDbLine
 10
554.544819
 20
354.191566
 30
0.0
 11
573.090551
 21
351.651116
 31
0.0
  0
ARC
  5
194
100
AcDbEntity
  8
0
  6
CONTINUOUS
 62
     7
100
AcDbCircle
 10
555.806974
 20
363.405521
 30
0.0
 40
9.3
100
AcDbArc
 50
180.0
 51
262.2
  0
LINE
  5
195
100
AcDbEntity
  8
0
  6
CONTINUOUS
 62
     7
100
AcDbLine
 10
546.506974
 20
365.151116
 30
0.0
 11
546.506974
 21
363.405521
 31
0.0
  0
ARC
  5
196
100
AcDbEntity
  8
0
  6
CONTINUOUS
 62
     7
100
AcDbCircle
 10
542.206974
 20
365.151116
 30
0.0
 40
4.3
100
AcDbArc
 50
0.0
 51
90.0
  0
LINE
  5
197
100
AcDbEntity
  8
0
  6
CONTINUOUS
 62
     7
100
AcDbLine
 10
458.606974
 20
369.451116
 30
0.0
 11
542.206974
 21
369.451116
 31
0.0
  0
ARC
  5
198
100
AcDbEntity
  8
0
  6
CONTINUOUS
 62
     7
100
AcDbCircle
 10
458.606974
 20
365.151116
 30
0.0
 40
4.3
100
AcDbArc
 50
90.0
 51
180.0
  0
ARC
  5
199
100
AcDbEntity
  8
0
  6
CONTINUOUS
 62
     7
100
AcDbCircle
 10
576.006974
 20
368.651116
 30
0.0
 40
3.7
100
AcDbArc
 50
0.0
 51
90.0
  0
LINE
  5
19A
100
AcDbEntity
  8
0
  6
CONTINUOUS
 62
     7
100
AcDbLine
 10
576.006974
 20
372.351116
 30
0.0
 11
548.404554
 21
372.351116
 31
0.0
  0
ARC
  5
19B
100
AcDbEntity
  8
0
  6
CONTINUOUS
 62
     7
100
AcDbCircle
 10
542.206974
 20
365.151116
 30
0.0
 40
9.5
100
AcDbArc
 50
0.0
 51
49.278952
  0
LINE
  5
19C
100
AcDbEntity
  8
0
  6
CONTINUOUS
 62
     7
100
AcDbLine
 10
551.706974
 20
363.405521
 30
0.0
 11
551.706974
 21
365.151116
 31
0.0
  0
ARC
  5
19D
100
AcDbEntity
  8
0
  6
CONTINUOUS
 62
     7
100
AcDbCircle
 10
555.806974
 20
363.405521
 30
0.0
 40
4.1
100
AcDbArc
 50
180.0
 51
262.2
  0
LINE
  5
19E
100
AcDbEntity
  8
0
  6
CONTINUOUS
 62
     7
100
AcDbLine
 10
565.72205
 20
357.909036
 30
0.0
 11
555.25054
 21
359.343454
 31
0.0
  0
ARC
  5
19F
100
AcDbEntity
  8
0
  6
CONTINUOUS
 62
     7
100
AcDbCircle
 10
569.906974
 20
362.551116
 30
0.0
 40
6.25
100
AcDbArc
 50
296.435263
 51
227.964737
  0
LINE
  5
1A0
100
AcDbEntity
  8
0
  6
CONTINUOUS
 62
     7
100
AcDbLine
 10
573.796272
 20
356.803005
 30
0.0
 11
572.689388
 21
356.954629
 31
0.0
  0
ARC
  5
1A1
100
AcDbEntity
  8
0
  6
CONTINUOUS
 62
     7
100
AcDbCircle
 10
572.506974
 20
347.390901
 30
0.0
 40
9.5
100
AcDbArc
 50
40.721048
 51
82.2
  0
LINE
  5
1A2
100
AcDbEntity
  8
0
  6
CONTINUOUS
 62
     7
100
AcDbLine
 10
579.706974
 20
353.588481
 30
0.0
 11
579.706974
 21
368.651116
 31
0.0
  0
ARC
  5
1A3
100
AcDbEntity
  8
0
  6
CONTINUOUS
 62
     7
100
AcDbCircle
 10
424.806974
 20
179.451116
 30
0.0
 40
6.0
100
AcDbArc
 50
180.0
 51
270.0
  0
LINE
  5
1A4
100
AcDbEntity
  8
0
  6
CONTINUOUS
 62
     7
100
AcDbLine
 10
418.806974
 20
368.651116
 30
0.0
 11
418.806974
 21
179.451116
 31
0.0
  0
ARC
  5
1A5
100
AcDbEntity
  8
0
  6
CONTINUOUS
 62
     7
100
AcDbCircle
 10
424.806974
 20
368.651116
 30
0.0
 40
6.0
100
AcDbArc
 50
90.0
 51
180.0
  0
LINE
  5
1A6
100
AcDbEntity
  8
0
  6
CONTINUOUS
 62
     7
100
AcDbLine
 10
576.006974
 20
374.651116
 30
0.0
 11
424.806974
 21
374.651116
 31
0.0
  0
ARC
  5
1A7
100
AcDbEntity
  8
0
  6
CONTINUOUS
 62
     7
100
AcDbCircle
 10
576.006974
 20
368.651116
 30
0.0
 40
6.0
100
AcDbArc
 50
0.0
 51
90.0
  0
LINE
  5
1A8
100
AcDbEntity
  8
0
  6
CONTINUOUS
 62
     7
100
AcDbLine
 10
582.006974
 20
179.451116
 30
0.0
 11
582.006974
 21
368.651116
 31
0.0
  0
ARC
  5
1A9
100
AcDbEntity
  8
0
  6
CONTINUOUS
 62
     7
100
AcDbCircle
 10
576.006974
 20
179.451116
 30
0.0
 40
6.0
100
AcDbArc
 50
270.0
 51
0.0
  0
LINE
  5
1AA
100
AcDbEntity
  8
0
  6
CONTINUOUS
 62
     7
100
AcDbLine
 10
424.806974
 20
173.451116
 30
0.0
 11
576.006974
 21
173.451116
 31
0.0
  0
LINE
  5
1AB
100
AcDbEntity
  8
0
  6
CONTINUOUS
 62
     7
100
AcDbLine
 10
426.983326
 20
357.053762
 30
0.0
 11
427.017676
 21
356.803005
 31
0.0
  0
ELLIPSE
  5
1AC
100
AcDbEntity
  8
0
  6
CONTINUOUS
 62
     7
100
AcDbEllipse
 10
428.475909
 20
347.390901
 30
0.0
 11
9.678325212842196
 21
0.0
 31
0.0
210
0.0
220
0.0
230
1.0
 40
0.999848
 41
2.323857989056729
 42
2.436243788566857
  0
LWPOLYLINE
  5
1AD
100
AcDbEntity
  8
0
  6
CONTINUOUS
 62
     7
100
AcDbPolyline
 90
        3
 70
   128
 43
0.0
 10
424.016864
 20
355.989629
 10
422.389314
 20
354.915181
 10
421.857134
 20
354.451114
  0
LINE
  5
1AE
100
AcDbEntity
  8
0
  6
CONTINUOUS
 62
     7
100
AcDbLine
 10
424.016864
 20
355.989629
 30
0.0
 11
424.160422
 21
356.218643
 31
0.0
  0
ARC
  5
1AF
100
AcDbEntity
  8
0
  6
CONTINUOUS
 62
     7
100
AcDbCircle
 10
428.306974
 20
347.390901
 30
0.0
 40
9.753098
100
AcDbArc
 50
97.8
 51
115.160297
  0
LWPOLYLINE
  5
1B0
100
AcDbEntity
  8
0
  6
CONTINUOUS
 62
     7
100
AcDbPolyline
 90
        3
 70
   128
 43
0.0
 10
424.016864
 20
192.112604
 10
422.389314
 20
193.187052
 10
421.857134
 20
193.651119
  0
ELLIPSE
  5
1B1
100
AcDbEntity
  8
0
  6
CONTINUOUS
 62
     7
100
AcDbEllipse
 10
428.475909
 20
200.711332
 30
0.0
 11
9.678325212842196
 21
0.0
 31
0.0
210
0.0
220
0.0
230
1.0
 40
0.999848
 41
3.846941518612742
 42
3.959327318122875
  0
LINE
  5
1B2
100
AcDbEntity
  8
0
  6
CONTINUOUS
 62
     7
100
AcDbLine
 10
426.983326
 20
191.048471
 30
0.0
 11
427.017676
 21
191.299228
 31
0.0
  0
ARC
  5
1B3
100
AcDbEntity
  8
0
  6
CONTINUOUS
 62
     7
100
AcDbCircle
 10
428.306974
 20
200.711332
 30
0.0
 40
9.753098
100
AcDbArc
 50
244.839703
 51
262.2
  0
LINE
  5
1B4
100
AcDbEntity
  8
0
  6
CONTINUOUS
 62
     7
100
AcDbLine
 10
424.016864
 20
192.112604
 30
0.0
 11
424.160422
 21
191.883589
 31
0.0
  0
LINE
  5
1B5
100
AcDbEntity
  8
0
  6
CONTINUOUS
 62
     7
100
AcDbLine
 10
425.178209
 20
200.711332
 30
0.0
 11
424.006974
 21
200.711332
 31
0.0
  0
LINE
  5
1B6
100
AcDbEntity
  8
0
  6
CONTINUOUS
 62
     7
100
AcDbLine
 10
425.178209
 20
347.390901
 30
0.0
 11
424.006974
 21
347.390901
 31
0.0
  0
LINE
  5
1B7
100
AcDbEntity
  8
0
  6
CONTINUOUS
 62
     7
100
AcDbLine
 10
425.178209
 20
347.390901
 30
0.0
 11
425.178209
 21
200.711332
 31
0.0
  0
LINE
  5
1B8
100
AcDbEntity
  8
0
  6
CONTINUOUS
 62
     7
100
AcDbLine
 10
427.882351
 20
197.611515
 30
0.0
 11
427.723397
 21
196.451116
 31
0.0
  0
ARC
  5
1B9
100
AcDbEntity
  8
0
  6
CONTINUOUS
 62
     7
100
AcDbCircle
 10
428.306974
 20
200.711332
 30
0.0
 40
3.128765
100
AcDbArc
 50
180.0
 51
262.2
  0
LINE
  5
1BA
100
AcDbEntity
  8
0
  6
CONTINUOUS
 62
     7
100
AcDbLine
 10
427.882351
 20
350.490718
 30
0.0
 11
427.723397
 21
351.651116
 31
0.0
  0
ARC
  5
1BB
100
AcDbEntity
  8
0
  6
CONTINUOUS
 62
     7
100
AcDbCircle
 10
428.306974
 20
347.390901
 30
0.0
 40
3.128765
100
AcDbArc
 50
97.8
 51
180.0
  0
CIRCLE
  5
1BC
100
AcDbEntity
  8
0
  6
CONTINUOUS
 62
     7
100
AcDbCircle
 10
430.906974
 20
362.551116
 30
0.0
 40
4.467385
  0
CIRCLE
  5
1BD
100
AcDbEntity
  8
0
  6
CONTINUOUS
 62
     7
100
AcDbCircle
 10
430.906974
 20
185.551116
 30
0.0
 40
4.467385
  0
LINE
  5
1BE
100
AcDbEntity
  8
0
  6
CONTINUOUS
 62
     7
100
AcDbLine
 10
426.983326
 20
191.048471
 30
0.0
 11
427.747593
 21
190.943779
 31
0.0
  0
LINE
  5
1BF
100
AcDbEntity
  8
0
  6
CONTINUOUS
 62
     7
100
AcDbLine
 10
426.983326
 20
357.053762
 30
0.0
 11
427.747593
 21
357.158454
 31
0.0
  0
LINE
  5
1C0
100
AcDbEntity
  8
0
  6
CONTINUOUS
 62
     7
100
AcDbLine
 10
446.428083
 20
353.031167
 30
0.0
 11
446.269128
 21
354.191566
 31
0.0
  0
LINE
  5
1C1
100
AcDbEntity
  8
0
  6
CONTINUOUS
 62
     7
100
AcDbLine
 10
427.882351
 20
350.490718
 30
0.0
 11
446.428083
 21
353.031167
 31
0.0
  0
LINE
  5
1C2
100
AcDbEntity
  8
0
  6
CONTINUOUS
 62
     7
100
AcDbLine
 10
446.428083
 20
195.071066
 30
0.0
 11
446.269128
 21
193.910667
 31
0.0
  0
LINE
  5
1C3
100
AcDbEntity
  8
0
  6
CONTINUOUS
 62
     7
100
AcDbLine
 10
427.882351
 20
197.611515
 30
0.0
 11
446.428083
 21
195.071066
 31
0.0
  0
LINE
  5
1C4
100
AcDbEntity
  8
0
  6
CONTINUOUS
 62
     7
100
AcDbLine
 10
435.400166
 20
189.895505
 30
0.0
 11
438.306973
 21
189.497323
 31
0.0
  0
LINE
  5
1C5
100
AcDbEntity
  8
0
  6
CONTINUOUS
 62
     7
100
AcDbLine
 10
445.404926
 20
187.601839
 30
0.0
 11
445.563407
 21
188.758778
 31
0.0
  0
LINE
  5
1C6
100
AcDbEntity
  8
0
  6
CONTINUOUS
 62
     7
100
AcDbLine
 10
439.679117
 20
188.386174
 30
0.0
 11
445.404926
 21
187.601839
 31
0.0
  0
LINE
  5
1C7
100
AcDbEntity
  8
0
  6
CONTINUOUS
 62
     7
100
AcDbLine
 10
439.679117
 20
188.386174
 30
0.0
 11
438.306973
 21
189.497323
 31
0.0
  0
LINE
  5
1C8
100
AcDbEntity
  8
0
  6
CONTINUOUS
 62
     7
100
AcDbLine
 10
445.404926
 20
360.500394
 30
0.0
 11
445.563407
 21
359.343454
 31
0.0
  0
LINE
  5
1C9
100
AcDbEntity
  8
0
  6
CONTINUOUS
 62
     7
100
AcDbLine
 10
435.400166
 20
358.206728
 30
0.0
 11
438.306973
 21
358.604909
 31
0.0
  0
LINE
  5
1CA
100
AcDbEntity
  8
0
  6
CONTINUOUS
 62
     7
100
AcDbLine
 10
438.306973
 20
358.604909
 30
0.0
 11
439.679117
 21
359.716059
 31
0.0
  0
LINE
  5
1CB
100
AcDbEntity
  8
0
  6
CONTINUOUS
 62
     7
100
AcDbLine
 10
439.679117
 20
359.716059
 30
0.0
 11
445.404926
 21
360.500394
 31
0.0
  0
LINE
  5
1CC
100
AcDbEntity
  8
0
  6
CONTINUOUS
 62
     7
100
AcDbLine
 10
447.93923
 20
184.696712
 30
0.0
 11
449.106974
 21
184.696712
 31
0.0
  0
ARC
  5
1CD
100
AcDbEntity
  8
0
  6
CONTINUOUS
 62
     7
100
AcDbCircle
 10
445.006974
 20
184.696712
 30
0.0
 40
2.932256
100
AcDbArc
 50
0.0
 51
82.2
  0
LINE
  5
1CE
100
AcDbEntity
  8
0
  6
CONTINUOUS
 62
     7
100
AcDbLine
 10
447.93923
 20
363.405521
 30
0.0
 11
449.106974
 21
363.405521
 31
0.0
  0
ARC
  5
1CF
100
AcDbEntity
  8
0
  6
CONTINUOUS
 62
     7
100
AcDbCircle
 10
445.006974
 20
363.405521
 30
0.0
 40
2.932256
100
AcDbArc
 50
277.8
 51
0.0
  0
LINE
  5
1D0
100
AcDbEntity
  8
0
  6
CONTINUOUS
 62
     7
100
AcDbLine
 10
455.478209
 20
184.696712
 30
0.0
 11
454.306974
 21
184.696712
 31
0.0
  0
ARC
  5
1D1
100
AcDbEntity
  8
0
  6
CONTINUOUS
 62
     7
100
AcDbCircle
 10
445.006974
 20
184.696712
 30
0.0
 40
10.471235
100
AcDbArc
 50
0.0
 51
82.2
  0
LINE
  5
1D2
100
AcDbEntity
  8
0
  6
CONTINUOUS
 62
     7
100
AcDbLine
 10
455.478209
 20
363.405521
 30
0.0
 11
454.306974
 21
363.405521
 31
0.0
  0
ARC
  5
1D3
100
AcDbEntity
  8
0
  6
CONTINUOUS
 62
     7
100
AcDbCircle
 10
445.006974
 20
363.405521
 30
0.0
 40
10.471235
100
AcDbArc
 50
277.8
 51
0.0
  0
LINE
  5
1D4
100
AcDbEntity
  8
0
  6
CONTINUOUS
 62
     7
100
AcDbLine
 10
447.93923
 20
365.151116
 30
0.0
 11
449.106974
 21
365.151116
 31
0.0
  0
LINE
  5
1D5
100
AcDbEntity
  8
0
  6
CONTINUOUS
 62
     7
100
AcDbLine
 10
447.93923
 20
363.405521
 30
0.0
 11
447.93923
 21
365.151116
 31
0.0
  0
LWPOLYLINE
  5
1D6
100
AcDbEntity
  8
0
  6
CONTINUOUS
 62
     7
100
AcDbPolyline
 90
        3
 70
   128
 43
0.0
 10
448.440582
 20
368.383022
 10
448.948883
 20
368.745507
 10
450.023138
 20
369.450437
  0
ELLIPSE
  5
1D7
100
AcDbEntity
  8
0
  6
CONTINUOUS
 62
     7
100
AcDbEllipse
 10
458.606974
 20
364.982181
 30
0.0
 11
0.0000000002218599
 21
9.678325212842253
 31
0.0
210
0.0
220
0.0
230
1.0
 40
0.999848
 41
0.7053488650458498
 42
1.090912245445325
  0
ARC
  5
1D8
100
AcDbEntity
  8
0
  6
CONTINUOUS
 62
     7
100
AcDbCircle
 10
458.606974
 20
365.151116
 30
0.0
 40
10.667744
100
AcDbArc
 50
162.364491
 51
180.0
  0
LINE
  5
1D9
100
AcDbEntity
  8
0
  6
CONTINUOUS
 62
     7
100
AcDbLine
 10
447.93923
 20
182.951116
 30
0.0
 11
449.106974
 21
182.951116
 31
0.0
  0
LINE
  5
1DA
100
AcDbEntity
  8
0
  6
CONTINUOUS
 62
     7
100
AcDbLine
 10
447.93923
 20
184.696712
 30
0.0
 11
447.93923
 21
182.951116
 31
0.0
  0
ELLIPSE
  5
1DB
100
AcDbEntity
  8
0
  6
CONTINUOUS
 62
     7
100
AcDbEllipse
 10
458.606974
 20
183.120052
 30
0.0
 11
-0.000000000221803
 21
9.678325212842224
 31
0.0
210
0.0
220
0.0
230
1.0
 40
0.999848
 41
2.050680408144471
 42
2.436243788543951
  0
LWPOLYLINE
  5
1DC
100
AcDbEntity
  8
0
  6
CONTINUOUS
 62
     7
100
AcDbPolyline
 90
        3
 70
   128
 43
0.0
 10
448.440582
 20
179.719211
 10
448.948883
 20
179.356726
 10
450.023138
 20
178.651796
  0
ARC
  5
1DD
100
AcDbEntity
  8
0
  6
CONTINUOUS
 62
     7
100
AcDbCircle
 10
458.606974
 20
182.951116
 30
0.0
 40
10.667744
100
AcDbArc
 50
180.0
 51
197.635509
  0
LINE
  5
1DE
100
AcDbEntity
  8
0
  6
CONTINUOUS
 62
     7
100
AcDbLine
 10
455.478209
 20
365.151116
 30
0.0
 11
454.306974
 21
365.151116
 31
0.0
  0
LINE
  5
1DF
100
AcDbEntity
  8
0
  6
CONTINUOUS
 62
     7
100
AcDbLine
 10
455.478209
 20
363.405521
 30
0.0
 11
455.478209
 21
365.151116
 31
0.0
  0
LINE
  5
1E0
100
AcDbEntity
  8
0
  6
CONTINUOUS
 62
     7
100
AcDbLine
 10
458.606974
 20
179.822351
 30
0.0
 11
458.606974
 21
178.651116
 31
0.0
  0
LINE
  5
1E1
100
AcDbEntity
  8
0
  6
CONTINUOUS
 62
     7
100
AcDbLine
 10
455.478209
 20
182.951116
 30
0.0
 11
454.306974
 21
182.951116
 31
0.0
  0
ARC
  5
1E2
100
AcDbEntity
  8
0
  6
CONTINUOUS
 62
     7
100
AcDbCircle
 10
458.606974
 20
182.951116
 30
0.0
 40
3.128765
100
AcDbArc
 50
180.0
 51
270.0
  0
LINE
  5
1E3
100
AcDbEntity
  8
0
  6
CONTINUOUS
 62
     7
100
AcDbLine
 10
458.606974
 20
368.279882
 30
0.0
 11
458.606974
 21
369.451116
 31
0.0
  0
ARC
  5
1E4
100
AcDbEntity
  8
0
  6
CONTINUOUS
 62
     7
100
AcDbCircle
 10
458.606974
 20
365.151116
 30
0.0
 40
3.128765
100
AcDbArc
 50
90.0
 51
180.0
  0
LINE
  5
1E5
100
AcDbEntity
  8
0
  6
CONTINUOUS
 62
     7
100
AcDbLine
 10
455.478209
 20
184.696712
 30
0.0
 11
455.478209
 21
182.951116
 31
0.0
  0
LINE
  5
1E6
100
AcDbEntity
  8
0
  6
CONTINUOUS
 62
     7
100
AcDbLine
 10
542.206974
 20
368.279882
 30
0.0
 11
542.206974
 21
369.451116
 31
0.0
  0
LINE
  5
1E7
100
AcDbEntity
  8
0
  6
CONTINUOUS
 62
     7
100
AcDbLine
 10
542.206974
 20
368.279882
 30
0.0
 11
458.606974
 21
368.279882
 31
0.0
  0
LINE
  5
1E8
100
AcDbEntity
  8
0
  6
CONTINUOUS
 62
     7
100
AcDbLine
 10
542.206974
 20
179.822351
 30
0.0
 11
458.606974
 21
179.822351
 31
0.0
  0
LINE
  5
1E9
100
AcDbEntity
  8
0
  6
CONTINUOUS
 62
     7
100
AcDbLine
 10
542.206974
 20
179.822351
 30
0.0
 11
542.206974
 21
178.651116
 31
0.0
  0
LINE
  5
1EA
100
AcDbEntity
  8
0
  6
CONTINUOUS
 62
     7
100
AcDbLine
 10
545.335739
 20
365.151116
 30
0.0
 11
546.506974
 21
365.151116
 31
0.0
  0
ARC
  5
1EB
100
AcDbEntity
  8
0
  6
CONTINUOUS
 62
     7
100
AcDbCircle
 10
542.206974
 20
365.151116
 30
0.0
 40
3.128765
100
AcDbArc
 50
0.0
 51
90.0
  0
ARC
  5
1EC
100
AcDbEntity
  8
0
  6
CONTINUOUS
 62
     7
100
AcDbCircle
 10
542.206974
 20
182.951116
 30
0.0
 40
3.128765
100
AcDbArc
 50
270.0
 51
0.0
  0
LINE
  5
1ED
100
AcDbEntity
  8
0
  6
CONTINUOUS
 62
     7
100
AcDbLine
 10
545.335739
 20
182.951116
 30
0.0
 11
546.506974
 21
182.951116
 31
0.0
  0
LINE
  5
1EE
100
AcDbEntity
  8
0
  6
CONTINUOUS
 62
     7
100
AcDbLine
 10
545.335739
 20
184.696712
 30
0.0
 11
546.506974
 21
184.696712
 31
0.0
  0
ARC
  5
1EF
100
AcDbEntity
  8
0
  6
CONTINUOUS
 62
     7
100
AcDbCircle
 10
555.806974
 20
184.696712
 30
0.0
 40
10.471235
100
AcDbArc
 50
97.8
 51
180.0
  0
LINE
  5
1F0
100
AcDbEntity
  8
0
  6
CONTINUOUS
 62
     7
100
AcDbLine
 10
554.385864
 20
195.071066
 30
0.0
 11
554.544819
 21
193.910667
 31
0.0
  0
LINE
  5
1F1
100
AcDbEntity
  8
0
  6
CONTINUOUS
 62
     7
100
AcDbLine
 10
545.335739
 20
184.696712
 30
0.0
 11
545.335739
 21
182.951116
 31
0.0
  0
LINE
  5
1F2
100
AcDbEntity
  8
0
  6
CONTINUOUS
 62
     7
100
AcDbLine
 10
545.335739
 20
363.405521
 30
0.0
 11
546.506974
 21
363.405521
 31
0.0
  0
LINE
  5
1F3
100
AcDbEntity
  8
0
  6
CONTINUOUS
 62
     7
100
AcDbLine
 10
554.385864
 20
353.031167
 30
0.0
 11
554.544819
 21
354.191566
 31
0.0
  0
ARC
  5
1F4
100
AcDbEntity
  8
0
  6
CONTINUOUS
 62
     7
100
AcDbCircle
 10
555.806974
 20
363.405521
 30
0.0
 40
10.471235
100
AcDbArc
 50
180.0
 51
262.2
  0
LINE
  5
1F5
100
AcDbEntity
  8
0
  6
CONTINUOUS
 62
     7
100
AcDbLine
 10
545.335739
 20
363.405521
 30
0.0
 11
545.335739
 21
365.151116
 31
0.0
  0
LWPOLYLINE
  5
1F6
100
AcDbEntity
  8
0
  6
CONTINUOUS
 62
     7
100
AcDbPolyline
 90
        3
 70
   128
 43
0.0
 10
552.373365
 20
179.719211
 10
551.865064
 20
179.356726
 10
550.79081
 20
178.651796
  0
ELLIPSE
  5
1F7
100
AcDbEntity
  8
0
  6
CONTINUOUS
 62
     7
100
AcDbEllipse
 10
542.206974
 20
183.120052
 30
0.0
 11
-0.000000000221803
 21
9.678325212842224
 31
0.0
210
0.0
220
0.0
230
1.0
 40
0.999848
 41
3.846941518589821
 42
4.232504898989305
  0
LINE
  5
1F8
100
AcDbEntity
  8
0
  6
CONTINUOUS
 62
     7
100
AcDbLine
 10
552.874717
 20
182.951116
 30
0.0
 11
551.706974
 21
182.951116
 31
0.0
  0
ARC
  5
1F9
100
AcDbEntity
  8
0
  6
CONTINUOUS
 62
     7
100
AcDbCircle
 10
542.206974
 20
182.951116
 30
0.0
 40
10.667744
100
AcDbArc
 50
342.364491
 51
0.0
  0
ELLIPSE
  5
1FA
100
AcDbEntity
  8
0
  6
CONTINUOUS
 62
     7
100
AcDbEllipse
 10
542.206974
 20
364.982181
 30
0.0
 11
0.000000000221803
 21
9.678325212842253
 31
0.0
210
0.0
220
0.0
230
1.0
 40
0.999848
 41
5.192273061780102
 42
5.577836442179584
  0
LWPOLYLINE
  5
1FB
100
AcDbEntity
  8
0
  6
CONTINUOUS
 62
     7
100
AcDbPolyline
 90
        3
 70
   128
 43
0.0
 10
552.373365
 20
368.383022
 10
551.865064
 20
368.745507
 10
550.79081
 20
369.450437
  0
ARC
  5
1FC
100
AcDbEntity
  8
0
  6
CONTINUOUS
 62
     7
100
AcDbCircle
 10
542.206974
 20
365.151116
 30
0.0
 40
10.667744
100
AcDbArc
 50
0.0
 51
17.635509
  0
LINE
  5
1FD
100
AcDbEntity
  8
0
  6
CONTINUOUS
 62
     7
100
AcDbLine
 10
552.874717
 20
365.151116
 30
0.0
 11
551.706974
 21
365.151116
 31
0.0
  0
LINE
  5
1FE
100
AcDbEntity
  8
0
  6
CONTINUOUS
 62
     7
100
AcDbLine
 10
552.874717
 20
184.696712
 30
0.0
 11
551.706974
 21
184.696712
 31
0.0
  0
LINE
  5
1FF
100
AcDbEntity
  8
0
  6
CONTINUOUS
 62
     7
100
AcDbLine
 10
552.874717
 20
184.696712
 30
0.0
 11
552.874717
 21
182.951116
 31
0.0
  0
LINE
  5
200
100
AcDbEntity
  8
0
  6
CONTINUOUS
 62
     7
100
AcDbLine
 10
552.874717
 20
363.405521
 30
0.0
 11
551.706974
 21
363.405521
 31
0.0
  0
ARC
  5
201
100
AcDbEntity
  8
0
  6
CONTINUOUS
 62
     7
100
AcDbCircle
 10
555.806974
 20
363.405521
 30
0.0
 40
2.932256
100
AcDbArc
 50
180.0
 51
262.2
  0
LINE
  5
202
100
AcDbEntity
  8
0
  6
CONTINUOUS
 62
     7
100
AcDbLine
 10
555.409021
 20
360.500394
 30
0.0
 11
555.25054
 21
359.343454
 31
0.0
  0
LINE
  5
203
100
AcDbEntity
  8
0
  6
CONTINUOUS
 62
     7
100
AcDbLine
 10
555.409021
 20
187.601839
 30
0.0
 11
555.25054
 21
188.758778
 31
0.0
  0
ARC
  5
204
100
AcDbEntity
  8
0
  6
CONTINUOUS
 62
     7
100
AcDbCircle
 10
555.806974
 20
184.696712
 30
0.0
 40
2.932256
100
AcDbArc
 50
97.8
 51
180.0
  0
LINE
  5
205
100
AcDbEntity
  8
0
  6
CONTINUOUS
 62
     7
100
AcDbLine
 10
552.874717
 20
363.405521
 30
0.0
 11
552.874717
 21
365.151116
 31
0.0
  0
LINE
  5
206
100
AcDbEntity
  8
0
  6
CONTINUOUS
 62
     7
100
AcDbLine
 10
572.931596
 20
350.490718
 30
0.0
 11
573.090551
 21
351.651116
 31
0.0
  0
LINE
  5
207
100
AcDbEntity
  8
0
  6
CONTINUOUS
 62
     7
100
AcDbLine
 10
572.931596
 20
350.490718
 30
0.0
 11
554.385864
 21
353.031167
 31
0.0
  0
LINE
  5
208
100
AcDbEntity
  8
0
  6
CONTINUOUS
 62
     7
100
AcDbLine
 10
572.931596
 20
197.611515
 30
0.0
 11
554.385864
 21
195.071066
 31
0.0
  0
LINE
  5
209
100
AcDbEntity
  8
0
  6
CONTINUOUS
 62
     7
100
AcDbLine
 10
572.931596
 20
197.611515
 30
0.0
 11
573.090551
 21
196.451116
 31
0.0
  0
LINE
  5
20A
100
AcDbEntity
  8
0
  6
CONTINUOUS
 62
     7
100
AcDbLine
 10
565.413781
 20
358.206728
 30
0.0
 11
562.506974
 21
358.604909
 31
0.0
  0
LINE
  5
20B
100
AcDbEntity
  8
0
  6
CONTINUOUS
 62
     7
100
AcDbLine
 10
561.134831
 20
359.716059
 30
0.0
 11
555.409021
 21
360.500394
 31
0.0
  0
LINE
  5
20C
100
AcDbEntity
  8
0
  6
CONTINUOUS
 62
     7
100
AcDbLine
 10
561.134831
 20
359.716059
 30
0.0
 11
562.506974
 21
358.604909
 31
0.0
  0
LINE
  5
20D
100
AcDbEntity
  8
0
  6
CONTINUOUS
 62
     7
100
AcDbLine
 10
565.413781
 20
189.895505
 30
0.0
 11
562.506974
 21
189.497323
 31
0.0
  0
LINE
  5
20E
100
AcDbEntity
  8
0
  6
CONTINUOUS
 62
     7
100
AcDbLine
 10
562.506974
 20
189.497323
 30
0.0
 11
561.134831
 21
188.386174
 31
0.0
  0
LINE
  5
20F
100
AcDbEntity
  8
0
  6
CONTINUOUS
 62
     7
100
AcDbLine
 10
561.134831
 20
188.386174
 30
0.0
 11
555.409021
 21
187.601839
 31
0.0
  0
CIRCLE
  5
210
100
AcDbEntity
  8
0
  6
CONTINUOUS
 62
     7
100
AcDbCircle
 10
569.906974
 20
185.551116
 30
0.0
 40
4.467385
  0
CIRCLE
  5
211
100
AcDbEntity
  8
0
  6
CONTINUOUS
 62
     7
100
AcDbCircle
 10
569.906974
 20
362.551116
 30
0.0
 40
4.467385
  0
LINE
  5
212
100
AcDbEntity
  8
0
  6
CONTINUOUS
 62
     7
100
AcDbLine
 10
573.830621
 20
191.048471
 30
0.0
 11
573.796272
 21
191.299228
 31
0.0
  0
LINE
  5
213
100
AcDbEntity
  8
0
  6
CONTINUOUS
 62
     7
100
AcDbLine
 10
573.830621
 20
191.048471
 30
0.0
 11
573.066354
 21
190.943779
 31
0.0
  0
LINE
  5
214
100
AcDbEntity
  8
0
  6
CONTINUOUS
 62
     7
100
AcDbLine
 10
573.830621
 20
357.053762
 30
0.0
 11
573.066354
 21
357.158454
 31
0.0
  0
LINE
  5
215
100
AcDbEntity
  8
0
  6
CONTINUOUS
 62
     7
100
AcDbLine
 10
573.830621
 20
357.053762
 30
0.0
 11
573.796272
 21
356.803005
 31
0.0
  0
LINE
  5
216
100
AcDbEntity
  8
0
  6
CONTINUOUS
 62
     7
100
AcDbLine
 10
575.635739
 20
347.390901
 30
0.0
 11
576.806974
 21
347.390901
 31
0.0
  0
ARC
  5
217
100
AcDbEntity
  8
0
  6
CONTINUOUS
 62
     7
100
AcDbCircle
 10
572.506974
 20
347.390901
 30
0.0
 40
3.128765
100
AcDbArc
 50
0.0
 51
82.2
  0
ARC
  5
218
100
AcDbEntity
  8
0
  6
CONTINUOUS
 62
     7
100
AcDbCircle
 10
572.506974
 20
200.711332
 30
0.0
 40
3.128765
100
AcDbArc
 50
277.8
 51
0.0
  0
LINE
  5
219
100
AcDbEntity
  8
0
  6
CONTINUOUS
 62
     7
100
AcDbLine
 10
575.635739
 20
200.711332
 30
0.0
 11
576.806974
 21
200.711332
 31
0.0
  0
ELLIPSE
  5
21A
100
AcDbEntity
  8
0
  6
CONTINUOUS
 62
     7
100
AcDbEllipse
 10
572.338038
 20
200.711332
 30
0.0
 11
9.67832521284231
 21
0.0
 31
0.0
210
0.0
220
0.0
230
1.0
 40
0.999848
 41
5.46545064264653
 42
5.577836442156669
  0
ARC
  5
21B
100
AcDbEntity
  8
0
  6
CONTINUOUS
 62
     7
100
AcDbCircle
 10
572.094537
 20
200.999068
 30
0.0
 40
10.054014
100
AcDbArc
 50
297.886935
 51
313.042523
  0
LINE
  5
21C
100
AcDbEntity
  8
0
  6
CONTINUOUS
 62
     7
100
AcDbLine
 10
576.797084
 20
192.112604
 30
0.0
 11
576.653525
 21
191.883589
 31
0.0
  0
ARC
  5
21D
100
AcDbEntity
  8
0
  6
CONTINUOUS
 62
     7
100
AcDbCircle
 10
572.506974
 20
200.711332
 30
0.0
 40
9.753098
100
AcDbArc
 50
277.8
 51
295.160297
  0
ARC
  5
21E
100
AcDbEntity
  8
0
  6
CONTINUOUS
 62
     7
100
AcDbCircle
 10
572.094537
 20
347.103165
 30
0.0
 40
10.054014
100
AcDbArc
 50
46.957477
 51
62.113065
  0
ELLIPSE
  5
21F
100
AcDbEntity
  8
0
  6
CONTINUOUS
 62
     7
100
AcDbEllipse
 10
572.338038
 20
347.390901
 30
0.0
 11
9.67832521284231
 21
0.0
 31
0.0
210
0.0
220
0.0
230
1.0
 40
0.999848
 41
0.7053488650229302
 42
0.8177346645330658
  0
ARC
  5
220
100
AcDbEntity
  8
0
  6
CONTINUOUS
 62
     7
100
AcDbCircle
 10
572.506974
 20
347.390901
 30
0.0
 40
9.753098
100
AcDbArc
 50
64.839703
 51
82.2
  0
LINE
  5
221
100
AcDbEntity
  8
0
  6
CONTINUOUS
 62
     7
100
AcDbLine
 10
576.797084
 20
355.989629
 30
0.0
 11
576.653525
 21
356.218643
 31
0.0
  0
LINE
  5
222
100
AcDbEntity
  8
0
  6
CONTINUOUS
 62
     7
100
AcDbLine
 10
575.635739
 20
200.711332
 30
0.0
 11
575.635739
 21
347.390901
 31
0.0
  0
LINE
  5
223
100
AcDbEntity
  8
0
  6
CONTINUOUS
 62
     7
100
AcDbLine
 10
424.052202
 20
356.958577
 30
0.0
 11
421.106972
 21
359.903806
 31
0.0
  0
ELLIPSE
  5
224
100
AcDbEntity
  8
0
  6
CONTINUOUS
 62
     7
100
AcDbEllipse
 10
424.051437
 20
354.451116
 30
0.0
 11
0.0
 21
2.507845873509722
 31
0.0
210
0.0
220
0.0
230
1.0
 40
0.017458
 41
6.265729355764093
 42
7.193520944216231
  0
LINE
  5
225
100
AcDbEntity
  8
0
  6
CONTINUOUS
 62
     7
100
AcDbLine
 10
421.857134
 20
354.451114
 30
0.0
 11
421.106972
 21
354.451114
 31
0.0
  0
ELLIPSE
  5
226
100
AcDbEntity
  8
0
  6
CONTINUOUS
 62
     7
100
AcDbEllipse
 10
424.051437
 20
193.651116
 30
0.0
 11
0.0
 21
2.507845873509694
 31
0.0
210
0.0
220
0.0
230
1.0
 40
0.017458
 41
2.231257016553423
 42
3.159048605006891
  0
LINE
  5
227
100
AcDbEntity
  8
0
  6
CONTINUOUS
 62
     7
100
AcDbLine
 10
424.052202
 20
191.143656
 30
0.0
 11
421.106972
 21
188.198426
 31
0.0
  0
LINE
  5
228
100
AcDbEntity
  8
0
  6
CONTINUOUS
 62
     7
100
AcDbLine
 10
421.857134
 20
193.651119
 30
0.0
 11
421.106972
 21
193.651119
 31
0.0
  0
ELLIPSE
  5
229
100
AcDbEntity
  8
0
  6
CONTINUOUS
 62
     7
100
AcDbEllipse
 10
440.706974
 20
369.406653
 30
0.0
 11
2.507845873509779
 21
0.0
 31
0.0
210
0.0
220
0.0
230
1.0
 40
0.017458
 41
1.570796326794919
 42
3.159048605006892
  0
LINE
  5
22A
100
AcDbEntity
  8
0
  6
CONTINUOUS
 62
     7
100
AcDbLine
 10
438.19951
 20
369.40589
 30
0.0
 11
435.254284
 21
372.351119
 31
0.0
  0
LINE
  5
22B
100
AcDbEntity
  8
0
  6
CONTINUOUS
 62
     7
100
AcDbLine
 10
440.706973
 20
369.450437
 30
0.0
 11
440.706973
 21
372.351119
 31
0.0
  0
LINE
  5
22C
100
AcDbEntity
  8
0
  6
CONTINUOUS
 62
     7
100
AcDbLine
 10
438.19951
 20
178.696343
 30
0.0
 11
435.254284
 21
175.751114
 31
0.0
  0
ELLIPSE
  5
22D
100
AcDbEntity
  8
0
  6
CONTINUOUS
 62
     7
100
AcDbEllipse
 10
440.706974
 20
178.69558
 30
0.0
 11
2.507845873509779
 21
0.0
 31
0.0
210
0.0
220
0.0
230
1.0
 40
0.017458
 41
3.12413670217414
 42
4.712388980384689
  0
LINE
  5
22E
100
AcDbEntity
  8
0
  6
CONTINUOUS
 62
     7
100
AcDbLine
 10
440.706973
 20
178.651796
 30
0.0
 11
440.706973
 21
175.751114
 31
0.0
  0
LINE
  5
22F
100
AcDbEntity
  8
0
  6
CONTINUOUS
 62
     7
100
AcDbLine
 10
450.023138
 20
178.651796
 30
0.0
 11
440.706973
 21
178.651796
 31
0.0
  0
LINE
  5
230
100
AcDbEntity
  8
0
  6
CONTINUOUS
 62
     7
100
AcDbLine
 10
450.023138
 20
369.450437
 30
0.0
 11
440.706973
 21
369.450437
 31
0.0
  0
LINE
  5
231
100
AcDbEntity
  8
0
  6
CONTINUOUS
 62
     7
100
AcDbLine
 10
560.106975
 20
178.651796
 30
0.0
 11
550.79081
 21
178.651796
 31
0.0
  0
LINE
  5
232
100
AcDbEntity
  8
0
  6
CONTINUOUS
 62
     7
100
AcDbLine
 10
560.106975
 20
178.651796
 30
0.0
 11
560.106975
 21
175.751114
 31
0.0
  0
LINE
  5
233
100
AcDbEntity
  8
0
  6
CONTINUOUS
 62
     7
100
AcDbLine
 10
560.106975
 20
369.450437
 30
0.0
 11
560.106975
 21
372.351119
 31
0.0
  0
LINE
  5
234
100
AcDbEntity
  8
0
  6
CONTINUOUS
 62
     7
100
AcDbLine
 10
560.106975
 20
369.450437
 30
0.0
 11
550.79081
 21
369.450437
 31
0.0
  0
ELLIPSE
  5
235
100
AcDbEntity
  8
0
  6
CONTINUOUS
 62
     7
100
AcDbEllipse
 10
560.106974
 20
178.69558
 30
0.0
 11
2.507845873509836
 21
0.0
 31
0.0
210
0.0
220
0.0
230
1.0
 40
0.017458
 41
4.712388980384689
 42
6.300641258596058
  0
LINE
  5
236
100
AcDbEntity
  8
0
  6
CONTINUOUS
 62
     7
100
AcDbLine
 10
562.614438
 20
178.696343
 30
0.0
 11
565.559663
 21
175.751114
 31
0.0
  0
ELLIPSE
  5
237
100
AcDbEntity
  8
0
  6
CONTINUOUS
 62
     7
100
AcDbEllipse
 10
560.106974
 20
369.406653
 30
0.0
 11
2.507845873509836
 21
0.0
 31
0.0
210
0.0
220
0.0
230
1.0
 40
0.017458
 41
6.265729355764092
 42
7.853981633974482
  0
LINE
  5
238
100
AcDbEntity
  8
0
  6
CONTINUOUS
 62
     7
100
AcDbLine
 10
562.614438
 20
369.40589
 30
0.0
 11
565.559663
 21
372.351119
 31
0.0
  0
LINE
  5
239
100
AcDbEntity
  8
0
  6
CONTINUOUS
 62
     7
100
AcDbLine
 10
576.761745
 20
356.958577
 30
0.0
 11
579.706975
 21
359.903806
 31
0.0
  0
LINE
  5
23A
100
AcDbEntity
  8
0
  6
CONTINUOUS
 62
     7
100
AcDbLine
 10
578.956813
 20
354.451114
 30
0.0
 11
579.706975
 21
354.451114
 31
0.0
  0
ELLIPSE
  5
23B
100
AcDbEntity
  8
0
  6
CONTINUOUS
 62
     7
100
AcDbEllipse
 10
576.76251
 20
354.451116
 30
0.0
 11
0.0
 21
2.507845873509722
 31
0.0
210
0.0
220
0.0
230
1.0
 40
0.017458
 41
5.372849670143996
 42
6.300641258595361
  0
LINE
  5
23C
100
AcDbEntity
  8
0
  6
CONTINUOUS
 62
     7
100
AcDbLine
 10
578.956813
 20
193.651119
 30
0.0
 11
579.706975
 21
193.651119
 31
0.0
  0
LINE
  5
23D
100
AcDbEntity
  8
0
  6
CONTINUOUS
 62
     7
100
AcDbLine
 10
576.761745
 20
191.143656
 30
0.0
 11
579.706975
 21
188.198426
 31
0.0
  0
ELLIPSE
  5
23E
100
AcDbEntity
  8
0
  6
CONTINUOUS
 62
     7
100
AcDbEllipse
 10
576.76251
 20
193.651116
 30
0.0
 11
0.0
 21
2.507845873509694
 31
0.0
210
0.0
220
0.0
230
1.0
 40
0.017458
 41
3.124136702174836
 42
4.051928290626001
  0
LINE
  5
23F
100
AcDbEntity
  8
0
  6
CONTINUOUS
 62
     7
100
AcDbLine
 10
438.19951
 20
178.696343
 30
0.0
 11
438.309245
 21
178.806083
 31
0.0
  0
LINE
  5
240
100
AcDbEntity
  8
0
  6
CONTINUOUS
 62
     7
100
AcDbLine
 10
438.309245
 20
178.806083
 30
0.0
 11
439.679117
 21
179.719211
 31
0.0
  0
LINE
  5
241
100
AcDbEntity
  8
0
  6
CONTINUOUS
 62
     7
100
AcDbLine
 10
439.679117
 20
179.719211
 30
0.0
 11
448.440581
 21
179.719211
 31
0.0
  0
LINE
  5
242
100
AcDbEntity
  8
0
  6
CONTINUOUS
 62
     7
100
AcDbLine
 10
438.309245
 20
369.29615
 30
0.0
 11
439.679117
 21
368.383022
 31
0.0
  0
LINE
  5
243
100
AcDbEntity
  8
0
  6
CONTINUOUS
 62
     7
100
AcDbLine
 10
438.19951
 20
369.40589
 30
0.0
 11
438.309245
 21
369.29615
 31
0.0
  0
LINE
  5
244
100
AcDbEntity
  8
0
  6
CONTINUOUS
 62
     7
100
AcDbLine
 10
448.440581
 20
368.383022
 30
0.0
 11
439.679117
 21
368.383022
 31
0.0
  0
LINE
  5
245
100
AcDbEntity
  8
0
  6
CONTINUOUS
 62
     7
100
AcDbLine
 10
562.614438
 20
369.40589
 30
0.0
 11
562.504702
 21
369.29615
 31
0.0
  0
LINE
  5
246
100
AcDbEntity
  8
0
  6
CONTINUOUS
 62
     7
100
AcDbLine
 10
562.504702
 20
369.29615
 30
0.0
 11
561.134831
 21
368.383022
 31
0.0
  0
LINE
  5
247
100
AcDbEntity
  8
0
  6
CONTINUOUS
 62
     7
100
AcDbLine
 10
561.134831
 20
368.383022
 30
0.0
 11
552.373366
 21
368.383022
 31
0.0
  0
LINE
  5
248
100
AcDbEntity
  8
0
  6
CONTINUOUS
 62
     7
100
AcDbLine
 10
562.504702
 20
178.806083
 30
0.0
 11
561.134831
 21
179.719211
 31
0.0
  0
LINE
  5
249
100
AcDbEntity
  8
0
  6
CONTINUOUS
 62
     7
100
AcDbLine
 10
562.614438
 20
178.696343
 30
0.0
 11
562.504702
 21
178.806083
 31
0.0
  0
LINE
  5
24A
100
AcDbEntity
  8
0
  6
CONTINUOUS
 62
     7
100
AcDbLine
 10
552.373366
 20
179.719211
 30
0.0
 11
561.134831
 21
179.719211
 31
0.0
  0
LINE
  5
24B
100
AcDbEntity
  8
0
  6
CONTINUOUS
 62
     7
100
AcDbLine
 10
424.052202
 20
356.958577
 30
0.0
 11
424.160421
 21
356.850357
 31
0.0
  0
LINE
  5
24C
100
AcDbEntity
  8
0
  6
CONTINUOUS
 62
     7
100
AcDbLine
 10
424.160421
 20
356.850357
 30
0.0
 11
424.160422
 21
356.218643
 31
0.0
  0
LINE
  5
24D
100
AcDbEntity
  8
0
  6
CONTINUOUS
 62
     7
100
AcDbLine
 10
424.052202
 20
191.143656
 30
0.0
 11
424.160421
 21
191.251875
 31
0.0
  0
LINE
  5
24E
100
AcDbEntity
  8
0
  6
CONTINUOUS
 62
     7
100
AcDbLine
 10
424.160422
 20
191.883589
 30
0.0
 11
424.160421
 21
191.251875
 31
0.0
  0
LINE
  5
24F
100
AcDbEntity
  8
0
  6
CONTINUOUS
 62
     7
100
AcDbLine
 10
576.761745
 20
356.958577
 30
0.0
 11
576.653526
 21
356.850357
 31
0.0
  0
LINE
  5
250
100
AcDbEntity
  8
0
  6
CONTINUOUS
 62
     7
100
AcDbLine
 10
576.653525
 20
356.218643
 30
0.0
 11
576.653526
 21
356.850357
 31
0.0
  0
LINE
  5
251
100
AcDbEntity
  8
0
  6
CONTINUOUS
 62
     7
100
AcDbLine
 10
576.761745
 20
191.143656
 30
0.0
 11
576.653526
 21
191.251875
 31
0.0
  0
LINE
  5
252
100
AcDbEntity
  8
0
  6
CONTINUOUS
 62
     7
100
AcDbLine
 10
576.653526
 20
191.251875
 30
0.0
 11
576.653525
 21
191.883589
 31
0.0
  0
LINE
  5
253
100
AcDbEntity
  8
0
  6
CONTINUOUS
 62
     7
100
AcDbLine
 10
438.306973
 20
358.604909
 30
0.0
 11
438.306973
 21
369.298422
 31
0.0
  0
LINE
  5
254
100
AcDbEntity
  8
0
  6
CONTINUOUS
 62
     7
100
AcDbLine
 10
434.931974
 20
369.522621
 30
0.0
 11
434.031971
 21
367.963777
 31
0.0
  0
ARC
  5
255
100
AcDbEntity
  8
0
  6
CONTINUOUS
 62
     7
100
AcDbCircle
 10
430.906974
 20
362.551116
 30
0.0
 40
8.05
100
AcDbArc
 50
60.0
 51
210.0
  0
LINE
  5
256
100
AcDbEntity
  8
0
  6
CONTINUOUS
 62
     7
100
AcDbLine
 10
425.494314
 20
359.42612
 30
0.0
 11
423.935469
 21
358.526116
 31
0.0
  0
LINE
  5
257
100
AcDbEntity
  8
0
  6
CONTINUOUS
 62
     7
100
AcDbLine
 10
438.306973
 20
189.497323
 30
0.0
 11
438.306973
 21
178.80381
 31
0.0
  0
LINE
  5
258
100
AcDbEntity
  8
0
  6
CONTINUOUS
 62
     7
100
AcDbLine
 10
425.494314
 20
188.676113
 30
0.0
 11
423.935469
 21
189.576116
 31
0.0
  0
ARC
  5
259
100
AcDbEntity
  8
0
  6
CONTINUOUS
 62
     7
100
AcDbCircle
 10
430.906974
 20
185.551116
 30
0.0
 40
8.05
100
AcDbArc
 50
150.0
 51
300.0
  0
LINE
  5
25A
100
AcDbEntity
  8
0
  6
CONTINUOUS
 62
     7
100
AcDbLine
 10
434.931974
 20
178.579612
 30
0.0
 11
434.031971
 21
180.138455
 31
0.0
  0
LINE
  5
25B
100
AcDbEntity
  8
0
  6
CONTINUOUS
 62
     7
100
AcDbLine
 10
439.679117
 20
368.383022
 30
0.0
 11
439.679117
 21
359.716059
 31
0.0
  0
LINE
  5
25C
100
AcDbEntity
  8
0
  6
CONTINUOUS
 62
     7
100
AcDbLine
 10
439.679117
 20
179.719211
 30
0.0
 11
439.679117
 21
188.386174
 31
0.0
  0
LINE
  5
25D
100
AcDbEntity
  8
0
  6
CONTINUOUS
 62
     7
100
AcDbLine
 10
562.506974
 20
189.497323
 30
0.0
 11
562.506974
 21
178.80381
 31
0.0
  0
LINE
  5
25E
100
AcDbEntity
  8
0
  6
CONTINUOUS
 62
     7
100
AcDbLine
 10
561.134831
 20
179.719211
 30
0.0
 11
561.134831
 21
188.386174
 31
0.0
  0
LINE
  5
25F
100
AcDbEntity
  8
0
  6
CONTINUOUS
 62
     7
100
AcDbLine
 10
562.506974
 20
358.604909
 30
0.0
 11
562.506974
 21
369.298422
 31
0.0
  0
LINE
  5
260
100
AcDbEntity
  8
0
  6
CONTINUOUS
 62
     7
100
AcDbLine
 10
561.134831
 20
368.383022
 30
0.0
 11
561.134831
 21
359.716059
 31
0.0
  0
LINE
  5
261
100
AcDbEntity
  8
0
  6
CONTINUOUS
 62
     7
100
AcDbLine
 10
575.319633
 20
359.42612
 30
0.0
 11
576.878478
 21
358.526116
 31
0.0
  0
ARC
  5
262
100
AcDbEntity
  8
0
  6
CONTINUOUS
 62
     7
100
AcDbCircle
 10
569.906974
 20
362.551116
 30
0.0
 40
8.05
100
AcDbArc
 50
330.0
 51
120.0
  0
LINE
  5
263
100
AcDbEntity
  8
0
  6
CONTINUOUS
 62
     7
100
AcDbLine
 10
565.881974
 20
369.522621
 30
0.0
 11
566.781976
 21
367.963777
 31
0.0
  0
LINE
  5
264
100
AcDbEntity
  8
0
  6
CONTINUOUS
 62
     7
100
AcDbLine
 10
565.881974
 20
178.579612
 30
0.0
 11
566.781976
 21
180.138455
 31
0.0
  0
ARC
  5
265
100
AcDbEntity
  8
0
  6
CONTINUOUS
 62
     7
100
AcDbCircle
 10
569.906974
 20
185.551116
 30
0.0
 40
8.05
100
AcDbArc
 50
240.0
 51
30.0
  0
LINE
  5
266
100
AcDbEntity
  8
0
  6
CONTINUOUS
 62
     7
100
AcDbLine
 10
575.319633
 20
188.676113
 30
0.0
 11
576.878478
 21
189.576116
 31
0.0
  0
LINE
  5
267
100
AcDbEntity
  8
0
  6
CONTINUOUS
 62
     7
100
AcDbLine
 10
436.156974
 20
267.551116
 30
0.0
 11
436.156974
 21
270.76657
 31
0.0
  0
LINE
  5
268
100
AcDbEntity
  8
0
  6
CONTINUOUS
 62
     7
100
AcDbLine
 10
434.656971
 20
267.551116
 30
0.0
 11
436.156974
 21
267.551116
 31
0.0
  0
LINE
  5
269
100
AcDbEntity
  8
0
  6
CONTINUOUS
 62
     7
100
AcDbLine
 10
434.656974
 20
270.76657
 30
0.0
 11
434.656971
 21
267.551116
 31
0.0
  0
ARC
  5
26A
100
AcDbEntity
  8
0
  6
CONTINUOUS
 62
     7
100
AcDbCircle
 10
435.406974
 20
274.051116
 30
0.0
 40
3.369087
100
AcDbArc
 50
102.862509
 51
257.137491
  0
LINE
  5
26B
100
AcDbEntity
  8
0
  6
CONTINUOUS
 62
     7
100
AcDbLine
 10
434.656971
 20
280.551117
 30
0.0
 11
434.656974
 21
277.335663
 31
0.0
  0
LINE
  5
26C
100
AcDbEntity
  8
0
  6
CONTINUOUS
 62
     7
100
AcDbLine
 10
436.156974
 20
280.551117
 30
0.0
 11
434.656971
 21
280.551117
 31
0.0
  0
LINE
  5
26D
100
AcDbEntity
  8
0
  6
CONTINUOUS
 62
     7
100
AcDbLine
 10
436.156974
 20
277.335663
 30
0.0
 11
436.156974
 21
280.551117
 31
0.0
  0
ARC
  5
26E
100
AcDbEntity
  8
0
  6
CONTINUOUS
 62
     7
100
AcDbCircle
 10
435.406974
 20
274.051116
 30
0.0
 40
3.369087
100
AcDbArc
 50
282.862509
 51
77.137491
  0
CIRCLE
  5
26F
100
AcDbEntity
  8
0
  6
CONTINUOUS
 62
     7
100
AcDbCircle
 10
435.406974
 20
274.051116
 30
0.0
 40
2.0
  0
LINE
  5
270
100
AcDbEntity
  8
0
  6
CONTINUOUS
 62
     7
100
AcDbLine
 10
434.526061
 20
270.663788
 30
0.0
 11
434.656974
 21
270.76657
 31
0.0
  0
ARC
  5
271
100
AcDbEntity
  8
0
  6
CONTINUOUS
 62
     7
100
AcDbCircle
 10
435.406974
 20
274.051116
 30
0.0
 40
3.5
100
AcDbArc
 50
104.577506
 51
255.422494
  0
LWPOLYLINE
  5
272
100
AcDbEntity
  8
0
  6
CONTINUOUS
 62
     7
100
AcDbPolyline
 90
        3
 70
   128
 43
0.0
 10
434.656971
 20
277.335663
 10
434.541405
 20
277.426557
 10
434.526064
 20
277.438445
  0
CIRCLE
  5
273
100
AcDbEntity
  8
0
  6
CONTINUOUS
 62
     7
100
AcDbCircle
 10
435.406974
 20
274.051116
 30
0.0
 40
1.982545
  0
LINE
  5
274
100
AcDbEntity
  8
0
  6
CONTINUOUS
 62
     7
100
AcDbLine
 10
434.526064
 20
267.420204
 30
0.0
 11
434.656971
 21
267.551116
 31
0.0
  0
LINE
  5
275
100
AcDbEntity
  8
0
  6
CONTINUOUS
 62
     7
100
AcDbLine
 10
434.526064
 20
267.420204
 30
0.0
 11
434.526061
 21
270.663788
 31
0.0
  0
LINE
  5
276
100
AcDbEntity
  8
0
  6
CONTINUOUS
 62
     7
100
AcDbLine
 10
434.526061
 20
277.438445
 30
0.0
 11
434.526064
 21
280.682029
 31
0.0
  0
LINE
  5
277
100
AcDbEntity
  8
0
  6
CONTINUOUS
 62
     7
100
AcDbLine
 10
434.526064
 20
280.682029
 30
0.0
 11
434.656971
 21
280.551117
 31
0.0
  0
LINE
  5
278
100
AcDbEntity
  8
0
  6
CONTINUOUS
 62
     7
100
AcDbLine
 10
436.287888
 20
267.420204
 30
0.0
 11
436.156974
 21
267.551116
 31
0.0
  0
LINE
  5
279
100
AcDbEntity
  8
0
  6
CONTINUOUS
 62
     7
100
AcDbLine
 10
436.287888
 20
267.420204
 30
0.0
 11
434.526064
 21
267.420204
 31
0.0
  0
LINE
  5
27A
100
AcDbEntity
  8
0
  6
CONTINUOUS
 62
     7
100
AcDbLine
 10
436.287888
 20
280.682029
 30
0.0
 11
436.156974
 21
280.551117
 31
0.0
  0
LINE
  5
27B
100
AcDbEntity
  8
0
  6
CONTINUOUS
 62
     7
100
AcDbLine
 10
434.526064
 20
280.682029
 30
0.0
 11
436.287888
 21
280.682029
 31
0.0
  0
LINE
  5
27C
100
AcDbEntity
  8
0
  6
CONTINUOUS
 62
     7
100
AcDbLine
 10
436.287887
 20
270.663788
 30
0.0
 11
436.287888
 21
267.420204
 31
0.0
  0
LWPOLYLINE
  5
27D
100
AcDbEntity
  8
0
  6
CONTINUOUS
 62
     7
100
AcDbPolyline
 90
        3
 70
   128
 43
0.0
 10
436.156974
 20
270.76657
 10
436.27254
 20
270.675676
 10
436.287888
 20
270.663788
  0
LINE
  5
27E
100
AcDbEntity
  8
0
  6
CONTINUOUS
 62
     7
100
AcDbLine
 10
436.287888
 20
280.682029
 30
0.0
 11
436.287887
 21
277.438445
 31
0.0
  0
LINE
  5
27F
100
AcDbEntity
  8
0
  6
CONTINUOUS
 62
     7
100
AcDbLine
 10
436.287887
 20
277.438445
 30
0.0
 11
436.156974
 21
277.335663
 31
0.0
  0
ARC
  5
280
100
AcDbEntity
  8
0
  6
CONTINUOUS
 62
     7
100
AcDbCircle
 10
435.406974
 20
274.051116
 30
0.0
 40
3.5
100
AcDbArc
 50
284.577506
 51
75.422494
  0
CIRCLE
  5
281
100
AcDbEntity
  8
0
  6
CONTINUOUS
 62
     7
100
AcDbCircle
 10
445.406974
 20
274.051116
 30
0.0
 40
3.5
  0
CIRCLE
  5
282
100
AcDbEntity
  8
0
  6
CONTINUOUS
 62
     7
100
AcDbCircle
 10
445.406974
 20
274.051116
 30
0.0
 40
3.369087
  0
CIRCLE
  5
283
100
AcDbEntity
  8
0
  6
CONTINUOUS
 62
     7
100
AcDbCircle
 10
445.406974
 20
274.051116
 30
0.0
 40
2.0
  0
CIRCLE
  5
284
100
AcDbEntity
  8
0
  6
CONTINUOUS
 62
     7
100
AcDbCircle
 10
446.406974
 20
206.051116
 30
0.0
 40
3.369087
  0
CIRCLE
  5
285
100
AcDbEntity
  8
0
  6
CONTINUOUS
 62
     7
100
AcDbCircle
 10
446.406974
 20
206.051116
 30
0.0
 40
2.0
  0
CIRCLE
  5
286
100
AcDbEntity
  8
0
  6
CONTINUOUS
 62
     7
100
AcDbCircle
 10
446.406974
 20
206.051116
 30
0.0
 40
3.5
  0
CIRCLE
  5
287
100
AcDbEntity
  8
0
  6
CONTINUOUS
 62
     7
100
AcDbCircle
 10
446.406974
 20
342.051116
 30
0.0
 40
3.5
  0
CIRCLE
  5
288
100
AcDbEntity
  8
0
  6
CONTINUOUS
 62
     7
100
AcDbCircle
 10
446.406974
 20
342.051116
 30
0.0
 40
3.369087
  0
CIRCLE
  5
289
100
AcDbEntity
  8
0
  6
CONTINUOUS
 62
     7
100
AcDbCircle
 10
446.406974
 20
342.051116
 30
0.0
 40
2.0
  0
CIRCLE
  5
28A
100
AcDbEntity
  8
0
  6
CONTINUOUS
 62
     7
100
AcDbCircle
 10
445.406974
 20
274.051116
 30
0.0
 40
1.982545
  0
CIRCLE
  5
28B
100
AcDbEntity
  8
0
  6
CONTINUOUS
 62
     7
100
AcDbCircle
 10
446.406974
 20
342.051116
 30
0.0
 40
1.982545
  0
CIRCLE
  5
28C
100
AcDbEntity
  8
0
  6
CONTINUOUS
 62
     7
100
AcDbCircle
 10
446.406974
 20
206.051116
 30
0.0
 40
1.982545
  0
CIRCLE
  5
28D
100
AcDbEntity
  8
0
  6
CONTINUOUS
 62
     7
100
AcDbCircle
 10
455.906974
 20
348.551116
 30
0.0
 40
3.369087
  0
CIRCLE
  5
28E
100
AcDbEntity
  8
0
  6
CONTINUOUS
 62
     7
100
AcDbCircle
 10
455.906974
 20
348.551116
 30
0.0
 40
2.0
  0
CIRCLE
  5
28F
100
AcDbEntity
  8
0
  6
CONTINUOUS
 62
     7
100
AcDbCircle
 10
455.906974
 20
199.551116
 30
0.0
 40
3.5
  0
CIRCLE
  5
290
100
AcDbEntity
  8
0
  6
CONTINUOUS
 62
     7
100
AcDbCircle
 10
455.906974
 20
199.551116
 30
0.0
 40
3.369087
  0
CIRCLE
  5
291
100
AcDbEntity
  8
0
  6
CONTINUOUS
 62
     7
100
AcDbCircle
 10
455.906974
 20
199.551116
 30
0.0
 40
2.0
  0
CIRCLE
  5
292
100
AcDbEntity
  8
0
  6
CONTINUOUS
 62
     7
100
AcDbCircle
 10
455.906974
 20
348.551116
 30
0.0
 40
3.5
  0
CIRCLE
  5
293
100
AcDbEntity
  8
0
  6
CONTINUOUS
 62
     7
100
AcDbCircle
 10
455.906974
 20
199.551116
 30
0.0
 40
1.982545
  0
CIRCLE
  5
294
100
AcDbEntity
  8
0
  6
CONTINUOUS
 62
     7
100
AcDbCircle
 10
455.906974
 20
348.551116
 30
0.0
 40
1.982545
  0
CIRCLE
  5
295
100
AcDbEntity
  8
0
  6
CONTINUOUS
 62
     7
100
AcDbCircle
 10
467.906974
 20
339.051116
 30
0.0
 40
3.369087
  0
CIRCLE
  5
296
100
AcDbEntity
  8
0
  6
CONTINUOUS
 62
     7
100
AcDbCircle
 10
467.906974
 20
339.051116
 30
0.0
 40
2.0
  0
CIRCLE
  5
297
100
AcDbEntity
  8
0
  6
CONTINUOUS
 62
     7
100
AcDbCircle
 10
467.906974
 20
209.051116
 30
0.0
 40
3.5
  0
CIRCLE
  5
298
100
AcDbEntity
  8
0
  6
CONTINUOUS
 62
     7
100
AcDbCircle
 10
467.906974
 20
209.051116
 30
0.0
 40
3.369087
  0
CIRCLE
  5
299
100
AcDbEntity
  8
0
  6
CONTINUOUS
 62
     7
100
AcDbCircle
 10
467.906974
 20
209.051116
 30
0.0
 40
2.0
  0
CIRCLE
  5
29A
100
AcDbEntity
  8
0
  6
CONTINUOUS
 62
     7
100
AcDbCircle
 10
467.906974
 20
339.051116
 30
0.0
 40
3.5
  0
CIRCLE
  5
29B
100
AcDbEntity
  8
0
  6
CONTINUOUS
 62
     7
100
AcDbCircle
 10
467.906974
 20
209.051116
 30
0.0
 40
1.982545
  0
CIRCLE
  5
29C
100
AcDbEntity
  8
0
  6
CONTINUOUS
 62
     7
100
AcDbCircle
 10
467.906974
 20
339.051116
 30
0.0
 40
1.982545
  0
LINE
  5
29D
100
AcDbEntity
  8
0
  6
CONTINUOUS
 62
     7
100
AcDbLine
 10
497.019645
 20
357.170203
 30
0.0
 11
493.776061
 21
357.170203
 31
0.0
  0
LINE
  5
29E
100
AcDbEntity
  8
0
  6
CONTINUOUS
 62
     7
100
AcDbLine
 10
493.776061
 20
357.170203
 30
0.0
 11
493.906974
 21
357.301117
 31
0.0
  0
LINE
  5
29F
100
AcDbEntity
  8
0
  6
CONTINUOUS
 62
     7
100
AcDbLine
 10
493.906974
 20
357.301117
 30
0.0
 11
497.122427
 21
357.301116
 31
0.0
  0
LWPOLYLINE
  5
2A0
100
AcDbEntity
  8
0
  6
CONTINUOUS
 62
     7
100
AcDbPolyline
 90
        3
 70
   128
 43
0.0
 10
497.122427
 20
357.301117
 10
497.031533
 20
357.185552
 10
497.019645
 20
357.170203
  0
LINE
  5
2A1
100
AcDbEntity
  8
0
  6
CONTINUOUS
 62
     7
100
AcDbLine
 10
497.019645
 20
189.170203
 30
0.0
 11
493.776061
 21
189.170206
 31
0.0
  0
LINE
  5
2A2
100
AcDbEntity
  8
0
  6
CONTINUOUS
 62
     7
100
AcDbLine
 10
493.776061
 20
189.170206
 30
0.0
 11
493.906974
 21
189.30112
 31
0.0
  0
LINE
  5
2A3
100
AcDbEntity
  8
0
  6
CONTINUOUS
 62
     7
100
AcDbLine
 10
493.906974
 20
189.30112
 30
0.0
 11
497.122427
 21
189.301116
 31
0.0
  0
LWPOLYLINE
  5
2A4
100
AcDbEntity
  8
0
  6
CONTINUOUS
 62
     7
100
AcDbPolyline
 90
        3
 70
   128
 43
0.0
 10
497.122427
 20
189.30112
 10
497.031533
 20
189.185554
 10
497.019645
 20
189.170206
  0
LINE
  5
2A5
100
AcDbEntity
  8
0
  6
CONTINUOUS
 62
     7
100
AcDbLine
 10
497.122427
 20
190.801116
 30
0.0
 11
493.906974
 21
190.801115
 31
0.0
  0
LINE
  5
2A6
100
AcDbEntity
  8
0
  6
CONTINUOUS
 62
     7
100
AcDbLine
 10
493.776061
 20
190.932029
 30
0.0
 11
493.906974
 21
190.801115
 31
0.0
  0
LINE
  5
2A7
100
AcDbEntity
  8
0
  6
CONTINUOUS
 62
     7
100
AcDbLine
 10
493.776061
 20
190.932029
 30
0.0
 11
497.019645
 21
190.932029
 31
0.0
  0
LINE
  5
2A8
100
AcDbEntity
  8
0
  6
CONTINUOUS
 62
     7
100
AcDbLine
 10
497.019645
 20
190.932029
 30
0.0
 11
497.122427
 21
190.801116
 31
0.0
  0
LINE
  5
2A9
100
AcDbEntity
  8
0
  6
CONTINUOUS
 62
     7
100
AcDbLine
 10
493.906974
 20
190.801115
 30
0.0
 11
493.906974
 21
189.30112
 31
0.0
  0
ARC
  5
2AA
100
AcDbEntity
  8
0
  6
CONTINUOUS
 62
     7
100
AcDbCircle
 10
500.406974
 20
190.051116
 30
0.0
 40
3.369087
100
AcDbArc
 50
12.862509
 51
167.137491
  0
LINE
  5
2AB
100
AcDbEntity
  8
0
  6
CONTINUOUS
 62
     7
100
AcDbLine
 10
506.906974
 20
190.801115
 30
0.0
 11
503.69152
 21
190.801116
 31
0.0
  0
LINE
  5
2AC
100
AcDbEntity
  8
0
  6
CONTINUOUS
 62
     7
100
AcDbLine
 10
506.906974
 20
189.30112
 30
0.0
 11
506.906974
 21
190.801115
 31
0.0
  0
LINE
  5
2AD
100
AcDbEntity
  8
0
  6
CONTINUOUS
 62
     7
100
AcDbLine
 10
503.69152
 20
189.301116
 30
0.0
 11
506.906974
 21
189.30112
 31
0.0
  0
ARC
  5
2AE
100
AcDbEntity
  8
0
  6
CONTINUOUS
 62
     7
100
AcDbCircle
 10
500.406974
 20
190.051116
 30
0.0
 40
3.369087
100
AcDbArc
 50
192.862509
 51
347.137491
  0
CIRCLE
  5
2AF
100
AcDbEntity
  8
0
  6
CONTINUOUS
 62
     7
100
AcDbCircle
 10
500.406974
 20
190.051116
 30
0.0
 40
2.0
  0
LINE
  5
2B0
100
AcDbEntity
  8
0
  6
CONTINUOUS
 62
     7
100
AcDbLine
 10
493.906974
 20
358.801113
 30
0.0
 11
493.906974
 21
357.301117
 31
0.0
  0
LINE
  5
2B1
100
AcDbEntity
  8
0
  6
CONTINUOUS
 62
     7
100
AcDbLine
 10
497.122427
 20
358.801116
 30
0.0
 11
493.906974
 21
358.801113
 31
0.0
  0
ARC
  5
2B2
100
AcDbEntity
  8
0
  6
CONTINUOUS
 62
     7
100
AcDbCircle
 10
500.406974
 20
358.051116
 30
0.0
 40
3.369087
100
AcDbArc
 50
12.862509
 51
167.137491
  0
LINE
  5
2B3
100
AcDbEntity
  8
0
  6
CONTINUOUS
 62
     7
100
AcDbLine
 10
506.906974
 20
358.801113
 30
0.0
 11
503.69152
 21
358.801116
 31
0.0
  0
LINE
  5
2B4
100
AcDbEntity
  8
0
  6
CONTINUOUS
 62
     7
100
AcDbLine
 10
506.906974
 20
357.301117
 30
0.0
 11
506.906974
 21
358.801113
 31
0.0
  0
LINE
  5
2B5
100
AcDbEntity
  8
0
  6
CONTINUOUS
 62
     7
100
AcDbLine
 10
503.69152
 20
357.301116
 30
0.0
 11
506.906974
 21
357.301117
 31
0.0
  0
ARC
  5
2B6
100
AcDbEntity
  8
0
  6
CONTINUOUS
 62
     7
100
AcDbCircle
 10
500.406974
 20
358.051116
 30
0.0
 40
3.369087
100
AcDbArc
 50
192.862509
 51
347.137491
  0
CIRCLE
  5
2B7
100
AcDbEntity
  8
0
  6
CONTINUOUS
 62
     7
100
AcDbCircle
 10
500.406974
 20
358.051116
 30
0.0
 40
2.0
  0
LINE
  5
2B8
100
AcDbEntity
  8
0
  6
CONTINUOUS
 62
     7
100
AcDbLine
 10
493.776061
 20
358.932027
 30
0.0
 11
493.906974
 21
358.801113
 31
0.0
  0
LINE
  5
2B9
100
AcDbEntity
  8
0
  6
CONTINUOUS
 62
     7
100
AcDbLine
 10
493.776061
 20
358.932027
 30
0.0
 11
497.019645
 21
358.932029
 31
0.0
  0
LINE
  5
2BA
100
AcDbEntity
  8
0
  6
CONTINUOUS
 62
     7
100
AcDbLine
 10
497.019645
 20
358.932029
 30
0.0
 11
497.122427
 21
358.801116
 31
0.0
  0
LINE
  5
2BB
100
AcDbEntity
  8
0
  6
CONTINUOUS
 62
     7
100
AcDbLine
 10
493.776061
 20
189.170206
 30
0.0
 11
493.776061
 21
190.932029
 31
0.0
  0
LINE
  5
2BC
100
AcDbEntity
  8
0
  6
CONTINUOUS
 62
     7
100
AcDbLine
 10
493.776061
 20
357.170203
 30
0.0
 11
493.776061
 21
358.932027
 31
0.0
  0
CIRCLE
  5
2BD
100
AcDbEntity
  8
0
  6
CONTINUOUS
 62
     7
100
AcDbCircle
 10
500.406974
 20
199.051116
 30
0.0
 40
3.5
  0
CIRCLE
  5
2BE
100
AcDbEntity
  8
0
  6
CONTINUOUS
 62
     7
100
AcDbCircle
 10
500.406974
 20
199.051116
 30
0.0
 40
3.369087
  0
CIRCLE
  5
2BF
100
AcDbEntity
  8
0
  6
CONTINUOUS
 62
     7
100
AcDbCircle
 10
500.406974
 20
349.051116
 30
0.0
 40
3.5
  0
CIRCLE
  5
2C0
100
AcDbEntity
  8
0
  6
CONTINUOUS
 62
     7
100
AcDbCircle
 10
500.406974
 20
349.051116
 30
0.0
 40
3.369087
  0
CIRCLE
  5
2C1
100
AcDbEntity
  8
0
  6
CONTINUOUS
 62
     7
100
AcDbCircle
 10
500.406974
 20
199.051116
 30
0.0
 40
2.0
  0
LINE
  5
2C2
100
AcDbEntity
  8
0
  6
CONTINUOUS
 62
     7
100
AcDbLine
 10
503.794302
 20
189.170203
 30
0.0
 11
503.69152
 21
189.301116
 31
0.0
  0
ARC
  5
2C3
100
AcDbEntity
  8
0
  6
CONTINUOUS
 62
     7
100
AcDbCircle
 10
500.406974
 20
190.051116
 30
0.0
 40
3.5
100
AcDbArc
 50
194.577506
 51
345.422494
  0
ARC
  5
2C4
100
AcDbEntity
  8
0
  6
CONTINUOUS
 62
     7
100
AcDbCircle
 10
500.406974
 20
190.051116
 30
0.0
 40
3.5
100
AcDbArc
 50
14.577506
 51
165.422494
  0
LWPOLYLINE
  5
2C5
100
AcDbEntity
  8
0
  6
CONTINUOUS
 62
     7
100
AcDbPolyline
 90
        3
 70
   128
 43
0.0
 10
503.69152
 20
190.801115
 10
503.782414
 20
190.916681
 10
503.794302
 20
190.932029
  0
ARC
  5
2C6
100
AcDbEntity
  8
0
  6
CONTINUOUS
 62
     7
100
AcDbCircle
 10
500.406974
 20
358.051116
 30
0.0
 40
3.5
100
AcDbArc
 50
14.577506
 51
165.422494
  0
LWPOLYLINE
  5
2C7
100
AcDbEntity
  8
0
  6
CONTINUOUS
 62
     7
100
AcDbPolyline
 90
        3
 70
   128
 43
0.0
 10
503.69152
 20
358.801113
 10
503.782414
 20
358.916679
 10
503.794302
 20
358.932027
  0
LINE
  5
2C8
100
AcDbEntity
  8
0
  6
CONTINUOUS
 62
     7
100
AcDbLine
 10
503.794302
 20
357.170203
 30
0.0
 11
503.69152
 21
357.301116
 31
0.0
  0
ARC
  5
2C9
100
AcDbEntity
  8
0
  6
CONTINUOUS
 62
     7
100
AcDbCircle
 10
500.406974
 20
358.051116
 30
0.0
 40
3.5
100
AcDbArc
 50
194.577506
 51
345.422494
  0
CIRCLE
  5
2CA
100
AcDbEntity
  8
0
  6
CONTINUOUS
 62
     7
100
AcDbCircle
 10
500.406974
 20
349.051116
 30
0.0
 40
2.0
  0
CIRCLE
  5
2CB
100
AcDbEntity
  8
0
  6
CONTINUOUS
 62
     7
100
AcDbCircle
 10
500.406974
 20
190.051116
 30
0.0
 40
1.982545
  0
CIRCLE
  5
2CC
100
AcDbEntity
  8
0
  6
CONTINUOUS
 62
     7
100
AcDbCircle
 10
500.406974
 20
199.051116
 30
0.0
 40
1.982545
  0
CIRCLE
  5
2CD
100
AcDbEntity
  8
0
  6
CONTINUOUS
 62
     7
100
AcDbCircle
 10
500.406974
 20
358.051116
 30
0.0
 40
1.982545
  0
CIRCLE
  5
2CE
100
AcDbEntity
  8
0
  6
CONTINUOUS
 62
     7
100
AcDbCircle
 10
500.406974
 20
349.051116
 30
0.0
 40
1.982545
  0
LINE
  5
2CF
100
AcDbEntity
  8
0
  6
CONTINUOUS
 62
     7
100
AcDbLine
 10
503.794302
 20
190.932029
 30
0.0
 11
507.037887
 21
190.932029
 31
0.0
  0
LINE
  5
2D0
100
AcDbEntity
  8
0
  6
CONTINUOUS
 62
     7
100
AcDbLine
 10
507.037887
 20
190.932029
 30
0.0
 11
506.906974
 21
190.801115
 31
0.0
  0
LINE
  5
2D1
100
AcDbEntity
  8
0
  6
CONTINUOUS
 62
     7
100
AcDbLine
 10
503.794302
 20
358.932029
 30
0.0
 11
507.037887
 21
358.932027
 31
0.0
  0
LINE
  5
2D2
100
AcDbEntity
  8
0
  6
CONTINUOUS
 62
     7
100
AcDbLine
 10
507.037887
 20
358.932027
 30
0.0
 11
506.906974
 21
358.801113
 31
0.0
  0
LINE
  5
2D3
100
AcDbEntity
  8
0
  6
CONTINUOUS
 62
     7
100
AcDbLine
 10
507.037887
 20
357.170203
 30
0.0
 11
506.906974
 21
357.301117
 31
0.0
  0
LINE
  5
2D4
100
AcDbEntity
  8
0
  6
CONTINUOUS
 62
     7
100
AcDbLine
 10
507.037887
 20
357.170203
 30
0.0
 11
503.794302
 21
357.170203
 31
0.0
  0
LINE
  5
2D5
100
AcDbEntity
  8
0
  6
CONTINUOUS
 62
     7
100
AcDbLine
 10
507.037887
 20
189.170206
 30
0.0
 11
506.906974
 21
189.30112
 31
0.0
  0
LINE
  5
2D6
100
AcDbEntity
  8
0
  6
CONTINUOUS
 62
     7
100
AcDbLine
 10
507.037887
 20
189.170206
 30
0.0
 11
503.794302
 21
189.170203
 31
0.0
  0
LINE
  5
2D7
100
AcDbEntity
  8
0
  6
CONTINUOUS
 62
     7
100
AcDbLine
 10
507.037887
 20
190.932029
 30
0.0
 11
507.037887
 21
189.170206
 31
0.0
  0
LINE
  5
2D8
100
AcDbEntity
  8
0
  6
CONTINUOUS
 62
     7
100
AcDbLine
 10
507.037887
 20
358.932027
 30
0.0
 11
507.037887
 21
357.170203
 31
0.0
  0
CIRCLE
  5
2D9
100
AcDbEntity
  8
0
  6
CONTINUOUS
 62
     7
100
AcDbCircle
 10
532.906974
 20
339.051116
 30
0.0
 40
3.369087
  0
CIRCLE
  5
2DA
100
AcDbEntity
  8
0
  6
CONTINUOUS
 62
     7
100
AcDbCircle
 10
532.906974
 20
339.051116
 30
0.0
 40
2.0
  0
CIRCLE
  5
2DB
100
AcDbEntity
  8
0
  6
CONTINUOUS
 62
     7
100
AcDbCircle
 10
532.906974
 20
339.051116
 30
0.0
 40
3.5
  0
CIRCLE
  5
2DC
100
AcDbEntity
  8
0
  6
CONTINUOUS
 62
     7
100
AcDbCircle
 10
532.906974
 20
209.051116
 30
0.0
 40
3.369087
  0
CIRCLE
  5
2DD
100
AcDbEntity
  8
0
  6
CONTINUOUS
 62
     7
100
AcDbCircle
 10
532.906974
 20
209.051116
 30
0.0
 40
2.0
  0
CIRCLE
  5
2DE
100
AcDbEntity
  8
0
  6
CONTINUOUS
 62
     7
100
AcDbCircle
 10
532.906974
 20
209.051116
 30
0.0
 40
3.5
  0
CIRCLE
  5
2DF
100
AcDbEntity
  8
0
  6
CONTINUOUS
 62
     7
100
AcDbCircle
 10
532.906974
 20
209.051116
 30
0.0
 40
1.982545
  0
CIRCLE
  5
2E0
100
AcDbEntity
  8
0
  6
CONTINUOUS
 62
     7
100
AcDbCircle
 10
532.906974
 20
339.051116
 30
0.0
 40
1.982545
  0
CIRCLE
  5
2E1
100
AcDbEntity
  8
0
  6
CONTINUOUS
 62
     7
100
AcDbCircle
 10
544.906974
 20
199.551116
 30
0.0
 40
3.369087
  0
CIRCLE
  5
2E2
100
AcDbEntity
  8
0
  6
CONTINUOUS
 62
     7
100
AcDbCircle
 10
544.906974
 20
199.551116
 30
0.0
 40
2.0
  0
CIRCLE
  5
2E3
100
AcDbEntity
  8
0
  6
CONTINUOUS
 62
     7
100
AcDbCircle
 10
544.906974
 20
199.551116
 30
0.0
 40
3.5
  0
CIRCLE
  5
2E4
100
AcDbEntity
  8
0
  6
CONTINUOUS
 62
     7
100
AcDbCircle
 10
544.906974
 20
348.551116
 30
0.0
 40
3.5
  0
CIRCLE
  5
2E5
100
AcDbEntity
  8
0
  6
CONTINUOUS
 62
     7
100
AcDbCircle
 10
544.906974
 20
348.551116
 30
0.0
 40
3.369087
  0
CIRCLE
  5
2E6
100
AcDbEntity
  8
0
  6
CONTINUOUS
 62
     7
100
AcDbCircle
 10
544.906974
 20
348.551116
 30
0.0
 40
2.0
  0
CIRCLE
  5
2E7
100
AcDbEntity
  8
0
  6
CONTINUOUS
 62
     7
100
AcDbCircle
 10
544.906974
 20
199.551116
 30
0.0
 40
1.982545
  0
CIRCLE
  5
2E8
100
AcDbEntity
  8
0
  6
CONTINUOUS
 62
     7
100
AcDbCircle
 10
544.906974
 20
348.551116
 30
0.0
 40
1.982545
  0
CIRCLE
  5
2E9
100
AcDbEntity
  8
0
  6
CONTINUOUS
 62
     7
100
AcDbCircle
 10
554.406974
 20
206.051116
 30
0.0
 40
3.5
  0
CIRCLE
  5
2EA
100
AcDbEntity
  8
0
  6
CONTINUOUS
 62
     7
100
AcDbCircle
 10
554.406974
 20
206.051116
 30
0.0
 40
3.369087
  0
CIRCLE
  5
2EB
100
AcDbEntity
  8
0
  6
CONTINUOUS
 62
     7
100
AcDbCircle
 10
554.406974
 20
342.051116
 30
0.0
 40
3.369087
  0
CIRCLE
  5
2EC
100
AcDbEntity
  8
0
  6
CONTINUOUS
 62
     7
100
AcDbCircle
 10
554.406974
 20
342.051116
 30
0.0
 40
2.0
  0
CIRCLE
  5
2ED
100
AcDbEntity
  8
0
  6
CONTINUOUS
 62
     7
100
AcDbCircle
 10
554.406974
 20
206.051116
 30
0.0
 40
2.0
  0
CIRCLE
  5
2EE
100
AcDbEntity
  8
0
  6
CONTINUOUS
 62
     7
100
AcDbCircle
 10
554.406974
 20
342.051116
 30
0.0
 40
3.5
  0
CIRCLE
  5
2EF
100
AcDbEntity
  8
0
  6
CONTINUOUS
 62
     7
100
AcDbCircle
 10
554.406974
 20
342.051116
 30
0.0
 40
1.982545
  0
CIRCLE
  5
2F0
100
AcDbEntity
  8
0
  6
CONTINUOUS
 62
     7
100
AcDbCircle
 10
555.406974
 20
274.051116
 30
0.0
 40
3.5
  0
CIRCLE
  5
2F1
100
AcDbEntity
  8
0
  6
CONTINUOUS
 62
     7
100
AcDbCircle
 10
555.406974
 20
274.051116
 30
0.0
 40
3.369087
  0
CIRCLE
  5
2F2
100
AcDbEntity
  8
0
  6
CONTINUOUS
 62
     7
100
AcDbCircle
 10
555.406974
 20
274.051116
 30
0.0
 40
2.0
  0
CIRCLE
  5
2F3
100
AcDbEntity
  8
0
  6
CONTINUOUS
 62
     7
100
AcDbCircle
 10
554.406974
 20
206.051116
 30
0.0
 40
1.982545
  0
CIRCLE
  5
2F4
100
AcDbEntity
  8
0
  6
CONTINUOUS
 62
     7
100
AcDbCircle
 10
555.406974
 20
274.051116
 30
0.0
 40
1.982545
  0
LINE
  5
2F5
100
AcDbEntity
  8
0
  6
CONTINUOUS
 62
     7
100
AcDbLine
 10
564.656973
 20
280.551117
 30
0.0
 11
564.656974
 21
277.335663
 31
0.0
  0
LINE
  5
2F6
100
AcDbEntity
  8
0
  6
CONTINUOUS
 62
     7
100
AcDbLine
 10
566.156977
 20
280.551117
 30
0.0
 11
564.656973
 21
280.551117
 31
0.0
  0
LINE
  5
2F7
100
AcDbEntity
  8
0
  6
CONTINUOUS
 62
     7
100
AcDbLine
 10
566.156974
 20
277.335663
 30
0.0
 11
566.156977
 21
280.551117
 31
0.0
  0
ARC
  5
2F8
100
AcDbEntity
  8
0
  6
CONTINUOUS
 62
     7
100
AcDbCircle
 10
565.406974
 20
274.051116
 30
0.0
 40
3.369087
100
AcDbArc
 50
282.862509
 51
77.137491
  0
LINE
  5
2F9
100
AcDbEntity
  8
0
  6
CONTINUOUS
 62
     7
100
AcDbLine
 10
566.156977
 20
267.551116
 30
0.0
 11
566.156974
 21
270.76657
 31
0.0
  0
LINE
  5
2FA
100
AcDbEntity
  8
0
  6
CONTINUOUS
 62
     7
100
AcDbLine
 10
564.656973
 20
267.551116
 30
0.0
 11
566.156977
 21
267.551116
 31
0.0
  0
LINE
  5
2FB
100
AcDbEntity
  8
0
  6
CONTINUOUS
 62
     7
100
AcDbLine
 10
564.656974
 20
270.76657
 30
0.0
 11
564.656973
 21
267.551116
 31
0.0
  0
ARC
  5
2FC
100
AcDbEntity
  8
0
  6
CONTINUOUS
 62
     7
100
AcDbCircle
 10
565.406974
 20
274.051116
 30
0.0
 40
3.369087
100
AcDbArc
 50
102.862509
 51
257.137491
  0
CIRCLE
  5
2FD
100
AcDbEntity
  8
0
  6
CONTINUOUS
 62
     7
100
AcDbCircle
 10
565.406974
 20
274.051116
 30
0.0
 40
2.0
  0
LINE
  5
2FE
100
AcDbEntity
  8
0
  6
CONTINUOUS
 62
     7
100
AcDbLine
 10
564.526061
 20
270.663788
 30
0.0
 11
564.656974
 21
270.76657
 31
0.0
  0
ARC
  5
2FF
100
AcDbEntity
  8
0
  6
CONTINUOUS
 62
     7
100
AcDbCircle
 10
565.406974
 20
274.051116
 30
0.0
 40
3.5
100
AcDbArc
 50
104.577506
 51
255.422494
  0
LWPOLYLINE
  5
300
100
AcDbEntity
  8
0
  6
CONTINUOUS
 62
     7
100
AcDbPolyline
 90
        3
 70
   128
 43
0.0
 10
564.656973
 20
277.335663
 10
564.541408
 20
277.426557
 10
564.526059
 20
277.438445
  0
CIRCLE
  5
301
100
AcDbEntity
  8
0
  6
CONTINUOUS
 62
     7
100
AcDbCircle
 10
565.406974
 20
274.051116
 30
0.0
 40
1.982545
  0
LINE
  5
302
100
AcDbEntity
  8
0
  6
CONTINUOUS
 62
     7
100
AcDbLine
 10
564.526059
 20
267.420204
 30
0.0
 11
564.656973
 21
267.551116
 31
0.0
  0
LINE
  5
303
100
AcDbEntity
  8
0
  6
CONTINUOUS
 62
     7
100
AcDbLine
 10
564.526059
 20
267.420204
 30
0.0
 11
564.526061
 21
270.663788
 31
0.0
  0
LINE
  5
304
100
AcDbEntity
  8
0
  6
CONTINUOUS
 62
     7
100
AcDbLine
 10
566.287883
 20
267.420204
 30
0.0
 11
566.156977
 21
267.551116
 31
0.0
  0
LINE
  5
305
100
AcDbEntity
  8
0
  6
CONTINUOUS
 62
     7
100
AcDbLine
 10
566.287883
 20
267.420204
 30
0.0
 11
564.526059
 21
267.420204
 31
0.0
  0
LINE
  5
306
100
AcDbEntity
  8
0
  6
CONTINUOUS
 62
     7
100
AcDbLine
 10
564.526061
 20
277.438445
 30
0.0
 11
564.526059
 21
280.682029
 31
0.0
  0
LINE
  5
307
100
AcDbEntity
  8
0
  6
CONTINUOUS
 62
     7
100
AcDbLine
 10
564.526059
 20
280.682029
 30
0.0
 11
564.656973
 21
280.551117
 31
0.0
  0
LINE
  5
308
100
AcDbEntity
  8
0
  6
CONTINUOUS
 62
     7
100
AcDbLine
 10
566.287883
 20
280.682029
 30
0.0
 11
566.156977
 21
280.551117
 31
0.0
  0
LINE
  5
309
100
AcDbEntity
  8
0
  6
CONTINUOUS
 62
     7
100
AcDbLine
 10
564.526059
 20
280.682029
 30
0.0
 11
566.287883
 21
280.682029
 31
0.0
  0
LINE
  5
30A
100
AcDbEntity
  8
0
  6
CONTINUOUS
 62
     7
100
AcDbLine
 10
566.287887
 20
277.438445
 30
0.0
 11
566.156974
 21
277.335663
 31
0.0
  0
ARC
  5
30B
100
AcDbEntity
  8
0
  6
CONTINUOUS
 62
     7
100
AcDbCircle
 10
565.406974
 20
274.051116
 30
0.0
 40
3.5
100
AcDbArc
 50
284.577506
 51
75.422494
  0
LWPOLYLINE
  5
30C
100
AcDbEntity
  8
0
  6
CONTINUOUS
 62
     7
100
AcDbPolyline
 90
        3
 70
   128
 43
0.0
 10
566.156977
 20
270.76657
 10
566.272542
 20
270.675676
 10
566.287883
 20
270.663788
  0
LINE
  5
30D
100
AcDbEntity
  8
0
  6
CONTINUOUS
 62
     7
100
AcDbLine
 10
566.287887
 20
270.663788
 30
0.0
 11
566.287883
 21
267.420204
 31
0.0
  0
LINE
  5
30E
100
AcDbEntity
  8
0
  6
CONTINUOUS
 62
     7
100
AcDbLine
 10
566.287883
 20
280.682029
 30
0.0
 11
566.287887
 21
277.438445
 31
0.0
  0
CIRCLE
  5
30F
100
AcDbEntity
  8
0
  6
CONTINUOUS
 62
     7
100
AcDbCircle
 10
435.406974
 20
274.051116
 30
0.0
 40
1.6
  0
CIRCLE
  5
310
100
AcDbEntity
  8
0
  6
CONTINUOUS
 62
     7
100
AcDbCircle
 10
435.406974
 20
274.051116
 30
0.0
 40
1.565966
  0
CIRCLE
  5
311
100
AcDbEntity
  8
0
  6
CONTINUOUS
 62
     7
100
AcDbCircle
 10
445.406974
 20
274.051116
 30
0.0
 40
1.6
  0
CIRCLE
  5
312
100
AcDbEntity
  8
0
  6
CONTINUOUS
 62
     7
100
AcDbCircle
 10
445.406974
 20
274.051116
 30
0.0
 40
1.565966
  0
CIRCLE
  5
313
100
AcDbEntity
  8
0
  6
CONTINUOUS
 62
     7
100
AcDbCircle
 10
446.406974
 20
342.051116
 30
0.0
 40
1.6
  0
CIRCLE
  5
314
100
AcDbEntity
  8
0
  6
CONTINUOUS
 62
     7
100
AcDbCircle
 10
446.406974
 20
206.051116
 30
0.0
 40
1.6
  0
CIRCLE
  5
315
100
AcDbEntity
  8
0
  6
CONTINUOUS
 62
     7
100
AcDbCircle
 10
446.406974
 20
206.051116
 30
0.0
 40
1.565966
  0
CIRCLE
  5
316
100
AcDbEntity
  8
0
  6
CONTINUOUS
 62
     7
100
AcDbCircle
 10
446.406974
 20
342.051116
 30
0.0
 40
1.565966
  0
CIRCLE
  5
317
100
AcDbEntity
  8
0
  6
CONTINUOUS
 62
     7
100
AcDbCircle
 10
455.906974
 20
199.551116
 30
0.0
 40
1.6
  0
CIRCLE
  5
318
100
AcDbEntity
  8
0
  6
CONTINUOUS
 62
     7
100
AcDbCircle
 10
455.906974
 20
348.551116
 30
0.0
 40
1.6
  0
CIRCLE
  5
319
100
AcDbEntity
  8
0
  6
CONTINUOUS
 62
     7
100
AcDbCircle
 10
455.906974
 20
348.551116
 30
0.0
 40
1.565966
  0
CIRCLE
  5
31A
100
AcDbEntity
  8
0
  6
CONTINUOUS
 62
     7
100
AcDbCircle
 10
455.906974
 20
199.551116
 30
0.0
 40
1.565966
  0
CIRCLE
  5
31B
100
AcDbEntity
  8
0
  6
CONTINUOUS
 62
     7
100
AcDbCircle
 10
467.906974
 20
209.051116
 30
0.0
 40
1.6
  0
CIRCLE
  5
31C
100
AcDbEntity
  8
0
  6
CONTINUOUS
 62
     7
100
AcDbCircle
 10
467.906974
 20
339.051116
 30
0.0
 40
1.6
  0
CIRCLE
  5
31D
100
AcDbEntity
  8
0
  6
CONTINUOUS
 62
     7
100
AcDbCircle
 10
467.906974
 20
209.051116
 30
0.0
 40
1.565966
  0
CIRCLE
  5
31E
100
AcDbEntity
  8
0
  6
CONTINUOUS
 62
     7
100
AcDbCircle
 10
467.906974
 20
339.051116
 30
0.0
 40
1.565966
  0
CIRCLE
  5
31F
100
AcDbEntity
  8
0
  6
CONTINUOUS
 62
     7
100
AcDbCircle
 10
500.406974
 20
349.051116
 30
0.0
 40
1.6
  0
CIRCLE
  5
320
100
AcDbEntity
  8
0
  6
CONTINUOUS
 62
     7
100
AcDbCircle
 10
500.406974
 20
349.051116
 30
0.0
 40
1.565966
  0
CIRCLE
  5
321
100
AcDbEntity
  8
0
  6
CONTINUOUS
 62
     7
100
AcDbCircle
 10
500.406974
 20
190.051116
 30
0.0
 40
1.6
  0
CIRCLE
  5
322
100
AcDbEntity
  8
0
  6
CONTINUOUS
 62
     7
100
AcDbCircle
 10
500.406974
 20
190.051116
 30
0.0
 40
1.565966
  0
CIRCLE
  5
323
100
AcDbEntity
  8
0
  6
CONTINUOUS
 62
     7
100
AcDbCircle
 10
500.406974
 20
199.051116
 30
0.0
 40
1.6
  0
CIRCLE
  5
324
100
AcDbEntity
  8
0
  6
CONTINUOUS
 62
     7
100
AcDbCircle
 10
500.406974
 20
358.051116
 30
0.0
 40
1.6
  0
CIRCLE
  5
325
100
AcDbEntity
  8
0
  6
CONTINUOUS
 62
     7
100
AcDbCircle
 10
500.406974
 20
199.051116
 30
0.0
 40
1.565966
  0
CIRCLE
  5
326
100
AcDbEntity
  8
0
  6
CONTINUOUS
 62
     7
100
AcDbCircle
 10
500.406974
 20
358.051116
 30
0.0
 40
1.565966
  0
CIRCLE
  5
327
100
AcDbEntity
  8
0
  6
CONTINUOUS
 62
     7
100
AcDbCircle
 10
532.906974
 20
339.051116
 30
0.0
 40
1.6
  0
CIRCLE
  5
328
100
AcDbEntity
  8
0
  6
CONTINUOUS
 62
     7
100
AcDbCircle
 10
532.906974
 20
209.051116
 30
0.0
 40
1.6
  0
CIRCLE
  5
329
100
AcDbEntity
  8
0
  6
CONTINUOUS
 62
     7
100
AcDbCircle
 10
532.906974
 20
209.051116
 30
0.0
 40
1.565966
  0
CIRCLE
  5
32A
100
AcDbEntity
  8
0
  6
CONTINUOUS
 62
     7
100
AcDbCircle
 10
532.906974
 20
339.051116
 30
0.0
 40
1.565966
  0
CIRCLE
  5
32B
100
AcDbEntity
  8
0
  6
CONTINUOUS
 62
     7
100
AcDbCircle
 10
544.906974
 20
348.551116
 30
0.0
 40
1.6
  0
CIRCLE
  5
32C
100
AcDbEntity
  8
0
  6
CONTINUOUS
 62
     7
100
AcDbCircle
 10
544.906974
 20
199.551116
 30
0.0
 40
1.6
  0
CIRCLE
  5
32D
100
AcDbEntity
  8
0
  6
CONTINUOUS
 62
     7
100
AcDbCircle
 10
544.906974
 20
348.551116
 30
0.0
 40
1.565966
  0
CIRCLE
  5
32E
100
AcDbEntity
  8
0
  6
CONTINUOUS
 62
     7
100
AcDbCircle
 10
544.906974
 20
199.551116
 30
0.0
 40
1.565966
  0
CIRCLE
  5
32F
100
AcDbEntity
  8
0
  6
CONTINUOUS
 62
     7
100
AcDbCircle
 10
554.406974
 20
206.051116
 30
0.0
 40
1.6
  0
CIRCLE
  5
330
100
AcDbEntity
  8
0
  6
CONTINUOUS
 62
     7
100
AcDbCircle
 10
554.406974
 20
342.051116
 30
0.0
 40
1.6
  0
CIRCLE
  5
331
100
AcDbEntity
  8
0
  6
CONTINUOUS
 62
     7
100
AcDbCircle
 10
555.406974
 20
274.051116
 30
0.0
 40
1.6
  0
CIRCLE
  5
332
100
AcDbEntity
  8
0
  6
CONTINUOUS
 62
     7
100
AcDbCircle
 10
554.406974
 20
206.051116
 30
0.0
 40
1.565966
  0
CIRCLE
  5
333
100
AcDbEntity
  8
0
  6
CONTINUOUS
 62
     7
100
AcDbCircle
 10
554.406974
 20
342.051116
 30
0.0
 40
1.565966
  0
CIRCLE
  5
334
100
AcDbEntity
  8
0
  6
CONTINUOUS
 62
     7
100
AcDbCircle
 10
555.406974
 20
274.051116
 30
0.0
 40
1.565966
  0
CIRCLE
  5
335
100
AcDbEntity
  8
0
  6
CONTINUOUS
 62
     7
100
AcDbCircle
 10
565.406974
 20
274.051116
 30
0.0
 40
1.6
  0
CIRCLE
  5
336
100
AcDbEntity
  8
0
  6
CONTINUOUS
 62
     7
100
AcDbCircle
 10
565.406974
 20
274.051116
 30
0.0
 40
1.565966
  0
CIRCLE
  5
337
100
AcDbEntity
  8
0
  6
CONTINUOUS
 62
     7
100
AcDbCircle
 10
432.606974
 20
204.051116
 30
0.0
 40
3.351632
  0
CIRCLE
  5
338
100
AcDbEntity
  8
0
  6
CONTINUOUS
 62
     7
100
AcDbCircle
 10
432.606974
 20
344.051116
 30
0.0
 40
3.351632
  0
CIRCLE
  5
339
100
AcDbEntity
  8
0
  6
CONTINUOUS
 62
     7
100
AcDbCircle
 10
432.606974
 20
344.051116
 30
0.0
 40
3.459853
  0
CIRCLE
  5
33A
100
AcDbEntity
  8
0
  6
CONTINUOUS
 62
     7
100
AcDbCircle
 10
432.606974
 20
204.051116
 30
0.0
 40
3.459853
  0
CIRCLE
  5
33B
100
AcDbEntity
  8
0
  6
CONTINUOUS
 62
     7
100
AcDbCircle
 10
465.406974
 20
360.851116
 30
0.0
 40
3.351632
  0
CIRCLE
  5
33C
100
AcDbEntity
  8
0
  6
CONTINUOUS
 62
     7
100
AcDbCircle
 10
465.406974
 20
360.851116
 30
0.0
 40
3.459853
  0
CIRCLE
  5
33D
100
AcDbEntity
  8
0
  6
CONTINUOUS
 62
     7
100
AcDbCircle
 10
465.406974
 20
187.251116
 30
0.0
 40
3.351632
  0
CIRCLE
  5
33E
100
AcDbEntity
  8
0
  6
CONTINUOUS
 62
     7
100
AcDbCircle
 10
465.406974
 20
187.251116
 30
0.0
 40
3.459853
  0
CIRCLE
  5
33F
100
AcDbEntity
  8
0
  6
CONTINUOUS
 62
     7
100
AcDbCircle
 10
535.406974
 20
187.251116
 30
0.0
 40
3.351632
  0
CIRCLE
  5
340
100
AcDbEntity
  8
0
  6
CONTINUOUS
 62
     7
100
AcDbCircle
 10
535.406974
 20
187.251116
 30
0.0
 40
3.459853
  0
CIRCLE
  5
341
100
AcDbEntity
  8
0
  6
CONTINUOUS
 62
     7
100
AcDbCircle
 10
535.406974
 20
360.851116
 30
0.0
 40
3.351632
  0
CIRCLE
  5
342
100
AcDbEntity
  8
0
  6
CONTINUOUS
 62
     7
100
AcDbCircle
 10
535.406974
 20
360.851116
 30
0.0
 40
3.459853
  0
CIRCLE
  5
343
100
AcDbEntity
  8
0
  6
CONTINUOUS
 62
     7
100
AcDbCircle
 10
568.206974
 20
204.051116
 30
0.0
 40
3.351632
  0
CIRCLE
  5
344
100
AcDbEntity
  8
0
  6
CONTINUOUS
 62
     7
100
AcDbCircle
 10
568.206974
 20
344.051116
 30
0.0
 40
3.351632
  0
CIRCLE
  5
345
100
AcDbEntity
  8
0
  6
CONTINUOUS
 62
     7
100
AcDbCircle
 10
568.206974
 20
344.051116
 30
0.0
 40
3.459853
  0
CIRCLE
  5
346
100
AcDbEntity
  8
0
  6
CONTINUOUS
 62
     7
100
AcDbCircle
 10
568.206974
 20
204.051116
 30
0.0
 40
3.459853
  0
ARC
  5
347
100
AcDbEntity
  8
0
  6
CONTINUOUS
 62
     7
100
AcDbCircle
 10
450.406974
 20
224.051116
 30
0.0
 40
10.266216
100
AcDbArc
 50
13.076522
 51
346.923478
  0
ARC
  5
348
100
AcDbEntity
  8
0
  6
CONTINUOUS
 62
     7
100
AcDbCircle
 10
470.406974
 20
224.051116
 30
0.0
 40
10.266216
100
AcDbArc
 50
193.076522
 51
166.923478
  0
CIRCLE
  5
349
100
AcDbEntity
  8
0
  6
CONTINUOUS
 62
     7
100
AcDbCircle
 10
450.406974
 20
224.051116
 30
0.0
 40
8.65
  0
CIRCLE
  5
34A
100
AcDbEntity
  8
0
  6
CONTINUOUS
 62
     7
100
AcDbCircle
 10
470.406974
 20
224.051116
 30
0.0
 40
8.65
  0
ARC
  5
34B
100
AcDbEntity
  8
0
  6
CONTINUOUS
 62
     7
100
AcDbCircle
 10
450.406974
 20
324.051116
 30
0.0
 40
10.266216
100
AcDbArc
 50
13.076522
 51
346.923478
  0
ARC
  5
34C
100
AcDbEntity
  8
0
  6
CONTINUOUS
 62
     7
100
AcDbCircle
 10
470.406974
 20
324.051116
 30
0.0
 40
10.266216
100
AcDbArc
 50
193.076522
 51
166.923478
  0
CIRCLE
  5
34D
100
AcDbEntity
  8
0
  6
CONTINUOUS
 62
     7
100
AcDbCircle
 10
450.406974
 20
324.051116
 30
0.0
 40
8.65
  0
CIRCLE
  5
34E
100
AcDbEntity
  8
0
  6
CONTINUOUS
 62
     7
100
AcDbCircle
 10
470.406974
 20
324.051116
 30
0.0
 40
8.65
  0
LINE
  5
34F
100
AcDbEntity
  8
0
  6
CONTINUOUS
 62
     7
100
AcDbLine
 10
460.406974
 20
226.37387
 30
0.0
 11
460.406974
 21
226.719918
 31
0.0
  0
LINE
  5
350
100
AcDbEntity
  8
0
  6
CONTINUOUS
 62
     7
100
AcDbLine
 10
460.406974
 20
221.728363
 30
0.0
 11
460.406974
 21
221.382315
 31
0.0
  0
ARC
  5
351
100
AcDbEntity
  8
0
  6
CONTINUOUS
 62
     7
100
AcDbCircle
 10
450.406974
 20
224.051116
 30
0.0
 40
10.35
100
AcDbArc
 50
14.942835
 51
345.057165
  0
LINE
  5
352
100
AcDbEntity
  8
0
  6
CONTINUOUS
 62
     7
100
AcDbLine
 10
460.406974
 20
326.37387
 30
0.0
 11
460.406974
 21
326.719918
 31
0.0
  0
LINE
  5
353
100
AcDbEntity
  8
0
  6
CONTINUOUS
 62
     7
100
AcDbLine
 10
460.406974
 20
321.728363
 30
0.0
 11
460.406974
 21
321.382315
 31
0.0
  0
ARC
  5
354
100
AcDbEntity
  8
0
  6
CONTINUOUS
 62
     7
100
AcDbCircle
 10
450.406974
 20
324.051116
 30
0.0
 40
10.35
100
AcDbArc
 50
14.942835
 51
345.057165
  0
CIRCLE
  5
355
100
AcDbEntity
  8
0
  6
CONTINUOUS
 62
     7
100
AcDbCircle
 10
450.406974
 20
224.051116
 30
0.0
 40
8.520833
  0
CIRCLE
  5
356
100
AcDbEntity
  8
0
  6
CONTINUOUS
 62
     7
100
AcDbCircle
 10
450.406974
 20
324.051116
 30
0.0
 40
8.520833
  0
ARC
  5
357
100
AcDbEntity
  8
0
  6
CONTINUOUS
 62
     7
100
AcDbCircle
 10
470.406974
 20
324.051116
 30
0.0
 40
10.35
100
AcDbArc
 50
194.942835
 51
165.057165
  0
ARC
  5
358
100
AcDbEntity
  8
0
  6
CONTINUOUS
 62
     7
100
AcDbCircle
 10
470.406974
 20
224.051116
 30
0.0
 40
10.35
100
AcDbArc
 50
194.942835
 51
165.057165
  0
CIRCLE
  5
359
100
AcDbEntity
  8
0
  6
CONTINUOUS
 62
     7
100
AcDbCircle
 10
470.406974
 20
224.051116
 30
0.0
 40
8.520833
  0
CIRCLE
  5
35A
100
AcDbEntity
  8
0
  6
CONTINUOUS
 62
     7
100
AcDbCircle
 10
470.406974
 20
324.051116
 30
0.0
 40
8.520833
  0
LINE
  5
35B
100
AcDbEntity
  8
0
  6
CONTINUOUS
 62
     7
100
AcDbLine
 10
540.406974
 20
326.37387
 30
0.0
 11
540.406974
 21
326.719918
 31
0.0
  0
ARC
  5
35C
100
AcDbEntity
  8
0
  6
CONTINUOUS
 62
     7
100
AcDbCircle
 10
530.406974
 20
324.051116
 30
0.0
 40
10.266216
100
AcDbArc
 50
13.076522
 51
346.923478
  0
LINE
  5
35D
100
AcDbEntity
  8
0
  6
CONTINUOUS
 62
     7
100
AcDbLine
 10
540.406974
 20
321.728363
 30
0.0
 11
540.406974
 21
321.382315
 31
0.0
  0
ARC
  5
35E
100
AcDbEntity
  8
0
  6
CONTINUOUS
 62
     7
100
AcDbCircle
 10
530.406974
 20
324.051116
 30
0.0
 40
10.35
100
AcDbArc
 50
14.942835
 51
345.057165
  0
LINE
  5
35F
100
AcDbEntity
  8
0
  6
CONTINUOUS
 62
     7
100
AcDbLine
 10
540.406974
 20
226.37387
 30
0.0
 11
540.406974
 21
226.719918
 31
0.0
  0
ARC
  5
360
100
AcDbEntity
  8
0
  6
CONTINUOUS
 62
     7
100
AcDbCircle
 10
530.406974
 20
224.051116
 30
0.0
 40
10.266216
100
AcDbArc
 50
13.076522
 51
346.923478
  0
LINE
  5
361
100
AcDbEntity
  8
0
  6
CONTINUOUS
 62
     7
100
AcDbLine
 10
540.406974
 20
221.728363
 30
0.0
 11
540.406974
 21
221.382315
 31
0.0
  0
ARC
  5
362
100
AcDbEntity
  8
0
  6
CONTINUOUS
 62
     7
100
AcDbCircle
 10
530.406974
 20
224.051116
 30
0.0
 40
10.35
100
AcDbArc
 50
14.942835
 51
345.057165
  0
ARC
  5
363
100
AcDbEntity
  8
0
  6
CONTINUOUS
 62
     7
100
AcDbCircle
 10
550.406974
 20
224.051116
 30
0.0
 40
10.266216
100
AcDbArc
 50
193.076522
 51
166.923478
  0
CIRCLE
  5
364
100
AcDbEntity
  8
0
  6
CONTINUOUS
 62
     7
100
AcDbCircle
 10
550.406974
 20
224.051116
 30
0.0
 40
8.65
  0
CIRCLE
  5
365
100
AcDbEntity
  8
0
  6
CONTINUOUS
 62
     7
100
AcDbCircle
 10
530.406974
 20
224.051116
 30
0.0
 40
8.65
  0
ARC
  5
366
100
AcDbEntity
  8
0
  6
CONTINUOUS
 62
     7
100
AcDbCircle
 10
550.406974
 20
324.051116
 30
0.0
 40
10.266216
100
AcDbArc
 50
193.076522
 51
166.923478
  0
CIRCLE
  5
367
100
AcDbEntity
  8
0
  6
CONTINUOUS
 62
     7
100
AcDbCircle
 10
550.406974
 20
324.051116
 30
0.0
 40
8.65
  0
CIRCLE
  5
368
100
AcDbEntity
  8
0
  6
CONTINUOUS
 62
     7
100
AcDbCircle
 10
530.406974
 20
324.051116
 30
0.0
 40
8.65
  0
CIRCLE
  5
369
100
AcDbEntity
  8
0
  6
CONTINUOUS
 62
     7
100
AcDbCircle
 10
530.406974
 20
324.051116
 30
0.0
 40
8.520833
  0
CIRCLE
  5
36A
100
AcDbEntity
  8
0
  6
CONTINUOUS
 62
     7
100
AcDbCircle
 10
530.406974
 20
224.051116
 30
0.0
 40
8.520833
  0
ARC
  5
36B
100
AcDbEntity
  8
0
  6
CONTINUOUS
 62
     7
100
AcDbCircle
 10
550.406974
 20
324.051116
 30
0.0
 40
10.35
100
AcDbArc
 50
194.942835
 51
165.057165
  0
ARC
  5
36C
100
AcDbEntity
  8
0
  6
CONTINUOUS
 62
     7
100
AcDbCircle
 10
550.406974
 20
224.051116
 30
0.0
 40
10.35
100
AcDbArc
 50
194.942835
 51
165.057165
  0
CIRCLE
  5
36D
100
AcDbEntity
  8
0
  6
CONTINUOUS
 62
     7
100
AcDbCircle
 10
550.406974
 20
324.051116
 30
0.0
 40
8.520833
  0
CIRCLE
  5
36E
100
AcDbEntity
  8
0
  6
CONTINUOUS
 62
     7
100
AcDbCircle
 10
550.406974
 20
224.051116
 30
0.0
 40
8.520833
  0
CIRCLE
  5
36F
100
AcDbEntity
  8
0
  6
CONTINUOUS
 62
     7
100
AcDbCircle
 10
443.806974
 20
183.651116
 30
0.0
 40
2.196003
  0
CIRCLE
  5
370
100
AcDbEntity
  8
0
  6
CONTINUOUS
 62
     7
100
AcDbCircle
 10
443.806974
 20
364.451116
 30
0.0
 40
2.196003
  0
CIRCLE
  5
371
100
AcDbEntity
  8
0
  6
CONTINUOUS
 62
     7
100
AcDbCircle
 10
443.806974
 20
183.651116
 30
0.0
 40
2.1
  0
CIRCLE
  5
372
100
AcDbEntity
  8
0
  6
CONTINUOUS
 62
     7
100
AcDbCircle
 10
443.806974
 20
364.451116
 30
0.0
 40
2.1
  0
CIRCLE
  5
373
100
AcDbEntity
  8
0
  6
CONTINUOUS
 62
     7
100
AcDbCircle
 10
557.006974
 20
364.451116
 30
0.0
 40
2.196003
  0
CIRCLE
  5
374
100
AcDbEntity
  8
0
  6
CONTINUOUS
 62
     7
100
AcDbCircle
 10
557.006974
 20
183.651116
 30
0.0
 40
2.196003
  0
CIRCLE
  5
375
100
AcDbEntity
  8
0
  6
CONTINUOUS
 62
     7
100
AcDbCircle
 10
557.006974
 20
183.651116
 30
0.0
 40
2.1
  0
CIRCLE
  5
376
100
AcDbEntity
  8
0
  6
CONTINUOUS
 62
     7
100
AcDbCircle
 10
557.006974
 20
364.451116
 30
0.0
 40
2.1
  0
LINE
  5
377
100
AcDbEntity
  8
0
  6
CONTINUOUS
 62
     7
100
AcDbLine
 10
453.406974
 20
227.051116
 30
0.0
 11
447.406974
 21
227.051116
 31
0.0
  0
ARC
  5
378
100
AcDbEntity
  8
0
  6
CONTINUOUS
 62
     7
100
AcDbCircle
 10
447.406974
 20
224.051116
 30
0.0
 40
3.0
100
AcDbArc
 50
90.0
 51
270.0
  0
LINE
  5
379
100
AcDbEntity
  8
0
  6
CONTINUOUS
 62
     7
100
AcDbLine
 10
447.406974
 20
221.051116
 30
0.0
 11
453.406974
 21
221.051116
 31
0.0
  0
ARC
  5
37A
100
AcDbEntity
  8
0
  6
CONTINUOUS
 62
     7
100
AcDbCircle
 10
453.406974
 20
224.051116
 30
0.0
 40
3.0
100
AcDbArc
 50
270.0
 51
90.0
  0
LINE
  5
37B
100
AcDbEntity
  8
0
  6
CONTINUOUS
 62
     7
100
AcDbLine
 10
453.406974
 20
321.051116
 30
0.0
 11
453.406974
 21
327.051116
 31
0.0
  0
ARC
  5
37C
100
AcDbEntity
  8
0
  6
CONTINUOUS
 62
     7
100
AcDbCircle
 10
450.406974
 20
327.051116
 30
0.0
 40
3.0
100
AcDbArc
 50
0.0
 51
180.0
  0
LINE
  5
37D
100
AcDbEntity
  8
0
  6
CONTINUOUS
 62
     7
100
AcDbLine
 10
447.406974
 20
327.051116
 30
0.0
 11
447.406974
 21
321.051116
 31
0.0
  0
ARC
  5
37E
100
AcDbEntity
  8
0
  6
CONTINUOUS
 62
     7
100
AcDbCircle
 10
450.406974
 20
321.051116
 30
0.0
 40
3.0
100
AcDbArc
 50
180.0
 51
0.0
  0
LINE
  5
37F
100
AcDbEntity
  8
0
  6
CONTINUOUS
 62
     7
100
AcDbLine
 10
447.406974
 20
221.095583
 30
0.0
 11
447.406974
 21
221.051116
 31
0.0
  0
LINE
  5
380
100
AcDbEntity
  8
0
  6
CONTINUOUS
 62
     7
100
AcDbLine
 10
447.406974
 20
227.00665
 30
0.0
 11
447.406974
 21
227.051116
 31
0.0
  0
ARC
  5
381
100
AcDbEntity
  8
0
  6
CONTINUOUS
 62
     7
100
AcDbCircle
 10
447.406974
 20
224.051116
 30
0.0
 40
2.955534
100
AcDbArc
 50
90.0
 51
270.0
  0
ARC
  5
382
100
AcDbEntity
  8
0
  6
CONTINUOUS
 62
     7
100
AcDbCircle
 10
447.406974
 20
224.051116
 30
0.0
 40
2.220366
100
AcDbArc
 50
90.0
 51
270.0
  0
LINE
  5
383
100
AcDbEntity
  8
0
  6
CONTINUOUS
 62
     7
100
AcDbLine
 10
447.406974
 20
221.83075
 30
0.0
 11
447.406974
 21
221.095583
 31
0.0
  0
LINE
  5
384
100
AcDbEntity
  8
0
  6
CONTINUOUS
 62
     7
100
AcDbLine
 10
447.406974
 20
226.271483
 30
0.0
 11
447.406974
 21
227.00665
 31
0.0
  0
LINE
  5
385
100
AcDbEntity
  8
0
  6
CONTINUOUS
 62
     7
100
AcDbLine
 10
447.406974
 20
221.83075
 30
0.0
 11
453.406974
 21
221.83075
 31
0.0
  0
LINE
  5
386
100
AcDbEntity
  8
0
  6
CONTINUOUS
 62
     7
100
AcDbLine
 10
453.406974
 20
226.271483
 30
0.0
 11
447.406974
 21
226.271483
 31
0.0
  0
ARC
  5
387
100
AcDbEntity
  8
0
  6
CONTINUOUS
 62
     7
100
AcDbCircle
 10
453.406974
 20
224.051116
 30
0.0
 40
2.220366
100
AcDbArc
 50
270.0
 51
90.0
  0
LINE
  5
388
100
AcDbEntity
  8
0
  6
CONTINUOUS
 62
     7
100
AcDbLine
 10
453.406974
 20
221.83075
 30
0.0
 11
453.406974
 21
221.095583
 31
0.0
  0
LINE
  5
389
100
AcDbEntity
  8
0
  6
CONTINUOUS
 62
     7
100
AcDbLine
 10
447.406974
 20
221.095583
 30
0.0
 11
453.406974
 21
221.095583
 31
0.0
  0
LINE
  5
38A
100
AcDbEntity
  8
0
  6
CONTINUOUS
 62
     7
100
AcDbLine
 10
447.45144
 20
327.051116
 30
0.0
 11
447.406974
 21
327.051116
 31
0.0
  0
LINE
  5
38B
100
AcDbEntity
  8
0
  6
CONTINUOUS
 62
     7
100
AcDbLine
 10
453.362507
 20
327.051116
 30
0.0
 11
453.406974
 21
327.051116
 31
0.0
  0
ARC
  5
38C
100
AcDbEntity
  8
0
  6
CONTINUOUS
 62
     7
100
AcDbCircle
 10
450.406974
 20
327.051116
 30
0.0
 40
2.955534
100
AcDbArc
 50
0.0
 51
180.0
  0
LINE
  5
38D
100
AcDbEntity
  8
0
  6
CONTINUOUS
 62
     7
100
AcDbLine
 10
447.45144
 20
321.051116
 30
0.0
 11
447.406974
 21
321.051116
 31
0.0
  0
LINE
  5
38E
100
AcDbEntity
  8
0
  6
CONTINUOUS
 62
     7
100
AcDbLine
 10
447.45144
 20
327.051116
 30
0.0
 11
447.45144
 21
321.051116
 31
0.0
  0
LINE
  5
38F
100
AcDbEntity
  8
0
  6
CONTINUOUS
 62
     7
100
AcDbLine
 10
453.406974
 20
221.095583
 30
0.0
 11
453.406974
 21
221.051116
 31
0.0
  0
LINE
  5
390
100
AcDbEntity
  8
0
  6
CONTINUOUS
 62
     7
100
AcDbLine
 10
453.406974
 20
227.00665
 30
0.0
 11
447.406974
 21
227.00665
 31
0.0
  0
LINE
  5
391
100
AcDbEntity
  8
0
  6
CONTINUOUS
 62
     7
100
AcDbLine
 10
453.406974
 20
226.271483
 30
0.0
 11
453.406974
 21
227.00665
 31
0.0
  0
LINE
  5
392
100
AcDbEntity
  8
0
  6
CONTINUOUS
 62
     7
100
AcDbLine
 10
448.186607
 20
327.051116
 30
0.0
 11
448.186607
 21
321.051116
 31
0.0
  0
LINE
  5
393
100
AcDbEntity
  8
0
  6
CONTINUOUS
 62
     7
100
AcDbLine
 10
448.186607
 20
321.051116
 30
0.0
 11
447.45144
 21
321.051116
 31
0.0
  0
LINE
  5
394
100
AcDbEntity
  8
0
  6
CONTINUOUS
 62
     7
100
AcDbLine
 10
448.186607
 20
327.051116
 30
0.0
 11
447.45144
 21
327.051116
 31
0.0
  0
ARC
  5
395
100
AcDbEntity
  8
0
  6
CONTINUOUS
 62
     7
100
AcDbCircle
 10
450.406974
 20
321.051116
 30
0.0
 40
2.220366
100
AcDbArc
 50
180.0
 51
0.0
  0
LINE
  5
396
100
AcDbEntity
  8
0
  6
CONTINUOUS
 62
     7
100
AcDbLine
 10
452.62734
 20
321.051116
 30
0.0
 11
453.362507
 21
321.051116
 31
0.0
  0
ARC
  5
397
100
AcDbEntity
  8
0
  6
CONTINUOUS
 62
     7
100
AcDbCircle
 10
450.406974
 20
321.051116
 30
0.0
 40
2.955534
100
AcDbArc
 50
180.0
 51
0.0
  0
ARC
  5
398
100
AcDbEntity
  8
0
  6
CONTINUOUS
 62
     7
100
AcDbCircle
 10
450.406974
 20
327.051116
 30
0.0
 40
2.220366
100
AcDbArc
 50
0.0
 51
180.0
  0
LINE
  5
399
100
AcDbEntity
  8
0
  6
CONTINUOUS
 62
     7
100
AcDbLine
 10
452.62734
 20
327.051116
 30
0.0
 11
453.362507
 21
327.051116
 31
0.0
  0
LINE
  5
39A
100
AcDbEntity
  8
0
  6
CONTINUOUS
 62
     7
100
AcDbLine
 10
453.362507
 20
321.051116
 30
0.0
 11
453.406974
 21
321.051116
 31
0.0
  0
LINE
  5
39B
100
AcDbEntity
  8
0
  6
CONTINUOUS
 62
     7
100
AcDbLine
 10
453.406974
 20
227.00665
 30
0.0
 11
453.406974
 21
227.051116
 31
0.0
  0
LINE
  5
39C
100
AcDbEntity
  8
0
  6
CONTINUOUS
 62
     7
100
AcDbLine
 10
452.62734
 20
321.051116
 30
0.0
 11
452.62734
 21
327.051116
 31
0.0
  0
ARC
  5
39D
100
AcDbEntity
  8
0
  6
CONTINUOUS
 62
     7
100
AcDbCircle
 10
453.406974
 20
224.051116
 30
0.0
 40
2.955534
100
AcDbArc
 50
270.0
 51
90.0
  0
LINE
  5
39E
100
AcDbEntity
  8
0
  6
CONTINUOUS
 62
     7
100
AcDbLine
 10
453.362507
 20
321.051116
 30
0.0
 11
453.362507
 21
327.051116
 31
0.0
  0
LINE
  5
39F
100
AcDbEntity
  8
0
  6
CONTINUOUS
 62
     7
100
AcDbLine
 10
473.406974
 20
227.051116
 30
0.0
 11
467.406974
 21
227.051116
 31
0.0
  0
ARC
  5
3A0
100
AcDbEntity
  8
0
  6
CONTINUOUS
 62
     7
100
AcDbCircle
 10
467.406974
 20
224.051116
 30
0.0
 40
3.0
100
AcDbArc
 50
90.0
 51
270.0
  0
LINE
  5
3A1
100
AcDbEntity
  8
0
  6
CONTINUOUS
 62
     7
100
AcDbLine
 10
467.406974
 20
221.051116
 30
0.0
 11
473.406974
 21
221.051116
 31
0.0
  0
ARC
  5
3A2
100
AcDbEntity
  8
0
  6
CONTINUOUS
 62
     7
100
AcDbCircle
 10
473.406974
 20
224.051116
 30
0.0
 40
3.0
100
AcDbArc
 50
270.0
 51
90.0
  0
LINE
  5
3A3
100
AcDbEntity
  8
0
  6
CONTINUOUS
 62
     7
100
AcDbLine
 10
473.406974
 20
321.051116
 30
0.0
 11
473.406974
 21
327.051116
 31
0.0
  0
ARC
  5
3A4
100
AcDbEntity
  8
0
  6
CONTINUOUS
 62
     7
100
AcDbCircle
 10
470.406974
 20
327.051116
 30
0.0
 40
3.0
100
AcDbArc
 50
0.0
 51
180.0
  0
LINE
  5
3A5
100
AcDbEntity
  8
0
  6
CONTINUOUS
 62
     7
100
AcDbLine
 10
467.406974
 20
327.051116
 30
0.0
 11
467.406974
 21
321.051116
 31
0.0
  0
ARC
  5
3A6
100
AcDbEntity
  8
0
  6
CONTINUOUS
 62
     7
100
AcDbCircle
 10
470.406974
 20
321.051116
 30
0.0
 40
3.0
100
AcDbArc
 50
180.0
 51
0.0
  0
ARC
  5
3A7
100
AcDbEntity
  8
0
  6
CONTINUOUS
 62
     7
100
AcDbCircle
 10
467.406974
 20
224.051116
 30
0.0
 40
2.220366
100
AcDbArc
 50
90.0
 51
270.0
  0
LINE
  5
3A8
100
AcDbEntity
  8
0
  6
CONTINUOUS
 62
     7
100
AcDbLine
 10
467.406974
 20
221.83075
 30
0.0
 11
467.406974
 21
221.095583
 31
0.0
  0
ARC
  5
3A9
100
AcDbEntity
  8
0
  6
CONTINUOUS
 62
     7
100
AcDbCircle
 10
467.406974
 20
224.051116
 30
0.0
 40
2.955534
100
AcDbArc
 50
90.0
 51
270.0
  0
LINE
  5
3AA
100
AcDbEntity
  8
0
  6
CONTINUOUS
 62
     7
100
AcDbLine
 10
467.406974
 20
226.271483
 30
0.0
 11
467.406974
 21
227.00665
 31
0.0
  0
LINE
  5
3AB
100
AcDbEntity
  8
0
  6
CONTINUOUS
 62
     7
100
AcDbLine
 10
467.406974
 20
221.095583
 30
0.0
 11
467.406974
 21
221.051116
 31
0.0
  0
LINE
  5
3AC
100
AcDbEntity
  8
0
  6
CONTINUOUS
 62
     7
100
AcDbLine
 10
467.406974
 20
227.00665
 30
0.0
 11
467.406974
 21
227.051116
 31
0.0
  0
LINE
  5
3AD
100
AcDbEntity
  8
0
  6
CONTINUOUS
 62
     7
100
AcDbLine
 10
467.406974
 20
221.83075
 30
0.0
 11
473.406974
 21
221.83075
 31
0.0
  0
LINE
  5
3AE
100
AcDbEntity
  8
0
  6
CONTINUOUS
 62
     7
100
AcDbLine
 10
473.406974
 20
226.271483
 30
0.0
 11
467.406974
 21
226.271483
 31
0.0
  0
ARC
  5
3AF
100
AcDbEntity
  8
0
  6
CONTINUOUS
 62
     7
100
AcDbCircle
 10
473.406974
 20
224.051116
 30
0.0
 40
2.220366
100
AcDbArc
 50
270.0
 51
90.0
  0
LINE
  5
3B0
100
AcDbEntity
  8
0
  6
CONTINUOUS
 62
     7
100
AcDbLine
 10
473.362507
 20
321.051116
 30
0.0
 11
473.406974
 21
321.051116
 31
0.0
  0
LINE
  5
3B1
100
AcDbEntity
  8
0
  6
CONTINUOUS
 62
     7
100
AcDbLine
 10
467.45144
 20
321.051116
 30
0.0
 11
467.406974
 21
321.051116
 31
0.0
  0
ARC
  5
3B2
100
AcDbEntity
  8
0
  6
CONTINUOUS
 62
     7
100
AcDbCircle
 10
470.406974
 20
321.051116
 30
0.0
 40
2.955534
100
AcDbArc
 50
180.0
 51
0.0
  0
LINE
  5
3B3
100
AcDbEntity
  8
0
  6
CONTINUOUS
 62
     7
100
AcDbLine
 10
468.186607
 20
327.051116
 30
0.0
 11
468.186607
 21
321.051116
 31
0.0
  0
LINE
  5
3B4
100
AcDbEntity
  8
0
  6
CONTINUOUS
 62
     7
100
AcDbLine
 10
468.186607
 20
321.051116
 30
0.0
 11
467.45144
 21
321.051116
 31
0.0
  0
LINE
  5
3B5
100
AcDbEntity
  8
0
  6
CONTINUOUS
 62
     7
100
AcDbLine
 10
467.45144
 20
327.051116
 30
0.0
 11
467.45144
 21
321.051116
 31
0.0
  0
LINE
  5
3B6
100
AcDbEntity
  8
0
  6
CONTINUOUS
 62
     7
100
AcDbLine
 10
468.186607
 20
327.051116
 30
0.0
 11
467.45144
 21
327.051116
 31
0.0
  0
LINE
  5
3B7
100
AcDbEntity
  8
0
  6
CONTINUOUS
 62
     7
100
AcDbLine
 10
473.406974
 20
227.00665
 30
0.0
 11
467.406974
 21
227.00665
 31
0.0
  0
LINE
  5
3B8
100
AcDbEntity
  8
0
  6
CONTINUOUS
 62
     7
100
AcDbLine
 10
473.406974
 20
226.271483
 30
0.0
 11
473.406974
 21
227.00665
 31
0.0
  0
ARC
  5
3B9
100
AcDbEntity
  8
0
  6
CONTINUOUS
 62
     7
100
AcDbCircle
 10
470.406974
 20
327.051116
 30
0.0
 40
2.220366
100
AcDbArc
 50
0.0
 51
180.0
  0
ARC
  5
3BA
100
AcDbEntity
  8
0
  6
CONTINUOUS
 62
     7
100
AcDbCircle
 10
470.406974
 20
327.051116
 30
0.0
 40
2.955534
100
AcDbArc
 50
0.0
 51
180.0
  0
LINE
  5
3BB
100
AcDbEntity
  8
0
  6
CONTINUOUS
 62
     7
100
AcDbLine
 10
472.62734
 20
327.051116
 30
0.0
 11
473.362507
 21
327.051116
 31
0.0
  0
LINE
  5
3BC
100
AcDbEntity
  8
0
  6
CONTINUOUS
 62
     7
100
AcDbLine
 10
467.45144
 20
327.051116
 30
0.0
 11
467.406974
 21
327.051116
 31
0.0
  0
LINE
  5
3BD
100
AcDbEntity
  8
0
  6
CONTINUOUS
 62
     7
100
AcDbLine
 10
473.406974
 20
221.83075
 30
0.0
 11
473.406974
 21
221.095583
 31
0.0
  0
LINE
  5
3BE
100
AcDbEntity
  8
0
  6
CONTINUOUS
 62
     7
100
AcDbLine
 10
467.406974
 20
221.095583
 30
0.0
 11
473.406974
 21
221.095583
 31
0.0
  0
ARC
  5
3BF
100
AcDbEntity
  8
0
  6
CONTINUOUS
 62
     7
100
AcDbCircle
 10
470.406974
 20
321.051116
 30
0.0
 40
2.220366
100
AcDbArc
 50
180.0
 51
0.0
  0
LINE
  5
3C0
100
AcDbEntity
  8
0
  6
CONTINUOUS
 62
     7
100
AcDbLine
 10
472.62734
 20
321.051116
 30
0.0
 11
473.362507
 21
321.051116
 31
0.0
  0
LINE
  5
3C1
100
AcDbEntity
  8
0
  6
CONTINUOUS
 62
     7
100
AcDbLine
 10
473.362507
 20
327.051116
 30
0.0
 11
473.406974
 21
327.051116
 31
0.0
  0
LINE
  5
3C2
100
AcDbEntity
  8
0
  6
CONTINUOUS
 62
     7
100
AcDbLine
 10
473.406974
 20
227.00665
 30
0.0
 11
473.406974
 21
227.051116
 31
0.0
  0
LINE
  5
3C3
100
AcDbEntity
  8
0
  6
CONTINUOUS
 62
     7
100
AcDbLine
 10
473.406974
 20
221.095583
 30
0.0
 11
473.406974
 21
221.051116
 31
0.0
  0
LINE
  5
3C4
100
AcDbEntity
  8
0
  6
CONTINUOUS
 62
     7
100
AcDbLine
 10
472.62734
 20
321.051116
 30
0.0
 11
472.62734
 21
327.051116
 31
0.0
  0
ARC
  5
3C5
100
AcDbEntity
  8
0
  6
CONTINUOUS
 62
     7
100
AcDbCircle
 10
473.406974
 20
224.051116
 30
0.0
 40
2.955534
100
AcDbArc
 50
270.0
 51
90.0
  0
LINE
  5
3C6
100
AcDbEntity
  8
0
  6
CONTINUOUS
 62
     7
100
AcDbLine
 10
473.362507
 20
321.051116
 30
0.0
 11
473.362507
 21
327.051116
 31
0.0
  0
LINE
  5
3C7
100
AcDbEntity
  8
0
  6
CONTINUOUS
 62
     7
100
AcDbLine
 10
533.406974
 20
327.051116
 30
0.0
 11
527.406974
 21
327.051116
 31
0.0
  0
ARC
  5
3C8
100
AcDbEntity
  8
0
  6
CONTINUOUS
 62
     7
100
AcDbCircle
 10
527.406974
 20
324.051116
 30
0.0
 40
3.0
100
AcDbArc
 50
90.0
 51
270.0
  0
LINE
  5
3C9
100
AcDbEntity
  8
0
  6
CONTINUOUS
 62
     7
100
AcDbLine
 10
527.406974
 20
321.051116
 30
0.0
 11
533.406974
 21
321.051116
 31
0.0
  0
ARC
  5
3CA
100
AcDbEntity
  8
0
  6
CONTINUOUS
 62
     7
100
AcDbCircle
 10
533.406974
 20
324.051116
 30
0.0
 40
3.0
100
AcDbArc
 50
270.0
 51
90.0
  0
LINE
  5
3CB
100
AcDbEntity
  8
0
  6
CONTINUOUS
 62
     7
100
AcDbLine
 10
533.406974
 20
221.051116
 30
0.0
 11
533.406974
 21
227.051116
 31
0.0
  0
ARC
  5
3CC
100
AcDbEntity
  8
0
  6
CONTINUOUS
 62
     7
100
AcDbCircle
 10
530.406974
 20
227.051116
 30
0.0
 40
3.0
100
AcDbArc
 50
0.0
 51
180.0
  0
LINE
  5
3CD
100
AcDbEntity
  8
0
  6
CONTINUOUS
 62
     7
100
AcDbLine
 10
527.406974
 20
227.051116
 30
0.0
 11
527.406974
 21
221.051116
 31
0.0
  0
ARC
  5
3CE
100
AcDbEntity
  8
0
  6
CONTINUOUS
 62
     7
100
AcDbCircle
 10
530.406974
 20
221.051116
 30
0.0
 40
3.0
100
AcDbArc
 50
180.0
 51
0.0
  0
LINE
  5
3CF
100
AcDbEntity
  8
0
  6
CONTINUOUS
 62
     7
100
AcDbLine
 10
527.406974
 20
321.095583
 30
0.0
 11
527.406974
 21
321.051116
 31
0.0
  0
LINE
  5
3D0
100
AcDbEntity
  8
0
  6
CONTINUOUS
 62
     7
100
AcDbLine
 10
527.406974
 20
327.00665
 30
0.0
 11
527.406974
 21
327.051116
 31
0.0
  0
ARC
  5
3D1
100
AcDbEntity
  8
0
  6
CONTINUOUS
 62
     7
100
AcDbCircle
 10
527.406974
 20
324.051116
 30
0.0
 40
2.955534
100
AcDbArc
 50
90.0
 51
270.0
  0
LINE
  5
3D2
100
AcDbEntity
  8
0
  6
CONTINUOUS
 62
     7
100
AcDbLine
 10
527.406974
 20
321.83075
 30
0.0
 11
533.406974
 21
321.83075
 31
0.0
  0
ARC
  5
3D3
100
AcDbEntity
  8
0
  6
CONTINUOUS
 62
     7
100
AcDbCircle
 10
527.406974
 20
324.051116
 30
0.0
 40
2.220366
100
AcDbArc
 50
90.0
 51
270.0
  0
LINE
  5
3D4
100
AcDbEntity
  8
0
  6
CONTINUOUS
 62
     7
100
AcDbLine
 10
533.406974
 20
326.271483
 30
0.0
 11
527.406974
 21
326.271483
 31
0.0
  0
ARC
  5
3D5
100
AcDbEntity
  8
0
  6
CONTINUOUS
 62
     7
100
AcDbCircle
 10
533.406974
 20
324.051116
 30
0.0
 40
2.220366
100
AcDbArc
 50
270.0
 51
90.0
  0
LINE
  5
3D6
100
AcDbEntity
  8
0
  6
CONTINUOUS
 62
     7
100
AcDbLine
 10
527.406974
 20
321.83075
 30
0.0
 11
527.406974
 21
321.095583
 31
0.0
  0
LINE
  5
3D7
100
AcDbEntity
  8
0
  6
CONTINUOUS
 62
     7
100
AcDbLine
 10
527.406974
 20
326.271483
 30
0.0
 11
527.406974
 21
327.00665
 31
0.0
  0
LINE
  5
3D8
100
AcDbEntity
  8
0
  6
CONTINUOUS
 62
     7
100
AcDbLine
 10
533.406974
 20
321.83075
 30
0.0
 11
533.406974
 21
321.095583
 31
0.0
  0
LINE
  5
3D9
100
AcDbEntity
  8
0
  6
CONTINUOUS
 62
     7
100
AcDbLine
 10
527.406974
 20
321.095583
 30
0.0
 11
533.406974
 21
321.095583
 31
0.0
  0
LINE
  5
3DA
100
AcDbEntity
  8
0
  6
CONTINUOUS
 62
     7
100
AcDbLine
 10
533.406974
 20
327.00665
 30
0.0
 11
533.406974
 21
327.051116
 31
0.0
  0
LINE
  5
3DB
100
AcDbEntity
  8
0
  6
CONTINUOUS
 62
     7
100
AcDbLine
 10
533.406974
 20
327.00665
 30
0.0
 11
527.406974
 21
327.00665
 31
0.0
  0
LINE
  5
3DC
100
AcDbEntity
  8
0
  6
CONTINUOUS
 62
     7
100
AcDbLine
 10
533.406974
 20
326.271483
 30
0.0
 11
533.406974
 21
327.00665
 31
0.0
  0
LINE
  5
3DD
100
AcDbEntity
  8
0
  6
CONTINUOUS
 62
     7
100
AcDbLine
 10
527.45144
 20
221.051116
 30
0.0
 11
527.406974
 21
221.051116
 31
0.0
  0
LINE
  5
3DE
100
AcDbEntity
  8
0
  6
CONTINUOUS
 62
     7
100
AcDbLine
 10
527.45144
 20
227.051116
 30
0.0
 11
527.406974
 21
227.051116
 31
0.0
  0
LINE
  5
3DF
100
AcDbEntity
  8
0
  6
CONTINUOUS
 62
     7
100
AcDbLine
 10
527.45144
 20
227.051116
 30
0.0
 11
527.45144
 21
221.051116
 31
0.0
  0
LINE
  5
3E0
100
AcDbEntity
  8
0
  6
CONTINUOUS
 62
     7
100
AcDbLine
 10
533.362507
 20
221.051116
 30
0.0
 11
533.406974
 21
221.051116
 31
0.0
  0
ARC
  5
3E1
100
AcDbEntity
  8
0
  6
CONTINUOUS
 62
     7
100
AcDbCircle
 10
530.406974
 20
221.051116
 30
0.0
 40
2.955534
100
AcDbArc
 50
180.0
 51
0.0
  0
LINE
  5
3E2
100
AcDbEntity
  8
0
  6
CONTINUOUS
 62
     7
100
AcDbLine
 10
533.362507
 20
227.051116
 30
0.0
 11
533.406974
 21
227.051116
 31
0.0
  0
ARC
  5
3E3
100
AcDbEntity
  8
0
  6
CONTINUOUS
 62
     7
100
AcDbCircle
 10
530.406974
 20
227.051116
 30
0.0
 40
2.955534
100
AcDbArc
 50
0.0
 51
180.0
  0
ARC
  5
3E4
100
AcDbEntity
  8
0
  6
CONTINUOUS
 62
     7
100
AcDbCircle
 10
530.406974
 20
221.051116
 30
0.0
 40
2.220366
100
AcDbArc
 50
180.0
 51
0.0
  0
LINE
  5
3E5
100
AcDbEntity
  8
0
  6
CONTINUOUS
 62
     7
100
AcDbLine
 10
532.62734
 20
221.051116
 30
0.0
 11
533.362507
 21
221.051116
 31
0.0
  0
LINE
  5
3E6
100
AcDbEntity
  8
0
  6
CONTINUOUS
 62
     7
100
AcDbLine
 10
528.186607
 20
221.051116
 30
0.0
 11
527.45144
 21
221.051116
 31
0.0
  0
LINE
  5
3E7
100
AcDbEntity
  8
0
  6
CONTINUOUS
 62
     7
100
AcDbLine
 10
533.406974
 20
321.095583
 30
0.0
 11
533.406974
 21
321.051116
 31
0.0
  0
ARC
  5
3E8
100
AcDbEntity
  8
0
  6
CONTINUOUS
 62
     7
100
AcDbCircle
 10
530.406974
 20
227.051116
 30
0.0
 40
2.220366
100
AcDbArc
 50
0.0
 51
180.0
  0
LINE
  5
3E9
100
AcDbEntity
  8
0
  6
CONTINUOUS
 62
     7
100
AcDbLine
 10
528.186607
 20
227.051116
 30
0.0
 11
527.45144
 21
227.051116
 31
0.0
  0
LINE
  5
3EA
100
AcDbEntity
  8
0
  6
CONTINUOUS
 62
     7
100
AcDbLine
 10
532.62734
 20
227.051116
 30
0.0
 11
533.362507
 21
227.051116
 31
0.0
  0
LINE
  5
3EB
100
AcDbEntity
  8
0
  6
CONTINUOUS
 62
     7
100
AcDbLine
 10
528.186607
 20
227.051116
 30
0.0
 11
528.186607
 21
221.051116
 31
0.0
  0
LINE
  5
3EC
100
AcDbEntity
  8
0
  6
CONTINUOUS
 62
     7
100
AcDbLine
 10
532.62734
 20
221.051116
 30
0.0
 11
532.62734
 21
227.051116
 31
0.0
  0
LINE
  5
3ED
100
AcDbEntity
  8
0
  6
CONTINUOUS
 62
     7
100
AcDbLine
 10
533.362507
 20
221.051116
 30
0.0
 11
533.362507
 21
227.051116
 31
0.0
  0
ARC
  5
3EE
100
AcDbEntity
  8
0
  6
CONTINUOUS
 62
     7
100
AcDbCircle
 10
533.406974
 20
324.051116
 30
0.0
 40
2.955534
100
AcDbArc
 50
270.0
 51
90.0
  0
LINE
  5
3EF
100
AcDbEntity
  8
0
  6
CONTINUOUS
 62
     7
100
AcDbLine
 10
553.406974
 20
221.051116
 30
0.0
 11
553.406974
 21
227.051116
 31
0.0
  0
ARC
  5
3F0
100
AcDbEntity
  8
0
  6
CONTINUOUS
 62
     7
100
AcDbCircle
 10
550.406974
 20
227.051116
 30
0.0
 40
3.0
100
AcDbArc
 50
0.0
 51
180.0
  0
LINE
  5
3F1
100
AcDbEntity
  8
0
  6
CONTINUOUS
 62
     7
100
AcDbLine
 10
547.406974
 20
227.051116
 30
0.0
 11
547.406974
 21
221.051116
 31
0.0
  0
ARC
  5
3F2
100
AcDbEntity
  8
0
  6
CONTINUOUS
 62
     7
100
AcDbCircle
 10
550.406974
 20
221.051116
 30
0.0
 40
3.0
100
AcDbArc
 50
180.0
 51
0.0
  0
LINE
  5
3F3
100
AcDbEntity
  8
0
  6
CONTINUOUS
 62
     7
100
AcDbLine
 10
553.406974
 20
327.051116
 30
0.0
 11
547.406974
 21
327.051116
 31
0.0
  0
ARC
  5
3F4
100
AcDbEntity
  8
0
  6
CONTINUOUS
 62
     7
100
AcDbCircle
 10
547.406974
 20
324.051116
 30
0.0
 40
3.0
100
AcDbArc
 50
90.0
 51
270.0
  0
LINE
  5
3F5
100
AcDbEntity
  8
0
  6
CONTINUOUS
 62
     7
100
AcDbLine
 10
547.406974
 20
321.051116
 30
0.0
 11
553.406974
 21
321.051116
 31
0.0
  0
ARC
  5
3F6
100
AcDbEntity
  8
0
  6
CONTINUOUS
 62
     7
100
AcDbCircle
 10
553.406974
 20
324.051116
 30
0.0
 40
3.0
100
AcDbArc
 50
270.0
 51
90.0
  0
ARC
  5
3F7
100
AcDbEntity
  8
0
  6
CONTINUOUS
 62
     7
100
AcDbCircle
 10
547.406974
 20
324.051116
 30
0.0
 40
2.220366
100
AcDbArc
 50
90.0
 51
270.0
  0
LINE
  5
3F8
100
AcDbEntity
  8
0
  6
CONTINUOUS
 62
     7
100
AcDbLine
 10
547.406974
 20
321.83075
 30
0.0
 11
547.406974
 21
321.095583
 31
0.0
  0
ARC
  5
3F9
100
AcDbEntity
  8
0
  6
CONTINUOUS
 62
     7
100
AcDbCircle
 10
547.406974
 20
324.051116
 30
0.0
 40
2.955534
100
AcDbArc
 50
90.0
 51
270.0
  0
LINE
  5
3FA
100
AcDbEntity
  8
0
  6
CONTINUOUS
 62
     7
100
AcDbLine
 10
547.406974
 20
326.271483
 30
0.0
 11
547.406974
 21
327.00665
 31
0.0
  0
LINE
  5
3FB
100
AcDbEntity
  8
0
  6
CONTINUOUS
 62
     7
100
AcDbLine
 10
547.406974
 20
321.095583
 30
0.0
 11
547.406974
 21
321.051116
 31
0.0
  0
LINE
  5
3FC
100
AcDbEntity
  8
0
  6
CONTINUOUS
 62
     7
100
AcDbLine
 10
547.406974
 20
327.00665
 30
0.0
 11
547.406974
 21
327.051116
 31
0.0
  0
LINE
  5
3FD
100
AcDbEntity
  8
0
  6
CONTINUOUS
 62
     7
100
AcDbLine
 10
547.406974
 20
321.83075
 30
0.0
 11
553.406974
 21
321.83075
 31
0.0
  0
LINE
  5
3FE
100
AcDbEntity
  8
0
  6
CONTINUOUS
 62
     7
100
AcDbLine
 10
553.406974
 20
326.271483
 30
0.0
 11
547.406974
 21
326.271483
 31
0.0
  0
ARC
  5
3FF
100
AcDbEntity
  8
0
  6
CONTINUOUS
 62
     7
100
AcDbCircle
 10
553.406974
 20
324.051116
 30
0.0
 40
2.220366
100
AcDbArc
 50
270.0
 51
90.0
  0
LINE
  5
400
100
AcDbEntity
  8
0
  6
CONTINUOUS
 62
     7
100
AcDbLine
 10
553.3511
 20
227.051116
 30
0.0
 11
553.406974
 21
227.051116
 31
0.0
  0
ARC
  5
401
100
AcDbEntity
  8
0
  6
CONTINUOUS
 62
     7
100
AcDbCircle
 10
550.406974
 20
227.051116
 30
0.0
 40
2.944127
100
AcDbArc
 50
0.0
 51
180.0
  0
LINE
  5
402
100
AcDbEntity
  8
0
  6
CONTINUOUS
 62
     7
100
AcDbLine
 10
547.462847
 20
227.051116
 30
0.0
 11
547.406974
 21
227.051116
 31
0.0
  0
LINE
  5
403
100
AcDbEntity
  8
0
  6
CONTINUOUS
 62
     7
100
AcDbLine
 10
547.462847
 20
221.051116
 30
0.0
 11
547.406974
 21
221.051116
 31
0.0
  0
ARC
  5
404
100
AcDbEntity
  8
0
  6
CONTINUOUS
 62
     7
100
AcDbCircle
 10
550.406974
 20
221.051116
 30
0.0
 40
2.944127
100
AcDbArc
 50
180.0
 51
0.0
  0
LINE
  5
405
100
AcDbEntity
  8
0
  6
CONTINUOUS
 62
     7
100
AcDbLine
 10
553.3511
 20
221.051116
 30
0.0
 11
553.406974
 21
221.051116
 31
0.0
  0
LINE
  5
406
100
AcDbEntity
  8
0
  6
CONTINUOUS
 62
     7
100
AcDbLine
 10
553.406974
 20
327.00665
 30
0.0
 11
553.406974
 21
327.051116
 31
0.0
  0
LINE
  5
407
100
AcDbEntity
  8
0
  6
CONTINUOUS
 62
     7
100
AcDbLine
 10
553.406974
 20
327.00665
 30
0.0
 11
547.406974
 21
327.00665
 31
0.0
  0
LINE
  5
408
100
AcDbEntity
  8
0
  6
CONTINUOUS
 62
     7
100
AcDbLine
 10
547.462847
 20
227.051116
 30
0.0
 11
547.462847
 21
221.051116
 31
0.0
  0
LINE
  5
409
100
AcDbEntity
  8
0
  6
CONTINUOUS
 62
     7
100
AcDbLine
 10
548.586607
 20
221.051116
 30
0.0
 11
547.662847
 21
221.051116
 31
0.0
  0
ARC
  5
40A
100
AcDbEntity
  8
0
  6
CONTINUOUS
 62
     7
100
AcDbCircle
 10
550.406974
 20
221.051116
 30
0.0
 40
1.820366
100
AcDbArc
 50
180.0
 51
0.0
  0
LINE
  5
40B
100
AcDbEntity
  8
0
  6
CONTINUOUS
 62
     7
100
AcDbLine
 10
552.22734
 20
221.051116
 30
0.0
 11
553.1511
 21
221.051116
 31
0.0
  0
ARC
  5
40C
100
AcDbEntity
  8
0
  6
CONTINUOUS
 62
     7
100
AcDbCircle
 10
550.406974
 20
221.051116
 30
0.0
 40
2.744127
100
AcDbArc
 50
180.0
 51
0.0
  0
LINE
  5
40D
100
AcDbEntity
  8
0
  6
CONTINUOUS
 62
     7
100
AcDbLine
 10
553.406974
 20
326.271483
 30
0.0
 11
553.406974
 21
327.00665
 31
0.0
  0
LINE
  5
40E
100
AcDbEntity
  8
0
  6
CONTINUOUS
 62
     7
100
AcDbLine
 10
548.586607
 20
227.051116
 30
0.0
 11
548.586607
 21
221.051116
 31
0.0
  0
ARC
  5
40F
100
AcDbEntity
  8
0
  6
CONTINUOUS
 62
     7
100
AcDbCircle
 10
550.406974
 20
227.051116
 30
0.0
 40
1.820366
100
AcDbArc
 50
0.0
 51
180.0
  0
LINE
  5
410
100
AcDbEntity
  8
0
  6
CONTINUOUS
 62
     7
100
AcDbLine
 10
552.22734
 20
221.051116
 30
0.0
 11
552.22734
 21
227.051116
 31
0.0
  0
LINE
  5
411
100
AcDbEntity
  8
0
  6
CONTINUOUS
 62
     7
100
AcDbLine
 10
548.586607
 20
227.051116
 30
0.0
 11
547.662847
 21
227.051116
 31
0.0
  0
LINE
  5
412
100
AcDbEntity
  8
0
  6
CONTINUOUS
 62
     7
100
AcDbLine
 10
547.662847
 20
227.051116
 30
0.0
 11
547.662847
 21
221.051116
 31
0.0
  0
LINE
  5
413
100
AcDbEntity
  8
0
  6
CONTINUOUS
 62
     7
100
AcDbLine
 10
553.406974
 20
321.83075
 30
0.0
 11
553.406974
 21
321.095583
 31
0.0
  0
LINE
  5
414
100
AcDbEntity
  8
0
  6
CONTINUOUS
 62
     7
100
AcDbLine
 10
547.406974
 20
321.095583
 30
0.0
 11
553.406974
 21
321.095583
 31
0.0
  0
LINE
  5
415
100
AcDbEntity
  8
0
  6
CONTINUOUS
 62
     7
100
AcDbLine
 10
552.22734
 20
227.051116
 30
0.0
 11
553.1511
 21
227.051116
 31
0.0
  0
ARC
  5
416
100
AcDbEntity
  8
0
  6
CONTINUOUS
 62
     7
100
AcDbCircle
 10
550.406974
 20
227.051116
 30
0.0
 40
2.744127
100
AcDbArc
 50
0.0
 51
180.0
  0
LINE
  5
417
100
AcDbEntity
  8
0
  6
CONTINUOUS
 62
     7
100
AcDbLine
 10
553.406974
 20
321.095583
 30
0.0
 11
553.406974
 21
321.051116
 31
0.0
  0
LINE
  5
418
100
AcDbEntity
  8
0
  6
CONTINUOUS
 62
     7
100
AcDbLine
 10
553.1511
 20
221.051116
 30
0.0
 11
553.1511
 21
227.051116
 31
0.0
  0
LINE
  5
419
100
AcDbEntity
  8
0
  6
CONTINUOUS
 62
     7
100
AcDbLine
 10
553.3511
 20
221.051116
 30
0.0
 11
553.3511
 21
227.051116
 31
0.0
  0
ARC
  5
41A
100
AcDbEntity
  8
0
  6
CONTINUOUS
 62
     7
100
AcDbCircle
 10
553.406974
 20
324.051116
 30
0.0
 40
2.955534
100
AcDbArc
 50
270.0
 51
90.0
  0
LINE
  5
41B
100
AcDbEntity
  8
0
  6
CONTINUOUS
 62
     7
100
AcDbLine
 10
448.14975
 20
429.093594
 30
0.0
 11
448.306975
 21
432.093597
 31
0.0
  0
LINE
  5
41C
100
AcDbEntity
  8
0
  6
CONTINUOUS
 62
     7
100
AcDbLine
 10
552.506973
 20
432.093597
 30
0.0
 11
552.664197
 21
429.093594
 31
0.0
  0
LINE
  5
41D
100
AcDbEntity
  8
0
  6
CONTINUOUS
 62
     7
100
AcDbLine
 10
460.406975
 20
432.093597
 30
0.0
 11
460.459381
 21
431.093594
 31
0.0
  0
LINE
  5
41E
100
AcDbEntity
  8
0
  6
CONTINUOUS
 62
     7
100
AcDbLine
 10
470.354566
 20
431.093594
 30
0.0
 11
470.406974
 21
432.093597
 31
0.0
  0
LINE
  5
41F
100
AcDbEntity
  8
0
  6
CONTINUOUS
 62
     7
100
AcDbLine
 10
530.406973
 20
432.093597
 30
0.0
 11
530.459381
 21
431.093594
 31
0.0
  0
LINE
  5
420
100
AcDbEntity
  8
0
  6
CONTINUOUS
 62
     7
100
AcDbLine
 10
540.354566
 20
431.093594
 30
0.0
 11
540.406973
 21
432.093597
 31
0.0
  0
LINE
  5
421
100
AcDbEntity
  8
0
  6
CONTINUOUS
 62
     7
100
AcDbLine
 10
532.156975
 20
431.093595
 30
0.0
 11
532.209345
 21
429.093594
 31
0.0
  0
LINE
  5
422
100
AcDbEntity
  8
0
  6
CONTINUOUS
 62
     7
100
AcDbLine
 10
538.604602
 20
429.093594
 30
0.0
 11
538.656973
 21
431.093595
 31
0.0
  0
LINE
  5
423
100
AcDbEntity
  8
0
  6
CONTINUOUS
 62
     7
100
AcDbLine
 10
462.156974
 20
431.093595
 30
0.0
 11
462.209345
 21
429.093594
 31
0.0
  0
LINE
  5
424
100
AcDbEntity
  8
0
  6
CONTINUOUS
 62
     7
100
AcDbLine
 10
468.604602
 20
429.093594
 30
0.0
 11
468.656973
 21
431.093595
 31
0.0
  0
LINE
  5
425
100
AcDbEntity
  8
0
  6
CONTINUOUS
 62
     7
100
AcDbLine
 10
472.654608
 20
429.093594
 30
0.0
 11
472.706974
 21
432.093597
 31
0.0
  0
LINE
  5
426
100
AcDbEntity
  8
0
  6
CONTINUOUS
 62
     7
100
AcDbLine
 10
458.106973
 20
432.093597
 30
0.0
 11
458.159339
 21
429.093594
 31
0.0
  0
LINE
  5
427
100
AcDbEntity
  8
0
  6
CONTINUOUS
 62
     7
100
AcDbLine
 10
542.654608
 20
429.093594
 30
0.0
 11
542.706974
 21
432.093597
 31
0.0
  0
LINE
  5
428
100
AcDbEntity
  8
0
  6
CONTINUOUS
 62
     7
100
AcDbLine
 10
528.106973
 20
432.093597
 30
0.0
 11
528.159339
 21
429.093594
 31
0.0
  0
LINE
  5
429
100
AcDbEntity
  8
0
  6
CONTINUOUS
 62
     7
100
AcDbLine
 10
520.09712
 20
432.093597
 30
0.0
 11
520.140758
 21
429.593594
 31
0.0
  0
LINE
  5
42A
100
AcDbEntity
  8
0
  6
CONTINUOUS
 62
     7
100
AcDbLine
 10
480.673189
 20
429.593594
 30
0.0
 11
480.716827
 21
432.093597
 31
0.0
  0
LINE
  5
42B
100
AcDbEntity
  8
0
  6
CONTINUOUS
 62
     7
100
AcDbLine
 10
439.15185
 20
493.193594
 30
0.0
 11
440.218356
 21
432.093597
 31
0.0
  0
LINE
  5
42C
100
AcDbEntity
  8
0
  6
CONTINUOUS
 62
     7
100
AcDbLine
 10
440.218355
 20
429.093594
 30
0.0
 11
440.218356
 21
432.093597
 31
0.0
  0
LINE
  5
42D
100
AcDbEntity
  8
0
  6
CONTINUOUS
 62
     7
100
AcDbLine
 10
440.218355
 20
429.093594
 30
0.0
 11
436.206975
 21
429.093591
 31
0.0
  0
LINE
  5
42E
100
AcDbEntity
  8
0
  6
CONTINUOUS
 62
     7
100
AcDbLine
 10
436.206975
 20
429.093591
 30
0.0
 11
436.206974
 21
493.193594
 31
0.0
  0
LINE
  5
42F
100
AcDbEntity
  8
0
  6
CONTINUOUS
 62
     7
100
AcDbLine
 10
439.15185
 20
493.193594
 30
0.0
 11
436.206974
 21
493.193594
 31
0.0
  0
LINE
  5
430
100
AcDbEntity
  8
0
  6
CONTINUOUS
 62
     7
100
AcDbLine
 10
418.806974
 20
501.493594
 30
0.0
 11
424.806974
 21
501.493594
 31
0.0
  0
LINE
  5
431
100
AcDbEntity
  8
0
  6
CONTINUOUS
 62
     7
100
AcDbLine
 10
424.806974
 20
501.493594
 30
0.0
 11
424.806974
 21
429.093594
 31
0.0
  0
LINE
  5
432
100
AcDbEntity
  8
0
  6
CONTINUOUS
 62
     7
100
AcDbLine
 10
424.806974
 20
429.093594
 30
0.0
 11
418.806974
 21
429.093594
 31
0.0
  0
LINE
  5
433
100
AcDbEntity
  8
0
  6
CONTINUOUS
 62
     7
100
AcDbLine
 10
418.806974
 20
429.093594
 30
0.0
 11
418.806974
 21
501.493594
 31
0.0
  0
LINE
  5
434
100
AcDbEntity
  8
0
  6
CONTINUOUS
 62
     7
100
AcDbLine
 10
561.662097
 20
493.193594
 30
0.0
 11
564.606974
 21
493.193594
 31
0.0
  0
LINE
  5
435
100
AcDbEntity
  8
0
  6
CONTINUOUS
 62
     7
100
AcDbLine
 10
564.606974
 20
493.193594
 30
0.0
 11
564.606973
 21
429.093591
 31
0.0
  0
LINE
  5
436
100
AcDbEntity
  8
0
  6
CONTINUOUS
 62
     7
100
AcDbLine
 10
560.595592
 20
429.093594
 30
0.0
 11
560.595591
 21
432.093597
 31
0.0
  0
LINE
  5
437
100
AcDbEntity
  8
0
  6
CONTINUOUS
 62
     7
100
AcDbLine
 10
561.662097
 20
493.193594
 30
0.0
 11
560.595591
 21
432.093597
 31
0.0
  0
LINE
  5
438
100
AcDbEntity
  8
0
  6
CONTINUOUS
 62
     7
100
AcDbLine
 10
564.606973
 20
429.093591
 30
0.0
 11
560.595592
 21
429.093594
 31
0.0
  0
LINE
  5
439
100
AcDbEntity
  8
0
  6
CONTINUOUS
 62
     7
100
AcDbLine
 10
424.806974
 20
501.493594
 30
0.0
 11
576.006974
 21
501.493594
 31
0.0
  0
LINE
  5
43A
100
AcDbEntity
  8
0
  6
CONTINUOUS
 62
     7
100
AcDbLine
 10
576.006974
 20
429.093594
 30
0.0
 11
576.006974
 21
501.493594
 31
0.0
  0
ARC
  5
43B
100
AcDbEntity
  8
0
  6
CONTINUOUS
 62
     7
100
AcDbCircle
 10
560.106974
 20
493.193594
 30
0.0
 40
4.5
100
AcDbArc
 50
0.0
 51
90.0
  0
LINE
  5
43C
100
AcDbEntity
  8
0
  6
CONTINUOUS
 62
     7
100
AcDbLine
 10
440.706974
 20
497.693594
 30
0.0
 11
560.106974
 21
497.693594
 31
0.0
  0
ARC
  5
43D
100
AcDbEntity
  8
0
  6
CONTINUOUS
 62
     7
100
AcDbCircle
 10
440.706974
 20
493.193594
 30
0.0
 40
4.5
100
AcDbArc
 50
90.0
 51
180.0
  0
LINE
  5
43E
100
AcDbEntity
  8
0
  6
CONTINUOUS
 62
     7
100
AcDbLine
 10
436.206975
 20
429.093591
 30
0.0
 11
424.806974
 21
429.093594
 31
0.0
  0
LINE
  5
43F
100
AcDbEntity
  8
0
  6
CONTINUOUS
 62
     7
100
AcDbLine
 10
576.006974
 20
429.093594
 30
0.0
 11
564.606973
 21
429.093591
 31
0.0
  0
LINE
  5
440
100
AcDbEntity
  8
0
  6
CONTINUOUS
 62
     7
100
AcDbLine
 10
576.006974
 20
501.493594
 30
0.0
 11
582.006974
 21
501.493594
 31
0.0
  0
LINE
  5
441
100
AcDbEntity
  8
0
  6
CONTINUOUS
 62
     7
100
AcDbLine
 10
582.006974
 20
501.493594
 30
0.0
 11
582.006974
 21
429.093594
 31
0.0
  0
LINE
  5
442
100
AcDbEntity
  8
0
  6
CONTINUOUS
 62
     7
100
AcDbLine
 10
582.006974
 20
429.093594
 30
0.0
 11
576.006974
 21
429.093594
 31
0.0
  0
ELLIPSE
  5
443
100
AcDbEntity
  8
0
  6
CONTINUOUS
 62
     7
100
AcDbEllipse
 10
560.106974
 20
493.220747
 30
0.0
 11
0.0
 21
1.55559691926328
 31
0.0
210
0.0
220
0.0
230
1.0
 40
0.999848
 41
4.694933028968848
 42
6.283185307179586
  0
LINE
  5
444
100
AcDbEntity
  8
0
  6
CONTINUOUS
 62
     7
100
AcDbLine
 10
560.106975
 20
494.776344
 30
0.0
 11
560.106974
 21
497.693594
 31
0.0
  0
LINE
  5
445
100
AcDbEntity
  8
0
  6
CONTINUOUS
 62
     7
100
AcDbLine
 10
560.106975
 20
494.776344
 30
0.0
 11
440.706973
 21
494.776344
 31
0.0
  0
LINE
  5
446
100
AcDbEntity
  8
0
  6
CONTINUOUS
 62
     7
100
AcDbLine
 10
440.706973
 20
494.776344
 30
0.0
 11
440.706974
 21
497.693594
 31
0.0
  0
ELLIPSE
  5
447
100
AcDbEntity
  8
0
  6
CONTINUOUS
 62
     7
100
AcDbEllipse
 10
440.706974
 20
493.220747
 30
0.0
 11
0.0
 21
1.555596919263166
 31
0.0
210
0.0
220
0.0
230
1.0
 40
0.999848
 41
0.0
 42
1.588252278210754
  0
LINE
  5
448
100
AcDbEntity
  8
0
  6
CONTINUOUS
 62
     7
100
AcDbLine
 10
560.595591
 20
432.093597
 30
0.0
 11
440.218356
 21
432.093597
 31
0.0
  0
LINE
  5
449
100
AcDbEntity
  8
0
  6
CONTINUOUS
 62
     7
100
AcDbLine
 10
443.806974
 20
429.093594
 30
0.0
 11
440.218355
 21
429.093594
 31
0.0
  0
LINE
  5
44A
100
AcDbEntity
  8
0
  6
CONTINUOUS
 62
     7
100
AcDbLine
 10
448.14975
 20
429.093594
 30
0.0
 11
443.806974
 21
429.093594
 31
0.0
  0
LINE
  5
44B
100
AcDbEntity
  8
0
  6
CONTINUOUS
 62
     7
100
AcDbLine
 10
557.006974
 20
429.093594
 30
0.0
 11
552.664197
 21
429.093594
 31
0.0
  0
LINE
  5
44C
100
AcDbEntity
  8
0
  6
CONTINUOUS
 62
     7
100
AcDbLine
 10
560.595592
 20
429.093594
 30
0.0
 11
557.006974
 21
429.093594
 31
0.0
  0
LINE
  5
44D
100
AcDbEntity
  8
0
  6
CONTINUOUS
 62
     7
100
AcDbLine
 10
465.406974
 20
431.093594
 30
0.0
 11
460.459381
 21
431.093594
 31
0.0
  0
LINE
  5
44E
100
AcDbEntity
  8
0
  6
CONTINUOUS
 62
     7
100
AcDbLine
 10
470.354566
 20
431.093594
 30
0.0
 11
465.406974
 21
431.093594
 31
0.0
  0
LINE
  5
44F
100
AcDbEntity
  8
0
  6
CONTINUOUS
 62
     7
100
AcDbLine
 10
535.406974
 20
431.093594
 30
0.0
 11
530.459381
 21
431.093594
 31
0.0
  0
LINE
  5
450
100
AcDbEntity
  8
0
  6
CONTINUOUS
 62
     7
100
AcDbLine
 10
540.354566
 20
431.093594
 30
0.0
 11
535.406974
 21
431.093594
 31
0.0
  0
LINE
  5
451
100
AcDbEntity
  8
0
  6
CONTINUOUS
 62
     7
100
AcDbLine
 10
535.406974
 20
429.093594
 30
0.0
 11
532.209345
 21
429.093594
 31
0.0
  0
LINE
  5
452
100
AcDbEntity
  8
0
  6
CONTINUOUS
 62
     7
100
AcDbLine
 10
538.604602
 20
429.093594
 30
0.0
 11
535.406974
 21
429.093594
 31
0.0
  0
LINE
  5
453
100
AcDbEntity
  8
0
  6
CONTINUOUS
 62
     7
100
AcDbLine
 10
465.406974
 20
429.093594
 30
0.0
 11
462.209345
 21
429.093594
 31
0.0
  0
LINE
  5
454
100
AcDbEntity
  8
0
  6
CONTINUOUS
 62
     7
100
AcDbLine
 10
468.604602
 20
429.093594
 30
0.0
 11
465.406974
 21
429.093594
 31
0.0
  0
LINE
  5
455
100
AcDbEntity
  8
0
  6
CONTINUOUS
 62
     7
100
AcDbLine
 10
472.654608
 20
429.093594
 30
0.0
 11
468.604602
 21
429.093594
 31
0.0
  0
LINE
  5
456
100
AcDbEntity
  8
0
  6
CONTINUOUS
 62
     7
100
AcDbLine
 10
462.209345
 20
429.093594
 30
0.0
 11
458.159339
 21
429.093594
 31
0.0
  0
LINE
  5
457
100
AcDbEntity
  8
0
  6
CONTINUOUS
 62
     7
100
AcDbLine
 10
540.406974
 20
429.093594
 30
0.0
 11
538.604602
 21
429.093594
 31
0.0
  0
LINE
  5
458
100
AcDbEntity
  8
0
  6
CONTINUOUS
 62
     7
100
AcDbLine
 10
542.654608
 20
429.093594
 30
0.0
 11
540.406974
 21
429.093594
 31
0.0
  0
LINE
  5
459
100
AcDbEntity
  8
0
  6
CONTINUOUS
 62
     7
100
AcDbLine
 10
530.406974
 20
429.093594
 30
0.0
 11
528.159339
 21
429.093594
 31
0.0
  0
LINE
  5
45A
100
AcDbEntity
  8
0
  6
CONTINUOUS
 62
     7
100
AcDbLine
 10
532.209345
 20
429.093594
 30
0.0
 11
530.406974
 21
429.093594
 31
0.0
  0
LINE
  5
45B
100
AcDbEntity
  8
0
  6
CONTINUOUS
 62
     7
100
AcDbLine
 10
542.663336
 20
429.593594
 30
0.0
 11
552.637993
 21
429.593594
 31
0.0
  0
LINE
  5
45C
100
AcDbEntity
  8
0
  6
CONTINUOUS
 62
     7
100
AcDbLine
 10
448.175954
 20
429.593594
 30
0.0
 11
458.150611
 21
429.593594
 31
0.0
  0
LINE
  5
45D
100
AcDbEntity
  8
0
  6
CONTINUOUS
 62
     7
100
AcDbLine
 10
520.140758
 20
429.593594
 30
0.0
 11
528.150611
 21
429.593594
 31
0.0
  0
LINE
  5
45E
100
AcDbEntity
  8
0
  6
CONTINUOUS
 62
     7
100
AcDbLine
 10
472.663336
 20
429.593594
 30
0.0
 11
480.673189
 21
429.593594
 31
0.0
  0
LINE
  5
45F
100
AcDbEntity
  8
0
  6
CONTINUOUS
 62
     7
100
AcDbLine
 10
582.006974
 20
497.693594
 30
0.0
 11
582.006974
 21
493.193594
 31
0.0
  0
LINE
  5
460
100
AcDbEntity
  8
0
  6
CONTINUOUS
 62
     7
100
AcDbLine
 10
418.806974
 20
497.693594
 30
0.0
 11
418.806974
 21
493.193594
 31
0.0
  0
LINE
  5
461
100
AcDbEntity
  8
0
  6
CONTINUOUS
 62
     7
100
AcDbLine
 10
418.806974
 20
493.193594
 30
0.0
 11
418.806974
 21
429.093594
 31
0.0
  0
LINE
  5
462
100
AcDbEntity
  8
0
  6
CONTINUOUS
 62
     7
100
AcDbLine
 10
582.006974
 20
493.193594
 30
0.0
 11
582.006974
 21
429.093594
 31
0.0
  0
INSERT
  5
46A
100
AcDbEntity
  8
0
  6
CONTINUOUS
 62
     7
100
AcDbBlockReference
  2
SW_CENTERMARKSYMBOL_2
 10
440.706974
 20
493.193594
 30
0.0
 41
2.0
 42
2.0
 43
2.0
  0
INSERT
  5
472
100
AcDbEntity
  8
0
  6
CONTINUOUS
 62
     7
100
AcDbBlockReference
  2
SW_CENTERMARKSYMBOL_3
 10
560.106974
 20
493.193594
 30
0.0
 41
2.0
 42
2.0
 43
2.0
  0
LINE
  5
473
100
AcDbEntity
  8
0
  6
CONTINUOUS
 62
     7
100
AcDbLine
 10
448.306975
 20
100.001556
 30
0.0
 11
448.14975
 21
103.001559
 31
0.0
  0
LINE
  5
474
100
AcDbEntity
  8
0
  6
CONTINUOUS
 62
     7
100
AcDbLine
 10
552.664197
 20
103.001559
 30
0.0
 11
552.506973
 21
100.001556
 31
0.0
  0
LINE
  5
475
100
AcDbEntity
  8
0
  6
CONTINUOUS
 62
     7
100
AcDbLine
 10
540.406973
 20
100.001556
 30
0.0
 11
540.354566
 21
101.001559
 31
0.0
  0
LINE
  5
476
100
AcDbEntity
  8
0
  6
CONTINUOUS
 62
     7
100
AcDbLine
 10
530.459381
 20
101.001559
 30
0.0
 11
530.406973
 21
100.001556
 31
0.0
  0
LINE
  5
477
100
AcDbEntity
  8
0
  6
CONTINUOUS
 62
     7
100
AcDbLine
 10
470.406974
 20
100.001556
 30
0.0
 11
470.354566
 21
101.001559
 31
0.0
  0
LINE
  5
478
100
AcDbEntity
  8
0
  6
CONTINUOUS
 62
     7
100
AcDbLine
 10
460.459381
 20
101.001559
 30
0.0
 11
460.406975
 21
100.001556
 31
0.0
  0
LINE
  5
479
100
AcDbEntity
  8
0
  6
CONTINUOUS
 62
     7
100
AcDbLine
 10
538.656973
 20
101.001558
 30
0.0
 11
538.604602
 21
103.001559
 31
0.0
  0
LINE
  5
47A
100
AcDbEntity
  8
0
  6
CONTINUOUS
 62
     7
100
AcDbLine
 10
532.209345
 20
103.001559
 30
0.0
 11
532.156975
 21
101.001558
 31
0.0
  0
LINE
  5
47B
100
AcDbEntity
  8
0
  6
CONTINUOUS
 62
     7
100
AcDbLine
 10
468.656973
 20
101.001558
 30
0.0
 11
468.604602
 21
103.001559
 31
0.0
  0
LINE
  5
47C
100
AcDbEntity
  8
0
  6
CONTINUOUS
 62
     7
100
AcDbLine
 10
462.209345
 20
103.001559
 30
0.0
 11
462.156974
 21
101.001558
 31
0.0
  0
LINE
  5
47D
100
AcDbEntity
  8
0
  6
CONTINUOUS
 62
     7
100
AcDbLine
 10
472.706974
 20
100.001556
 30
0.0
 11
472.654608
 21
103.001559
 31
0.0
  0
LINE
  5
47E
100
AcDbEntity
  8
0
  6
CONTINUOUS
 62
     7
100
AcDbLine
 10
542.706974
 20
100.001556
 30
0.0
 11
542.654608
 21
103.001559
 31
0.0
  0
LINE
  5
47F
100
AcDbEntity
  8
0
  6
CONTINUOUS
 62
     7
100
AcDbLine
 10
458.159339
 20
103.001559
 30
0.0
 11
458.106973
 21
100.001556
 31
0.0
  0
LINE
  5
480
100
AcDbEntity
  8
0
  6
CONTINUOUS
 62
     7
100
AcDbLine
 10
528.159339
 20
103.001559
 30
0.0
 11
528.106973
 21
100.001556
 31
0.0
  0
LINE
  5
481
100
AcDbEntity
  8
0
  6
CONTINUOUS
 62
     7
100
AcDbLine
 10
520.140758
 20
102.501559
 30
0.0
 11
520.09712
 21
100.001556
 31
0.0
  0
LINE
  5
482
100
AcDbEntity
  8
0
  6
CONTINUOUS
 62
     7
100
AcDbLine
 10
480.716827
 20
100.001556
 30
0.0
 11
480.673189
 21
102.501559
 31
0.0
  0
LINE
  5
483
100
AcDbEntity
  8
0
  6
CONTINUOUS
 62
     7
100
AcDbLine
 10
561.662097
 20
38.901559
 30
0.0
 11
564.606974
 21
38.901559
 31
0.0
  0
LINE
  5
484
100
AcDbEntity
  8
0
  6
CONTINUOUS
 62
     7
100
AcDbLine
 10
561.662097
 20
38.901559
 30
0.0
 11
560.595591
 21
100.001556
 31
0.0
  0
LINE
  5
485
100
AcDbEntity
  8
0
  6
CONTINUOUS
 62
     7
100
AcDbLine
 10
560.595592
 20
103.001559
 30
0.0
 11
560.595591
 21
100.001556
 31
0.0
  0
LINE
  5
486
100
AcDbEntity
  8
0
  6
CONTINUOUS
 62
     7
100
AcDbLine
 10
560.595592
 20
103.001559
 30
0.0
 11
564.606973
 21
103.001563
 31
0.0
  0
LINE
  5
487
100
AcDbEntity
  8
0
  6
CONTINUOUS
 62
     7
100
AcDbLine
 10
564.606974
 20
38.901559
 30
0.0
 11
564.606973
 21
103.001563
 31
0.0
  0
LINE
  5
488
100
AcDbEntity
  8
0
  6
CONTINUOUS
 62
     7
100
AcDbLine
 10
582.006974
 20
30.601559
 30
0.0
 11
576.006974
 21
30.601559
 31
0.0
  0
LINE
  5
489
100
AcDbEntity
  8
0
  6
CONTINUOUS
 62
     7
100
AcDbLine
 10
576.006974
 20
30.601559
 30
0.0
 11
576.006974
 21
103.001559
 31
0.0
  0
LINE
  5
48A
100
AcDbEntity
  8
0
  6
CONTINUOUS
 62
     7
100
AcDbLine
 10
576.006974
 20
103.001559
 30
0.0
 11
582.006974
 21
103.001559
 31
0.0
  0
LINE
  5
48B
100
AcDbEntity
  8
0
  6
CONTINUOUS
 62
     7
100
AcDbLine
 10
582.006974
 20
103.001559
 30
0.0
 11
582.006974
 21
30.601559
 31
0.0
  0
LINE
  5
48C
100
AcDbEntity
  8
0
  6
CONTINUOUS
 62
     7
100
AcDbLine
 10
436.206975
 20
103.001563
 30
0.0
 11
436.206974
 21
38.901559
 31
0.0
  0
LINE
  5
48D
100
AcDbEntity
  8
0
  6
CONTINUOUS
 62
     7
100
AcDbLine
 10
440.218355
 20
103.001559
 30
0.0
 11
440.218356
 21
100.001556
 31
0.0
  0
LINE
  5
48E
100
AcDbEntity
  8
0
  6
CONTINUOUS
 62
     7
100
AcDbLine
 10
439.15185
 20
38.901559
 30
0.0
 11
440.218356
 21
100.001556
 31
0.0
  0
LINE
  5
48F
100
AcDbEntity
  8
0
  6
CONTINUOUS
 62
     7
100
AcDbLine
 10
439.15185
 20
38.901559
 30
0.0
 11
436.206974
 21
38.901559
 31
0.0
  0
LINE
  5
490
100
AcDbEntity
  8
0
  6
CONTINUOUS
 62
     7
100
AcDbLine
 10
436.206975
 20
103.001563
 30
0.0
 11
440.218355
 21
103.001559
 31
0.0
  0
LINE
  5
491
100
AcDbEntity
  8
0
  6
CONTINUOUS
 62
     7
100
AcDbLine
 10
576.006974
 20
30.601559
 30
0.0
 11
424.806974
 21
30.601559
 31
0.0
  0
LINE
  5
492
100
AcDbEntity
  8
0
  6
CONTINUOUS
 62
     7
100
AcDbLine
 10
424.806974
 20
103.001559
 30
0.0
 11
424.806974
 21
30.601559
 31
0.0
  0
ARC
  5
493
100
AcDbEntity
  8
0
  6
CONTINUOUS
 62
     7
100
AcDbCircle
 10
440.706974
 20
38.901559
 30
0.0
 40
4.5
100
AcDbArc
 50
180.0
 51
270.0
  0
LINE
  5
494
100
AcDbEntity
  8
0
  6
CONTINUOUS
 62
     7
100
AcDbLine
 10
440.706974
 20
34.401559
 30
0.0
 11
560.106974
 21
34.401559
 31
0.0
  0
ARC
  5
495
100
AcDbEntity
  8
0
  6
CONTINUOUS
 62
     7
100
AcDbCircle
 10
560.106974
 20
38.901559
 30
0.0
 40
4.5
100
AcDbArc
 50
270.0
 51
0.0
  0
LINE
  5
496
100
AcDbEntity
  8
0
  6
CONTINUOUS
 62
     7
100
AcDbLine
 10
564.606973
 20
103.001563
 30
0.0
 11
576.006974
 21
103.001559
 31
0.0
  0
LINE
  5
497
100
AcDbEntity
  8
0
  6
CONTINUOUS
 62
     7
100
AcDbLine
 10
424.806974
 20
103.001559
 30
0.0
 11
436.206975
 21
103.001563
 31
0.0
  0
LINE
  5
498
100
AcDbEntity
  8
0
  6
CONTINUOUS
 62
     7
100
AcDbLine
 10
424.806974
 20
30.601559
 30
0.0
 11
418.806974
 21
30.601559
 31
0.0
  0
LINE
  5
499
100
AcDbEntity
  8
0
  6
CONTINUOUS
 62
     7
100
AcDbLine
 10
418.806974
 20
30.601559
 30
0.0
 11
418.806974
 21
103.001559
 31
0.0
  0
LINE
  5
49A
100
AcDbEntity
  8
0
  6
CONTINUOUS
 62
     7
100
AcDbLine
 10
418.806974
 20
103.001559
 30
0.0
 11
424.806974
 21
103.001559
 31
0.0
  0
ELLIPSE
  5
49B
100
AcDbEntity
  8
0
  6
CONTINUOUS
 62
     7
100
AcDbEllipse
 10
440.706974
 20
38.874406
 30
0.0
 11
-0.0000000000000568
 21
1.555596919263273
 31
0.0
210
0.0
220
0.0
230
1.0
 40
0.999848
 41
1.553340375378966
 42
3.141592653589756
  0
LINE
  5
49C
100
AcDbEntity
  8
0
  6
CONTINUOUS
 62
     7
100
AcDbLine
 10
440.706973
 20
37.318809
 30
0.0
 11
440.706974
 21
34.401559
 31
0.0
  0
LINE
  5
49D
100
AcDbEntity
  8
0
  6
CONTINUOUS
 62
     7
100
AcDbLine
 10
560.106975
 20
37.318809
 30
0.0
 11
560.106974
 21
34.401559
 31
0.0
  0
ELLIPSE
  5
49E
100
AcDbEntity
  8
0
  6
CONTINUOUS
 62
     7
100
AcDbEllipse
 10
560.106974
 20
38.874406
 30
0.0
 11
0.0
 21
1.555596919263251
 31
0.0
210
0.0
220
0.0
230
1.0
 40
0.999848
 41
3.141592653589793
 42
4.729844931800616
  0
LINE
  5
49F
100
AcDbEntity
  8
0
  6
CONTINUOUS
 62
     7
100
AcDbLine
 10
560.106975
 20
37.318809
 30
0.0
 11
440.706973
 21
37.318809
 31
0.0
  0
LINE
  5
4A0
100
AcDbEntity
  8
0
  6
CONTINUOUS
 62
     7
100
AcDbLine
 10
560.595591
 20
100.001556
 30
0.0
 11
440.218356
 21
100.001556
 31
0.0
  0
LINE
  5
4A1
100
AcDbEntity
  8
0
  6
CONTINUOUS
 62
     7
100
AcDbLine
 10
440.218355
 20
103.001559
 30
0.0
 11
448.14975
 21
103.001559
 31
0.0
  0
LINE
  5
4A2
100
AcDbEntity
  8
0
  6
CONTINUOUS
 62
     7
100
AcDbLine
 10
552.664197
 20
103.001559
 30
0.0
 11
560.595592
 21
103.001559
 31
0.0
  0
LINE
  5
4A3
100
AcDbEntity
  8
0
  6
CONTINUOUS
 62
     7
100
AcDbLine
 10
530.459381
 20
101.001559
 30
0.0
 11
540.354566
 21
101.001559
 31
0.0
  0
LINE
  5
4A4
100
AcDbEntity
  8
0
  6
CONTINUOUS
 62
     7
100
AcDbLine
 10
460.459381
 20
101.001559
 30
0.0
 11
470.354566
 21
101.001559
 31
0.0
  0
LINE
  5
4A5
100
AcDbEntity
  8
0
  6
CONTINUOUS
 62
     7
100
AcDbLine
 10
532.209345
 20
103.001559
 30
0.0
 11
538.604602
 21
103.001559
 31
0.0
  0
LINE
  5
4A6
100
AcDbEntity
  8
0
  6
CONTINUOUS
 62
     7
100
AcDbLine
 10
462.209345
 20
103.001559
 30
0.0
 11
468.604602
 21
103.001559
 31
0.0
  0
LINE
  5
4A7
100
AcDbEntity
  8
0
  6
CONTINUOUS
 62
     7
100
AcDbLine
 10
468.604602
 20
103.001559
 30
0.0
 11
472.654608
 21
103.001559
 31
0.0
  0
LINE
  5
4A8
100
AcDbEntity
  8
0
  6
CONTINUOUS
 62
     7
100
AcDbLine
 10
540.406974
 20
103.001559
 30
0.0
 11
542.654608
 21
103.001559
 31
0.0
  0
LINE
  5
4A9
100
AcDbEntity
  8
0
  6
CONTINUOUS
 62
     7
100
AcDbLine
 10
538.604602
 20
103.001559
 30
0.0
 11
540.406974
 21
103.001559
 31
0.0
  0
LINE
  5
4AA
100
AcDbEntity
  8
0
  6
CONTINUOUS
 62
     7
100
AcDbLine
 10
458.159339
 20
103.001559
 30
0.0
 11
462.209345
 21
103.001559
 31
0.0
  0
LINE
  5
4AB
100
AcDbEntity
  8
0
  6
CONTINUOUS
 62
     7
100
AcDbLine
 10
530.406974
 20
103.001559
 30
0.0
 11
532.209345
 21
103.001559
 31
0.0
  0
LINE
  5
4AC
100
AcDbEntity
  8
0
  6
CONTINUOUS
 62
     7
100
AcDbLine
 10
528.159339
 20
103.001559
 30
0.0
 11
530.406974
 21
103.001559
 31
0.0
  0
LINE
  5
4AD
100
AcDbEntity
  8
0
  6
CONTINUOUS
 62
     7
100
AcDbLine
 10
552.637993
 20
102.501559
 30
0.0
 11
542.663336
 21
102.501559
 31
0.0
  0
LINE
  5
4AE
100
AcDbEntity
  8
0
  6
CONTINUOUS
 62
     7
100
AcDbLine
 10
458.150611
 20
102.501559
 30
0.0
 11
448.175954
 21
102.501559
 31
0.0
  0
LINE
  5
4AF
100
AcDbEntity
  8
0
  6
CONTINUOUS
 62
     7
100
AcDbLine
 10
528.150611
 20
102.501559
 30
0.0
 11
520.140758
 21
102.501559
 31
0.0
  0
LINE
  5
4B0
100
AcDbEntity
  8
0
  6
CONTINUOUS
 62
     7
100
AcDbLine
 10
480.673189
 20
102.501559
 30
0.0
 11
472.663336
 21
102.501559
 31
0.0
  0
LINE
  5
4B1
100
AcDbEntity
  8
0
  6
CONTINUOUS
 62
     7
100
AcDbLine
 10
418.806974
 20
38.901559
 30
0.0
 11
418.806974
 21
34.401559
 31
0.0
  0
LINE
  5
4B2
100
AcDbEntity
  8
0
  6
CONTINUOUS
 62
     7
100
AcDbLine
 10
582.006974
 20
38.901559
 30
0.0
 11
582.006974
 21
34.401559
 31
0.0
  0
LINE
  5
4B3
100
AcDbEntity
  8
0
  6
CONTINUOUS
 62
     7
100
AcDbLine
 10
582.006974
 20
103.001559
 30
0.0
 11
582.006974
 21
38.901559
 31
0.0
  0
LINE
  5
4B4
100
AcDbEntity
  8
0
  6
CONTINUOUS
 62
     7
100
AcDbLine
 10
418.806974
 20
103.001559
 30
0.0
 11
418.806974
 21
38.901559
 31
0.0
  0
INSERT
  5
4BC
100
AcDbEntity
  8
0
  6
CONTINUOUS
 62
     7
100
AcDbBlockReference
  2
SW_CENTERMARKSYMBOL_4
 10
440.706974
 20
38.901559
 30
0.0
 41
2.0
 42
2.0
 43
2.0
  0
INSERT
  5
4C4
100
AcDbEntity
  8
0
  6
CONTINUOUS
 62
     7
100
AcDbBlockReference
  2
SW_CENTERMARKSYMBOL_5
 10
560.106974
 20
38.901559
 30
0.0
 41
2.0
 42
2.0
 43
2.0
  0
LINE
  5
4CF
100
AcDbEntity
  8
0
  6
CONTINUOUS
 62
     7
100
AcDbLine
 10
669.401666
 20
211.351113
 30
0.0
 11
666.401664
 21
211.298751
 31
0.0
  0
LINE
  5
4D0
100
AcDbEntity
  8
0
  6
CONTINUOUS
 62
     7
100
AcDbLine
 10
666.401664
 20
336.803482
 30
0.0
 11
669.401666
 21
336.75112
 31
0.0
  0
LINE
  5
4D1
100
AcDbEntity
  8
0
  6
CONTINUOUS
 62
     7
100
AcDbLine
 10
669.401666
 20
334.36097
 30
0.0
 11
666.901664
 21
334.317332
 31
0.0
  0
LINE
  5
4D2
100
AcDbEntity
  8
0
  6
CONTINUOUS
 62
     7
100
AcDbLine
 10
666.901664
 20
313.784901
 30
0.0
 11
669.401666
 21
313.741264
 31
0.0
  0
LINE
  5
4D3
100
AcDbEntity
  8
0
  6
CONTINUOUS
 62
     7
100
AcDbLine
 10
669.401666
 20
234.360968
 30
0.0
 11
666.901664
 21
234.317332
 31
0.0
  0
LINE
  5
4D4
100
AcDbEntity
  8
0
  6
CONTINUOUS
 62
     7
100
AcDbLine
 10
666.901664
 20
213.784901
 30
0.0
 11
669.401666
 21
213.741263
 31
0.0
  0
LINE
  5
4D5
100
AcDbEntity
  8
0
  6
CONTINUOUS
 62
     7
100
AcDbLine
 10
666.401664
 20
194.003482
 30
0.0
 11
669.401666
 21
193.951116
 31
0.0
  0
LINE
  5
4D6
100
AcDbEntity
  8
0
  6
CONTINUOUS
 62
     7
100
AcDbLine
 10
669.401666
 20
354.151116
 30
0.0
 11
666.401664
 21
354.098751
 31
0.0
  0
LINE
  5
4D7
100
AcDbEntity
  8
0
  6
CONTINUOUS
 62
     7
100
AcDbLine
 10
738.801664
 20
179.451116
 30
0.0
 11
738.801664
 21
173.451116
 31
0.0
  0
LINE
  5
4D8
100
AcDbEntity
  8
0
  6
CONTINUOUS
 62
     7
100
AcDbLine
 10
738.801664
 20
173.451116
 30
0.0
 11
666.401664
 21
173.451116
 31
0.0
  0
LINE
  5
4D9
100
AcDbEntity
  8
0
  6
CONTINUOUS
 62
     7
100
AcDbLine
 10
666.401664
 20
179.451116
 30
0.0
 11
738.801664
 21
179.451116
 31
0.0
  0
LINE
  5
4DA
100
AcDbEntity
  8
0
  6
CONTINUOUS
 62
     7
100
AcDbLine
 10
666.401664
 20
173.451116
 30
0.0
 11
666.401664
 21
179.451116
 31
0.0
  0
LINE
  5
4DB
100
AcDbEntity
  8
0
  6
CONTINUOUS
 62
     7
100
AcDbLine
 10
666.40166
 20
189.151117
 30
0.0
 11
730.501664
 21
189.151116
 31
0.0
  0
LINE
  5
4DC
100
AcDbEntity
  8
0
  6
CONTINUOUS
 62
     7
100
AcDbLine
 10
666.40166
 20
193.162495
 30
0.0
 11
669.401666
 21
193.162495
 31
0.0
  0
LINE
  5
4DD
100
AcDbEntity
  8
0
  6
CONTINUOUS
 62
     7
100
AcDbLine
 10
730.501664
 20
192.095996
 30
0.0
 11
669.401666
 21
193.162495
 31
0.0
  0
LINE
  5
4DE
100
AcDbEntity
  8
0
  6
CONTINUOUS
 62
     7
100
AcDbLine
 10
730.501664
 20
192.095996
 30
0.0
 11
730.501664
 21
189.151116
 31
0.0
  0
LINE
  5
4DF
100
AcDbEntity
  8
0
  6
CONTINUOUS
 62
     7
100
AcDbLine
 10
666.40166
 20
189.151117
 30
0.0
 11
666.40166
 21
193.162495
 31
0.0
  0
LINE
  5
4E0
100
AcDbEntity
  8
0
  6
CONTINUOUS
 62
     7
100
AcDbLine
 10
738.801664
 20
374.651116
 30
0.0
 11
738.801664
 21
368.651116
 31
0.0
  0
LINE
  5
4E1
100
AcDbEntity
  8
0
  6
CONTINUOUS
 62
     7
100
AcDbLine
 10
738.801664
 20
368.651116
 30
0.0
 11
666.401664
 21
368.651116
 31
0.0
  0
LINE
  5
4E2
100
AcDbEntity
  8
0
  6
CONTINUOUS
 62
     7
100
AcDbLine
 10
666.401664
 20
368.651116
 30
0.0
 11
666.401664
 21
374.651116
 31
0.0
  0
LINE
  5
4E3
100
AcDbEntity
  8
0
  6
CONTINUOUS
 62
     7
100
AcDbLine
 10
666.401664
 20
374.651116
 30
0.0
 11
738.801664
 21
374.651116
 31
0.0
  0
LINE
  5
4E5
100
AcDbEntity
  8
0
  6
CONTINUOUS
 62
     7
100
AcDbLine
 10
730.501664
 20
356.006236
 30
0.0
 11
669.401666
 21
354.939738
 31
0.0
  0
LINE
  5
4E6
100
AcDbEntity
  8
0
  6
CONTINUOUS
 62
     7
100
AcDbLine
 10
666.40166
 20
354.939738
 30
0.0
 11
669.401666
 21
354.939738
 31
0.0
  0
LINE
  5
4E7
100
AcDbEntity
  8
0
  6
CONTINUOUS
 62
     7
100
AcDbLine
 10
666.40166
 20
354.939738
 30
0.0
 11
666.40166
 21
358.951116
 31
0.0
  0
LINE
  5
4E8
100
AcDbEntity
  8
0
  6
CONTINUOUS
 62
     7
100
AcDbLine
 10
730.501664
 20
358.951116
 30
0.0
 11
666.40166
 21
358.951116
 31
0.0
  0
LINE
  5
4E9
100
AcDbEntity
  8
0
  6
CONTINUOUS
 62
     7
100
AcDbLine
 10
738.801664
 20
368.651116
 30
0.0
 11
738.801664
 21
179.451116
 31
0.0
  0
ARC
  5
4EA
100
AcDbEntity
  8
0
  6
CONTINUOUS
 62
     7
100
AcDbCircle
 10
730.501664
 20
193.651116
 30
0.0
 40
4.5
100
AcDbArc
 50
270.0
 51
0.0
  0
LINE
  5
4EB
100
AcDbEntity
  8
0
  6
CONTINUOUS
 62
     7
100
AcDbLine
 10
735.001664
 20
193.651116
 30
0.0
 11
735.001664
 21
354.451116
 31
0.0
  0
ARC
  5
4EC
100
AcDbEntity
  8
0
  6
CONTINUOUS
 62
     7
100
AcDbCircle
 10
730.501664
 20
354.451116
 30
0.0
 40
4.5
100
AcDbArc
 50
0.0
 51
90.0
  0
LINE
  5
4ED
100
AcDbEntity
  8
0
  6
CONTINUOUS
 62
     7
100
AcDbLine
 10
666.40166
 20
358.951116
 30
0.0
 11
666.401664
 21
368.651116
 31
0.0
  0
LINE
  5
4EE
100
AcDbEntity
  8
0
  6
CONTINUOUS
 62
     7
100
AcDbLine
 10
666.401664
 20
179.451116
 30
0.0
 11
666.40166
 21
189.151117
 31
0.0
  0
ELLIPSE
  5
4F0
100
AcDbEntity
  8
0
  6
CONTINUOUS
 62
     7
100
AcDbEllipse
 10
730.528817
 20
354.451116
 30
0.0
 11
1.555596919263166
 21
0.0
 31
0.0
210
0.0
220
0.0
230
1.0
 40
0.999848
 41
0.0
 42
1.588252278210826
  0
ELLIPSE
  5
4F1
100
AcDbEntity
  8
0
  6
CONTINUOUS
 62
     7
100
AcDbEllipse
 10
730.528817
 20
193.651116
 30
0.0
 11
1.555596919263166
 21
0.0
 31
0.0
210
0.0
220
0.0
230
1.0
 40
0.999848
 41
4.694933028968772
 42
6.283185307179586
  0
LINE
  5
4F2
100
AcDbEntity
  8
0
  6
CONTINUOUS
 62
     7
100
AcDbLine
 10
732.084414
 20
193.651119
 30
0.0
 11
735.001664
 21
193.651116
 31
0.0
  0
LINE
  5
4F3
100
AcDbEntity
  8
0
  6
CONTINUOUS
 62
     7
100
AcDbLine
 10
732.084414
 20
354.451114
 30
0.0
 11
732.084414
 21
193.651119
 31
0.0
  0
LINE
  5
4F4
100
AcDbEntity
  8
0
  6
CONTINUOUS
 62
     7
100
AcDbLine
 10
669.401666
 20
354.939738
 30
0.0
 11
669.401666
 21
193.162495
 31
0.0
  0
LINE
  5
4F7
100
AcDbEntity
  8
0
  6
CONTINUOUS
 62
     7
100
AcDbLine
 10
666.401664
 20
200.853488
 30
0.0
 11
666.401664
 21
207.248745
 31
0.0
  0
LINE
  5
4F8
100
AcDbEntity
  8
0
  6
CONTINUOUS
 62
     7
100
AcDbLine
 10
666.401664
 20
340.853488
 30
0.0
 11
666.401664
 21
347.248745
 31
0.0
  0
LINE
  5
4F9
100
AcDbEntity
  8
0
  6
CONTINUOUS
 62
     7
100
AcDbLine
 10
666.401664
 20
347.248745
 30
0.0
 11
666.401664
 21
351.298751
 31
0.0
  0
LINE
  5
4FA
100
AcDbEntity
  8
0
  6
CONTINUOUS
 62
     7
100
AcDbLine
 10
666.401664
 20
196.803482
 30
0.0
 11
666.401664
 21
200.853488
 31
0.0
  0
LINE
  5
4FB
100
AcDbEntity
  8
0
  6
CONTINUOUS
 62
     7
100
AcDbLine
 10
666.401664
 20
207.248745
 30
0.0
 11
666.401664
 21
211.298751
 31
0.0
  0
LINE
  5
4FC
100
AcDbEntity
  8
0
  6
CONTINUOUS
 62
     7
100
AcDbLine
 10
666.401664
 20
336.803482
 30
0.0
 11
666.401664
 21
340.853488
 31
0.0
  0
LINE
  5
4FD
100
AcDbEntity
  8
0
  6
CONTINUOUS
 62
     7
100
AcDbLine
 10
666.901664
 20
334.317332
 30
0.0
 11
666.901664
 21
313.784901
 31
0.0
  0
LINE
  5
4FE
100
AcDbEntity
  8
0
  6
CONTINUOUS
 62
     7
100
AcDbLine
 10
666.901664
 20
234.317332
 30
0.0
 11
666.901664
 21
213.784901
 31
0.0
  0
LINE
  5
4FF
100
AcDbEntity
  8
0
  6
CONTINUOUS
 62
     7
100
AcDbLine
 10
666.401664
 20
194.003482
 30
0.0
 11
666.401664
 21
196.803482
 31
0.0
  0
LINE
  5
500
100
AcDbEntity
  8
0
  6
CONTINUOUS
 62
     7
100
AcDbLine
 10
666.401664
 20
351.298751
 30
0.0
 11
666.401664
 21
354.098751
 31
0.0
  0
LINE
  5
506
100
AcDbEntity
  8
0
  6
HIDDEN
 62
     7
100
AcDbLine
 10
666.401664
 20
179.451116
 30
0.0
 11
669.401664
 21
179.451116
 31
0.0
  0
LINE
  5
50E
100
AcDbEntity
  8
0
  6
HIDDEN
 62
     7
100
AcDbLine
 10
724.301664
 20
179.451116
 30
0.0
 11
738.801664
 21
179.451116
 31
0.0
  0
LINE
  5
510
100
AcDbEntity
  8
0
  6
HIDDEN
 62
     7
100
AcDbLine
 10
738.801664
 20
368.651116
 30
0.0
 11
724.301664
 21
368.651116
 31
0.0
  0
LINE
  5
545
100
AcDbEntity
  8
0
  6
HIDDEN
 62
     1
100
AcDbLine
 10
671.701664
 20
200.711332
 30
0.0
 11
671.701664
 21
197.611515
 31
0.0
  0
LINE
  5
546
100
AcDbEntity
  8
0
  6
HIDDEN
 62
     1
100
AcDbLine
 10
671.701664
 20
347.390901
 30
0.0
 11
671.701664
 21
200.711332
 31
0.0
  0
LINE
  5
547
100
AcDbEntity
  8
0
  6
HIDDEN
 62
     1
100
AcDbLine
 10
671.701664
 20
347.390901
 30
0.0
 11
671.701664
 21
350.490718
 31
0.0
  0
LINE
  5
54C
100
AcDbEntity
  8
0
  6
HIDDEN
 62
     1
100
AcDbLine
 10
671.701664
 20
350.490718
 30
0.0
 11
671.701664
 21
353.031167
 31
0.0
  0
LINE
  5
54E
100
AcDbEntity
  8
0
  6
HIDDEN
 62
     1
100
AcDbLine
 10
671.701664
 20
197.611515
 30
0.0
 11
671.701664
 21
195.071066
 31
0.0
  0
LINE
  5
558
100
AcDbEntity
  8
0
  6
HIDDEN
 62
     1
100
AcDbLine
 10
679.201664
 20
277.335663
 30
0.0
 11
679.201664
 21
270.76657
 31
0.0
  0
LINE
  5
55B
100
AcDbEntity
  8
0
  6
HIDDEN
 62
     1
100
AcDbLine
 10
671.701661
 20
280.682029
 30
0.0
 11
679.201665
 21
280.551117
 31
0.0
  0
LINE
  5
55C
100
AcDbEntity
  8
0
  6
HIDDEN
 62
     1
100
AcDbLine
 10
679.201665
 20
280.551117
 30
0.0
 11
679.201664
 21
277.335663
 31
0.0
  0
LINE
  5
55D
100
AcDbEntity
  8
0
  6
HIDDEN
 62
     1
100
AcDbLine
 10
671.701661
 20
267.420204
 30
0.0
 11
679.201665
 21
267.551116
 31
0.0
  0
LINE
  5
55E
100
AcDbEntity
  8
0
  6
HIDDEN
 62
     1
100
AcDbLine
 10
679.201664
 20
270.76657
 30
0.0
 11
679.201665
 21
267.551116
 31
0.0
  0
LINE
  5
57E
100
AcDbEntity
  8
0
  6
HIDDEN
 62
     1
100
AcDbLine
 10
676.501664
 20
334.317332
 30
0.0
 11
676.501664
 21
313.784901
 31
0.0
  0
LINE
  5
580
100
AcDbEntity
  8
0
  6
HIDDEN
 62
     1
100
AcDbLine
 10
676.501664
 20
226.373871
 30
0.0
 11
671.701661
 21
226.719917
 31
0.0
  0
LINE
  5
581
100
AcDbEntity
  8
0
  6
HIDDEN
 62
     1
100
AcDbLine
 10
676.501664
 20
234.317332
 30
0.0
 11
676.501664
 21
213.784901
 31
0.0
  0
LINE
  5
582
100
AcDbEntity
  8
0
  6
HIDDEN
 62
     1
100
AcDbLine
 10
676.501664
 20
221.728364
 30
0.0
 11
671.701661
 21
221.382314
 31
0.0
  0
LINE
  5
589
100
AcDbEntity
  8
0
  6
HIDDEN
 62
     1
100
AcDbLine
 10
679.201664
 20
209.420203
 30
0.0
 11
679.201664
 21
202.682029
 31
0.0
  0
LINE
  5
58A
100
AcDbEntity
  8
0
  6
HIDDEN
 62
     1
100
AcDbLine
 10
679.201664
 20
345.420203
 30
0.0
 11
679.201664
 21
338.682029
 31
0.0
  0
LINE
  5
5A7
100
AcDbEntity
  8
0
  6
HIDDEN
 62
     1
100
AcDbLine
 10
679.201664
 20
202.682029
 30
0.0
 11
679.201664
 21
196.182029
 31
0.0
  0
LINE
  5
5A8
100
AcDbEntity
  8
0
  6
HIDDEN
 62
     1
100
AcDbLine
 10
679.201664
 20
351.920203
 30
0.0
 11
679.201664
 21
345.420203
 31
0.0
  0
LINE
  5
5BF
100
AcDbEntity
  8
0
  6
HIDDEN
 62
     1
100
AcDbLine
 10
679.201664
 20
338.682029
 30
0.0
 11
679.201664
 21
335.682029
 31
0.0
  0
LINE
  5
5C0
100
AcDbEntity
  8
0
  6
HIDDEN
 62
     1
100
AcDbLine
 10
679.201664
 20
212.420203
 30
0.0
 11
679.201664
 21
209.420203
 31
0.0
  0
LINE
  5
5D5
100
AcDbEntity
  8
0
  6
HIDDEN
 62
     1
100
AcDbLine
 10
679.201664
 20
352.420203
 30
0.0
 11
679.201664
 21
351.920203
 31
0.0
  0
LINE
  5
5D6
100
AcDbEntity
  8
0
  6
HIDDEN
 62
     1
100
AcDbLine
 10
679.201664
 20
196.182029
 30
0.0
 11
679.201664
 21
195.682029
 31
0.0
  0
LINE
  5
614
100
AcDbEntity
  8
0
  6
HIDDEN
 62
     7
100
AcDbLine
 10
669.401664
 20
179.451116
 30
0.0
 11
666.401664
 21
179.451116
 31
0.0
  0
LINE
  5
615
100
AcDbEntity
  8
0
  6
HIDDEN
 62
     7
100
AcDbLine
 10
738.801664
 20
179.451116
 30
0.0
 11
666.401664
 21
179.451116
 31
0.0
  0
LINE
  5
617
100
AcDbEntity
  8
0
  6
HIDDEN
 62
     7
100
AcDbLine
 10
666.401664
 20
368.651116
 30
0.0
 11
738.801664
 21
368.651116
 31
0.0
  0
LINE
  5
618
100
AcDbEntity
  8
0
  6
HIDDEN
 62
     7
100
AcDbLine
 10
724.301664
 20
368.651116
 30
0.0
 11
738.801664
 21
368.651116
 31
0.0
  0
LINE
  5
619
100
AcDbEntity
  8
0
  6
HIDDEN
 62
     7
100
AcDbLine
 10
738.801664
 20
179.451116
 30
0.0
 11
724.301664
 21
179.451116
 31
0.0
  0
LINE
  5
61E
100
AcDbEntity
  8
0
  6
HIDDEN
 62
     7
100
AcDbLine
 10
730.501664
 20
192.095996
 30
0.0
 11
730.501664
 21
189.151116
 31
0.0
  0
LINE
  5
621
100
AcDbEntity
  8
0
  6
HIDDEN
 62
     7
100
AcDbLine
 10
732.084414
 20
193.651119
 30
0.0
 11
735.001664
 21
193.651116
 31
0.0
  0
LINE
  5
646
100
AcDbEntity
  8
0
  6
HIDDEN
 62
     1
100
AcDbLine
 10
671.701661
 20
313.701117
 30
0.0
 11
676.501664
 21
313.784901
 31
0.0
  0
LINE
  5
647
100
AcDbEntity
  8
0
  6
HIDDEN
 62
     1
100
AcDbLine
 10
676.501664
 20
334.317332
 30
0.0
 11
671.701661
 21
334.401117
 31
0.0
  0
LINE
  5
648
100
AcDbEntity
  8
0
  6
HIDDEN
 62
     1
100
AcDbLine
 10
671.701661
 20
213.701116
 30
0.0
 11
676.501664
 21
213.784901
 31
0.0
  0
LINE
  5
649
100
AcDbEntity
  8
0
  6
HIDDEN
 62
     1
100
AcDbLine
 10
676.501664
 20
234.317332
 30
0.0
 11
671.701661
 21
234.401116
 31
0.0
  0
LINE
  5
686
100
AcDbEntity
  8
0
  6
HIDDEN
 62
     1
100
AcDbLine
 10
671.701661
 20
335.551118
 30
0.0
 11
679.201664
 21
335.682029
 31
0.0
  0
LINE
  5
689
100
AcDbEntity
  8
0
  6
HIDDEN
 62
     1
100
AcDbLine
 10
679.201664
 20
212.420203
 30
0.0
 11
671.701661
 21
212.551115
 31
0.0
  0
LINE
  5
69B
100
AcDbEntity
  8
0
  6
HIDDEN
 62
     1
100
AcDbLine
 10
679.201664
 20
352.420203
 30
0.0
 11
671.701661
 21
352.551119
 31
0.0
  0
LINE
  5
69C
100
AcDbEntity
  8
0
  6
HIDDEN
 62
     1
100
AcDbLine
 10
671.701661
 20
195.551114
 30
0.0
 11
679.201664
 21
195.682029
 31
0.0
  0
TEXT
  5
70B
100
AcDbEntity
  8
0
100
AcDbText
 10
34.906397
 20
482.366157
 30
0.0
 40
10.0
  1
FIBOX Tempo 2016 Base
100
AcDbText
  0
ENDSEC
  0
SECTION
  2
OBJECTS
  0
DICTIONARY
  5
C
100
AcDbDictionary
  3
ACAD_GROUP
350
D
  3
ACAD_PLOTSTYLENAME
350
E
  3
ACAD_MLINESTYLE
350
17
  3
ACAD_PLOTSETTINGS
350
19
  3
ACAD_LAYOUT
350
1A
  3
ACDBHEADERROUNDTRIPXREC
350
6CB
  0
DICTIONARY
  5
6FD
100
AcDbDictionary
280
     1
  3
ACAD_XREC_ROUNDTRIP
360
6FE
  0
DICTIONARY
  5
6FF
100
AcDbDictionary
280
     1
  3
ACAD_XREC_ROUNDTRIP
360
700
  0
DICTIONARY
  5
701
100
AcDbDictionary
280
     1
  3
ACAD_XREC_ROUNDTRIP
360
702
  0
DICTIONARY
  5
6FB
100
AcDbDictionary
280
     1
  3
ACAD_XREC_ROUNDTRIP
360
6FC
  0
DICTIONARY
  5
705
100
AcDbDictionary
280
     1
  3
ACAD_XREC_ROUNDTRIP
360
706
  0
DICTIONARY
  5
6F2
100
AcDbDictionary
280
     1
  3
ACAD_LAYOUTSELFREF
360
6F3
  3
ACAD_XREC_ROUNDTRIP
360
6F8
  0
DICTIONARY
  5
6F0
100
AcDbDictionary
280
     1
  3
ACAD_LAYOUTSELFREF
360
6F1
  3
ACAD_XREC_ROUNDTRIP
360
6F9
  0
DICTIONARY
  5
6F4
100
AcDbDictionary
280
     1
  3
ACAD_LAYOUTSELFREF
360
6F5
  3
ACAD_XREC_ROUNDTRIP
360
6FA
  0
DICTIONARY
  5
D
102
{ACAD_REACTORS
330
C
102
}
100
AcDbDictionary
  0
ACAD_PROXY_OBJECT
  5
E
102
{ACAD_XDICTIONARY
360
6EC
102
}
102
{ACAD_REACTORS
330
C
102
}
100
AcDbProxyObject
 90
      499
 91
      500
 93
       86
310
4050100419393D49350530
350
F
340
F
 94
        0
  0
DICTIONARY
  5
17
102
{ACAD_XDICTIONARY
360
6EE
102
}
102
{ACAD_REACTORS
330
C
102
}
100
AcDbDictionary
  3
STANDARD
350
18
  0
DICTIONARY
  5
19
102
{ACAD_REACTORS
330
C
102
}
100
AcDbDictionary
  0
DICTIONARY
  5
1A
102
{ACAD_XDICTIONARY
360
6F6
102
}
102
{ACAD_REACTORS
330
C
102
}
100
AcDbDictionary
  3
LAYOUT1
350
1E
  3
MODEL
350
22
  3
LAYOUT2
350
26
  0
DICTIONARY
  5
6CB
102
{ACAD_REACTORS
330
C
102
}
100
AcDbDictionary
  3
TSTACKALIGN
350
6CC
  3
TSTACKSIZE
350
6CD
  3
HYPERLINKBASE
350
6CE
  3
STYLESHEET
350
6CF
  3
LAYOUTDICT
350
6D0
  3
PLOTSETDICT
350
6D1
  3
PLOTSTYLNAMDICT
350
6D2
  3
LWETCUNION
350
6D3
  3
INSUNITS
350
6D4
  3
CEPSNTYPE
350
6D5
  3
FINGERPRINTGUID
350
6D6
  3
VERSIONGUID
350
6D7
  3
PSVPSCALE
350
6D8
  3
PUCSORTHOREF
350
6D9
  3
PUCSORTHOVIEW
350
6DA
  3
PUCSBASE
350
6DB
  3
PUCSORGTOP
350
6DC
  3
PUCSORGBOTTOM
350
6DD
  3
PUCSORGLEFT
350
6DE
  3
PUCSORGRIGHT
350
6DF
  3
PUCSORGFRONT
350
6E0
  3
PUCSORGBACK
350
6E1
  3
UCSORTHOREF
350
6E2
  3
UCSORTHOVIEW
350
6E3
  3
UCSBASE
350
6E4
  3
UCSORGTOP
350
6E5
  3
UCSORGBOTTOM
350
6E6
  3
UCSORGLEFT
350
6E7
  3
UCSORGRIGHT
350
6E8
  3
UCSORGFRONT
350
6E9
  3
UCSORGBACK
350
6EA
  3
DIMSTYLEDATA
350
6EB
  0
XRECORD
  5
6FE
102
{ACAD_REACTORS
330
6FD
102
}
100
AcDbXrecord
102
EXTNAMES
  1
BYBLOCK
  2
ByBlock
  0
XRECORD
  5
700
102
{ACAD_REACTORS
330
6FF
102
}
100
AcDbXrecord
102
EXTNAMES
  1
BYLAYER
  2
ByLayer
  0
XRECORD
  5
702
102
{ACAD_REACTORS
330
701
102
}
100
AcDbXrecord
102
EXTNAMES
  1
CONTINUOUS
  2
Continuous
  0
XRECORD
  5
6FC
102
{ACAD_REACTORS
330
6FB
102
}
100
AcDbXrecord
102
EXTNAMES
  1
STANDARD
  2
Standard
  0
XRECORD
  5
706
102
{ACAD_REACTORS
330
705
102
}
100
AcDbXrecord
102
ACADR14ROUNDTRIP
1000
DSTYLE
1002
{
1070
   278
 70
    44
1002
}
  0
XRECORD
  5
6F3
102
{ACAD_REACTORS
330
6F2
102
}
100
AcDbXrecord
340
1F
  0
XRECORD
  5
6F8
102
{ACAD_REACTORS
330
6F2
102
}
100
AcDbXrecord
102
EXTNAMES
  1
*MODEL_SPACE
  2
*Model_Space
  0
XRECORD
  5
6F1
102
{ACAD_REACTORS
330
6F0
102
}
100
AcDbXrecord
340
1B
  0
XRECORD
  5
6F9
102
{ACAD_REACTORS
330
6F0
102
}
100
AcDbXrecord
102
EXTNAMES
  1
*PAPER_SPACE
  2
*Paper_Space
  0
XRECORD
  5
6F5
102
{ACAD_REACTORS
330
6F4
102
}
100
AcDbXrecord
340
23
  0
XRECORD
  5
6FA
102
{ACAD_REACTORS
330
6F4
102
}
100
AcDbXrecord
102
EXTNAMES
  1
*PAPER_SPACE
  2
*Paper_Space0
  0
DICTIONARY
  5
6EC
100
AcDbDictionary
280
     1
  3
ACAD_XREC_ROUNDTRIP
360
6ED
  0
ACAD_PROXY_OBJECT
  5
F
102
{ACAD_REACTORS
330
E
102
}
100
AcDbProxyObject
 90
      499
 91
      504
 93
        0
 94
        0
  0
DICTIONARY
  5
6EE
100
AcDbDictionary
280
     1
  3
ACAD_XREC_ROUNDTRIP
360
6EF
  0
MLINESTYLE
  5
18
102
{ACAD_REACTORS
330
17
102
}
100
AcDbMlineStyle
  2
STANDARD
 70
     0
  3

 62
   256
 51
90.0
 52
90.0
 71
     2
 49
0.5
 62
   256
  6
BYLAYER
 49
-0.5
 62
   256
  6
BYLAYER
  0
DICTIONARY
  5
6F6
100
AcDbDictionary
280
     1
  3
ACAD_XREC_ROUNDTRIP
360
6F7
  0
ACAD_PROXY_OBJECT
  5
1E
102
{ACAD_REACTORS
330
1A
102
}
100
AcDbProxyObject
 90
      499
 91
      505
 93
      468
310
A2C00AAAAAA416AA591069074C61796F75743140501A80000000000000000000000000000000000000000000000000000000000000002A6A6AAAAE
330
1B
330
0
340
0
340
0
 94
        0
  0
ACAD_PROXY_OBJECT
  5
22
102
{ACAD_REACTORS
330
1A
102
}
100
AcDbProxyObject
 90
      499
 91
      505
 93
      556
310
A2C01AAAAAAAAA5A69054D6F64656C901A80000000000000000000000000000000000000000000000000000000000000002A6A6AA80000000000407A400000000000241C9023
330
1F
330
0
340
0
340
0
 94
        0
  0
ACAD_PROXY_OBJECT
  5
26
102
{ACAD_REACTORS
330
1A
102
}
100
AcDbProxyObject
 90
      499
 91
      505
 93
      468
310
A2C00AAAAAA416AA591069074C61796F75743240901A80000000000000000000000000000000000000000000000000000000000000002A6A6AAAA0
330
23
330
0
340
0
340
0
 94
        0
  0
XRECORD
  5
6CC
102
{ACAD_REACTORS
330
6CB
102
}
100
AcDbXrecord
 90
        1
  0
XRECORD
  5
6CD
102
{ACAD_REACTORS
330
6CB
102
}
100
AcDbXrecord
 90
       70
  0
XRECORD
  5
6CE
102
{ACAD_REACTORS
330
6CB
102
}
100
AcDbXrecord
  1

  0
XRECORD
  5
6CF
102
{ACAD_REACTORS
330
6CB
102
}
100
AcDbXrecord
  1

  0
XRECORD
  5
6D0
102
{ACAD_REACTORS
330
6CB
102
}
100
AcDbXrecord
340
1A
  0
XRECORD
  5
6D1
102
{ACAD_REACTORS
330
6CB
102
}
100
AcDbXrecord
340
19
  0
XRECORD
  5
6D2
102
{ACAD_REACTORS
330
6CB
102
}
100
AcDbXrecord
340
E
  0
XRECORD
  5
6D3
102
{ACAD_REACTORS
330
6CB
102
}
100
AcDbXrecord
 90
    10269
  0
XRECORD
  5
6D4
102
{ACAD_REACTORS
330
6CB
102
}
100
AcDbXrecord
 90
        4
  0
XRECORD
  5
6D5
102
{ACAD_REACTORS
330
6CB
102
}
100
AcDbXrecord
 90
        0
  0
XRECORD
  5
6D6
102
{ACAD_REACTORS
330
6CB
102
}
100
AcDbXrecord
  1
{01E27454-F661-4991-8A19-9651BADA33B6}
  0
XRECORD
  5
6D7
102
{ACAD_REACTORS
330
6CB
102
}
100
AcDbXrecord
  1
{FAEB1C32-E019-11D5-929B-00C0DF256EC4}
  0
XRECORD
  5
6D8
102
{ACAD_REACTORS
330
6CB
102
}
100
AcDbXrecord
 40
0.0
  0
XRECORD
  5
6D9
102
{ACAD_REACTORS
330
6CB
102
}
100
AcDbXrecord
340
0
  0
XRECORD
  5
6DA
102
{ACAD_REACTORS
330
6CB
102
}
100
AcDbXrecord
 70
     0
  0
XRECORD
  5
6DB
102
{ACAD_REACTORS
330
6CB
102
}
100
AcDbXrecord
340
0
  0
XRECORD
  5
6DC
102
{ACAD_REACTORS
330
6CB
102
}
100
AcDbXrecord
 10
0.0
 20
0.0
 30
0.0
  0
XRECORD
  5
6DD
102
{ACAD_REACTORS
330
6CB
102
}
100
AcDbXrecord
 10
0.0
 20
0.0
 30
0.0
  0
XRECORD
  5
6DE
102
{ACAD_REACTORS
330
6CB
102
}
100
AcDbXrecord
 10
0.0
 20
0.0
 30
0.0
  0
XRECORD
  5
6DF
102
{ACAD_REACTORS
330
6CB
102
}
100
AcDbXrecord
 10
0.0
 20
0.0
 30
0.0
  0
XRECORD
  5
6E0
102
{ACAD_REACTORS
330
6CB
102
}
100
AcDbXrecord
 10
0.0
 20
0.0
 30
0.0
  0
XRECORD
  5
6E1
102
{ACAD_REACTORS
330
6CB
102
}
100
AcDbXrecord
 10
0.0
 20
0.0
 30
0.0
  0
XRECORD
  5
6E2
102
{ACAD_REACTORS
330
6CB
102
}
100
AcDbXrecord
340
0
  0
XRECORD
  5
6E3
102
{ACAD_REACTORS
330
6CB
102
}
100
AcDbXrecord
 70
     0
  0
XRECORD
  5
6E4
102
{ACAD_REACTORS
330
6CB
102
}
100
AcDbXrecord
340
0
  0
XRECORD
  5
6E5
102
{ACAD_REACTORS
330
6CB
102
}
100
AcDbXrecord
 10
0.0
 20
0.0
 30
0.0
  0
XRECORD
  5
6E6
102
{ACAD_REACTORS
330
6CB
102
}
100
AcDbXrecord
 10
0.0
 20
0.0
 30
0.0
  0
XRECORD
  5
6E7
102
{ACAD_REACTORS
330
6CB
102
}
100
AcDbXrecord
 10
0.0
 20
0.0
 30
0.0
  0
XRECORD
  5
6E8
102
{ACAD_REACTORS
330
6CB
102
}
100
AcDbXrecord
 10
0.0
 20
0.0
 30
0.0
  0
XRECORD
  5
6E9
102
{ACAD_REACTORS
330
6CB
102
}
100
AcDbXrecord
 10
0.0
 20
0.0
 30
0.0
  0
XRECORD
  5
6EA
102
{ACAD_REACTORS
330
6CB
102
}
100
AcDbXrecord
 10
0.0
 20
0.0
 30
0.0
  0
XRECORD
  5
6EB
102
{ACAD_REACTORS
330
6CB
102
}
100
AcDbXrecord
1000
DSTYLE
1002
{
1070
   143
 40
0.03937
1070
    41
 40
6.0
1070
    44
 40
1.0
1070
    42
 40
1.0
1070
   147
 40
1.524
1070
   144
 40
2.0
1070
    73
 70
     1
1070
    74
 70
     1
1070
   340
340
11
1070
   140
 40
3.5
1070
   284
 70
     0
1070
    78
 70
     0
1002
}
  0
XRECORD
  5
6ED
102
{ACAD_REACTORS
330
6EC
102
}
100
AcDbXrecord
102
EXTNAMES
  1
NORMAL
  2
Normal
  0
XRECORD
  5
6EF
102
{ACAD_REACTORS
330
6EE
102
}
100
AcDbXrecord
102
EXTNAMES
  1
STANDARD
  2
Standard
  0
XRECORD
  5
6F7
102
{ACAD_REACTORS
330
6F6
102
}
100
AcDbXrecord
102
EXTNAMES
  1
LAYOUT1
  2
Layout1
  1
LAYOUT2
  2
Layout2
  1
MODEL
  2
Model
  0
ENDSEC
  0
EOF
