  0
SECTION
  2
HEADER
  9
$ACADVER
  1
AC1014
  9
$ACADMAINTVER
 70
     0
  9
$DWGCODEPAGE
  3
ANSI_1252
  9
$INSBASE
 10
0.0
 20
0.0
 30
0.0
  9
$EXTMIN
 10
81.371045
 20
51.722123
 30
-0.001526
  9
$EXTMAX
 10
540.464173
 20
431.695954
 30
0.0
  9
$LIMMIN
 10
0.0
 20
0.0
  9
$LIMMAX
 10
0.0
 20
0.0
  9
$ORTHOMODE
 70
     0
  9
$REGENMODE
 70
     1
  9
$FILLMODE
 70
     1
  9
$QTEXTMODE
 70
     0
  9
$MIRRTEXT
 70
     1
  9
$DRAGMODE
 70
     2
  9
$LTSCALE
 40
1.0
  9
$OSMODE
 70
    37
  9
$ATTMODE
 70
     1
  9
$TEXTSIZE
 40
10.0
  9
$TRACEWID
 40
1.0
  9
$TEXTSTYLE
  7
STANDARD
  9
$CLAYER
  8
0
  9
$CELTYPE
  6
BYLAYER
  9
$CECOLOR
 62
   256
  9
$CELTSCALE
 40
1.0
  9
$DELOBJ
 70
     1
  9
$DISPSILH
 70
     0
  9
$DIMSCALE
 40
1.0
  9
$DIMASZ
 40
6.0
  9
$DIMEXO
 40
1.0
  9
$DIMDLI
 40
3.75
  9
$DIMRND
 40
0.0
  9
$DIMDLE
 40
0.0
  9
$DIMEXE
 40
1.0
  9
$DIMTP
 40
0.0
  9
$DIMTM
 40
0.0
  9
$DIMTXT
 40
3.5
  9
$DIMCEN
 40
2.5
  9
$DIMTSZ
 40
0.0
  9
$DIMTOL
 70
     0
  9
$DIMLIM
 70
     0
  9
$DIMTIH
 70
     1
  9
$DIMTOH
 70
     1
  9
$DIMSE1
 70
     0
  9
$DIMSE2
 70
     0
  9
$DIMTAD
 70
     1
  9
$DIMZIN
 70
     0
  9
$DIMBLK
  1

  9
$DIMASO
 70
     1
  9
$DIMSHO
 70
     1
  9
$DIMPOST
  1

  9
$DIMAPOST
  1

  9
$DIMALT
 70
     0
  9
$DIMALTD
 70
     3
  9
$DIMALTF
 40
0.03937
  9
$DIMLFAC
 40
3.0
  9
$DIMTOFL
 70
     1
  9
$DIMTVP
 40
0.0
  9
$DIMTIX
 70
     0
  9
$DIMSOXD
 70
     0
  9
$DIMSAH
 70
     0
  9
$DIMBLK1
  1

  9
$DIMBLK2
  1

  9
$DIMSTYLE
  2
ISO-25
  9
$DIMCLRD
 70
     0
  9
$DIMCLRE
 70
     0
  9
$DIMCLRT
 70
     0
  9
$DIMTFAC
 40
1.0
  9
$DIMGAP
 40
1.524
  9
$DIMJUST
 70
     0
  9
$DIMSD1
 70
     0
  9
$DIMSD2
 70
     0
  9
$DIMTOLJ
 70
     0
  9
$DIMTZIN
 70
     0
  9
$DIMALTZ
 70
     0
  9
$DIMALTTZ
 70
     0
  9
$DIMFIT
 70
     3
  9
$DIMUPT
 70
     0
  9
$DIMUNIT
 70
     2
  9
$DIMDEC
 70
     2
  9
$DIMTDEC
 70
     2
  9
$DIMALTU
 70
     2
  9
$DIMALTTD
 70
     3
  9
$DIMTXSTY
  7
STANDARD
  9
$DIMAUNIT
 70
     0
  9
$LUNITS
 70
     2
  9
$LUPREC
 70
     2
  9
$SKETCHINC
 40
1.0
  9
$FILLETRAD
 40
10.0
  9
$AUNITS
 70
     0
  9
$AUPREC
 70
     0
  9
$MENU
  1
.
  9
$ELEVATION
 40
0.0
  9
$PELEVATION
 40
0.0
  9
$THICKNESS
 40
0.0
  9
$LIMCHECK
 70
     0
  9
$BLIPMODE
 70
     0
  9
$CHAMFERA
 40
10.0
  9
$CHAMFERB
 40
10.0
  9
$CHAMFERC
 40
20.0
  9
$CHAMFERD
 40
0.0
  9
$SKPOLY
 70
     0
  9
$TDCREATE
 40
2454075.522008321
  9
$TDUPDATE
 40
2454075.618975197
  9
$TDINDWG
 40
0.0030946875
  9
$TDUSRTIMER
 40
0.0030946875
  9
$USRTIMER
 70
     1
  9
$ANGBASE
 50
0.0
  9
$ANGDIR
 70
     0
  9
$PDMODE
 70
     0
  9
$PDSIZE
 40
-1.0
  9
$PLINEWID
 40
0.0
  9
$COORDS
 70
     1
  9
$SPLFRAME
 70
     0
  9
$SPLINETYPE
 70
     6
  9
$SPLINESEGS
 70
     8
  9
$ATTDIA
 70
     0
  9
$ATTREQ
 70
     1
  9
$HANDLING
 70
     1
  9
$HANDSEED
  5
369
  9
$SURFTAB1
 70
     6
  9
$SURFTAB2
 70
     6
  9
$SURFTYPE
 70
     6
  9
$SURFU
 70
     6
  9
$SURFV
 70
     6
  9
$UCSNAME
  2

  9
$UCSORG
 10
0.0
 20
0.0
 30
0.0
  9
$UCSXDIR
 10
1.0
 20
0.0
 30
0.0
  9
$UCSYDIR
 10
0.0
 20
1.0
 30
0.0
  9
$PUCSNAME
  2

  9
$PUCSORG
 10
0.0
 20
0.0
 30
0.0
  9
$PUCSXDIR
 10
1.0
 20
0.0
 30
0.0
  9
$PUCSYDIR
 10
0.0
 20
1.0
 30
0.0
  9
$USERI1
 70
     0
  9
$USERI2
 70
     0
  9
$USERI3
 70
     0
  9
$USERI4
 70
     0
  9
$USERI5
 70
     0
  9
$USERR1
 40
0.0
  9
$USERR2
 40
0.0
  9
$USERR3
 40
0.0
  9
$USERR4
 40
0.0
  9
$USERR5
 40
0.0
  9
$WORLDVIEW
 70
     1
  9
$SHADEDGE
 70
     3
  9
$SHADEDIF
 70
    70
  9
$TILEMODE
 70
     1
  9
$MAXACTVP
 70
    64
  9
$PINSBASE
 10
0.0
 20
0.0
 30
0.0
  9
$PLIMCHECK
 70
     0
  9
$PEXTMIN
 10
1.000000E+20
 20
1.000000E+20
 30
1.000000E+20
  9
$PEXTMAX
 10
-1.000000E+20
 20
-1.000000E+20
 30
-1.000000E+20
  9
$PLIMMIN
 10
0.0
 20
0.0
  9
$PLIMMAX
 10
420.0
 20
297.0
  9
$UNITMODE
 70
     0
  9
$VISRETAIN
 70
     1
  9
$PLINEGEN
 70
     0
  9
$PSLTSCALE
 70
     1
  9
$TREEDEPTH
 70
  3020
  9
$PICKSTYLE
 70
     1
  9
$CMLSTYLE
  2
STANDARD
  9
$CMLJUST
 70
     0
  9
$CMLSCALE
 40
20.0
  9
$PROXYGRAPHICS
 70
     1
  9
$MEASUREMENT
 70
     1
  0
ENDSEC
  0
SECTION
  2
CLASSES
  0
CLASS
  1
ACDBDICTIONARYWDFLT
  2
AcDbDictionaryWithDefault
  3
ObjectDBX Classes
 90
        0
280
     0
281
     0
  0
CLASS
  1
XRECORD
  2
AcDbXrecord
  3
"<Built In>"
 90
        0
280
     0
281
     0
  0
CLASS
  1
LWPOLYLINE
  2
AcDbPolyline
  3
"AutoCAD"
 90
        0
280
     0
281
     1
  0
CLASS
  1
HATCH
  2
AcDbHatch
  3
"ACAD_SEDONA"
 90
        0
280
     0
281
     1
  0
CLASS
  1
ACDBPLACEHOLDER
  2
AcDbPlaceHolder
  3
ObjectDBX Classes
 90
        0
280
     0
281
     0
  0
CLASS
  1
LAYOUT
  2
AcDbLayout
  3
ObjectDBX Classes
 90
        0
280
     0
281
     0
  0
ENDSEC
  0
SECTION
  2
TABLES
  0
TABLE
  2
VPORT
  5
8
100
AcDbSymbolTable
 70
     3
  0
VPORT
  5
368
100
AcDbSymbolTableRecord
100
AcDbViewportTableRecord
  2
*ACTIVE
 70
     0
 10
0.0
 20
0.0
 11
1.0
 21
1.0
 12
270.232087
 22
215.847977
 13
0.0
 23
0.0
 14
10.0
 24
10.0
 15
10.0
 25
10.0
 16
0.0
 26
0.0
 36
1.0
 17
0.0
 27
0.0
 37
0.0
 40
434.854705
 41
1.440781
 42
50.0
 43
0.0
 44
0.0
 50
0.0
 51
0.0
 71
     0
 72
  2000
 73
     1
 74
     3
 75
     0
 76
     0
 77
     0
 78
     0
  0
ENDTAB
  0
TABLE
  2
LTYPE
  5
5
100
AcDbSymbolTable
 70
     6
  0
LTYPE
  5
14
102
{ACAD_XDICTIONARY
360
359
102
}
100
AcDbSymbolTableRecord
100
AcDbLinetypeTableRecord
  2
BYBLOCK
 70
     0
  3

 72
    65
 73
     0
 40
0.0
  0
LTYPE
  5
15
102
{ACAD_XDICTIONARY
360
35B
102
}
100
AcDbSymbolTableRecord
100
AcDbLinetypeTableRecord
  2
BYLAYER
 70
     0
  3

 72
    65
 73
     0
 40
0.0
  0
LTYPE
  5
16
102
{ACAD_XDICTIONARY
360
35D
102
}
100
AcDbSymbolTableRecord
100
AcDbLinetypeTableRecord
  2
CONTINUOUS
 70
     0
  3
Solid line
 72
    65
 73
     0
 40
0.0
  0
LTYPE
  5
2A
100
AcDbSymbolTableRecord
100
AcDbLinetypeTableRecord
  2
HIDDEN
 70
     0
  3
Hidden __ __ __ __ __ __ __ __ __ __ __ __ __ __
 72
    65
 73
     2
 40
1.905
 49
1.27
 74
     0
 49
-0.635
 74
     0
  0
ENDTAB
  0
TABLE
  2
LAYER
  5
2
100
AcDbSymbolTable
 70
     1
  0
LAYER
  5
10
100
AcDbSymbolTableRecord
100
AcDbLayerTableRecord
  2
0
 70
     0
 62
     7
  6
CONTINUOUS
  0
ENDTAB
  0
TABLE
  2
STYLE
  5
3
100
AcDbSymbolTable
 70
     1
  0
STYLE
  5
11
102
{ACAD_XDICTIONARY
360
357
102
}
100
AcDbSymbolTableRecord
100
AcDbTextStyleTableRecord
  2
STANDARD
 70
     0
 40
0.0
 41
1.0
 50
0.0
 71
     0
 42
10.0
  3
txt
  4

  0
ENDTAB
  0
TABLE
  2
VIEW
  5
6
100
AcDbSymbolTable
 70
     0
  0
ENDTAB
  0
TABLE
  2
UCS
  5
7
100
AcDbSymbolTable
 70
     0
  0
ENDTAB
  0
TABLE
  2
APPID
  5
9
100
AcDbSymbolTable
 70
     1
  0
APPID
  5
12
100
AcDbSymbolTableRecord
100
AcDbRegAppTableRecord
  2
ACAD
 70
     0
  0
ENDTAB
  0
TABLE
  2
DIMSTYLE
  5
A
100
AcDbSymbolTable
 70
     1
  0
DIMSTYLE
105
27
102
{ACAD_XDICTIONARY
360
361
102
}
100
AcDbSymbolTableRecord
100
AcDbDimStyleTableRecord
  2
ISO-25
 70
     0
  3

  4

  5

  6

  7

 40
1.0
 41
2.5
 42
0.625
 43
3.75
 44
1.25
 45
0.0
 46
0.0
 47
0.0
 48
0.0
140
2.5
141
2.5
142
0.0
143
0.03937
144
1.0
145
0.0
146
1.0
147
0.625
 71
     0
 72
     0
 73
     0
 74
     0
 75
     0
 76
     0
 77
     1
 78
     8
170
     0
171
     3
172
     1
173
     0
174
     0
175
     0
176
     0
177
     0
178
     0
270
     2
271
     2
272
     2
273
     2
274
     3
340
11
275
     0
280
     0
281
     0
282
     0
283
     0
284
     8
285
     0
286
     0
287
     3
288
     0
  0
ENDTAB
  0
TABLE
  2
BLOCK_RECORD
  5
1
100
AcDbSymbolTable
 70
    17
  0
BLOCK_RECORD
  5
1F
102
{ACAD_XDICTIONARY
360
34E
102
}
100
AcDbSymbolTableRecord
100
AcDbBlockTableRecord
  2
*MODEL_SPACE
  0
BLOCK_RECORD
  5
1B
102
{ACAD_XDICTIONARY
360
34C
102
}
100
AcDbSymbolTableRecord
100
AcDbBlockTableRecord
  2
*PAPER_SPACE
  0
BLOCK_RECORD
  5
23
102
{ACAD_XDICTIONARY
360
350
102
}
100
AcDbSymbolTableRecord
100
AcDbBlockTableRecord
  2
*PAPER_SPACE0
  0
BLOCK_RECORD
  5
102
100
AcDbSymbolTableRecord
100
AcDbBlockTableRecord
  2
SW_CENTERMARKSYMBOL_0
  0
BLOCK_RECORD
  5
10A
100
AcDbSymbolTableRecord
100
AcDbBlockTableRecord
  2
SW_CENTERMARKSYMBOL_1
  0
BLOCK_RECORD
  5
112
100
AcDbSymbolTableRecord
100
AcDbBlockTableRecord
  2
SW_CENTERMARKSYMBOL_2
  0
BLOCK_RECORD
  5
11A
100
AcDbSymbolTableRecord
100
AcDbBlockTableRecord
  2
SW_CENTERMARKSYMBOL_3
  0
BLOCK_RECORD
  5
122
100
AcDbSymbolTableRecord
100
AcDbBlockTableRecord
  2
SW_CENTERMARKSYMBOL_4
  0
BLOCK_RECORD
  5
12A
100
AcDbSymbolTableRecord
100
AcDbBlockTableRecord
  2
SW_CENTERMARKSYMBOL_5
  0
BLOCK_RECORD
  5
132
100
AcDbSymbolTableRecord
100
AcDbBlockTableRecord
  2
SW_CENTERMARKSYMBOL_6
  0
BLOCK_RECORD
  5
13A
100
AcDbSymbolTableRecord
100
AcDbBlockTableRecord
  2
SW_CENTERMARKSYMBOL_7
  0
BLOCK_RECORD
  5
142
100
AcDbSymbolTableRecord
100
AcDbBlockTableRecord
  2
SW_CENTERMARKSYMBOL_8
  0
BLOCK_RECORD
  5
14A
100
AcDbSymbolTableRecord
100
AcDbBlockTableRecord
  2
SW_CENTERMARKSYMBOL_9
  0
BLOCK_RECORD
  5
152
100
AcDbSymbolTableRecord
100
AcDbBlockTableRecord
  2
SW_CENTERMARKSYMBOL_10
  0
BLOCK_RECORD
  5
15A
100
AcDbSymbolTableRecord
100
AcDbBlockTableRecord
  2
SW_CENTERMARKSYMBOL_11
  0
BLOCK_RECORD
  5
1EC
100
AcDbSymbolTableRecord
100
AcDbBlockTableRecord
  2
SW_CENTERMARKSYMBOL_12
  0
BLOCK_RECORD
  5
1F8
100
AcDbSymbolTableRecord
100
AcDbBlockTableRecord
  2
SW_CENTERMARKSYMBOL_13
  0
BLOCK_RECORD
  5
204
100
AcDbSymbolTableRecord
100
AcDbBlockTableRecord
  2
SW_CENTERMARKSYMBOL_14
  0
BLOCK_RECORD
  5
210
100
AcDbSymbolTableRecord
100
AcDbBlockTableRecord
  2
SW_CENTERMARKSYMBOL_15
  0
ENDTAB
  0
ENDSEC
  0
SECTION
  2
BLOCKS
  0
BLOCK
  5
20
100
AcDbEntity
  8
0
100
AcDbBlockBegin
  2
*MODEL_SPACE
 70
     0
 10
0.0
 20
0.0
 30
0.0
  3
*MODEL_SPACE
  1

  0
ENDBLK
  5
21
100
AcDbEntity
  8
0
100
AcDbBlockEnd
  0
BLOCK
  5
1C
100
AcDbEntity
 67
     1
  8
0
100
AcDbBlockBegin
  2
*PAPER_SPACE
 70
     0
 10
0.0
 20
0.0
 30
0.0
  3
*PAPER_SPACE
  1

  0
ENDBLK
  5
1D
100
AcDbEntity
 67
     1
  8
0
100
AcDbBlockEnd
  0
BLOCK
  5
24
100
AcDbEntity
  8
0
100
AcDbBlockBegin
  2
*PAPER_SPACE0
 70
     0
 10
0.0
 20
0.0
 30
0.0
  3
*PAPER_SPACE0
  1

  0
ENDBLK
  5
25
100
AcDbEntity
  8
0
100
AcDbBlockEnd
  0
BLOCK
  5
103
100
AcDbEntity
  8
0
100
AcDbBlockBegin
  2
SW_CENTERMARKSYMBOL_0
 70
     0
 10
0.0
 20
0.0
 30
0.0
  3
SW_CENTERMARKSYMBOL_0
  1

  0
LINE
  5
105
100
AcDbEntity
  8
0
  6
CONTINUOUS
 62
     7
100
AcDbLine
 10
0.0
 20
0.0
 30
0.0
 11
0.0
 21
1.25
 31
0.0
  0
LINE
  5
106
100
AcDbEntity
  8
0
  6
CONTINUOUS
 62
     7
100
AcDbLine
 10
0.0
 20
0.0
 30
0.0
 11
-1.25
 21
0.0
 31
0.0
  0
LINE
  5
107
100
AcDbEntity
  8
0
  6
CONTINUOUS
 62
     7
100
AcDbLine
 10
0.0
 20
0.0
 30
0.0
 11
0.0
 21
-1.25
 31
0.0
  0
LINE
  5
108
100
AcDbEntity
  8
0
  6
CONTINUOUS
 62
     7
100
AcDbLine
 10
0.0
 20
0.0
 30
0.0
 11
1.25
 21
0.0
 31
0.0
  0
ENDBLK
  5
104
100
AcDbEntity
  8
0
100
AcDbBlockEnd
  0
BLOCK
  5
10B
100
AcDbEntity
  8
0
100
AcDbBlockBegin
  2
SW_CENTERMARKSYMBOL_1
 70
     0
 10
0.0
 20
0.0
 30
0.0
  3
SW_CENTERMARKSYMBOL_1
  1

  0
LINE
  5
10D
100
AcDbEntity
  8
0
  6
CONTINUOUS
 62
     7
100
AcDbLine
 10
0.0
 20
0.0
 30
0.0
 11
0.0
 21
1.25
 31
0.0
  0
LINE
  5
10E
100
AcDbEntity
  8
0
  6
CONTINUOUS
 62
     7
100
AcDbLine
 10
0.0
 20
0.0
 30
0.0
 11
-1.25
 21
0.0
 31
0.0
  0
LINE
  5
10F
100
AcDbEntity
  8
0
  6
CONTINUOUS
 62
     7
100
AcDbLine
 10
0.0
 20
0.0
 30
0.0
 11
0.0
 21
-1.25
 31
0.0
  0
LINE
  5
110
100
AcDbEntity
  8
0
  6
CONTINUOUS
 62
     7
100
AcDbLine
 10
0.0
 20
0.0
 30
0.0
 11
1.25
 21
0.0
 31
0.0
  0
ENDBLK
  5
10C
100
AcDbEntity
  8
0
100
AcDbBlockEnd
  0
BLOCK
  5
113
100
AcDbEntity
  8
0
100
AcDbBlockBegin
  2
SW_CENTERMARKSYMBOL_2
 70
     0
 10
0.0
 20
0.0
 30
0.0
  3
SW_CENTERMARKSYMBOL_2
  1

  0
LINE
  5
115
100
AcDbEntity
  8
0
  6
CONTINUOUS
 62
     7
100
AcDbLine
 10
0.0
 20
0.0
 30
0.0
 11
0.0
 21
1.25
 31
0.0
  0
LINE
  5
116
100
AcDbEntity
  8
0
  6
CONTINUOUS
 62
     7
100
AcDbLine
 10
0.0
 20
0.0
 30
0.0
 11
-1.25
 21
0.0
 31
0.0
  0
LINE
  5
117
100
AcDbEntity
  8
0
  6
CONTINUOUS
 62
     7
100
AcDbLine
 10
0.0
 20
0.0
 30
0.0
 11
0.0
 21
-1.25
 31
0.0
  0
LINE
  5
118
100
AcDbEntity
  8
0
  6
CONTINUOUS
 62
     7
100
AcDbLine
 10
0.0
 20
0.0
 30
0.0
 11
1.25
 21
0.0
 31
0.0
  0
ENDBLK
  5
114
100
AcDbEntity
  8
0
100
AcDbBlockEnd
  0
BLOCK
  5
11B
100
AcDbEntity
  8
0
100
AcDbBlockBegin
  2
SW_CENTERMARKSYMBOL_3
 70
     0
 10
0.0
 20
0.0
 30
0.0
  3
SW_CENTERMARKSYMBOL_3
  1

  0
LINE
  5
11D
100
AcDbEntity
  8
0
  6
CONTINUOUS
 62
     7
100
AcDbLine
 10
0.0
 20
0.0
 30
0.0
 11
0.0
 21
1.25
 31
0.0
  0
LINE
  5
11E
100
AcDbEntity
  8
0
  6
CONTINUOUS
 62
     7
100
AcDbLine
 10
0.0
 20
0.0
 30
0.0
 11
-1.25
 21
0.0
 31
0.0
  0
LINE
  5
11F
100
AcDbEntity
  8
0
  6
CONTINUOUS
 62
     7
100
AcDbLine
 10
0.0
 20
0.0
 30
0.0
 11
0.0
 21
-1.25
 31
0.0
  0
LINE
  5
120
100
AcDbEntity
  8
0
  6
CONTINUOUS
 62
     7
100
AcDbLine
 10
0.0
 20
0.0
 30
0.0
 11
1.25
 21
0.0
 31
0.0
  0
ENDBLK
  5
11C
100
AcDbEntity
  8
0
100
AcDbBlockEnd
  0
BLOCK
  5
123
100
AcDbEntity
  8
0
100
AcDbBlockBegin
  2
SW_CENTERMARKSYMBOL_4
 70
     0
 10
0.0
 20
0.0
 30
0.0
  3
SW_CENTERMARKSYMBOL_4
  1

  0
LINE
  5
125
100
AcDbEntity
  8
0
  6
CONTINUOUS
 62
     7
100
AcDbLine
 10
0.0
 20
0.0
 30
0.0
 11
0.0
 21
1.25
 31
0.0
  0
LINE
  5
126
100
AcDbEntity
  8
0
  6
CONTINUOUS
 62
     7
100
AcDbLine
 10
0.0
 20
0.0
 30
0.0
 11
-1.25
 21
0.0
 31
0.0
  0
LINE
  5
127
100
AcDbEntity
  8
0
  6
CONTINUOUS
 62
     7
100
AcDbLine
 10
0.0
 20
0.0
 30
0.0
 11
0.0
 21
-1.25
 31
0.0
  0
LINE
  5
128
100
AcDbEntity
  8
0
  6
CONTINUOUS
 62
     7
100
AcDbLine
 10
0.0
 20
0.0
 30
0.0
 11
1.25
 21
0.0
 31
0.0
  0
ENDBLK
  5
124
100
AcDbEntity
  8
0
100
AcDbBlockEnd
  0
BLOCK
  5
12B
100
AcDbEntity
  8
0
100
AcDbBlockBegin
  2
SW_CENTERMARKSYMBOL_5
 70
     0
 10
0.0
 20
0.0
 30
0.0
  3
SW_CENTERMARKSYMBOL_5
  1

  0
LINE
  5
12D
100
AcDbEntity
  8
0
  6
CONTINUOUS
 62
     7
100
AcDbLine
 10
0.0
 20
0.0
 30
0.0
 11
0.0
 21
1.25
 31
0.0
  0
LINE
  5
12E
100
AcDbEntity
  8
0
  6
CONTINUOUS
 62
     7
100
AcDbLine
 10
0.0
 20
0.0
 30
0.0
 11
-1.25
 21
0.0
 31
0.0
  0
LINE
  5
12F
100
AcDbEntity
  8
0
  6
CONTINUOUS
 62
     7
100
AcDbLine
 10
0.0
 20
0.0
 30
0.0
 11
0.0
 21
-1.25
 31
0.0
  0
LINE
  5
130
100
AcDbEntity
  8
0
  6
CONTINUOUS
 62
     7
100
AcDbLine
 10
0.0
 20
0.0
 30
0.0
 11
1.25
 21
0.0
 31
0.0
  0
ENDBLK
  5
12C
100
AcDbEntity
  8
0
100
AcDbBlockEnd
  0
BLOCK
  5
133
100
AcDbEntity
  8
0
100
AcDbBlockBegin
  2
SW_CENTERMARKSYMBOL_6
 70
     0
 10
0.0
 20
0.0
 30
0.0
  3
SW_CENTERMARKSYMBOL_6
  1

  0
LINE
  5
135
100
AcDbEntity
  8
0
  6
CONTINUOUS
 62
     7
100
AcDbLine
 10
0.0
 20
0.0
 30
0.0
 11
0.0
 21
1.25
 31
0.0
  0
LINE
  5
136
100
AcDbEntity
  8
0
  6
CONTINUOUS
 62
     7
100
AcDbLine
 10
0.0
 20
0.0
 30
0.0
 11
-1.25
 21
0.0
 31
0.0
  0
LINE
  5
137
100
AcDbEntity
  8
0
  6
CONTINUOUS
 62
     7
100
AcDbLine
 10
0.0
 20
0.0
 30
0.0
 11
0.0
 21
-1.25
 31
0.0
  0
LINE
  5
138
100
AcDbEntity
  8
0
  6
CONTINUOUS
 62
     7
100
AcDbLine
 10
0.0
 20
0.0
 30
0.0
 11
1.25
 21
0.0
 31
0.0
  0
ENDBLK
  5
134
100
AcDbEntity
  8
0
100
AcDbBlockEnd
  0
BLOCK
  5
13B
100
AcDbEntity
  8
0
100
AcDbBlockBegin
  2
SW_CENTERMARKSYMBOL_7
 70
     0
 10
0.0
 20
0.0
 30
0.0
  3
SW_CENTERMARKSYMBOL_7
  1

  0
LINE
  5
13D
100
AcDbEntity
  8
0
  6
CONTINUOUS
 62
     7
100
AcDbLine
 10
0.0
 20
0.0
 30
0.0
 11
0.0
 21
1.25
 31
0.0
  0
LINE
  5
13E
100
AcDbEntity
  8
0
  6
CONTINUOUS
 62
     7
100
AcDbLine
 10
0.0
 20
0.0
 30
0.0
 11
-1.25
 21
0.0
 31
0.0
  0
LINE
  5
13F
100
AcDbEntity
  8
0
  6
CONTINUOUS
 62
     7
100
AcDbLine
 10
0.0
 20
0.0
 30
0.0
 11
0.0
 21
-1.25
 31
0.0
  0
LINE
  5
140
100
AcDbEntity
  8
0
  6
CONTINUOUS
 62
     7
100
AcDbLine
 10
0.0
 20
0.0
 30
0.0
 11
1.25
 21
0.0
 31
0.0
  0
ENDBLK
  5
13C
100
AcDbEntity
  8
0
100
AcDbBlockEnd
  0
BLOCK
  5
143
100
AcDbEntity
  8
0
100
AcDbBlockBegin
  2
SW_CENTERMARKSYMBOL_8
 70
     0
 10
0.0
 20
0.0
 30
0.0
  3
SW_CENTERMARKSYMBOL_8
  1

  0
LINE
  5
145
100
AcDbEntity
  8
0
  6
CONTINUOUS
 62
     7
100
AcDbLine
 10
0.0
 20
0.0
 30
0.0
 11
0.0
 21
1.25
 31
0.0
  0
LINE
  5
146
100
AcDbEntity
  8
0
  6
CONTINUOUS
 62
     7
100
AcDbLine
 10
0.0
 20
0.0
 30
0.0
 11
-1.25
 21
0.0
 31
0.0
  0
LINE
  5
147
100
AcDbEntity
  8
0
  6
CONTINUOUS
 62
     7
100
AcDbLine
 10
0.0
 20
0.0
 30
0.0
 11
0.0
 21
-1.25
 31
0.0
  0
LINE
  5
148
100
AcDbEntity
  8
0
  6
CONTINUOUS
 62
     7
100
AcDbLine
 10
0.0
 20
0.0
 30
0.0
 11
1.25
 21
0.0
 31
0.0
  0
ENDBLK
  5
144
100
AcDbEntity
  8
0
100
AcDbBlockEnd
  0
BLOCK
  5
14B
100
AcDbEntity
  8
0
100
AcDbBlockBegin
  2
SW_CENTERMARKSYMBOL_9
 70
     0
 10
0.0
 20
0.0
 30
0.0
  3
SW_CENTERMARKSYMBOL_9
  1

  0
LINE
  5
14D
100
AcDbEntity
  8
0
  6
CONTINUOUS
 62
     7
100
AcDbLine
 10
0.0
 20
0.0
 30
0.0
 11
0.0
 21
1.25
 31
0.0
  0
LINE
  5
14E
100
AcDbEntity
  8
0
  6
CONTINUOUS
 62
     7
100
AcDbLine
 10
0.0
 20
0.0
 30
0.0
 11
-1.25
 21
0.0
 31
0.0
  0
LINE
  5
14F
100
AcDbEntity
  8
0
  6
CONTINUOUS
 62
     7
100
AcDbLine
 10
0.0
 20
0.0
 30
0.0
 11
0.0
 21
-1.25
 31
0.0
  0
LINE
  5
150
100
AcDbEntity
  8
0
  6
CONTINUOUS
 62
     7
100
AcDbLine
 10
0.0
 20
0.0
 30
0.0
 11
1.25
 21
0.0
 31
0.0
  0
ENDBLK
  5
14C
100
AcDbEntity
  8
0
100
AcDbBlockEnd
  0
BLOCK
  5
153
100
AcDbEntity
  8
0
100
AcDbBlockBegin
  2
SW_CENTERMARKSYMBOL_10
 70
     0
 10
0.0
 20
0.0
 30
0.0
  3
SW_CENTERMARKSYMBOL_10
  1

  0
LINE
  5
155
100
AcDbEntity
  8
0
  6
CONTINUOUS
 62
     7
100
AcDbLine
 10
0.0
 20
0.0
 30
0.0
 11
0.0
 21
1.25
 31
0.0
  0
LINE
  5
156
100
AcDbEntity
  8
0
  6
CONTINUOUS
 62
     7
100
AcDbLine
 10
0.0
 20
0.0
 30
0.0
 11
-1.25
 21
0.0
 31
0.0
  0
LINE
  5
157
100
AcDbEntity
  8
0
  6
CONTINUOUS
 62
     7
100
AcDbLine
 10
0.0
 20
0.0
 30
0.0
 11
0.0
 21
-1.25
 31
0.0
  0
LINE
  5
158
100
AcDbEntity
  8
0
  6
CONTINUOUS
 62
     7
100
AcDbLine
 10
0.0
 20
0.0
 30
0.0
 11
1.25
 21
0.0
 31
0.0
  0
ENDBLK
  5
154
100
AcDbEntity
  8
0
100
AcDbBlockEnd
  0
BLOCK
  5
15B
100
AcDbEntity
  8
0
100
AcDbBlockBegin
  2
SW_CENTERMARKSYMBOL_11
 70
     0
 10
0.0
 20
0.0
 30
0.0
  3
SW_CENTERMARKSYMBOL_11
  1

  0
LINE
  5
15D
100
AcDbEntity
  8
0
  6
CONTINUOUS
 62
     7
100
AcDbLine
 10
0.0
 20
0.0
 30
0.0
 11
0.0
 21
1.25
 31
0.0
  0
LINE
  5
15E
100
AcDbEntity
  8
0
  6
CONTINUOUS
 62
     7
100
AcDbLine
 10
0.0
 20
0.0
 30
0.0
 11
-1.25
 21
0.0
 31
0.0
  0
LINE
  5
15F
100
AcDbEntity
  8
0
  6
CONTINUOUS
 62
     7
100
AcDbLine
 10
0.0
 20
0.0
 30
0.0
 11
0.0
 21
-1.25
 31
0.0
  0
LINE
  5
160
100
AcDbEntity
  8
0
  6
CONTINUOUS
 62
     7
100
AcDbLine
 10
0.0
 20
0.0
 30
0.0
 11
1.25
 21
0.0
 31
0.0
  0
ENDBLK
  5
15C
100
AcDbEntity
  8
0
100
AcDbBlockEnd
  0
BLOCK
  5
1ED
100
AcDbEntity
  8
0
100
AcDbBlockBegin
  2
SW_CENTERMARKSYMBOL_12
 70
     0
 10
0.0
 20
0.0
 30
0.0
  3
SW_CENTERMARKSYMBOL_12
  1

  0
LINE
  5
1EF
100
AcDbEntity
  8
0
  6
CONTINUOUS
 62
     7
100
AcDbLine
 10
0.0
 20
0.0
 30
0.0
 11
0.0
 21
1.25
 31
0.0
  0
LINE
  5
1F0
100
AcDbEntity
  8
0
  6
CONTINUOUS
 62
     7
100
AcDbLine
 10
0.0
 20
0.0
 30
0.0
 11
-1.25
 21
0.0
 31
0.0
  0
LINE
  5
1F1
100
AcDbEntity
  8
0
  6
CONTINUOUS
 62
     7
100
AcDbLine
 10
0.0
 20
0.0
 30
0.0
 11
0.0
 21
-1.25
 31
0.0
  0
LINE
  5
1F2
100
AcDbEntity
  8
0
  6
CONTINUOUS
 62
     7
100
AcDbLine
 10
0.0
 20
0.0
 30
0.0
 11
1.25
 21
0.0
 31
0.0
  0
LINE
  5
1F3
100
AcDbEntity
  8
0
  6
CONTINUOUS
 62
     7
100
AcDbLine
 10
0.0
 20
2.5
 30
0.0
 11
0.0
 21
4.125
 31
0.0
  0
LINE
  5
1F4
100
AcDbEntity
  8
0
  6
CONTINUOUS
 62
     7
100
AcDbLine
 10
-2.5
 20
0.0
 30
0.0
 11
-4.125
 21
0.0
 31
0.0
  0
LINE
  5
1F5
100
AcDbEntity
  8
0
  6
CONTINUOUS
 62
     7
100
AcDbLine
 10
0.0
 20
-2.5
 30
0.0
 11
0.0
 21
-4.125
 31
0.0
  0
LINE
  5
1F6
100
AcDbEntity
  8
0
  6
CONTINUOUS
 62
     7
100
AcDbLine
 10
2.5
 20
0.0
 30
0.0
 11
4.125
 21
0.0
 31
0.0
  0
ENDBLK
  5
1EE
100
AcDbEntity
  8
0
100
AcDbBlockEnd
  0
BLOCK
  5
1F9
100
AcDbEntity
  8
0
100
AcDbBlockBegin
  2
SW_CENTERMARKSYMBOL_13
 70
     0
 10
0.0
 20
0.0
 30
0.0
  3
SW_CENTERMARKSYMBOL_13
  1

  0
LINE
  5
1FB
100
AcDbEntity
  8
0
  6
CONTINUOUS
 62
     7
100
AcDbLine
 10
0.0
 20
0.0
 30
0.0
 11
0.0
 21
1.25
 31
0.0
  0
LINE
  5
1FC
100
AcDbEntity
  8
0
  6
CONTINUOUS
 62
     7
100
AcDbLine
 10
0.0
 20
0.0
 30
0.0
 11
-1.25
 21
0.0
 31
0.0
  0
LINE
  5
1FD
100
AcDbEntity
  8
0
  6
CONTINUOUS
 62
     7
100
AcDbLine
 10
0.0
 20
0.0
 30
0.0
 11
0.0
 21
-1.25
 31
0.0
  0
LINE
  5
1FE
100
AcDbEntity
  8
0
  6
CONTINUOUS
 62
     7
100
AcDbLine
 10
0.0
 20
0.0
 30
0.0
 11
1.25
 21
0.0
 31
0.0
  0
LINE
  5
1FF
100
AcDbEntity
  8
0
  6
CONTINUOUS
 62
     7
100
AcDbLine
 10
0.0
 20
2.5
 30
0.0
 11
0.0
 21
4.125
 31
0.0
  0
LINE
  5
200
100
AcDbEntity
  8
0
  6
CONTINUOUS
 62
     7
100
AcDbLine
 10
-2.5
 20
0.0
 30
0.0
 11
-4.125
 21
0.0
 31
0.0
  0
LINE
  5
201
100
AcDbEntity
  8
0
  6
CONTINUOUS
 62
     7
100
AcDbLine
 10
0.0
 20
-2.5
 30
0.0
 11
0.0
 21
-4.125
 31
0.0
  0
LINE
  5
202
100
AcDbEntity
  8
0
  6
CONTINUOUS
 62
     7
100
AcDbLine
 10
2.5
 20
0.0
 30
0.0
 11
4.125
 21
0.0
 31
0.0
  0
ENDBLK
  5
1FA
100
AcDbEntity
  8
0
100
AcDbBlockEnd
  0
BLOCK
  5
205
100
AcDbEntity
  8
0
100
AcDbBlockBegin
  2
SW_CENTERMARKSYMBOL_14
 70
     0
 10
0.0
 20
0.0
 30
0.0
  3
SW_CENTERMARKSYMBOL_14
  1

  0
LINE
  5
207
100
AcDbEntity
  8
0
  6
CONTINUOUS
 62
     7
100
AcDbLine
 10
0.0
 20
0.0
 30
0.0
 11
0.0
 21
1.25
 31
0.0
  0
LINE
  5
208
100
AcDbEntity
  8
0
  6
CONTINUOUS
 62
     7
100
AcDbLine
 10
0.0
 20
0.0
 30
0.0
 11
-1.25
 21
0.0
 31
0.0
  0
LINE
  5
209
100
AcDbEntity
  8
0
  6
CONTINUOUS
 62
     7
100
AcDbLine
 10
0.0
 20
0.0
 30
0.0
 11
0.0
 21
-1.25
 31
0.0
  0
LINE
  5
20A
100
AcDbEntity
  8
0
  6
CONTINUOUS
 62
     7
100
AcDbLine
 10
0.0
 20
0.0
 30
0.0
 11
1.25
 21
0.0
 31
0.0
  0
LINE
  5
20B
100
AcDbEntity
  8
0
  6
CONTINUOUS
 62
     7
100
AcDbLine
 10
0.0
 20
2.5
 30
0.0
 11
0.0
 21
4.125
 31
0.0
  0
LINE
  5
20C
100
AcDbEntity
  8
0
  6
CONTINUOUS
 62
     7
100
AcDbLine
 10
-2.5
 20
0.0
 30
0.0
 11
-4.125
 21
0.0
 31
0.0
  0
LINE
  5
20D
100
AcDbEntity
  8
0
  6
CONTINUOUS
 62
     7
100
AcDbLine
 10
0.0
 20
-2.5
 30
0.0
 11
0.0
 21
-4.125
 31
0.0
  0
LINE
  5
20E
100
AcDbEntity
  8
0
  6
CONTINUOUS
 62
     7
100
AcDbLine
 10
2.5
 20
0.0
 30
0.0
 11
4.125
 21
0.0
 31
0.0
  0
ENDBLK
  5
206
100
AcDbEntity
  8
0
100
AcDbBlockEnd
  0
BLOCK
  5
211
100
AcDbEntity
  8
0
100
AcDbBlockBegin
  2
SW_CENTERMARKSYMBOL_15
 70
     0
 10
0.0
 20
0.0
 30
0.0
  3
SW_CENTERMARKSYMBOL_15
  1

  0
LINE
  5
213
100
AcDbEntity
  8
0
  6
CONTINUOUS
 62
     7
100
AcDbLine
 10
0.0
 20
0.0
 30
0.0
 11
0.0
 21
1.25
 31
0.0
  0
LINE
  5
214
100
AcDbEntity
  8
0
  6
CONTINUOUS
 62
     7
100
AcDbLine
 10
0.0
 20
0.0
 30
0.0
 11
-1.25
 21
0.0
 31
0.0
  0
LINE
  5
215
100
AcDbEntity
  8
0
  6
CONTINUOUS
 62
     7
100
AcDbLine
 10
0.0
 20
0.0
 30
0.0
 11
0.0
 21
-1.25
 31
0.0
  0
LINE
  5
216
100
AcDbEntity
  8
0
  6
CONTINUOUS
 62
     7
100
AcDbLine
 10
0.0
 20
0.0
 30
0.0
 11
1.25
 21
0.0
 31
0.0
  0
LINE
  5
217
100
AcDbEntity
  8
0
  6
CONTINUOUS
 62
     7
100
AcDbLine
 10
0.0
 20
2.5
 30
0.0
 11
0.0
 21
4.125
 31
0.0
  0
LINE
  5
218
100
AcDbEntity
  8
0
  6
CONTINUOUS
 62
     7
100
AcDbLine
 10
-2.5
 20
0.0
 30
0.0
 11
-4.125
 21
0.0
 31
0.0
  0
LINE
  5
219
100
AcDbEntity
  8
0
  6
CONTINUOUS
 62
     7
100
AcDbLine
 10
0.0
 20
-2.5
 30
0.0
 11
0.0
 21
-4.125
 31
0.0
  0
LINE
  5
21A
100
AcDbEntity
  8
0
  6
CONTINUOUS
 62
     7
100
AcDbLine
 10
2.5
 20
0.0
 30
0.0
 11
4.125
 21
0.0
 31
0.0
  0
ENDBLK
  5
212
100
AcDbEntity
  8
0
100
AcDbBlockEnd
  0
ENDSEC
  0
SECTION
  2
ENTITIES
  0
LINE
  5
2F
100
AcDbEntity
  8
0
  6
CONTINUOUS
 62
     7
100
AcDbLine
 10
106.430515
 20
146.197678
 30
0.0
 11
180.030515
 21
146.197678
 31
0.0
  0
LINE
  5
30
100
AcDbEntity
  8
0
  6
CONTINUOUS
 62
     7
100
AcDbLine
 10
106.430515
 20
147.535448
 30
0.0
 11
106.430515
 21
146.197678
 31
0.0
  0
LINE
  5
31
100
AcDbEntity
  8
0
  6
CONTINUOUS
 62
     7
100
AcDbLine
 10
180.030515
 20
147.535448
 30
0.0
 11
106.430515
 21
147.535448
 31
0.0
  0
LINE
  5
32
100
AcDbEntity
  8
0
  6
CONTINUOUS
 62
     7
100
AcDbLine
 10
180.030515
 20
147.535448
 30
0.0
 11
180.030515
 21
146.197678
 31
0.0
  0
ARC
  5
33
100
AcDbEntity
  8
0
  6
CONTINUOUS
 62
     7
100
AcDbCircle
 10
106.430515
 20
149.602494
 30
0.0
 40
3.404816
100
AcDbArc
 50
180.0
 51
270.0
  0
LINE
  5
34
100
AcDbEntity
  8
0
  6
CONTINUOUS
 62
     7
100
AcDbLine
 10
104.363469
 20
149.602494
 30
0.0
 11
103.025699
 21
149.602494
 31
0.0
  0
ARC
  5
35
100
AcDbEntity
  8
0
  6
CONTINUOUS
 62
     7
100
AcDbCircle
 10
106.430515
 20
149.602494
 30
0.0
 40
2.067046
100
AcDbArc
 50
180.0
 51
270.0
  0
LINE
  5
36
100
AcDbEntity
  8
0
  6
CONTINUOUS
 62
     7
100
AcDbLine
 10
103.025699
 20
155.150086
 30
0.0
 11
103.025699
 21
149.602494
 31
0.0
  0
LINE
  5
37
100
AcDbEntity
  8
0
  6
CONTINUOUS
 62
     7
100
AcDbLine
 10
104.363469
 20
155.150086
 30
0.0
 11
103.025699
 21
155.150086
 31
0.0
  0
LINE
  5
38
100
AcDbEntity
  8
0
  6
CONTINUOUS
 62
     7
100
AcDbLine
 10
104.363469
 20
149.602494
 30
0.0
 11
104.363469
 21
155.150086
 31
0.0
  0
ARC
  5
39
100
AcDbEntity
  8
0
  6
CONTINUOUS
 62
     7
100
AcDbCircle
 10
94.230515
 20
155.150086
 30
0.0
 40
8.795184
100
AcDbArc
 50
0.0
 51
95.963197
  0
LWPOLYLINE
  5
3A
100
AcDbEntity
  8
0
  6
CONTINUOUS
 62
     7
100
AcDbPolyline
 90
        3
 70
   128
 43
0.0
 10
93.249579
 20
165.235448
 10
93.311343
 20
164.002494
 10
93.316786
 20
163.897678
  0
ARC
  5
3B
100
AcDbEntity
  8
0
  6
CONTINUOUS
 62
     7
100
AcDbCircle
 10
94.230515
 20
155.150086
 30
0.0
 40
10.132954
100
AcDbArc
 50
0.0
 51
95.555302
  0
LINE
  5
3C
100
AcDbEntity
  8
0
  6
CONTINUOUS
 62
     7
100
AcDbLine
 10
88.682922
 20
163.897678
 30
0.0
 11
93.316786
 21
163.897678
 31
0.0
  0
LINE
  5
3D
100
AcDbEntity
  8
0
  6
CONTINUOUS
 62
     7
100
AcDbLine
 10
88.682922
 20
165.235448
 30
0.0
 11
88.682922
 21
163.897678
 31
0.0
  0
LINE
  5
3E
100
AcDbEntity
  8
0
  6
CONTINUOUS
 62
     7
100
AcDbLine
 10
93.249579
 20
165.235448
 30
0.0
 11
88.682922
 21
165.235448
 31
0.0
  0
ARC
  5
3F
100
AcDbEntity
  8
0
  6
CONTINUOUS
 62
     7
100
AcDbCircle
 10
88.682922
 20
167.302494
 30
0.0
 40
3.404816
100
AcDbArc
 50
180.0
 51
270.0
  0
LINE
  5
40
100
AcDbEntity
  8
0
  6
CONTINUOUS
 62
     7
100
AcDbLine
 10
86.615877
 20
167.302494
 30
0.0
 11
85.278107
 21
167.302494
 31
0.0
  0
ARC
  5
41
100
AcDbEntity
  8
0
  6
CONTINUOUS
 62
     7
100
AcDbCircle
 10
88.682922
 20
167.302494
 30
0.0
 40
2.067046
100
AcDbArc
 50
180.0
 51
270.0
  0
LINE
  5
42
100
AcDbEntity
  8
0
  6
CONTINUOUS
 62
     7
100
AcDbLine
 10
85.278107
 20
305.997678
 30
0.0
 11
85.278107
 21
167.302494
 31
0.0
  0
LINE
  5
43
100
AcDbEntity
  8
0
  6
CONTINUOUS
 62
     7
100
AcDbLine
 10
86.615877
 20
305.997678
 30
0.0
 11
85.278107
 21
305.997678
 31
0.0
  0
LINE
  5
44
100
AcDbEntity
  8
0
  6
CONTINUOUS
 62
     7
100
AcDbLine
 10
86.615877
 20
167.302494
 30
0.0
 11
86.615877
 21
305.997678
 31
0.0
  0
ARC
  5
45
100
AcDbEntity
  8
0
  6
CONTINUOUS
 62
     7
100
AcDbCircle
 10
88.682922
 20
305.997678
 30
0.0
 40
3.404816
100
AcDbArc
 50
90.0
 51
180.0
  0
LINE
  5
46
100
AcDbEntity
  8
0
  6
CONTINUOUS
 62
     7
100
AcDbLine
 10
88.682922
 20
308.064724
 30
0.0
 11
88.682922
 21
309.402494
 31
0.0
  0
ARC
  5
47
100
AcDbEntity
  8
0
  6
CONTINUOUS
 62
     7
100
AcDbCircle
 10
88.682922
 20
305.997678
 30
0.0
 40
2.067046
100
AcDbArc
 50
90.0
 51
180.0
  0
LINE
  5
48
100
AcDbEntity
  8
0
  6
CONTINUOUS
 62
     7
100
AcDbLine
 10
93.316786
 20
309.402494
 30
0.0
 11
88.682922
 21
309.402494
 31
0.0
  0
LWPOLYLINE
  5
49
100
AcDbEntity
  8
0
  6
CONTINUOUS
 62
     7
100
AcDbPolyline
 90
        3
 70
   128
 43
0.0
 10
93.316786
 20
309.402494
 10
93.31406
 20
309.350086
 10
93.311343
 20
309.297678
  0
LINE
  5
4A
100
AcDbEntity
  8
0
  6
CONTINUOUS
 62
     7
100
AcDbLine
 10
93.249579
 20
308.064724
 30
0.0
 11
93.311343
 21
309.297678
 31
0.0
  0
LINE
  5
4B
100
AcDbEntity
  8
0
  6
CONTINUOUS
 62
     7
100
AcDbLine
 10
88.682922
 20
308.064724
 30
0.0
 11
93.249579
 21
308.064724
 31
0.0
  0
ARC
  5
4C
100
AcDbEntity
  8
0
  6
CONTINUOUS
 62
     7
100
AcDbCircle
 10
94.230515
 20
318.150086
 30
0.0
 40
8.795184
100
AcDbArc
 50
264.036803
 51
0.0
  0
LINE
  5
4D
100
AcDbEntity
  8
0
  6
CONTINUOUS
 62
     7
100
AcDbLine
 10
104.363469
 20
318.150086
 30
0.0
 11
103.025699
 21
318.150086
 31
0.0
  0
ARC
  5
4E
100
AcDbEntity
  8
0
  6
CONTINUOUS
 62
     7
100
AcDbCircle
 10
94.230515
 20
318.150086
 30
0.0
 40
10.132954
100
AcDbArc
 50
264.444698
 51
0.0
  0
LINE
  5
4F
100
AcDbEntity
  8
0
  6
CONTINUOUS
 62
     7
100
AcDbLine
 10
103.025699
 20
323.697678
 30
0.0
 11
103.025699
 21
318.150086
 31
0.0
  0
LINE
  5
50
100
AcDbEntity
  8
0
  6
CONTINUOUS
 62
     7
100
AcDbLine
 10
104.363469
 20
323.697678
 30
0.0
 11
103.025699
 21
323.697678
 31
0.0
  0
LINE
  5
51
100
AcDbEntity
  8
0
  6
CONTINUOUS
 62
     7
100
AcDbLine
 10
104.363469
 20
318.150086
 30
0.0
 11
104.363469
 21
323.697678
 31
0.0
  0
ARC
  5
52
100
AcDbEntity
  8
0
  6
CONTINUOUS
 62
     7
100
AcDbCircle
 10
106.430515
 20
323.697678
 30
0.0
 40
3.404816
100
AcDbArc
 50
90.0
 51
180.0
  0
LINE
  5
53
100
AcDbEntity
  8
0
  6
CONTINUOUS
 62
     7
100
AcDbLine
 10
106.430515
 20
325.764724
 30
0.0
 11
106.430515
 21
327.102494
 31
0.0
  0
ARC
  5
54
100
AcDbEntity
  8
0
  6
CONTINUOUS
 62
     7
100
AcDbCircle
 10
106.430515
 20
323.697678
 30
0.0
 40
2.067046
100
AcDbArc
 50
90.0
 51
180.0
  0
LINE
  5
55
100
AcDbEntity
  8
0
  6
CONTINUOUS
 62
     7
100
AcDbLine
 10
180.030515
 20
327.102494
 30
0.0
 11
106.430515
 21
327.102494
 31
0.0
  0
LINE
  5
56
100
AcDbEntity
  8
0
  6
CONTINUOUS
 62
     7
100
AcDbLine
 10
180.030515
 20
325.764724
 30
0.0
 11
180.030515
 21
327.102494
 31
0.0
  0
LINE
  5
57
100
AcDbEntity
  8
0
  6
CONTINUOUS
 62
     7
100
AcDbLine
 10
106.430515
 20
325.764724
 30
0.0
 11
180.030515
 21
325.764724
 31
0.0
  0
ARC
  5
58
100
AcDbEntity
  8
0
  6
CONTINUOUS
 62
     7
100
AcDbCircle
 10
180.030515
 20
323.697678
 30
0.0
 40
3.404816
100
AcDbArc
 50
0.0
 51
90.0
  0
LINE
  5
59
100
AcDbEntity
  8
0
  6
CONTINUOUS
 62
     7
100
AcDbLine
 10
182.09756
 20
323.697678
 30
0.0
 11
183.43533
 21
323.697678
 31
0.0
  0
ARC
  5
5A
100
AcDbEntity
  8
0
  6
CONTINUOUS
 62
     7
100
AcDbCircle
 10
180.030515
 20
323.697678
 30
0.0
 40
2.067046
100
AcDbArc
 50
0.0
 51
90.0
  0
LINE
  5
5B
100
AcDbEntity
  8
0
  6
CONTINUOUS
 62
     7
100
AcDbLine
 10
183.43533
 20
318.150086
 30
0.0
 11
183.43533
 21
323.697678
 31
0.0
  0
LINE
  5
5C
100
AcDbEntity
  8
0
  6
CONTINUOUS
 62
     7
100
AcDbLine
 10
182.09756
 20
318.150086
 30
0.0
 11
183.43533
 21
318.150086
 31
0.0
  0
LINE
  5
5D
100
AcDbEntity
  8
0
  6
CONTINUOUS
 62
     7
100
AcDbLine
 10
182.09756
 20
323.697678
 30
0.0
 11
182.09756
 21
318.150086
 31
0.0
  0
LINE
  5
5E
100
AcDbEntity
  8
0
  6
CONTINUOUS
 62
     7
100
AcDbLine
 10
101.73533
 20
149.602494
 30
0.0
 11
101.630515
 21
149.602494
 31
0.0
  0
ARC
  5
5F
100
AcDbEntity
  8
0
  6
CONTINUOUS
 62
     7
100
AcDbCircle
 10
106.430515
 20
149.602494
 30
0.0
 40
4.695184
100
AcDbArc
 50
180.0
 51
270.0
  0
LINE
  5
60
100
AcDbEntity
  8
0
  6
CONTINUOUS
 62
     7
100
AcDbLine
 10
106.430515
 20
144.907309
 30
0.0
 11
106.430515
 21
144.802494
 31
0.0
  0
ARC
  5
61
100
AcDbEntity
  8
0
  6
CONTINUOUS
 62
     7
100
AcDbCircle
 10
106.430515
 20
149.602494
 30
0.0
 40
4.8
100
AcDbArc
 50
180.0
 51
270.0
  0
LINE
  5
62
100
AcDbEntity
  8
0
  6
CONTINUOUS
 62
     7
100
AcDbLine
 10
106.430515
 20
144.907309
 30
0.0
 11
180.030515
 21
144.907309
 31
0.0
  0
LINE
  5
63
100
AcDbEntity
  8
0
  6
CONTINUOUS
 62
     7
100
AcDbLine
 10
180.030515
 20
144.907309
 30
0.0
 11
180.030515
 21
144.802494
 31
0.0
  0
LINE
  5
64
100
AcDbEntity
  8
0
  6
CONTINUOUS
 62
     7
100
AcDbLine
 10
106.430515
 20
144.802494
 30
0.0
 11
180.030515
 21
144.802494
 31
0.0
  0
ARC
  5
65
100
AcDbEntity
  8
0
  6
CONTINUOUS
 62
     7
100
AcDbCircle
 10
180.030515
 20
149.602494
 30
0.0
 40
4.695184
100
AcDbArc
 50
270.0
 51
0.0
  0
LINE
  5
66
100
AcDbEntity
  8
0
  6
CONTINUOUS
 62
     7
100
AcDbLine
 10
184.725699
 20
149.602494
 30
0.0
 11
184.830515
 21
149.602494
 31
0.0
  0
ARC
  5
67
100
AcDbEntity
  8
0
  6
CONTINUOUS
 62
     7
100
AcDbCircle
 10
180.030515
 20
149.602494
 30
0.0
 40
4.8
100
AcDbArc
 50
270.0
 51
0.0
  0
LINE
  5
68
100
AcDbEntity
  8
0
  6
CONTINUOUS
 62
     7
100
AcDbLine
 10
184.725699
 20
149.602494
 30
0.0
 11
184.725699
 21
155.150086
 31
0.0
  0
LINE
  5
69
100
AcDbEntity
  8
0
  6
CONTINUOUS
 62
     7
100
AcDbLine
 10
184.725699
 20
155.150086
 30
0.0
 11
184.830515
 21
155.150086
 31
0.0
  0
LINE
  5
6A
100
AcDbEntity
  8
0
  6
CONTINUOUS
 62
     7
100
AcDbLine
 10
184.830515
 20
149.602494
 30
0.0
 11
184.830515
 21
155.150086
 31
0.0
  0
ARC
  5
6B
100
AcDbEntity
  8
0
  6
CONTINUOUS
 62
     7
100
AcDbCircle
 10
192.230515
 20
155.150086
 30
0.0
 40
7.504816
100
AcDbArc
 50
83.543972
 51
180.0
  0
LINE
  5
6C
100
AcDbEntity
  8
0
  6
CONTINUOUS
 62
     7
100
AcDbLine
 10
193.074361
 20
162.607309
 30
0.0
 11
193.068429
 21
162.502494
 31
0.0
  0
ARC
  5
6D
100
AcDbEntity
  8
0
  6
CONTINUOUS
 62
     7
100
AcDbCircle
 10
192.230515
 20
155.150086
 30
0.0
 40
7.4
100
AcDbArc
 50
83.498362
 51
180.0
  0
LINE
  5
6E
100
AcDbEntity
  8
0
  6
CONTINUOUS
 62
     7
100
AcDbLine
 10
193.074361
 20
162.607309
 30
0.0
 11
197.778107
 21
162.607309
 31
0.0
  0
LINE
  5
6F
100
AcDbEntity
  8
0
  6
CONTINUOUS
 62
     7
100
AcDbLine
 10
197.778107
 20
162.607309
 30
0.0
 11
197.778107
 21
162.502494
 31
0.0
  0
LINE
  5
70
100
AcDbEntity
  8
0
  6
CONTINUOUS
 62
     7
100
AcDbLine
 10
193.068429
 20
162.502494
 30
0.0
 11
197.778107
 21
162.502494
 31
0.0
  0
LINE
  5
71
100
AcDbEntity
  8
0
  6
CONTINUOUS
 62
     7
100
AcDbLine
 10
106.430515
 20
328.392863
 30
0.0
 11
106.430515
 21
328.497678
 31
0.0
  0
ARC
  5
72
100
AcDbEntity
  8
0
  6
CONTINUOUS
 62
     7
100
AcDbCircle
 10
106.430515
 20
323.697678
 30
0.0
 40
4.695184
100
AcDbArc
 50
90.0
 51
180.0
  0
LINE
  5
73
100
AcDbEntity
  8
0
  6
CONTINUOUS
 62
     7
100
AcDbLine
 10
101.73533
 20
323.697678
 30
0.0
 11
101.630515
 21
323.697678
 31
0.0
  0
ARC
  5
74
100
AcDbEntity
  8
0
  6
CONTINUOUS
 62
     7
100
AcDbCircle
 10
106.430515
 20
323.697678
 30
0.0
 40
4.8
100
AcDbArc
 50
90.0
 51
180.0
  0
ARC
  5
75
100
AcDbEntity
  8
0
  6
CONTINUOUS
 62
     7
100
AcDbCircle
 10
192.230515
 20
318.150086
 30
0.0
 40
8.795184
100
AcDbArc
 50
180.0
 51
275.963197
  0
LWPOLYLINE
  5
76
100
AcDbEntity
  8
0
  6
CONTINUOUS
 62
     7
100
AcDbPolyline
 90
        3
 70
   128
 43
0.0
 10
193.144243
 20
309.402494
 10
193.146969
 20
309.350086
 10
193.149686
 20
309.297678
  0
LINE
  5
77
100
AcDbEntity
  8
0
  6
CONTINUOUS
 62
     7
100
AcDbLine
 10
193.21145
 20
308.064724
 30
0.0
 11
193.149686
 21
309.297678
 31
0.0
  0
ARC
  5
78
100
AcDbEntity
  8
0
  6
CONTINUOUS
 62
     7
100
AcDbCircle
 10
192.230515
 20
318.150086
 30
0.0
 40
10.132954
100
AcDbArc
 50
180.0
 51
275.555302
  0
LINE
  5
79
100
AcDbEntity
  8
0
  6
CONTINUOUS
 62
     7
100
AcDbLine
 10
197.778107
 20
309.402494
 30
0.0
 11
193.144243
 21
309.402494
 31
0.0
  0
LINE
  5
7A
100
AcDbEntity
  8
0
  6
CONTINUOUS
 62
     7
100
AcDbLine
 10
197.778107
 20
308.064724
 30
0.0
 11
197.778107
 21
309.402494
 31
0.0
  0
LINE
  5
7B
100
AcDbEntity
  8
0
  6
CONTINUOUS
 62
     7
100
AcDbLine
 10
193.21145
 20
308.064724
 30
0.0
 11
197.778107
 21
308.064724
 31
0.0
  0
ARC
  5
7C
100
AcDbEntity
  8
0
  6
CONTINUOUS
 62
     7
100
AcDbCircle
 10
197.778107
 20
305.997678
 30
0.0
 40
3.404816
100
AcDbArc
 50
0.0
 51
90.0
  0
LINE
  5
7D
100
AcDbEntity
  8
0
  6
CONTINUOUS
 62
     7
100
AcDbLine
 10
199.845153
 20
305.997678
 30
0.0
 11
201.182922
 21
305.997678
 31
0.0
  0
ARC
  5
7E
100
AcDbEntity
  8
0
  6
CONTINUOUS
 62
     7
100
AcDbCircle
 10
197.778107
 20
305.997678
 30
0.0
 40
2.067046
100
AcDbArc
 50
0.0
 51
90.0
  0
LINE
  5
7F
100
AcDbEntity
  8
0
  6
CONTINUOUS
 62
     7
100
AcDbLine
 10
201.182922
 20
167.302494
 30
0.0
 11
201.182922
 21
305.997678
 31
0.0
  0
LINE
  5
80
100
AcDbEntity
  8
0
  6
CONTINUOUS
 62
     7
100
AcDbLine
 10
199.845153
 20
167.302494
 30
0.0
 11
201.182922
 21
167.302494
 31
0.0
  0
LINE
  5
81
100
AcDbEntity
  8
0
  6
CONTINUOUS
 62
     7
100
AcDbLine
 10
199.845153
 20
305.997678
 30
0.0
 11
199.845153
 21
167.302494
 31
0.0
  0
ARC
  5
82
100
AcDbEntity
  8
0
  6
CONTINUOUS
 62
     7
100
AcDbCircle
 10
197.778107
 20
167.302494
 30
0.0
 40
3.404816
100
AcDbArc
 50
270.0
 51
0.0
  0
LINE
  5
83
100
AcDbEntity
  8
0
  6
CONTINUOUS
 62
     7
100
AcDbLine
 10
197.778107
 20
165.235448
 30
0.0
 11
197.778107
 21
163.897678
 31
0.0
  0
ARC
  5
84
100
AcDbEntity
  8
0
  6
CONTINUOUS
 62
     7
100
AcDbCircle
 10
197.778107
 20
167.302494
 30
0.0
 40
2.067046
100
AcDbArc
 50
270.0
 51
0.0
  0
ARC
  5
85
100
AcDbEntity
  8
0
  6
CONTINUOUS
 62
     7
100
AcDbCircle
 10
180.030515
 20
149.602494
 30
0.0
 40
3.404816
100
AcDbArc
 50
270.0
 51
0.0
  0
LINE
  5
86
100
AcDbEntity
  8
0
  6
CONTINUOUS
 62
     7
100
AcDbLine
 10
183.43533
 20
149.602494
 30
0.0
 11
183.43533
 21
155.150086
 31
0.0
  0
ARC
  5
87
100
AcDbEntity
  8
0
  6
CONTINUOUS
 62
     7
100
AcDbCircle
 10
192.230515
 20
155.150086
 30
0.0
 40
8.795184
100
AcDbArc
 50
84.036803
 51
180.0
  0
LINE
  5
88
100
AcDbEntity
  8
0
  6
CONTINUOUS
 62
     7
100
AcDbLine
 10
193.144243
 20
163.897678
 30
0.0
 11
197.778107
 21
163.897678
 31
0.0
  0
LINE
  5
89
100
AcDbEntity
  8
0
  6
CONTINUOUS
 62
     7
100
AcDbLine
 10
101.73533
 20
155.150086
 30
0.0
 11
101.73533
 21
149.602494
 31
0.0
  0
ARC
  5
8A
100
AcDbEntity
  8
0
  6
CONTINUOUS
 62
     7
100
AcDbCircle
 10
94.230515
 20
155.150086
 30
0.0
 40
7.504816
100
AcDbArc
 50
0.0
 51
96.456028
  0
LINE
  5
8B
100
AcDbEntity
  8
0
  6
CONTINUOUS
 62
     7
100
AcDbLine
 10
88.682922
 20
162.607309
 30
0.0
 11
93.386668
 21
162.607309
 31
0.0
  0
ARC
  5
8C
100
AcDbEntity
  8
0
  6
CONTINUOUS
 62
     7
100
AcDbCircle
 10
88.682922
 20
167.302494
 30
0.0
 40
4.695184
100
AcDbArc
 50
180.0
 51
270.0
  0
LINE
  5
8D
100
AcDbEntity
  8
0
  6
CONTINUOUS
 62
     7
100
AcDbLine
 10
83.987738
 20
305.997678
 30
0.0
 11
83.987738
 21
167.302494
 31
0.0
  0
ARC
  5
8E
100
AcDbEntity
  8
0
  6
CONTINUOUS
 62
     7
100
AcDbCircle
 10
88.682922
 20
305.997678
 30
0.0
 40
4.695184
100
AcDbArc
 50
90.0
 51
180.0
  0
LINE
  5
8F
100
AcDbEntity
  8
0
  6
CONTINUOUS
 62
     7
100
AcDbLine
 10
93.386668
 20
310.692863
 30
0.0
 11
88.682922
 21
310.692863
 31
0.0
  0
ARC
  5
90
100
AcDbEntity
  8
0
  6
CONTINUOUS
 62
     7
100
AcDbCircle
 10
94.230515
 20
318.150086
 30
0.0
 40
7.504816
100
AcDbArc
 50
263.543972
 51
0.0
  0
LINE
  5
91
100
AcDbEntity
  8
0
  6
CONTINUOUS
 62
     7
100
AcDbLine
 10
101.73533
 20
323.697678
 30
0.0
 11
101.73533
 21
318.150086
 31
0.0
  0
LINE
  5
92
100
AcDbEntity
  8
0
  6
CONTINUOUS
 62
     7
100
AcDbLine
 10
180.030515
 20
328.392863
 30
0.0
 11
106.430515
 21
328.392863
 31
0.0
  0
ARC
  5
93
100
AcDbEntity
  8
0
  6
CONTINUOUS
 62
     7
100
AcDbCircle
 10
180.030515
 20
323.697678
 30
0.0
 40
4.695184
100
AcDbArc
 50
0.0
 51
90.0
  0
LINE
  5
94
100
AcDbEntity
  8
0
  6
CONTINUOUS
 62
     7
100
AcDbLine
 10
184.725699
 20
318.150086
 30
0.0
 11
184.725699
 21
323.697678
 31
0.0
  0
ARC
  5
95
100
AcDbEntity
  8
0
  6
CONTINUOUS
 62
     7
100
AcDbCircle
 10
192.230515
 20
318.150086
 30
0.0
 40
7.504816
100
AcDbArc
 50
180.0
 51
276.456028
  0
LINE
  5
96
100
AcDbEntity
  8
0
  6
CONTINUOUS
 62
     7
100
AcDbLine
 10
197.778107
 20
310.692863
 30
0.0
 11
193.074361
 21
310.692863
 31
0.0
  0
ARC
  5
97
100
AcDbEntity
  8
0
  6
CONTINUOUS
 62
     7
100
AcDbCircle
 10
197.778107
 20
305.997678
 30
0.0
 40
4.695184
100
AcDbArc
 50
0.0
 51
90.0
  0
LINE
  5
98
100
AcDbEntity
  8
0
  6
CONTINUOUS
 62
     7
100
AcDbLine
 10
202.473291
 20
167.302494
 30
0.0
 11
202.473291
 21
305.997678
 31
0.0
  0
ARC
  5
99
100
AcDbEntity
  8
0
  6
CONTINUOUS
 62
     7
100
AcDbCircle
 10
197.778107
 20
167.302494
 30
0.0
 40
4.695184
100
AcDbArc
 50
270.0
 51
0.0
  0
LINE
  5
9A
100
AcDbEntity
  8
0
  6
CONTINUOUS
 62
     7
100
AcDbLine
 10
202.473291
 20
167.302494
 30
0.0
 11
202.578107
 21
167.302494
 31
0.0
  0
ARC
  5
9B
100
AcDbEntity
  8
0
  6
CONTINUOUS
 62
     7
100
AcDbCircle
 10
197.778107
 20
167.302494
 30
0.0
 40
4.8
100
AcDbArc
 50
270.0
 51
0.0
  0
LINE
  5
9C
100
AcDbEntity
  8
0
  6
CONTINUOUS
 62
     7
100
AcDbLine
 10
202.473291
 20
305.997678
 30
0.0
 11
202.578107
 21
305.997678
 31
0.0
  0
LINE
  5
9D
100
AcDbEntity
  8
0
  6
CONTINUOUS
 62
     7
100
AcDbLine
 10
202.578107
 20
167.302494
 30
0.0
 11
202.578107
 21
305.997678
 31
0.0
  0
LINE
  5
9E
100
AcDbEntity
  8
0
  6
CONTINUOUS
 62
     7
100
AcDbLine
 10
197.778107
 20
310.692863
 30
0.0
 11
197.778107
 21
310.797678
 31
0.0
  0
ARC
  5
9F
100
AcDbEntity
  8
0
  6
CONTINUOUS
 62
     7
100
AcDbCircle
 10
197.778107
 20
305.997678
 30
0.0
 40
4.8
100
AcDbArc
 50
0.0
 51
90.0
  0
LINE
  5
A0
100
AcDbEntity
  8
0
  6
CONTINUOUS
 62
     7
100
AcDbLine
 10
193.074361
 20
310.692863
 30
0.0
 11
193.068429
 21
310.797678
 31
0.0
  0
LINE
  5
A1
100
AcDbEntity
  8
0
  6
CONTINUOUS
 62
     7
100
AcDbLine
 10
197.778107
 20
310.797678
 30
0.0
 11
193.068429
 21
310.797678
 31
0.0
  0
LINE
  5
A2
100
AcDbEntity
  8
0
  6
CONTINUOUS
 62
     7
100
AcDbLine
 10
184.725699
 20
318.150086
 30
0.0
 11
184.830515
 21
318.150086
 31
0.0
  0
ARC
  5
A3
100
AcDbEntity
  8
0
  6
CONTINUOUS
 62
     7
100
AcDbCircle
 10
192.230515
 20
318.150086
 30
0.0
 40
7.4
100
AcDbArc
 50
180.0
 51
276.501638
  0
LINE
  5
A4
100
AcDbEntity
  8
0
  6
CONTINUOUS
 62
     7
100
AcDbLine
 10
184.725699
 20
323.697678
 30
0.0
 11
184.830515
 21
323.697678
 31
0.0
  0
LINE
  5
A5
100
AcDbEntity
  8
0
  6
CONTINUOUS
 62
     7
100
AcDbLine
 10
184.830515
 20
318.150086
 30
0.0
 11
184.830515
 21
323.697678
 31
0.0
  0
LINE
  5
A6
100
AcDbEntity
  8
0
  6
CONTINUOUS
 62
     7
100
AcDbLine
 10
180.030515
 20
328.392863
 30
0.0
 11
180.030515
 21
328.497678
 31
0.0
  0
ARC
  5
A7
100
AcDbEntity
  8
0
  6
CONTINUOUS
 62
     7
100
AcDbCircle
 10
180.030515
 20
323.697678
 30
0.0
 40
4.8
100
AcDbArc
 50
0.0
 51
90.0
  0
LINE
  5
A8
100
AcDbEntity
  8
0
  6
CONTINUOUS
 62
     7
100
AcDbLine
 10
180.030515
 20
328.497678
 30
0.0
 11
106.430515
 21
328.497678
 31
0.0
  0
LINE
  5
A9
100
AcDbEntity
  8
0
  6
CONTINUOUS
 62
     7
100
AcDbLine
 10
88.682922
 20
162.607309
 30
0.0
 11
88.682922
 21
162.502494
 31
0.0
  0
LINE
  5
AA
100
AcDbEntity
  8
0
  6
CONTINUOUS
 62
     7
100
AcDbLine
 10
93.386668
 20
162.607309
 30
0.0
 11
93.392601
 21
162.502494
 31
0.0
  0
LINE
  5
AB
100
AcDbEntity
  8
0
  6
CONTINUOUS
 62
     7
100
AcDbLine
 10
88.682922
 20
162.502494
 30
0.0
 11
93.392601
 21
162.502494
 31
0.0
  0
LINE
  5
AC
100
AcDbEntity
  8
0
  6
CONTINUOUS
 62
     7
100
AcDbLine
 10
101.73533
 20
318.150086
 30
0.0
 11
101.630515
 21
318.150086
 31
0.0
  0
LINE
  5
AD
100
AcDbEntity
  8
0
  6
CONTINUOUS
 62
     7
100
AcDbLine
 10
101.630515
 20
323.697678
 30
0.0
 11
101.630515
 21
318.150086
 31
0.0
  0
LINE
  5
AE
100
AcDbEntity
  8
0
  6
CONTINUOUS
 62
     7
100
AcDbLine
 10
93.386668
 20
310.692863
 30
0.0
 11
93.392601
 21
310.797678
 31
0.0
  0
ARC
  5
AF
100
AcDbEntity
  8
0
  6
CONTINUOUS
 62
     7
100
AcDbCircle
 10
94.230515
 20
318.150086
 30
0.0
 40
7.4
100
AcDbArc
 50
263.498362
 51
0.0
  0
LINE
  5
B0
100
AcDbEntity
  8
0
  6
CONTINUOUS
 62
     7
100
AcDbLine
 10
88.682922
 20
310.692863
 30
0.0
 11
88.682922
 21
310.797678
 31
0.0
  0
LINE
  5
B1
100
AcDbEntity
  8
0
  6
CONTINUOUS
 62
     7
100
AcDbLine
 10
93.392601
 20
310.797678
 30
0.0
 11
88.682922
 21
310.797678
 31
0.0
  0
LINE
  5
B2
100
AcDbEntity
  8
0
  6
CONTINUOUS
 62
     7
100
AcDbLine
 10
83.987738
 20
305.997678
 30
0.0
 11
83.882922
 21
305.997678
 31
0.0
  0
ARC
  5
B3
100
AcDbEntity
  8
0
  6
CONTINUOUS
 62
     7
100
AcDbCircle
 10
88.682922
 20
305.997678
 30
0.0
 40
4.8
100
AcDbArc
 50
90.0
 51
180.0
  0
LINE
  5
B4
100
AcDbEntity
  8
0
  6
CONTINUOUS
 62
     7
100
AcDbLine
 10
83.987738
 20
167.302494
 30
0.0
 11
83.882922
 21
167.302494
 31
0.0
  0
LINE
  5
B5
100
AcDbEntity
  8
0
  6
CONTINUOUS
 62
     7
100
AcDbLine
 10
83.882922
 20
305.997678
 30
0.0
 11
83.882922
 21
167.302494
 31
0.0
  0
ARC
  5
B6
100
AcDbEntity
  8
0
  6
CONTINUOUS
 62
     7
100
AcDbCircle
 10
88.682922
 20
167.302494
 30
0.0
 40
4.8
100
AcDbArc
 50
180.0
 51
270.0
  0
ARC
  5
B7
100
AcDbEntity
  8
0
  6
CONTINUOUS
 62
     7
100
AcDbCircle
 10
180.030515
 20
149.602494
 30
0.0
 40
2.067046
100
AcDbArc
 50
270.0
 51
0.0
  0
LINE
  5
B8
100
AcDbEntity
  8
0
  6
CONTINUOUS
 62
     7
100
AcDbLine
 10
182.09756
 20
149.602494
 30
0.0
 11
183.43533
 21
149.602494
 31
0.0
  0
LINE
  5
B9
100
AcDbEntity
  8
0
  6
CONTINUOUS
 62
     7
100
AcDbLine
 10
101.73533
 20
155.150086
 30
0.0
 11
101.630515
 21
155.150086
 31
0.0
  0
ARC
  5
BA
100
AcDbEntity
  8
0
  6
CONTINUOUS
 62
     7
100
AcDbCircle
 10
94.230515
 20
155.150086
 30
0.0
 40
7.4
100
AcDbArc
 50
0.0
 51
96.501638
  0
LINE
  5
BB
100
AcDbEntity
  8
0
  6
CONTINUOUS
 62
     7
100
AcDbLine
 10
101.630515
 20
155.150086
 30
0.0
 11
101.630515
 21
149.602494
 31
0.0
  0
LWPOLYLINE
  5
BC
100
AcDbEntity
  8
0
  6
CONTINUOUS
 62
     7
100
AcDbPolyline
 90
        3
 70
   128
 43
0.0
 10
193.144243
 20
163.897678
 10
193.146969
 20
163.950086
 10
193.149686
 20
164.002494
  0
LINE
  5
BD
100
AcDbEntity
  8
0
  6
CONTINUOUS
 62
     7
100
AcDbLine
 10
182.09756
 20
155.150086
 30
0.0
 11
183.43533
 21
155.150086
 31
0.0
  0
ARC
  5
BE
100
AcDbEntity
  8
0
  6
CONTINUOUS
 62
     7
100
AcDbCircle
 10
192.230515
 20
155.150086
 30
0.0
 40
10.132954
100
AcDbArc
 50
84.444698
 51
180.0
  0
LINE
  5
BF
100
AcDbEntity
  8
0
  6
CONTINUOUS
 62
     7
100
AcDbLine
 10
193.21145
 20
165.235448
 30
0.0
 11
193.149686
 21
164.002494
 31
0.0
  0
LINE
  5
C0
100
AcDbEntity
  8
0
  6
CONTINUOUS
 62
     7
100
AcDbLine
 10
182.09756
 20
155.150086
 30
0.0
 11
182.09756
 21
149.602494
 31
0.0
  0
LINE
  5
C1
100
AcDbEntity
  8
0
  6
CONTINUOUS
 62
     7
100
AcDbLine
 10
197.778107
 20
165.235448
 30
0.0
 11
193.21145
 21
165.235448
 31
0.0
  0
LINE
  5
C2
100
AcDbEntity
  8
0
  6
CONTINUOUS
 62
     7
100
AcDbLine
 10
198.338737
 20
329.550086
 30
0.0
 11
88.122292
 21
329.550086
 31
0.0
  0
LINE
  5
C3
100
AcDbEntity
  8
0
  6
CONTINUOUS
 62
     7
100
AcDbLine
 10
203.630515
 20
149.041863
 30
0.0
 11
203.630515
 21
324.258309
 31
0.0
  0
ARC
  5
C4
100
AcDbEntity
  8
0
  6
CONTINUOUS
 62
     7
100
AcDbCircle
 10
198.341543
 20
149.039058
 30
0.0
 40
5.288973
100
AcDbArc
 50
269.969611
 51
0.030389
  0
LINE
  5
C5
100
AcDbEntity
  8
0
  6
CONTINUOUS
 62
     7
100
AcDbLine
 10
88.122292
 20
143.750086
 30
0.0
 11
198.338737
 21
143.750086
 31
0.0
  0
ARC
  5
C6
100
AcDbEntity
  8
0
  6
CONTINUOUS
 62
     7
100
AcDbCircle
 10
88.119487
 20
149.039058
 30
0.0
 40
5.288973
100
AcDbArc
 50
179.969611
 51
270.030389
  0
LINE
  5
C7
100
AcDbEntity
  8
0
  6
CONTINUOUS
 62
     7
100
AcDbLine
 10
82.830515
 20
324.258309
 30
0.0
 11
82.830515
 21
149.041863
 31
0.0
  0
ARC
  5
C8
100
AcDbEntity
  8
0
  6
CONTINUOUS
 62
     7
100
AcDbCircle
 10
88.119487
 20
324.261114
 30
0.0
 40
5.288973
100
AcDbArc
 50
89.969611
 51
180.030389
  0
ARC
  5
C9
100
AcDbEntity
  8
0
  6
CONTINUOUS
 62
     7
100
AcDbCircle
 10
198.341543
 20
324.261114
 30
0.0
 40
5.288973
100
AcDbArc
 50
359.969611
 51
90.030389
  0
ELLIPSE
  5
CA
100
AcDbEntity
  8
0
  6
CONTINUOUS
 62
     7
100
AcDbEllipse
 10
88.191156
 20
149.110728
 30
0.0
 11
4.254277460610468
 21
4.254277460610354
 31
0.0
210
0.0
220
0.0
230
1.0
 40
0.997265
 41
2.357564018062753
 42
3.925621289116878
  0
LINE
  5
CB
100
AcDbEntity
  8
0
  6
CONTINUOUS
 62
     7
100
AcDbLine
 10
82.182922
 20
324.205901
 30
0.0
 11
82.182922
 21
149.094271
 31
0.0
  0
ELLIPSE
  5
CC
100
AcDbEntity
  8
0
  6
CONTINUOUS
 62
     7
100
AcDbEllipse
 10
88.191156
 20
324.189444
 30
0.0
 11
4.254277460610468
 21
-4.254277460610354
 31
0.0
210
0.0
220
0.0
230
1.0
 40
0.997265
 41
2.357564018062721
 42
3.925621289116842
  0
LINE
  5
CD
100
AcDbEntity
  8
0
  6
CONTINUOUS
 62
     7
100
AcDbLine
 10
198.28633
 20
330.197678
 30
0.0
 11
88.1747
 21
330.197678
 31
0.0
  0
ELLIPSE
  5
CE
100
AcDbEntity
  8
0
  6
CONTINUOUS
 62
     7
100
AcDbEllipse
 10
198.269873
 20
324.189444
 30
0.0
 11
4.254277460610468
 21
4.254277460610354
 31
0.0
210
0.0
220
0.0
230
1.0
 40
0.997265
 41
5.499156671652565
 42
7.067213942706671
  0
LINE
  5
CF
100
AcDbEntity
  8
0
  6
CONTINUOUS
 62
     7
100
AcDbLine
 10
204.278107
 20
149.094271
 30
0.0
 11
204.278107
 21
324.205901
 31
0.0
  0
ELLIPSE
  5
D0
100
AcDbEntity
  8
0
  6
CONTINUOUS
 62
     7
100
AcDbEllipse
 10
198.269873
 20
149.110728
 30
0.0
 11
4.254277460610468
 21
-4.254277460610354
 31
0.0
210
0.0
220
0.0
230
1.0
 40
0.997265
 41
5.49915667165253
 42
7.067213942706638
  0
LINE
  5
D1
100
AcDbEntity
  8
0
  6
CONTINUOUS
 62
     7
100
AcDbLine
 10
88.1747
 20
143.102494
 30
0.0
 11
198.28633
 21
143.102494
 31
0.0
  0
ARC
  5
D2
100
AcDbEntity
  8
0
  6
CONTINUOUS
 62
     7
100
AcDbCircle
 10
94.230515
 20
155.150086
 30
0.0
 40
10.632269
100
AcDbArc
 50
0.0
 51
95.423189
  0
LINE
  5
D3
100
AcDbEntity
  8
0
  6
CONTINUOUS
 62
     7
100
AcDbLine
 10
104.862784
 20
155.150086
 30
0.0
 11
104.363469
 21
155.150086
 31
0.0
  0
ARC
  5
D4
100
AcDbEntity
  8
0
  6
CONTINUOUS
 62
     7
100
AcDbCircle
 10
526.602197
 20
186.257325
 30
0.0
 40
433.862202
100
AcDbArc
 50
182.711218
 51
182.777233
  0
LINE
  5
D5
100
AcDbEntity
  8
0
  6
CONTINUOUS
 62
     7
100
AcDbLine
 10
88.682922
 20
165.734763
 30
0.0
 11
93.225646
 21
165.734763
 31
0.0
  0
LINE
  5
D6
100
AcDbEntity
  8
0
  6
CONTINUOUS
 62
     7
100
AcDbLine
 10
88.682922
 20
165.235448
 30
0.0
 11
88.682922
 21
165.734763
 31
0.0
  0
ARC
  5
D7
100
AcDbEntity
  8
0
  6
CONTINUOUS
 62
     7
100
AcDbCircle
 10
192.230515
 20
155.150086
 30
0.0
 40
10.632269
100
AcDbArc
 50
84.576811
 51
180.0
  0
ARC
  5
D8
100
AcDbEntity
  8
0
  6
CONTINUOUS
 62
     7
100
AcDbCircle
 10
-240.141167
 20
186.257324
 30
0.0
 40
433.862201
100
AcDbArc
 50
357.222767
 51
357.288782
  0
LINE
  5
D9
100
AcDbEntity
  8
0
  6
CONTINUOUS
 62
     7
100
AcDbLine
 10
181.598246
 20
155.150086
 30
0.0
 11
182.09756
 21
155.150086
 31
0.0
  0
LINE
  5
DA
100
AcDbEntity
  8
0
  6
CONTINUOUS
 62
     7
100
AcDbLine
 10
193.235384
 20
165.734763
 30
0.0
 11
197.778107
 21
165.734763
 31
0.0
  0
LINE
  5
DB
100
AcDbEntity
  8
0
  6
CONTINUOUS
 62
     7
100
AcDbLine
 10
197.778107
 20
165.734763
 30
0.0
 11
197.778107
 21
165.235448
 31
0.0
  0
LINE
  5
DC
100
AcDbEntity
  8
0
  6
CONTINUOUS
 62
     7
100
AcDbLine
 10
104.363469
 20
318.150086
 30
0.0
 11
104.862784
 21
318.150086
 31
0.0
  0
ARC
  5
DD
100
AcDbEntity
  8
0
  6
CONTINUOUS
 62
     7
100
AcDbCircle
 10
94.230515
 20
318.150086
 30
0.0
 40
10.632269
100
AcDbArc
 50
264.576811
 51
0.0
  0
ARC
  5
DE
100
AcDbEntity
  8
0
  6
CONTINUOUS
 62
     7
100
AcDbCircle
 10
526.602191
 20
287.042848
 30
0.0
 40
433.862197
100
AcDbArc
 50
177.222767
 51
177.288782
  0
LINE
  5
DF
100
AcDbEntity
  8
0
  6
CONTINUOUS
 62
     7
100
AcDbLine
 10
93.225646
 20
307.565409
 30
0.0
 11
88.682922
 21
307.565409
 31
0.0
  0
LINE
  5
E0
100
AcDbEntity
  8
0
  6
CONTINUOUS
 62
     7
100
AcDbLine
 10
88.682922
 20
308.064724
 30
0.0
 11
88.682922
 21
307.565409
 31
0.0
  0
ARC
  5
E1
100
AcDbEntity
  8
0
  6
CONTINUOUS
 62
     7
100
AcDbCircle
 10
-240.141162
 20
287.042848
 30
0.0
 40
433.862197
100
AcDbArc
 50
2.711218
 51
2.777233
  0
ARC
  5
E2
100
AcDbEntity
  8
0
  6
CONTINUOUS
 62
     7
100
AcDbCircle
 10
192.230515
 20
318.150086
 30
0.0
 40
10.632269
100
AcDbArc
 50
180.0
 51
275.423189
  0
LINE
  5
E3
100
AcDbEntity
  8
0
  6
CONTINUOUS
 62
     7
100
AcDbLine
 10
182.09756
 20
318.150086
 30
0.0
 11
181.598246
 21
318.150086
 31
0.0
  0
LINE
  5
E4
100
AcDbEntity
  8
0
  6
CONTINUOUS
 62
     7
100
AcDbLine
 10
197.778107
 20
307.565409
 30
0.0
 11
193.235384
 21
307.565409
 31
0.0
  0
LINE
  5
E5
100
AcDbEntity
  8
0
  6
CONTINUOUS
 62
     7
100
AcDbLine
 10
197.778107
 20
307.565409
 30
0.0
 11
197.778107
 21
308.064724
 31
0.0
  0
LINE
  5
E6
100
AcDbEntity
  8
0
  6
CONTINUOUS
 62
     7
100
AcDbLine
 10
181.598246
 20
149.602494
 30
0.0
 11
181.598246
 21
155.150086
 31
0.0
  0
LINE
  5
E7
100
AcDbEntity
  8
0
  6
CONTINUOUS
 62
     7
100
AcDbLine
 10
181.598246
 20
149.602494
 30
0.0
 11
182.09756
 21
149.602494
 31
0.0
  0
LINE
  5
E8
100
AcDbEntity
  8
0
  6
CONTINUOUS
 62
     7
100
AcDbLine
 10
106.430515
 20
325.764724
 30
0.0
 11
106.430515
 21
325.265409
 31
0.0
  0
ARC
  5
E9
100
AcDbEntity
  8
0
  6
CONTINUOUS
 62
     7
100
AcDbCircle
 10
106.430515
 20
323.697678
 30
0.0
 40
1.567731
100
AcDbArc
 50
90.0
 51
180.0
  0
LINE
  5
EA
100
AcDbEntity
  8
0
  6
CONTINUOUS
 62
     7
100
AcDbLine
 10
104.363469
 20
323.697678
 30
0.0
 11
104.862784
 21
323.697678
 31
0.0
  0
LINE
  5
EB
100
AcDbEntity
  8
0
  6
CONTINUOUS
 62
     7
100
AcDbLine
 10
104.862784
 20
323.697678
 30
0.0
 11
104.862784
 21
318.150086
 31
0.0
  0
LINE
  5
EC
100
AcDbEntity
  8
0
  6
CONTINUOUS
 62
     7
100
AcDbLine
 10
181.598246
 20
318.150086
 30
0.0
 11
181.598246
 21
323.697678
 31
0.0
  0
LINE
  5
ED
100
AcDbEntity
  8
0
  6
CONTINUOUS
 62
     7
100
AcDbLine
 10
182.09756
 20
323.697678
 30
0.0
 11
181.598246
 21
323.697678
 31
0.0
  0
ARC
  5
EE
100
AcDbEntity
  8
0
  6
CONTINUOUS
 62
     7
100
AcDbCircle
 10
197.778107
 20
167.302494
 30
0.0
 40
1.567731
100
AcDbArc
 50
270.0
 51
0.0
  0
LINE
  5
EF
100
AcDbEntity
  8
0
  6
CONTINUOUS
 62
     7
100
AcDbLine
 10
199.345838
 20
167.302494
 30
0.0
 11
199.845153
 21
167.302494
 31
0.0
  0
ARC
  5
F0
100
AcDbEntity
  8
0
  6
CONTINUOUS
 62
     7
100
AcDbCircle
 10
180.030515
 20
323.697678
 30
0.0
 40
1.567731
100
AcDbArc
 50
0.0
 51
90.0
  0
LINE
  5
F1
100
AcDbEntity
  8
0
  6
CONTINUOUS
 62
     7
100
AcDbLine
 10
180.030515
 20
325.764724
 30
0.0
 11
180.030515
 21
325.265409
 31
0.0
  0
LINE
  5
F2
100
AcDbEntity
  8
0
  6
CONTINUOUS
 62
     7
100
AcDbLine
 10
199.345838
 20
167.302494
 30
0.0
 11
199.345838
 21
305.997678
 31
0.0
  0
LINE
  5
F3
100
AcDbEntity
  8
0
  6
CONTINUOUS
 62
     7
100
AcDbLine
 10
199.345838
 20
305.997678
 30
0.0
 11
199.845153
 21
305.997678
 31
0.0
  0
LINE
  5
F4
100
AcDbEntity
  8
0
  6
CONTINUOUS
 62
     7
100
AcDbLine
 10
104.862784
 20
155.150086
 30
0.0
 11
104.862784
 21
149.602494
 31
0.0
  0
LINE
  5
F5
100
AcDbEntity
  8
0
  6
CONTINUOUS
 62
     7
100
AcDbLine
 10
104.862784
 20
149.602494
 30
0.0
 11
104.363469
 21
149.602494
 31
0.0
  0
ARC
  5
F6
100
AcDbEntity
  8
0
  6
CONTINUOUS
 62
     7
100
AcDbCircle
 10
197.778107
 20
305.997678
 30
0.0
 40
1.567731
100
AcDbArc
 50
0.0
 51
90.0
  0
LINE
  5
F7
100
AcDbEntity
  8
0
  6
CONTINUOUS
 62
     7
100
AcDbLine
 10
106.430515
 20
148.034763
 30
0.0
 11
180.030515
 21
148.034763
 31
0.0
  0
LINE
  5
F8
100
AcDbEntity
  8
0
  6
CONTINUOUS
 62
     7
100
AcDbLine
 10
180.030515
 20
148.034763
 30
0.0
 11
180.030515
 21
147.535448
 31
0.0
  0
LINE
  5
F9
100
AcDbEntity
  8
0
  6
CONTINUOUS
 62
     7
100
AcDbLine
 10
106.430515
 20
148.034763
 30
0.0
 11
106.430515
 21
147.535448
 31
0.0
  0
ARC
  5
FA
100
AcDbEntity
  8
0
  6
CONTINUOUS
 62
     7
100
AcDbCircle
 10
180.030515
 20
149.602494
 30
0.0
 40
1.567731
100
AcDbArc
 50
270.0
 51
0.0
  0
LINE
  5
FB
100
AcDbEntity
  8
0
  6
CONTINUOUS
 62
     7
100
AcDbLine
 10
180.030515
 20
325.265409
 30
0.0
 11
106.430515
 21
325.265409
 31
0.0
  0
LINE
  5
FC
100
AcDbEntity
  8
0
  6
CONTINUOUS
 62
     7
100
AcDbLine
 10
86.615877
 20
305.997678
 30
0.0
 11
87.115191
 21
305.997678
 31
0.0
  0
LINE
  5
FD
100
AcDbEntity
  8
0
  6
CONTINUOUS
 62
     7
100
AcDbLine
 10
87.115191
 20
305.997678
 30
0.0
 11
87.115191
 21
167.302494
 31
0.0
  0
LINE
  5
FE
100
AcDbEntity
  8
0
  6
CONTINUOUS
 62
     7
100
AcDbLine
 10
86.615877
 20
167.302494
 30
0.0
 11
87.115191
 21
167.302494
 31
0.0
  0
ARC
  5
FF
100
AcDbEntity
  8
0
  6
CONTINUOUS
 62
     7
100
AcDbCircle
 10
88.682922
 20
167.302494
 30
0.0
 40
1.567731
100
AcDbArc
 50
180.0
 51
270.0
  0
ARC
  5
100
100
AcDbEntity
  8
0
  6
CONTINUOUS
 62
     7
100
AcDbCircle
 10
88.682922
 20
305.997678
 30
0.0
 40
1.567731
100
AcDbArc
 50
90.0
 51
180.0
  0
ARC
  5
101
100
AcDbEntity
  8
0
  6
CONTINUOUS
 62
     7
100
AcDbCircle
 10
106.430515
 20
149.602494
 30
0.0
 40
1.567731
100
AcDbArc
 50
180.0
 51
270.0
  0
INSERT
  5
109
100
AcDbEntity
  8
0
  6
CONTINUOUS
 62
     7
100
AcDbBlockReference
  2
SW_CENTERMARKSYMBOL_0
 10
192.230515
 20
155.150086
 30
0.0
 41
2.0
 42
2.0
 43
2.0
  0
INSERT
  5
111
100
AcDbEntity
  8
0
  6
CONTINUOUS
 62
     7
100
AcDbBlockReference
  2
SW_CENTERMARKSYMBOL_1
 10
192.230515
 20
318.150086
 30
0.0
 41
2.0
 42
2.0
 43
2.0
  0
INSERT
  5
119
100
AcDbEntity
  8
0
  6
CONTINUOUS
 62
     7
100
AcDbBlockReference
  2
SW_CENTERMARKSYMBOL_2
 10
94.230515
 20
318.150086
 30
0.0
 41
2.0
 42
2.0
 43
2.0
  0
INSERT
  5
121
100
AcDbEntity
  8
0
  6
CONTINUOUS
 62
     7
100
AcDbBlockReference
  2
SW_CENTERMARKSYMBOL_3
 10
94.230515
 20
155.150086
 30
0.0
 41
2.0
 42
2.0
 43
2.0
  0
INSERT
  5
129
100
AcDbEntity
  8
0
  6
CONTINUOUS
 62
     7
100
AcDbBlockReference
  2
SW_CENTERMARKSYMBOL_4
 10
197.778107
 20
167.302494
 30
0.0
 41
2.0
 42
2.0
 43
2.0
  0
INSERT
  5
131
100
AcDbEntity
  8
0
  6
CONTINUOUS
 62
     7
100
AcDbBlockReference
  2
SW_CENTERMARKSYMBOL_5
 10
197.778107
 20
305.997678
 30
0.0
 41
2.0
 42
2.0
 43
2.0
  0
INSERT
  5
139
100
AcDbEntity
  8
0
  6
CONTINUOUS
 62
     7
100
AcDbBlockReference
  2
SW_CENTERMARKSYMBOL_6
 10
180.030515
 20
323.697678
 30
0.0
 41
2.0
 42
2.0
 43
2.0
  0
INSERT
  5
141
100
AcDbEntity
  8
0
  6
CONTINUOUS
 62
     7
100
AcDbBlockReference
  2
SW_CENTERMARKSYMBOL_7
 10
106.430515
 20
323.697678
 30
0.0
 41
2.0
 42
2.0
 43
2.0
  0
INSERT
  5
149
100
AcDbEntity
  8
0
  6
CONTINUOUS
 62
     7
100
AcDbBlockReference
  2
SW_CENTERMARKSYMBOL_8
 10
88.682922
 20
305.997678
 30
0.0
 41
2.0
 42
2.0
 43
2.0
  0
INSERT
  5
151
100
AcDbEntity
  8
0
  6
CONTINUOUS
 62
     7
100
AcDbBlockReference
  2
SW_CENTERMARKSYMBOL_9
 10
88.682922
 20
167.302494
 30
0.0
 41
2.0
 42
2.0
 43
2.0
  0
INSERT
  5
159
100
AcDbEntity
  8
0
  6
CONTINUOUS
 62
     7
100
AcDbBlockReference
  2
SW_CENTERMARKSYMBOL_10
 10
106.430515
 20
149.602494
 30
0.0
 41
2.0
 42
2.0
 43
2.0
  0
INSERT
  5
161
100
AcDbEntity
  8
0
  6
CONTINUOUS
 62
     7
100
AcDbBlockReference
  2
SW_CENTERMARKSYMBOL_11
 10
180.030515
 20
149.602494
 30
0.0
 41
2.0
 42
2.0
 43
2.0
  0
LINE
  5
162
100
AcDbEntity
  8
0
  6
CONTINUOUS
 62
     7
100
AcDbLine
 10
278.174762
 20
324.205901
 30
0.0
 11
278.174762
 21
149.094271
 31
0.0
  0
LINE
  5
163
100
AcDbEntity
  8
0
  6
CONTINUOUS
 62
     7
100
AcDbLine
 10
254.79676
 20
150.31946
 30
0.0
 11
278.174762
 21
149.094271
 31
0.0
  0
LINE
  5
164
100
AcDbEntity
  8
0
  6
CONTINUOUS
 62
     7
100
AcDbLine
 10
254.7968
 20
322.980714
 30
0.0
 11
254.7968
 21
150.319458
 31
0.0
  0
LINE
  5
165
100
AcDbEntity
  8
0
  6
CONTINUOUS
 62
     7
100
AcDbLine
 10
278.174762
 20
324.205901
 30
0.0
 11
254.79676
 21
322.980712
 31
0.0
  0
LINE
  5
166
100
AcDbEntity
  8
0
  6
CONTINUOUS
 62
     7
100
AcDbLine
 10
278.174762
 20
143.102494
 30
0.0
 11
278.174762
 21
149.094271
 31
0.0
  0
LINE
  5
167
100
AcDbEntity
  8
0
  6
CONTINUOUS
 62
     7
100
AcDbLine
 10
278.174762
 20
143.102494
 30
0.0
 11
254.79676
 21
144.327683
 31
0.0
  0
ARC
  5
168
100
AcDbEntity
  8
0
  6
CONTINUOUS
 62
     7
100
AcDbCircle
 10
348.279725
 20
147.323574
 30
0.0
 40
93.530999
100
AcDbArc
 50
178.164447
 51
181.835553
  0
LINE
  5
169
100
AcDbEntity
  8
0
  6
CONTINUOUS
 62
     7
100
AcDbLine
 10
278.174762
 20
324.205901
 30
0.0
 11
278.174762
 21
330.197678
 31
0.0
  0
ARC
  5
16A
100
AcDbEntity
  8
0
  6
CONTINUOUS
 62
     7
100
AcDbCircle
 10
360.754521
 20
325.976598
 30
0.0
 40
106.000147
100
AcDbArc
 50
178.38043
 51
181.61957
  0
LINE
  5
16B
100
AcDbEntity
  8
0
  6
CONTINUOUS
 62
     7
100
AcDbLine
 10
254.79676
 20
328.972489
 30
0.0
 11
278.174762
 21
330.197678
 31
0.0
  0
LINE
  5
16C
100
AcDbEntity
  8
0
  6
CONTINUOUS
 62
     7
100
AcDbLine
 10
278.174762
 20
143.750086
 30
0.0
 11
279.174762
 21
143.750086
 31
0.0
  0
LINE
  5
16D
100
AcDbEntity
  8
0
  6
CONTINUOUS
 62
     7
100
AcDbLine
 10
278.174762
 20
149.041863
 30
0.0
 11
279.174762
 21
149.041863
 31
0.0
  0
LINE
  5
16E
100
AcDbEntity
  8
0
  6
CONTINUOUS
 62
     7
100
AcDbLine
 10
279.174762
 20
149.041863
 30
0.0
 11
279.174762
 21
143.750086
 31
0.0
  0
LINE
  5
16F
100
AcDbEntity
  8
0
  6
CONTINUOUS
 62
     7
100
AcDbLine
 10
278.174762
 20
324.258309
 30
0.0
 11
279.174762
 21
324.258309
 31
0.0
  0
LINE
  5
170
100
AcDbEntity
  8
0
  6
CONTINUOUS
 62
     7
100
AcDbLine
 10
279.174762
 20
324.258309
 30
0.0
 11
279.174762
 21
149.041863
 31
0.0
  0
LINE
  5
171
100
AcDbEntity
  8
0
  6
CONTINUOUS
 62
     7
100
AcDbLine
 10
278.174762
 20
329.550086
 30
0.0
 11
279.174762
 21
329.550086
 31
0.0
  0
LINE
  5
172
100
AcDbEntity
  8
0
  6
CONTINUOUS
 62
     7
100
AcDbLine
 10
279.174762
 20
329.550086
 30
0.0
 11
279.174762
 21
324.258309
 31
0.0
  0
ARC
  5
173
100
AcDbEntity
  8
0
  6
CONTINUOUS
 62
     7
100
AcDbCircle
 10
351.853401
 20
325.923917
 30
0.0
 40
97.308577
100
AcDbArc
 50
178.262932
 51
181.737068
  0
LWPOLYLINE
  5
174
100
AcDbEntity
  8
0
  6
CONTINUOUS
 62
     7
100
AcDbPolyline
 90
        3
 70
   128
 43
0.0
 10
254.589558
 20
328.873642
 10
254.683348
 20
328.943678
 10
254.7968
 20
328.972491
  0
LWPOLYLINE
  5
175
100
AcDbEntity
  8
0
  6
CONTINUOUS
 62
     7
100
AcDbPolyline
 90
        3
 70
   128
 43
0.0
 10
254.589541
 20
322.974211
 10
254.6833
 20
322.97746
 10
254.796719
 20
322.98071
  0
LWPOLYLINE
  5
176
100
AcDbEntity
  8
0
  6
CONTINUOUS
 62
     7
100
AcDbPolyline
 90
        3
 70
   128
 43
0.0
 10
254.7968
 20
144.327681
 10
254.683348
 20
144.356494
 10
254.589558
 20
144.426531
  0
ARC
  5
177
100
AcDbEntity
  8
0
  6
CONTINUOUS
 62
     7
100
AcDbCircle
 10
359.293312
 20
147.376255
 30
0.0
 40
104.745311
100
AcDbArc
 50
178.386295
 51
181.613705
  0
LWPOLYLINE
  5
178
100
AcDbEntity
  8
0
  6
CONTINUOUS
 62
     7
100
AcDbPolyline
 90
        3
 70
   128
 43
0.0
 10
254.796719
 20
150.319463
 10
254.6833
 20
150.322712
 10
254.589541
 20
150.325962
  0
LWPOLYLINE
  5
179
100
AcDbEntity
  8
0
  6
CONTINUOUS
 62
     7
100
AcDbPolyline
 90
        9
 70
   128
 43
0.0
 10
253.25182
 20
327.387934
 10
253.25182
 20
327.387934
 10
253.250539
 20
327.212716
 10
253.249696
 20
326.58406
 10
253.249692
 20
325.52125
 10
253.250522
 20
324.22159
 10
253.251186
 20
323.503913
 10
253.25182
 20
322.974271
 10
253.25182
 20
322.974211
  0
LINE
  5
17A
100
AcDbEntity
  8
0
  6
CONTINUOUS
 62
     7
100
AcDbLine
 10
253.251819
 20
327.387932
 30
0.0
 11
254.58955
 21
328.873632
 31
0.0
  0
LINE
  5
17B
100
AcDbEntity
  8
0
  6
CONTINUOUS
 62
     7
100
AcDbLine
 10
253.251819
 20
322.974211
 30
0.0
 11
254.58955
 21
322.974211
 31
0.0
  0
LWPOLYLINE
  5
17C
100
AcDbEntity
  8
0
  6
CONTINUOUS
 62
     7
100
AcDbPolyline
 90
        9
 70
   128
 43
0.0
 10
253.25182
 20
150.325962
 10
253.25182
 20
150.325902
 10
253.250539
 20
149.099118
 10
253.249696
 20
147.787967
 10
253.249692
 20
146.722455
 10
253.250522
 20
146.093507
 10
253.251186
 20
145.943716
 10
253.25182
 20
145.912239
 10
253.25182
 20
145.912239
  0
LINE
  5
17D
100
AcDbEntity
  8
0
  6
CONTINUOUS
 62
     7
100
AcDbLine
 10
254.58955
 20
150.325962
 30
0.0
 11
253.25182
 21
150.325962
 31
0.0
  0
LINE
  5
17E
100
AcDbEntity
  8
0
  6
CONTINUOUS
 62
     7
100
AcDbLine
 10
254.58955
 20
144.42654
 30
0.0
 11
253.251819
 21
145.91224
 31
0.0
  0
LINE
  5
17F
100
AcDbEntity
  8
0
  6
CONTINUOUS
 62
     7
100
AcDbLine
 10
254.589558
 20
150.325962
 30
0.0
 11
254.589558
 21
322.974211
 31
0.0
  0
LINE
  5
180
100
AcDbEntity
  8
0
  6
CONTINUOUS
 62
     7
100
AcDbLine
 10
253.251819
 20
322.974211
 30
0.0
 11
253.251819
 21
150.325962
 31
0.0
  0
LINE
  5
181
100
AcDbEntity
  8
0
  6
CONTINUOUS
 62
     7
100
AcDbLine
 10
281.174762
 20
310.692863
 30
0.0
 11
279.174762
 21
310.797678
 31
0.0
  0
LINE
  5
182
100
AcDbEntity
  8
0
  6
CONTINUOUS
 62
     7
100
AcDbLine
 10
281.174762
 20
310.692863
 30
0.0
 11
281.174762
 21
305.997678
 31
0.0
  0
LINE
  5
183
100
AcDbEntity
  8
0
  6
CONTINUOUS
 62
     7
100
AcDbLine
 10
281.174762
 20
305.997678
 30
0.0
 11
279.174762
 21
305.997678
 31
0.0
  0
LINE
  5
184
100
AcDbEntity
  8
0
  6
CONTINUOUS
 62
     7
100
AcDbLine
 10
281.174762
 20
167.302494
 30
0.0
 11
279.174762
 21
167.302494
 31
0.0
  0
LINE
  5
185
100
AcDbEntity
  8
0
  6
CONTINUOUS
 62
     7
100
AcDbLine
 10
281.174762
 20
167.302494
 30
0.0
 11
281.174762
 21
162.607309
 31
0.0
  0
LINE
  5
186
100
AcDbEntity
  8
0
  6
CONTINUOUS
 62
     7
100
AcDbLine
 10
281.174762
 20
162.607309
 30
0.0
 11
279.174762
 21
162.502494
 31
0.0
  0
LINE
  5
187
100
AcDbEntity
  8
0
  6
CONTINUOUS
 62
     7
100
AcDbLine
 10
281.174762
 20
305.997678
 30
0.0
 11
281.174762
 21
167.302494
 31
0.0
  0
LINE
  5
188
100
AcDbEntity
  8
0
  6
CONTINUOUS
 62
     7
100
AcDbLine
 10
253.174762
 20
322.975236
 30
0.0
 11
253.174762
 21
327.187196
 31
0.0
  0
LWPOLYLINE
  5
189
100
AcDbEntity
  8
0
  6
CONTINUOUS
 62
     7
100
AcDbPolyline
 90
        3
 70
   128
 43
0.0
 10
253.25182
 20
327.387934
 10
253.194689
 20
327.294705
 10
253.174762
 20
327.187196
  0
LWPOLYLINE
  5
18A
100
AcDbEntity
  8
0
  6
CONTINUOUS
 62
     7
100
AcDbPolyline
 90
        3
 70
   128
 43
0.0
 10
253.174762
 20
322.975236
 10
253.194689
 20
322.974723
 10
253.25182
 20
322.974211
  0
LINE
  5
18B
100
AcDbEntity
  8
0
  6
CONTINUOUS
 62
     7
100
AcDbLine
 10
253.174762
 20
146.112977
 30
0.0
 11
253.174762
 21
150.325962
 31
0.0
  0
LINE
  5
18C
100
AcDbEntity
  8
0
  6
CONTINUOUS
 62
     7
100
AcDbLine
 10
253.174762
 20
150.325962
 30
0.0
 11
253.251819
 21
150.325962
 31
0.0
  0
LWPOLYLINE
  5
18D
100
AcDbEntity
  8
0
  6
CONTINUOUS
 62
     7
100
AcDbPolyline
 90
        3
 70
   128
 43
0.0
 10
253.174762
 20
146.112977
 10
253.194689
 20
146.005467
 10
253.25182
 20
145.912239
  0
LINE
  5
18E
100
AcDbEntity
  8
0
  6
CONTINUOUS
 62
     7
100
AcDbLine
 10
253.174762
 20
150.325962
 30
0.0
 11
253.174762
 21
322.975236
 31
0.0
  0
LINE
  5
18F
100
AcDbEntity
  8
0
  6
CONTINUOUS
 62
     7
100
AcDbLine
 10
281.174762
 20
310.692863
 30
0.0
 11
279.174762
 21
310.797678
 31
0.0
  0
LINE
  5
190
100
AcDbEntity
  8
0
  6
CONTINUOUS
 62
     7
100
AcDbLine
 10
281.174762
 20
318.150086
 30
0.0
 11
279.174762
 21
318.150086
 31
0.0
  0
LINE
  5
191
100
AcDbEntity
  8
0
  6
CONTINUOUS
 62
     7
100
AcDbLine
 10
281.174762
 20
318.150086
 30
0.0
 11
281.174762
 21
310.645271
 31
0.0
  0
LINE
  5
192
100
AcDbEntity
  8
0
  6
CONTINUOUS
 62
     7
100
AcDbLine
 10
281.174762
 20
155.150086
 30
0.0
 11
279.174762
 21
155.150086
 31
0.0
  0
LINE
  5
193
100
AcDbEntity
  8
0
  6
CONTINUOUS
 62
     7
100
AcDbLine
 10
281.174762
 20
162.607309
 30
0.0
 11
281.174762
 21
155.150086
 31
0.0
  0
LINE
  5
194
100
AcDbEntity
  8
0
  6
CONTINUOUS
 62
     7
100
AcDbLine
 10
281.174762
 20
149.602494
 30
0.0
 11
279.174762
 21
149.602494
 31
0.0
  0
LINE
  5
195
100
AcDbEntity
  8
0
  6
CONTINUOUS
 62
     7
100
AcDbLine
 10
281.174762
 20
155.150086
 30
0.0
 11
281.174762
 21
149.602494
 31
0.0
  0
LINE
  5
196
100
AcDbEntity
  8
0
  6
CONTINUOUS
 62
     7
100
AcDbLine
 10
281.174762
 20
144.907309
 30
0.0
 11
279.174762
 21
144.802494
 31
0.0
  0
LINE
  5
197
100
AcDbEntity
  8
0
  6
CONTINUOUS
 62
     7
100
AcDbLine
 10
281.174762
 20
149.602494
 30
0.0
 11
281.174762
 21
144.907309
 31
0.0
  0
LINE
  5
198
100
AcDbEntity
  8
0
  6
CONTINUOUS
 62
     7
100
AcDbLine
 10
281.174762
 20
323.697678
 30
0.0
 11
279.174762
 21
323.697678
 31
0.0
  0
LINE
  5
199
100
AcDbEntity
  8
0
  6
CONTINUOUS
 62
     7
100
AcDbLine
 10
281.174762
 20
323.697678
 30
0.0
 11
281.174762
 21
318.150086
 31
0.0
  0
LINE
  5
19A
100
AcDbEntity
  8
0
  6
CONTINUOUS
 62
     7
100
AcDbLine
 10
281.174762
 20
328.392863
 30
0.0
 11
279.174762
 21
328.497678
 31
0.0
  0
LINE
  5
19B
100
AcDbEntity
  8
0
  6
CONTINUOUS
 62
     7
100
AcDbLine
 10
281.174762
 20
328.392863
 30
0.0
 11
281.174762
 21
323.697678
 31
0.0
  0
ARC
  5
19C
100
AcDbEntity
  8
0
  6
CONTINUOUS
 62
     7
100
AcDbCircle
 10
343.832991
 20
150.324249
 30
0.0
 40
4.211267
100
AcDbArc
 50
179.990643
 51
270.023369
  0
LINE
  5
19D
100
AcDbEntity
  8
0
  6
CONTINUOUS
 62
     7
100
AcDbLine
 10
343.834709
 20
146.112979
 30
0.0
 11
343.834709
 21
145.91224
 31
0.0
  0
ARC
  5
19E
100
AcDbEntity
  8
0
  6
CONTINUOUS
 62
     7
100
AcDbCircle
 10
343.835984
 20
150.327237
 30
0.0
 40
4.414998
100
AcDbArc
 50
180.016544
 51
269.983456
  0
LWPOLYLINE
  5
19F
100
AcDbEntity
  8
0
  6
CONTINUOUS
 62
     7
100
AcDbPolyline
 90
        3
 70
   128
 43
0.0
 10
339.420987
 20
150.325962
 10
339.514216
 20
150.325449
 10
339.621726
 20
150.324937
  0
ARC
  5
1A0
100
AcDbEntity
  8
0
  6
CONTINUOUS
 62
     7
100
AcDbCircle
 10
343.835984
 20
322.972936
 30
0.0
 40
4.414998
100
AcDbArc
 50
90.016544
 51
179.983456
  0
LWPOLYLINE
  5
1A1
100
AcDbEntity
  8
0
  6
CONTINUOUS
 62
     7
100
AcDbPolyline
 90
        3
 70
   128
 43
0.0
 10
343.834709
 20
327.387932
 10
343.834196
 20
327.294703
 10
343.833684
 20
327.187193
  0
ARC
  5
1A2
100
AcDbEntity
  8
0
  6
CONTINUOUS
 62
     7
100
AcDbCircle
 10
343.832996
 20
322.975928
 30
0.0
 40
4.211267
100
AcDbArc
 50
89.990643
 51
180.023369
  0
LINE
  5
1A3
100
AcDbEntity
  8
0
  6
CONTINUOUS
 62
     7
100
AcDbLine
 10
339.420986
 20
322.974211
 30
0.0
 11
339.621729
 21
322.974211
 31
0.0
  0
LINE
  5
1A4
100
AcDbEntity
  8
0
  6
CONTINUOUS
 62
     7
100
AcDbLine
 10
339.420987
 20
150.325962
 30
0.0
 11
339.420987
 21
322.974211
 31
0.0
  0
LINE
  5
1A5
100
AcDbEntity
  8
0
  6
CONTINUOUS
 62
     7
100
AcDbLine
 10
339.621726
 20
322.974211
 30
0.0
 11
339.621726
 21
150.324937
 31
0.0
  0
CIRCLE
  5
1A6
100
AcDbEntity
  8
0
  6
CONTINUOUS
 62
     7
100
AcDbCircle
 10
348.658833
 20
155.150086
 30
0.0
 40
5.75
  0
CIRCLE
  5
1A7
100
AcDbEntity
  8
0
  6
CONTINUOUS
 62
     7
100
AcDbCircle
 10
348.658833
 20
318.150086
 30
0.0
 40
5.75
  0
CIRCLE
  5
1A8
100
AcDbEntity
  8
0
  6
CONTINUOUS
 62
     7
100
AcDbCircle
 10
446.658833
 20
318.150086
 30
0.0
 40
5.75
  0
CIRCLE
  5
1A9
100
AcDbEntity
  8
0
  6
CONTINUOUS
 62
     7
100
AcDbCircle
 10
446.658833
 20
155.150086
 30
0.0
 40
5.75
  0
ARC
  5
1AA
100
AcDbEntity
  8
0
  6
CONTINUOUS
 62
     7
100
AcDbCircle
 10
451.48467
 20
150.324244
 30
0.0
 40
4.211267
100
AcDbArc
 50
269.990643
 51
0.023369
  0
LINE
  5
1AB
100
AcDbEntity
  8
0
  6
CONTINUOUS
 62
     7
100
AcDbLine
 10
343.834709
 20
146.112979
 30
0.0
 11
451.483983
 21
146.112979
 31
0.0
  0
LINE
  5
1AC
100
AcDbEntity
  8
0
  6
CONTINUOUS
 62
     7
100
AcDbLine
 10
451.483983
 20
327.187193
 30
0.0
 11
343.833684
 21
327.187193
 31
0.0
  0
ARC
  5
1AD
100
AcDbEntity
  8
0
  6
CONTINUOUS
 62
     7
100
AcDbCircle
 10
451.484663
 20
322.975916
 30
0.0
 40
4.211279
100
AcDbArc
 50
359.990739
 51
90.009261
  0
LINE
  5
1AE
100
AcDbEntity
  8
0
  6
CONTINUOUS
 62
     7
100
AcDbLine
 10
455.69594
 20
150.325962
 30
0.0
 11
455.69594
 21
322.975236
 31
0.0
  0
LWPOLYLINE
  5
1AF
100
AcDbEntity
  8
0
  6
CONTINUOUS
 62
     7
100
AcDbPolyline
 90
        3
 70
   128
 43
0.0
 10
451.483983
 20
146.112977
 10
451.48347
 20
146.005467
 10
451.482958
 20
145.912239
  0
LINE
  5
1B0
100
AcDbEntity
  8
0
  6
CONTINUOUS
 62
     7
100
AcDbLine
 10
451.482958
 20
145.91224
 30
0.0
 11
343.834709
 21
145.91224
 31
0.0
  0
LINE
  5
1B1
100
AcDbEntity
  8
0
  6
CONTINUOUS
 62
     7
100
AcDbLine
 10
343.834709
 20
327.387932
 30
0.0
 11
451.482958
 21
327.387932
 31
0.0
  0
LWPOLYLINE
  5
1B2
100
AcDbEntity
  8
0
  6
CONTINUOUS
 62
     7
100
AcDbPolyline
 90
        3
 70
   128
 43
0.0
 10
451.482958
 20
327.387934
 10
451.48347
 20
327.294705
 10
451.483983
 20
327.187196
  0
ARC
  5
1B3
100
AcDbEntity
  8
0
  6
CONTINUOUS
 62
     7
100
AcDbCircle
 10
451.481683
 20
322.972936
 30
0.0
 40
4.414998
100
AcDbArc
 50
0.016544
 51
89.983456
  0
LWPOLYLINE
  5
1B4
100
AcDbEntity
  8
0
  6
CONTINUOUS
 62
     7
100
AcDbPolyline
 90
        3
 70
   128
 43
0.0
 10
455.695943
 20
322.975236
 10
455.803452
 20
322.974723
 10
455.896681
 20
322.974211
  0
LINE
  5
1B5
100
AcDbEntity
  8
0
  6
CONTINUOUS
 62
     7
100
AcDbLine
 10
455.69594
 20
150.325962
 30
0.0
 11
455.896679
 21
150.325962
 31
0.0
  0
ARC
  5
1B6
100
AcDbEntity
  8
0
  6
CONTINUOUS
 62
     7
100
AcDbCircle
 10
451.481683
 20
150.327237
 30
0.0
 40
4.414998
100
AcDbArc
 50
270.016544
 51
359.983456
  0
LINE
  5
1B7
100
AcDbEntity
  8
0
  6
CONTINUOUS
 62
     7
100
AcDbLine
 10
455.896679
 20
322.974211
 30
0.0
 11
455.896679
 21
150.325962
 31
0.0
  0
LINE
  5
1B8
100
AcDbEntity
  8
0
  6
CONTINUOUS
 62
     7
100
AcDbLine
 10
339.420986
 20
322.974211
 30
0.0
 11
337.935287
 21
322.974211
 31
0.0
  0
ARC
  5
1B9
100
AcDbEntity
  8
0
  6
CONTINUOUS
 62
     7
100
AcDbCircle
 10
343.83787
 20
322.971049
 30
0.0
 40
5.902575
100
AcDbArc
 50
90.030689
 51
179.969311
  0
LINE
  5
1BA
100
AcDbEntity
  8
0
  6
CONTINUOUS
 62
     7
100
AcDbLine
 10
343.834709
 20
327.387932
 30
0.0
 11
343.834709
 21
328.873632
 31
0.0
  0
LINE
  5
1BB
100
AcDbEntity
  8
0
  6
CONTINUOUS
 62
     7
100
AcDbLine
 10
343.834709
 20
144.42654
 30
0.0
 11
343.834709
 21
145.912239
 31
0.0
  0
ARC
  5
1BC
100
AcDbEntity
  8
0
  6
CONTINUOUS
 62
     7
100
AcDbCircle
 10
343.83787
 20
150.329123
 30
0.0
 40
5.902575
100
AcDbArc
 50
180.030689
 51
269.969311
  0
LINE
  5
1BD
100
AcDbEntity
  8
0
  6
CONTINUOUS
 62
     7
100
AcDbLine
 10
337.935287
 20
150.325962
 30
0.0
 11
339.420987
 21
150.325962
 31
0.0
  0
LINE
  5
1BE
100
AcDbEntity
  8
0
  6
CONTINUOUS
 62
     7
100
AcDbLine
 10
451.482958
 20
327.387932
 30
0.0
 11
451.482958
 21
328.873632
 31
0.0
  0
ARC
  5
1BF
100
AcDbEntity
  8
0
  6
CONTINUOUS
 62
     7
100
AcDbCircle
 10
451.479796
 20
322.971049
 30
0.0
 40
5.902575
100
AcDbArc
 50
0.030689
 51
89.969311
  0
LINE
  5
1C0
100
AcDbEntity
  8
0
  6
CONTINUOUS
 62
     7
100
AcDbLine
 10
455.896679
 20
322.974211
 30
0.0
 11
457.382379
 21
322.974211
 31
0.0
  0
LINE
  5
1C1
100
AcDbEntity
  8
0
  6
CONTINUOUS
 62
     7
100
AcDbLine
 10
457.382379
 20
150.325962
 30
0.0
 11
455.896681
 21
150.325962
 31
0.0
  0
ARC
  5
1C2
100
AcDbEntity
  8
0
  6
CONTINUOUS
 62
     7
100
AcDbCircle
 10
451.479796
 20
150.329123
 30
0.0
 40
5.902575
100
AcDbArc
 50
270.030689
 51
359.969311
  0
LINE
  5
1C3
100
AcDbEntity
  8
0
  6
CONTINUOUS
 62
     7
100
AcDbLine
 10
451.482958
 20
144.42654
 30
0.0
 11
451.482958
 21
145.91224
 31
0.0
  0
LINE
  5
1C4
100
AcDbEntity
  8
0
  6
CONTINUOUS
 62
     7
100
AcDbLine
 10
337.935278
 20
322.974211
 30
0.0
 11
337.935278
 21
150.325962
 31
0.0
  0
LINE
  5
1C5
100
AcDbEntity
  8
0
  6
CONTINUOUS
 62
     7
100
AcDbLine
 10
343.834709
 20
144.426531
 30
0.0
 11
451.482958
 21
144.426531
 31
0.0
  0
LINE
  5
1C6
100
AcDbEntity
  8
0
  6
CONTINUOUS
 62
     7
100
AcDbLine
 10
451.482958
 20
328.873642
 30
0.0
 11
343.834709
 21
328.873642
 31
0.0
  0
LINE
  5
1C7
100
AcDbEntity
  8
0
  6
CONTINUOUS
 62
     7
100
AcDbLine
 10
457.382389
 20
150.325962
 30
0.0
 11
457.382389
 21
322.974211
 31
0.0
  0
CIRCLE
  5
1C8
100
AcDbEntity
  8
0
  6
CONTINUOUS
 62
     7
100
AcDbCircle
 10
348.658833
 20
155.150086
 30
0.0
 40
5.660986
  0
CIRCLE
  5
1C9
100
AcDbEntity
  8
0
  6
CONTINUOUS
 62
     7
100
AcDbCircle
 10
348.658833
 20
318.150086
 30
0.0
 40
5.660986
  0
CIRCLE
  5
1CA
100
AcDbEntity
  8
0
  6
CONTINUOUS
 62
     7
100
AcDbCircle
 10
446.658833
 20
155.150086
 30
0.0
 40
5.660986
  0
CIRCLE
  5
1CB
100
AcDbEntity
  8
0
  6
CONTINUOUS
 62
     7
100
AcDbCircle
 10
446.658833
 20
318.150086
 30
0.0
 40
5.660986
  0
ARC
  5
1CC
100
AcDbEntity
  8
0
  6
CONTINUOUS
 62
     7
100
AcDbCircle
 10
343.831443
 20
150.322696
 30
0.0
 40
5.995012
100
AcDbArc
 50
180.030906
 51
269.969094
  0
LWPOLYLINE
  5
1CD
100
AcDbEntity
  8
0
  6
CONTINUOUS
 62
     7
100
AcDbPolyline
 90
        3
 70
   128
 43
0.0
 10
337.836428
 20
150.31946
 10
337.865241
 20
150.322711
 10
337.935278
 20
150.325962
  0
LWPOLYLINE
  5
1CE
100
AcDbEntity
  8
0
  6
CONTINUOUS
 62
     7
100
AcDbPolyline
 90
        3
 70
   128
 43
0.0
 10
343.82821
 20
144.327685
 10
343.831459
 20
144.356517
 10
343.834709
 20
144.426549
  0
LWPOLYLINE
  5
1CF
100
AcDbEntity
  8
0
  6
CONTINUOUS
 62
     7
100
AcDbPolyline
 90
        3
 70
   128
 43
0.0
 10
337.935278
 20
322.974212
 10
337.865241
 20
322.977463
 10
337.836428
 20
322.980714
  0
ARC
  5
1D0
100
AcDbEntity
  8
0
  6
CONTINUOUS
 62
     7
100
AcDbCircle
 10
343.831443
 20
322.977476
 30
0.0
 40
5.995012
100
AcDbArc
 50
90.030906
 51
179.969094
  0
LWPOLYLINE
  5
1D1
100
AcDbEntity
  8
0
  6
CONTINUOUS
 62
     7
100
AcDbPolyline
 90
        3
 70
   128
 43
0.0
 10
343.834708
 20
328.873623
 10
343.831459
 20
328.943655
 10
343.828209
 20
328.972487
  0
LWPOLYLINE
  5
1D2
100
AcDbEntity
  8
0
  6
CONTINUOUS
 62
     7
100
AcDbPolyline
 90
        3
 70
   128
 43
0.0
 10
451.482959
 20
328.873642
 10
451.48621
 20
328.943678
 10
451.489461
 20
328.972491
  0
ARC
  5
1D3
100
AcDbEntity
  8
0
  6
CONTINUOUS
 62
     7
100
AcDbCircle
 10
451.486105
 20
322.977357
 30
0.0
 40
5.99513
100
AcDbArc
 50
0.032038
 51
89.967962
  0
LWPOLYLINE
  5
1D4
100
AcDbEntity
  8
0
  6
CONTINUOUS
 62
     7
100
AcDbPolyline
 90
        3
 70
   128
 43
0.0
 10
457.38237
 20
322.974211
 10
457.452402
 20
322.97746
 10
457.481234
 20
322.98071
  0
ARC
  5
1D5
100
AcDbEntity
  8
0
  6
CONTINUOUS
 62
     7
100
AcDbCircle
 10
451.486105
 20
150.322815
 30
0.0
 40
5.99513
100
AcDbArc
 50
270.032038
 51
359.967962
  0
LWPOLYLINE
  5
1D6
100
AcDbEntity
  8
0
  6
CONTINUOUS
 62
     7
100
AcDbPolyline
 90
        3
 70
   128
 43
0.0
 10
451.48946
 20
144.327681
 10
451.486209
 20
144.356494
 10
451.482958
 20
144.426531
  0
LWPOLYLINE
  5
1D7
100
AcDbEntity
  8
0
  6
CONTINUOUS
 62
     7
100
AcDbPolyline
 90
        3
 70
   128
 43
0.0
 10
457.481234
 20
150.319463
 10
457.452402
 20
150.322712
 10
457.38237
 20
150.325962
  0
LINE
  5
1D8
100
AcDbEntity
  8
0
  6
CONTINUOUS
 62
     7
100
AcDbLine
 10
343.828205
 20
328.972491
 30
0.0
 11
451.489461
 21
328.972491
 31
0.0
  0
LINE
  5
1D9
100
AcDbEntity
  8
0
  6
CONTINUOUS
 62
     7
100
AcDbLine
 10
457.481238
 20
322.980714
 30
0.0
 11
457.481238
 21
150.319458
 31
0.0
  0
LINE
  5
1DA
100
AcDbEntity
  8
0
  6
CONTINUOUS
 62
     7
100
AcDbLine
 10
451.489461
 20
144.327681
 30
0.0
 11
343.828205
 21
144.327681
 31
0.0
  0
LINE
  5
1DB
100
AcDbEntity
  8
0
  6
CONTINUOUS
 62
     7
100
AcDbLine
 10
337.836428
 20
150.319458
 30
0.0
 11
337.836428
 21
322.980714
 31
0.0
  0
ELLIPSE
  5
1DC
100
AcDbEntity
  8
0
  6
CONTINUOUS
 62
     7
100
AcDbEllipse
 10
342.619475
 20
149.110728
 30
0.0
 11
4.254277460610468
 21
4.254277460610354
 31
0.0
210
0.0
220
0.0
230
1.0
 40
0.997265
 41
2.357564018062757
 42
3.925621289116863
  0
LINE
  5
1DD
100
AcDbEntity
  8
0
  6
CONTINUOUS
 62
     7
100
AcDbLine
 10
336.611241
 20
149.094271
 30
0.0
 11
337.83643
 21
150.31946
 31
0.0
  0
LINE
  5
1DE
100
AcDbEntity
  8
0
  6
CONTINUOUS
 62
     7
100
AcDbLine
 10
343.828207
 20
144.327683
 30
0.0
 11
342.603018
 21
143.102494
 31
0.0
  0
ELLIPSE
  5
1DF
100
AcDbEntity
  8
0
  6
CONTINUOUS
 62
     7
100
AcDbEllipse
 10
342.619475
 20
324.189444
 30
0.0
 11
4.254277460610468
 21
-4.254277460610354
 31
0.0
210
0.0
220
0.0
230
1.0
 40
0.997265
 41
2.357564018062731
 42
3.925621289116842
  0
LINE
  5
1E0
100
AcDbEntity
  8
0
  6
CONTINUOUS
 62
     7
100
AcDbLine
 10
342.603018
 20
330.197678
 30
0.0
 11
343.828207
 21
328.972489
 31
0.0
  0
LINE
  5
1E1
100
AcDbEntity
  8
0
  6
CONTINUOUS
 62
     7
100
AcDbLine
 10
337.83643
 20
322.980712
 30
0.0
 11
336.611241
 21
324.205901
 31
0.0
  0
ELLIPSE
  5
1E2
100
AcDbEntity
  8
0
  6
CONTINUOUS
 62
     7
100
AcDbEllipse
 10
452.698191
 20
324.189444
 30
0.0
 11
4.254277460610411
 21
4.254277460610353
 31
0.0
210
0.0
220
0.0
230
1.0
 40
0.997265
 41
5.499156671652568
 42
7.067213942706654
  0
LINE
  5
1E3
100
AcDbEntity
  8
0
  6
CONTINUOUS
 62
     7
100
AcDbLine
 10
458.706425
 20
324.205901
 30
0.0
 11
457.481236
 21
322.980712
 31
0.0
  0
LINE
  5
1E4
100
AcDbEntity
  8
0
  6
CONTINUOUS
 62
     7
100
AcDbLine
 10
451.489459
 20
328.972489
 30
0.0
 11
452.714648
 21
330.197678
 31
0.0
  0
ELLIPSE
  5
1E5
100
AcDbEntity
  8
0
  6
CONTINUOUS
 62
     7
100
AcDbEllipse
 10
452.698191
 20
149.110728
 30
0.0
 11
4.254277460610411
 21
-4.254277460610353
 31
0.0
210
0.0
220
0.0
230
1.0
 40
0.997265
 41
5.499156671652547
 42
7.067213942706635
  0
LINE
  5
1E6
100
AcDbEntity
  8
0
  6
CONTINUOUS
 62
     7
100
AcDbLine
 10
452.714648
 20
143.102494
 30
0.0
 11
451.489459
 21
144.327683
 31
0.0
  0
LINE
  5
1E7
100
AcDbEntity
  8
0
  6
CONTINUOUS
 62
     7
100
AcDbLine
 10
457.481236
 20
150.31946
 30
0.0
 11
458.706425
 21
149.094271
 31
0.0
  0
LINE
  5
1E8
100
AcDbEntity
  8
0
  6
CONTINUOUS
 62
     7
100
AcDbLine
 10
342.603018
 20
330.197678
 30
0.0
 11
452.714648
 21
330.197678
 31
0.0
  0
LINE
  5
1E9
100
AcDbEntity
  8
0
  6
CONTINUOUS
 62
     7
100
AcDbLine
 10
452.714648
 20
143.102494
 30
0.0
 11
342.603018
 21
143.102494
 31
0.0
  0
LINE
  5
1EA
100
AcDbEntity
  8
0
  6
CONTINUOUS
 62
     7
100
AcDbLine
 10
458.706425
 20
324.205901
 30
0.0
 11
458.706425
 21
149.094271
 31
0.0
  0
LINE
  5
1EB
100
AcDbEntity
  8
0
  6
CONTINUOUS
 62
     7
100
AcDbLine
 10
336.611241
 20
149.094271
 30
0.0
 11
336.611241
 21
324.205901
 31
0.0
  0
INSERT
  5
1F7
100
AcDbEntity
  8
0
  6
CONTINUOUS
 62
     7
100
AcDbBlockReference
  2
SW_CENTERMARKSYMBOL_12
 10
348.658833
 20
155.150086
 30
0.0
 41
2.0
 42
2.0
 43
2.0
  0
INSERT
  5
203
100
AcDbEntity
  8
0
  6
CONTINUOUS
 62
     7
100
AcDbBlockReference
  2
SW_CENTERMARKSYMBOL_13
 10
348.658833
 20
318.150086
 30
0.0
 41
2.0
 42
2.0
 43
2.0
  0
INSERT
  5
20F
100
AcDbEntity
  8
0
  6
CONTINUOUS
 62
     7
100
AcDbBlockReference
  2
SW_CENTERMARKSYMBOL_14
 10
446.658833
 20
318.150086
 30
0.0
 41
2.0
 42
2.0
 43
2.0
  0
INSERT
  5
21B
100
AcDbEntity
  8
0
  6
CONTINUOUS
 62
     7
100
AcDbBlockReference
  2
SW_CENTERMARKSYMBOL_15
 10
446.658833
 20
155.150086
 30
0.0
 41
2.0
 42
2.0
 43
2.0
  0
LINE
  5
21C
100
AcDbEntity
  8
0
  6
CONTINUOUS
 62
     7
100
AcDbLine
 10
336.611241
 20
406.682829
 30
0.0
 11
342.603018
 21
406.682829
 31
0.0
  0
LINE
  5
21D
100
AcDbEntity
  8
0
  6
CONTINUOUS
 62
     7
100
AcDbLine
 10
336.611241
 20
406.682829
 30
0.0
 11
337.83643
 21
430.060832
 31
0.0
  0
ARC
  5
21E
100
AcDbEntity
  8
0
  6
CONTINUOUS
 62
     7
100
AcDbCircle
 10
340.832321
 20
324.73681
 30
0.0
 40
105.366662
100
AcDbArc
 50
88.37069
 51
91.62931
  0
LINE
  5
21F
100
AcDbEntity
  8
0
  6
CONTINUOUS
 62
     7
100
AcDbLine
 10
343.828207
 20
430.060832
 30
0.0
 11
342.603018
 21
406.682829
 31
0.0
  0
LINE
  5
220
100
AcDbEntity
  8
0
  6
CONTINUOUS
 62
     7
100
AcDbLine
 10
452.714648
 20
406.682829
 30
0.0
 11
342.603018
 21
406.682829
 31
0.0
  0
LINE
  5
221
100
AcDbEntity
  8
0
  6
CONTINUOUS
 62
     7
100
AcDbLine
 10
451.489461
 20
430.060791
 30
0.0
 11
343.828205
 21
430.060791
 31
0.0
  0
LINE
  5
222
100
AcDbEntity
  8
0
  6
CONTINUOUS
 62
     7
100
AcDbLine
 10
452.714648
 20
406.682829
 30
0.0
 11
451.489459
 21
430.060832
 31
0.0
  0
LINE
  5
223
100
AcDbEntity
  8
0
  6
CONTINUOUS
 62
     7
100
AcDbLine
 10
452.714648
 20
406.682829
 30
0.0
 11
458.706425
 21
406.682829
 31
0.0
  0
ARC
  5
224
100
AcDbEntity
  8
0
  6
CONTINUOUS
 62
     7
100
AcDbCircle
 10
454.485345
 20
321.881988
 30
0.0
 40
108.220361
100
AcDbArc
 50
88.413665
 51
91.586335
  0
LINE
  5
225
100
AcDbEntity
  8
0
  6
CONTINUOUS
 62
     7
100
AcDbLine
 10
457.481236
 20
430.060832
 30
0.0
 11
458.706425
 21
406.682829
 31
0.0
  0
LINE
  5
226
100
AcDbEntity
  8
0
  6
CONTINUOUS
 62
     7
100
AcDbLine
 10
337.258833
 20
406.682829
 30
0.0
 11
337.258833
 21
405.682829
 31
0.0
  0
LINE
  5
227
100
AcDbEntity
  8
0
  6
CONTINUOUS
 62
     7
100
AcDbLine
 10
342.55061
 20
406.682829
 30
0.0
 11
342.55061
 21
405.682829
 31
0.0
  0
LINE
  5
228
100
AcDbEntity
  8
0
  6
CONTINUOUS
 62
     7
100
AcDbLine
 10
342.55061
 20
405.682829
 30
0.0
 11
337.258833
 21
405.682829
 31
0.0
  0
LINE
  5
229
100
AcDbEntity
  8
0
  6
CONTINUOUS
 62
     7
100
AcDbLine
 10
452.767056
 20
406.682829
 30
0.0
 11
452.767056
 21
405.682829
 31
0.0
  0
LINE
  5
22A
100
AcDbEntity
  8
0
  6
CONTINUOUS
 62
     7
100
AcDbLine
 10
452.767056
 20
405.682829
 30
0.0
 11
342.55061
 21
405.682829
 31
0.0
  0
LINE
  5
22B
100
AcDbEntity
  8
0
  6
CONTINUOUS
 62
     7
100
AcDbLine
 10
458.058833
 20
406.682829
 30
0.0
 11
458.058833
 21
405.682829
 31
0.0
  0
LINE
  5
22C
100
AcDbEntity
  8
0
  6
CONTINUOUS
 62
     7
100
AcDbLine
 10
458.058833
 20
405.682829
 30
0.0
 11
452.767056
 21
405.682829
 31
0.0
  0
LWPOLYLINE
  5
22D
100
AcDbEntity
  8
0
  6
CONTINUOUS
 62
     7
100
AcDbPolyline
 90
        3
 70
   128
 43
0.0
 10
337.836428
 20
430.060791
 10
337.865241
 20
430.174244
 10
337.935278
 20
430.268034
  0
ARC
  5
22E
100
AcDbEntity
  8
0
  6
CONTINUOUS
 62
     7
100
AcDbCircle
 10
340.885002
 20
325.561747
 30
0.0
 40
104.747844
100
AcDbArc
 50
88.386334
 51
91.613666
  0
LWPOLYLINE
  5
22F
100
AcDbEntity
  8
0
  6
CONTINUOUS
 62
     7
100
AcDbPolyline
 90
        3
 70
   128
 43
0.0
 10
343.82821
 20
430.060873
 10
343.831459
 20
430.174292
 10
343.834709
 20
430.268051
  0
LWPOLYLINE
  5
230
100
AcDbEntity
  8
0
  6
CONTINUOUS
 62
     7
100
AcDbPolyline
 90
        3
 70
   128
 43
0.0
 10
451.48946
 20
430.060791
 10
451.486209
 20
430.174244
 10
451.482958
 20
430.268034
  0
ARC
  5
231
100
AcDbEntity
  8
0
  6
CONTINUOUS
 62
     7
100
AcDbCircle
 10
454.432664
 20
333.003329
 30
0.0
 40
97.309439
100
AcDbArc
 50
88.262947
 51
91.737053
  0
LWPOLYLINE
  5
232
100
AcDbEntity
  8
0
  6
CONTINUOUS
 62
     7
100
AcDbPolyline
 90
        3
 70
   128
 43
0.0
 10
457.481234
 20
430.060873
 10
457.452402
 20
430.174292
 10
457.38237
 20
430.268051
  0
LWPOLYLINE
  5
233
100
AcDbEntity
  8
0
  6
CONTINUOUS
 62
     7
100
AcDbPolyline
 90
        9
 70
   128
 43
0.0
 10
343.834709
 20
431.605772
 10
343.834649
 20
431.605772
 10
342.607865
 20
431.607053
 10
341.296714
 20
431.607896
 10
340.231202
 20
431.6079
 10
339.602254
 20
431.60707
 10
339.452463
 20
431.606405
 10
339.420986
 20
431.605772
 10
339.420986
 20
431.605772
  0
LINE
  5
234
100
AcDbEntity
  8
0
  6
CONTINUOUS
 62
     7
100
AcDbLine
 10
343.834709
 20
430.268042
 30
0.0
 11
343.834709
 21
431.605772
 31
0.0
  0
LINE
  5
235
100
AcDbEntity
  8
0
  6
CONTINUOUS
 62
     7
100
AcDbLine
 10
337.935287
 20
430.268042
 30
0.0
 11
339.420987
 21
431.605773
 31
0.0
  0
LWPOLYLINE
  5
236
100
AcDbEntity
  8
0
  6
CONTINUOUS
 62
     7
100
AcDbPolyline
 90
        9
 70
   128
 43
0.0
 10
455.896681
 20
431.605772
 10
455.896681
 20
431.605772
 10
455.721463
 20
431.607053
 10
455.092807
 20
431.607896
 10
454.029997
 20
431.6079
 10
452.730337
 20
431.60707
 10
452.01266
 20
431.606405
 10
451.483018
 20
431.605772
 10
451.482958
 20
431.605772
  0
LINE
  5
237
100
AcDbEntity
  8
0
  6
CONTINUOUS
 62
     7
100
AcDbLine
 10
457.382379
 20
430.268042
 30
0.0
 11
455.896681
 21
431.605772
 31
0.0
  0
LINE
  5
238
100
AcDbEntity
  8
0
  6
CONTINUOUS
 62
     7
100
AcDbLine
 10
451.482958
 20
430.268042
 30
0.0
 11
451.482958
 21
431.605773
 31
0.0
  0
LINE
  5
239
100
AcDbEntity
  8
0
  6
CONTINUOUS
 62
     7
100
AcDbLine
 10
343.834709
 20
430.268034
 30
0.0
 11
451.482958
 21
430.268034
 31
0.0
  0
LINE
  5
23A
100
AcDbEntity
  8
0
  6
CONTINUOUS
 62
     7
100
AcDbLine
 10
451.482958
 20
431.605773
 30
0.0
 11
343.834709
 21
431.605773
 31
0.0
  0
LINE
  5
23B
100
AcDbEntity
  8
0
  6
CONTINUOUS
 62
     7
100
AcDbLine
 10
434.458833
 20
403.682829
 30
0.0
 11
434.458833
 21
405.682829
 31
0.0
  0
LINE
  5
23C
100
AcDbEntity
  8
0
  6
CONTINUOUS
 62
     7
100
AcDbLine
 10
434.458833
 20
403.682829
 30
0.0
 11
360.858833
 21
403.682829
 31
0.0
  0
LINE
  5
23D
100
AcDbEntity
  8
0
  6
CONTINUOUS
 62
     7
100
AcDbLine
 10
360.858833
 20
403.682829
 30
0.0
 11
360.858833
 21
405.682829
 31
0.0
  0
LINE
  5
23E
100
AcDbEntity
  8
0
  6
CONTINUOUS
 62
     7
100
AcDbLine
 10
439.154018
 20
403.682829
 30
0.0
 11
439.258833
 21
405.682829
 31
0.0
  0
LINE
  5
23F
100
AcDbEntity
  8
0
  6
CONTINUOUS
 62
     7
100
AcDbLine
 10
439.154018
 20
403.682829
 30
0.0
 11
434.458833
 21
403.682829
 31
0.0
  0
LINE
  5
240
100
AcDbEntity
  8
0
  6
CONTINUOUS
 62
     7
100
AcDbLine
 10
360.858833
 20
403.682829
 30
0.0
 11
356.163649
 21
403.682829
 31
0.0
  0
LINE
  5
241
100
AcDbEntity
  8
0
  6
CONTINUOUS
 62
     7
100
AcDbLine
 10
356.163649
 20
403.682829
 30
0.0
 11
356.058833
 21
405.682829
 31
0.0
  0
LINE
  5
242
100
AcDbEntity
  8
0
  6
CONTINUOUS
 62
     7
100
AcDbLine
 10
339.621724
 20
431.682829
 30
0.0
 11
343.834709
 21
431.682829
 31
0.0
  0
LINE
  5
243
100
AcDbEntity
  8
0
  6
CONTINUOUS
 62
     7
100
AcDbLine
 10
343.834709
 20
431.682829
 30
0.0
 11
343.834709
 21
431.605773
 31
0.0
  0
LWPOLYLINE
  5
244
100
AcDbEntity
  8
0
  6
CONTINUOUS
 62
     7
100
AcDbPolyline
 90
        3
 70
   128
 43
0.0
 10
339.420987
 20
431.605773
 10
339.514216
 20
431.662904
 10
339.621726
 20
431.682829
  0
LINE
  5
245
100
AcDbEntity
  8
0
  6
CONTINUOUS
 62
     7
100
AcDbLine
 10
451.483983
 20
431.682829
 30
0.0
 11
455.695937
 21
431.682829
 31
0.0
  0
LWPOLYLINE
  5
246
100
AcDbEntity
  8
0
  6
CONTINUOUS
 62
     7
100
AcDbPolyline
 90
        3
 70
   128
 43
0.0
 10
455.69594
 20
431.682829
 10
455.80345
 20
431.662904
 10
455.896679
 20
431.605773
  0
LWPOLYLINE
  5
247
100
AcDbEntity
  8
0
  6
CONTINUOUS
 62
     7
100
AcDbPolyline
 90
        3
 70
   128
 43
0.0
 10
451.483983
 20
431.682829
 10
451.48347
 20
431.662903
 10
451.482958
 20
431.605772
  0
LINE
  5
248
100
AcDbEntity
  8
0
  6
CONTINUOUS
 62
     7
100
AcDbLine
 10
343.834709
 20
431.682829
 30
0.0
 11
451.483983
 21
431.682829
 31
0.0
  0
LINE
  5
249
100
AcDbEntity
  8
0
  6
CONTINUOUS
 62
     7
100
AcDbLine
 10
447.50268
 20
403.682829
 30
0.0
 11
447.496747
 21
405.682829
 31
0.0
  0
LINE
  5
24A
100
AcDbEntity
  8
0
  6
CONTINUOUS
 62
     7
100
AcDbLine
 10
439.154018
 20
403.682829
 30
0.0
 11
439.258833
 21
405.682829
 31
0.0
  0
LINE
  5
24B
100
AcDbEntity
  8
0
  6
CONTINUOUS
 62
     7
100
AcDbLine
 10
447.50268
 20
403.682829
 30
0.0
 11
439.154018
 21
403.682829
 31
0.0
  0
LINE
  5
24C
100
AcDbEntity
  8
0
  6
CONTINUOUS
 62
     7
100
AcDbLine
 10
347.814987
 20
403.682829
 30
0.0
 11
347.820919
 21
405.682829
 31
0.0
  0
LINE
  5
24D
100
AcDbEntity
  8
0
  6
CONTINUOUS
 62
     7
100
AcDbLine
 10
356.163649
 20
403.682829
 30
0.0
 11
347.814987
 21
403.682829
 31
0.0
  0
LINE
  5
24E
100
AcDbEntity
  8
0
  6
CONTINUOUS
 62
     7
100
AcDbLine
 10
343.111241
 20
403.682829
 30
0.0
 11
343.111241
 21
405.682829
 31
0.0
  0
LINE
  5
24F
100
AcDbEntity
  8
0
  6
CONTINUOUS
 62
     7
100
AcDbLine
 10
347.814987
 20
403.682829
 30
0.0
 11
343.111241
 21
403.682829
 31
0.0
  0
LINE
  5
250
100
AcDbEntity
  8
0
  6
CONTINUOUS
 62
     7
100
AcDbLine
 10
338.416057
 20
403.682829
 30
0.0
 11
338.311241
 21
405.682829
 31
0.0
  0
LINE
  5
251
100
AcDbEntity
  8
0
  6
CONTINUOUS
 62
     7
100
AcDbLine
 10
343.111241
 20
403.682829
 30
0.0
 11
338.416057
 21
403.682829
 31
0.0
  0
LINE
  5
252
100
AcDbEntity
  8
0
  6
CONTINUOUS
 62
     7
100
AcDbLine
 10
452.206425
 20
403.682829
 30
0.0
 11
452.206425
 21
405.682829
 31
0.0
  0
LINE
  5
253
100
AcDbEntity
  8
0
  6
CONTINUOUS
 62
     7
100
AcDbLine
 10
452.206425
 20
403.682829
 30
0.0
 11
447.50268
 21
403.682829
 31
0.0
  0
LINE
  5
254
100
AcDbEntity
  8
0
  6
CONTINUOUS
 62
     7
100
AcDbLine
 10
456.90161
 20
403.682829
 30
0.0
 11
457.006425
 21
405.682829
 31
0.0
  0
LINE
  5
255
100
AcDbEntity
  8
0
  6
CONTINUOUS
 62
     7
100
AcDbLine
 10
456.90161
 20
403.682829
 30
0.0
 11
452.206425
 21
403.682829
 31
0.0
  0
LINE
  5
256
100
AcDbEntity
  8
0
  6
CONTINUOUS
 62
     7
100
AcDbLine
 10
458.706425
 20
76.727077
 30
0.0
 11
452.714648
 21
76.727077
 31
0.0
  0
LINE
  5
257
100
AcDbEntity
  8
0
  6
CONTINUOUS
 62
     7
100
AcDbLine
 10
458.706425
 20
76.727077
 30
0.0
 11
457.481236
 21
53.349075
 31
0.0
  0
ARC
  5
258
100
AcDbEntity
  8
0
  6
CONTINUOUS
 62
     7
100
AcDbCircle
 10
454.485345
 20
154.514012
 30
0.0
 40
101.209328
100
AcDbArc
 50
268.303745
 51
271.696255
  0
LINE
  5
259
100
AcDbEntity
  8
0
  6
CONTINUOUS
 62
     7
100
AcDbLine
 10
451.489459
 20
53.349075
 30
0.0
 11
452.714648
 21
76.727077
 31
0.0
  0
LINE
  5
25A
100
AcDbEntity
  8
0
  6
CONTINUOUS
 62
     7
100
AcDbLine
 10
342.603018
 20
76.727077
 30
0.0
 11
336.611241
 21
76.727077
 31
0.0
  0
LINE
  5
25B
100
AcDbEntity
  8
0
  6
CONTINUOUS
 62
     7
100
AcDbLine
 10
342.603018
 20
76.727077
 30
0.0
 11
343.828207
 21
53.349075
 31
0.0
  0
ARC
  5
25C
100
AcDbEntity
  8
0
  6
CONTINUOUS
 62
     7
100
AcDbCircle
 10
340.832321
 20
159.365552
 30
0.0
 40
106.058839
100
AcDbArc
 50
268.381327
 51
271.618673
  0
LINE
  5
25D
100
AcDbEntity
  8
0
  6
CONTINUOUS
 62
     7
100
AcDbLine
 10
337.83643
 20
53.349075
 30
0.0
 11
336.611241
 21
76.727077
 31
0.0
  0
LINE
  5
25E
100
AcDbEntity
  8
0
  6
CONTINUOUS
 62
     7
100
AcDbLine
 10
342.603018
 20
76.727077
 30
0.0
 11
452.714648
 21
76.727077
 31
0.0
  0
LINE
  5
25F
100
AcDbEntity
  8
0
  6
CONTINUOUS
 62
     7
100
AcDbLine
 10
343.828205
 20
53.349115
 30
0.0
 11
451.489461
 21
53.349115
 31
0.0
  0
LINE
  5
260
100
AcDbEntity
  8
0
  6
CONTINUOUS
 62
     7
100
AcDbLine
 10
458.058833
 20
76.727077
 30
0.0
 11
458.058833
 21
77.727077
 31
0.0
  0
LINE
  5
261
100
AcDbEntity
  8
0
  6
CONTINUOUS
 62
     7
100
AcDbLine
 10
452.767056
 20
76.727077
 30
0.0
 11
452.767056
 21
77.727077
 31
0.0
  0
LINE
  5
262
100
AcDbEntity
  8
0
  6
CONTINUOUS
 62
     7
100
AcDbLine
 10
452.767056
 20
77.727077
 30
0.0
 11
458.058833
 21
77.727077
 31
0.0
  0
LINE
  5
263
100
AcDbEntity
  8
0
  6
CONTINUOUS
 62
     7
100
AcDbLine
 10
342.55061
 20
76.727077
 30
0.0
 11
342.55061
 21
77.727077
 31
0.0
  0
LINE
  5
264
100
AcDbEntity
  8
0
  6
CONTINUOUS
 62
     7
100
AcDbLine
 10
342.55061
 20
77.727077
 30
0.0
 11
452.767056
 21
77.727077
 31
0.0
  0
LINE
  5
265
100
AcDbEntity
  8
0
  6
CONTINUOUS
 62
     7
100
AcDbLine
 10
337.258833
 20
76.727077
 30
0.0
 11
337.258833
 21
77.727077
 31
0.0
  0
LINE
  5
266
100
AcDbEntity
  8
0
  6
CONTINUOUS
 62
     7
100
AcDbLine
 10
337.258833
 20
77.727077
 30
0.0
 11
342.55061
 21
77.727077
 31
0.0
  0
ARC
  5
267
100
AcDbEntity
  8
0
  6
CONTINUOUS
 62
     7
100
AcDbCircle
 10
340.885002
 20
150.405716
 30
0.0
 40
97.308577
100
AcDbArc
 50
268.262932
 51
271.737068
  0
LWPOLYLINE
  5
268
100
AcDbEntity
  8
0
  6
CONTINUOUS
 62
     7
100
AcDbPolyline
 90
        3
 70
   128
 43
0.0
 10
337.935278
 20
53.141873
 10
337.865241
 20
53.235663
 10
337.836428
 20
53.349115
  0
LWPOLYLINE
  5
269
100
AcDbEntity
  8
0
  6
CONTINUOUS
 62
     7
100
AcDbPolyline
 90
        3
 70
   128
 43
0.0
 10
343.834708
 20
53.141856
 10
343.831459
 20
53.235615
 10
343.828209
 20
53.349034
  0
ARC
  5
26A
100
AcDbEntity
  8
0
  6
CONTINUOUS
 62
     7
100
AcDbCircle
 10
454.432664
 20
157.846893
 30
0.0
 40
104.746578
100
AcDbArc
 50
268.386314
 51
271.613686
  0
LWPOLYLINE
  5
26B
100
AcDbEntity
  8
0
  6
CONTINUOUS
 62
     7
100
AcDbPolyline
 90
        3
 70
   128
 43
0.0
 10
451.482959
 20
53.141873
 10
451.48621
 20
53.235663
 10
451.489461
 20
53.349115
  0
LWPOLYLINE
  5
26C
100
AcDbEntity
  8
0
  6
CONTINUOUS
 62
     7
100
AcDbPolyline
 90
        3
 70
   128
 43
0.0
 10
457.38237
 20
53.141856
 10
457.452402
 20
53.235615
 10
457.481234
 20
53.349034
  0
LWPOLYLINE
  5
26D
100
AcDbEntity
  8
0
  6
CONTINUOUS
 62
     7
100
AcDbPolyline
 90
        9
 70
   128
 43
0.0
 10
339.420986
 20
51.804135
 10
339.420986
 20
51.804135
 10
339.596203
 20
51.802854
 10
340.22486
 20
51.802011
 10
341.28767
 20
51.802007
 10
342.587329
 20
51.802837
 10
343.305006
 20
51.803501
 10
343.834649
 20
51.804135
 10
343.834709
 20
51.804135
  0
LINE
  5
26E
100
AcDbEntity
  8
0
  6
CONTINUOUS
 62
     7
100
AcDbLine
 10
339.420986
 20
51.804135
 30
0.0
 11
337.935287
 21
53.141864
 31
0.0
  0
LINE
  5
26F
100
AcDbEntity
  8
0
  6
CONTINUOUS
 62
     7
100
AcDbLine
 10
343.834709
 20
51.804134
 30
0.0
 11
343.834709
 21
53.141864
 31
0.0
  0
LWPOLYLINE
  5
270
100
AcDbEntity
  8
0
  6
CONTINUOUS
 62
     7
100
AcDbPolyline
 90
        9
 70
   128
 43
0.0
 10
451.482958
 20
51.804135
 10
451.483018
 20
51.804135
 10
452.709802
 20
51.802854
 10
454.020952
 20
51.802011
 10
455.086464
 20
51.802007
 10
455.715412
 20
51.802837
 10
455.865204
 20
51.803501
 10
455.896681
 20
51.804135
 10
455.896681
 20
51.804135
  0
LINE
  5
271
100
AcDbEntity
  8
0
  6
CONTINUOUS
 62
     7
100
AcDbLine
 10
451.482958
 20
51.804134
 30
0.0
 11
451.482958
 21
53.141864
 31
0.0
  0
LINE
  5
272
100
AcDbEntity
  8
0
  6
CONTINUOUS
 62
     7
100
AcDbLine
 10
455.896679
 20
51.804134
 30
0.0
 11
457.382379
 21
53.141864
 31
0.0
  0
LINE
  5
273
100
AcDbEntity
  8
0
  6
CONTINUOUS
 62
     7
100
AcDbLine
 10
451.482958
 20
53.141873
 30
0.0
 11
343.834709
 21
53.141873
 31
0.0
  0
LINE
  5
274
100
AcDbEntity
  8
0
  6
CONTINUOUS
 62
     7
100
AcDbLine
 10
343.834709
 20
51.804134
 30
0.0
 11
451.482958
 21
51.804134
 31
0.0
  0
LINE
  5
275
100
AcDbEntity
  8
0
  6
CONTINUOUS
 62
     7
100
AcDbLine
 10
356.163649
 20
79.727077
 30
0.0
 11
356.058833
 21
77.727077
 31
0.0
  0
LINE
  5
276
100
AcDbEntity
  8
0
  6
CONTINUOUS
 62
     7
100
AcDbLine
 10
356.163649
 20
79.727077
 30
0.0
 11
360.858833
 21
79.727077
 31
0.0
  0
LINE
  5
277
100
AcDbEntity
  8
0
  6
CONTINUOUS
 62
     7
100
AcDbLine
 10
360.858833
 20
79.727077
 30
0.0
 11
360.858833
 21
77.727077
 31
0.0
  0
LINE
  5
278
100
AcDbEntity
  8
0
  6
CONTINUOUS
 62
     7
100
AcDbLine
 10
360.858833
 20
79.727077
 30
0.0
 11
434.458833
 21
79.727077
 31
0.0
  0
LINE
  5
279
100
AcDbEntity
  8
0
  6
CONTINUOUS
 62
     7
100
AcDbLine
 10
434.458833
 20
79.727077
 30
0.0
 11
434.458833
 21
77.727077
 31
0.0
  0
LINE
  5
27A
100
AcDbEntity
  8
0
  6
CONTINUOUS
 62
     7
100
AcDbLine
 10
434.458833
 20
79.727077
 30
0.0
 11
439.154018
 21
79.727077
 31
0.0
  0
LINE
  5
27B
100
AcDbEntity
  8
0
  6
CONTINUOUS
 62
     7
100
AcDbLine
 10
439.154018
 20
79.727077
 30
0.0
 11
439.258833
 21
77.727077
 31
0.0
  0
LINE
  5
27C
100
AcDbEntity
  8
0
  6
CONTINUOUS
 62
     7
100
AcDbLine
 10
455.695943
 20
51.727077
 30
0.0
 11
451.483983
 21
51.727077
 31
0.0
  0
LWPOLYLINE
  5
27D
100
AcDbEntity
  8
0
  6
CONTINUOUS
 62
     7
100
AcDbPolyline
 90
        3
 70
   128
 43
0.0
 10
451.482958
 20
51.804135
 10
451.48347
 20
51.747004
 10
451.483983
 20
51.727077
  0
LWPOLYLINE
  5
27E
100
AcDbEntity
  8
0
  6
CONTINUOUS
 62
     7
100
AcDbPolyline
 90
        3
 70
   128
 43
0.0
 10
455.695943
 20
51.727077
 10
455.803452
 20
51.747004
 10
455.896681
 20
51.804135
  0
LWPOLYLINE
  5
27F
100
AcDbEntity
  8
0
  6
CONTINUOUS
 62
     7
100
AcDbPolyline
 90
        3
 70
   128
 43
0.0
 10
343.834709
 20
51.804134
 10
343.834196
 20
51.747003
 10
343.833684
 20
51.727077
  0
LINE
  5
280
100
AcDbEntity
  8
0
  6
CONTINUOUS
 62
     7
100
AcDbLine
 10
343.833684
 20
51.727077
 30
0.0
 11
339.621729
 21
51.727077
 31
0.0
  0
LWPOLYLINE
  5
281
100
AcDbEntity
  8
0
  6
CONTINUOUS
 62
     7
100
AcDbPolyline
 90
        3
 70
   128
 43
0.0
 10
339.420986
 20
51.804135
 10
339.514216
 20
51.747003
 10
339.621729
 20
51.727077
  0
LINE
  5
282
100
AcDbEntity
  8
0
  6
CONTINUOUS
 62
     7
100
AcDbLine
 10
451.483983
 20
51.727077
 30
0.0
 11
343.833684
 21
51.727077
 31
0.0
  0
LINE
  5
283
100
AcDbEntity
  8
0
  6
CONTINUOUS
 62
     7
100
AcDbLine
 10
347.814987
 20
79.727077
 30
0.0
 11
347.820919
 21
77.727077
 31
0.0
  0
LINE
  5
284
100
AcDbEntity
  8
0
  6
CONTINUOUS
 62
     7
100
AcDbLine
 10
356.163649
 20
79.727077
 30
0.0
 11
356.058833
 21
77.727077
 31
0.0
  0
LINE
  5
285
100
AcDbEntity
  8
0
  6
CONTINUOUS
 62
     7
100
AcDbLine
 10
347.814987
 20
79.727077
 30
0.0
 11
356.163649
 21
79.727077
 31
0.0
  0
LINE
  5
286
100
AcDbEntity
  8
0
  6
CONTINUOUS
 62
     7
100
AcDbLine
 10
447.50268
 20
79.727077
 30
0.0
 11
447.496747
 21
77.727077
 31
0.0
  0
LINE
  5
287
100
AcDbEntity
  8
0
  6
CONTINUOUS
 62
     7
100
AcDbLine
 10
439.154018
 20
79.727077
 30
0.0
 11
447.50268
 21
79.727077
 31
0.0
  0
LINE
  5
288
100
AcDbEntity
  8
0
  6
CONTINUOUS
 62
     7
100
AcDbLine
 10
452.206425
 20
79.727077
 30
0.0
 11
452.206425
 21
77.727077
 31
0.0
  0
LINE
  5
289
100
AcDbEntity
  8
0
  6
CONTINUOUS
 62
     7
100
AcDbLine
 10
447.50268
 20
79.727077
 30
0.0
 11
452.206425
 21
79.727077
 31
0.0
  0
LINE
  5
28A
100
AcDbEntity
  8
0
  6
CONTINUOUS
 62
     7
100
AcDbLine
 10
343.111241
 20
79.727077
 30
0.0
 11
343.111241
 21
77.727077
 31
0.0
  0
LINE
  5
28B
100
AcDbEntity
  8
0
  6
CONTINUOUS
 62
     7
100
AcDbLine
 10
343.111241
 20
79.727077
 30
0.0
 11
347.814987
 21
79.727077
 31
0.0
  0
LINE
  5
28C
100
AcDbEntity
  8
0
  6
CONTINUOUS
 62
     7
100
AcDbLine
 10
456.90161
 20
79.727077
 30
0.0
 11
457.006425
 21
77.727077
 31
0.0
  0
LINE
  5
28D
100
AcDbEntity
  8
0
  6
CONTINUOUS
 62
     7
100
AcDbLine
 10
452.206425
 20
79.727077
 30
0.0
 11
456.90161
 21
79.727077
 31
0.0
  0
LINE
  5
28E
100
AcDbEntity
  8
0
  6
CONTINUOUS
 62
     7
100
AcDbLine
 10
338.416057
 20
79.727077
 30
0.0
 11
338.311241
 21
77.727077
 31
0.0
  0
LINE
  5
28F
100
AcDbEntity
  8
0
  6
CONTINUOUS
 62
     7
100
AcDbLine
 10
338.416057
 20
79.727077
 30
0.0
 11
343.111241
 21
79.727077
 31
0.0
  0
LINE
  5
290
100
AcDbEntity
  8
0
  6
CONTINUOUS
 62
     7
100
AcDbLine
 10
515.457948
 20
149.094271
 30
0.0
 11
515.457948
 21
324.205901
 31
0.0
  0
LINE
  5
291
100
AcDbEntity
  8
0
  6
CONTINUOUS
 62
     7
100
AcDbLine
 10
538.835951
 20
322.980712
 30
0.0
 11
515.457948
 21
324.205901
 31
0.0
  0
LINE
  5
292
100
AcDbEntity
  8
0
  6
CONTINUOUS
 62
     7
100
AcDbLine
 10
538.83591
 20
150.319458
 30
0.0
 11
538.83591
 21
322.980714
 31
0.0
  0
LINE
  5
293
100
AcDbEntity
  8
0
  6
CONTINUOUS
 62
     7
100
AcDbLine
 10
515.457948
 20
149.094271
 30
0.0
 11
538.835951
 21
150.31946
 31
0.0
  0
LINE
  5
294
100
AcDbEntity
  8
0
  6
CONTINUOUS
 62
     7
100
AcDbLine
 10
515.457948
 20
149.094271
 30
0.0
 11
515.457948
 21
143.102494
 31
0.0
  0
ARC
  5
295
100
AcDbEntity
  8
0
  6
CONTINUOUS
 62
     7
100
AcDbCircle
 10
432.821984
 20
147.323574
 30
0.0
 40
106.05633
100
AcDbArc
 50
358.381288
 51
1.618712
  0
LINE
  5
296
100
AcDbEntity
  8
0
  6
CONTINUOUS
 62
     7
100
AcDbLine
 10
538.835951
 20
144.327683
 30
0.0
 11
515.457948
 21
143.102494
 31
0.0
  0
LINE
  5
297
100
AcDbEntity
  8
0
  6
CONTINUOUS
 62
     7
100
AcDbLine
 10
515.457948
 20
330.197678
 30
0.0
 11
515.457948
 21
324.205901
 31
0.0
  0
LINE
  5
298
100
AcDbEntity
  8
0
  6
CONTINUOUS
 62
     7
100
AcDbLine
 10
515.457948
 20
330.197678
 30
0.0
 11
538.835951
 21
328.972489
 31
0.0
  0
ARC
  5
299
100
AcDbEntity
  8
0
  6
CONTINUOUS
 62
     7
100
AcDbCircle
 10
433.514412
 20
325.976598
 30
0.0
 40
105.36418
100
AcDbArc
 50
358.370652
 51
1.629348
  0
LINE
  5
29A
100
AcDbEntity
  8
0
  6
CONTINUOUS
 62
     7
100
AcDbLine
 10
515.457948
 20
149.041863
 30
0.0
 11
514.457948
 21
149.041863
 31
0.0
  0
LINE
  5
29B
100
AcDbEntity
  8
0
  6
CONTINUOUS
 62
     7
100
AcDbLine
 10
515.457948
 20
143.750086
 30
0.0
 11
514.457948
 21
143.750086
 31
0.0
  0
LINE
  5
29C
100
AcDbEntity
  8
0
  6
CONTINUOUS
 62
     7
100
AcDbLine
 10
514.457948
 20
143.750086
 30
0.0
 11
514.457948
 21
149.041863
 31
0.0
  0
LINE
  5
29D
100
AcDbEntity
  8
0
  6
CONTINUOUS
 62
     7
100
AcDbLine
 10
515.457948
 20
324.258309
 30
0.0
 11
514.457948
 21
324.258309
 31
0.0
  0
LINE
  5
29E
100
AcDbEntity
  8
0
  6
CONTINUOUS
 62
     7
100
AcDbLine
 10
514.457948
 20
149.041863
 30
0.0
 11
514.457948
 21
324.258309
 31
0.0
  0
LINE
  5
29F
100
AcDbEntity
  8
0
  6
CONTINUOUS
 62
     7
100
AcDbLine
 10
515.457948
 20
329.550086
 30
0.0
 11
514.457948
 21
329.550086
 31
0.0
  0
LINE
  5
2A0
100
AcDbEntity
  8
0
  6
CONTINUOUS
 62
     7
100
AcDbLine
 10
514.457948
 20
324.258309
 30
0.0
 11
514.457948
 21
329.550086
 31
0.0
  0
LWPOLYLINE
  5
2A1
100
AcDbEntity
  8
0
  6
CONTINUOUS
 62
     7
100
AcDbPolyline
 90
        3
 70
   128
 43
0.0
 10
538.83591
 20
150.31946
 10
538.949363
 20
150.322711
 10
539.043153
 20
150.325962
  0
ARC
  5
2A2
100
AcDbEntity
  8
0
  6
CONTINUOUS
 62
     7
100
AcDbCircle
 10
437.949223
 20
147.376255
 30
0.0
 40
101.13697
100
AcDbArc
 50
358.328705
 51
1.671295
  0
LWPOLYLINE
  5
2A3
100
AcDbEntity
  8
0
  6
CONTINUOUS
 62
     7
100
AcDbPolyline
 90
        3
 70
   128
 43
0.0
 10
538.835991
 20
144.327685
 10
538.949411
 20
144.356517
 10
539.043169
 20
144.426549
  0
ARC
  5
2A4
100
AcDbEntity
  8
0
  6
CONTINUOUS
 62
     7
100
AcDbCircle
 10
416.599864
 20
325.923917
 30
0.0
 40
122.47883
100
AcDbArc
 50
358.61999
 51
1.38001
  0
LWPOLYLINE
  5
2A5
100
AcDbEntity
  8
0
  6
CONTINUOUS
 62
     7
100
AcDbPolyline
 90
        3
 70
   128
 43
0.0
 10
539.043153
 20
322.974212
 10
538.949363
 20
322.977463
 10
538.83591
 20
322.980714
  0
LWPOLYLINE
  5
2A6
100
AcDbEntity
  8
0
  6
CONTINUOUS
 62
     7
100
AcDbPolyline
 90
        3
 70
   128
 43
0.0
 10
539.043169
 20
328.873623
 10
538.949411
 20
328.943655
 10
538.835991
 20
328.972487
  0
LWPOLYLINE
  5
2A7
100
AcDbEntity
  8
0
  6
CONTINUOUS
 62
     7
100
AcDbPolyline
 90
       15
 70
   128
 43
0.0
 10
540.38089
 20
145.912239
 10
540.38089
 20
145.912239
 10
540.381611
 20
145.954763
 10
540.382172
 20
146.087456
 10
540.382662
 20
146.344129
 10
540.383015
 20
146.716113
 10
540.383162
 20
147.192617
 10
540.383019
 20
147.778923
 10
540.382683
 20
148.394697
 10
540.382188
 20
149.078582
 10
540.381883
 20
149.433035
 10
540.381524
 20
149.796259
 10
540.381228
 20
150.06007
 10
540.38089
 20
150.325902
 10
540.38089
 20
150.325962
  0
LINE
  5
2A8
100
AcDbEntity
  8
0
  6
CONTINUOUS
 62
     7
100
AcDbLine
 10
539.043161
 20
144.42654
 30
0.0
 11
540.38089
 21
145.912239
 31
0.0
  0
LINE
  5
2A9
100
AcDbEntity
  8
0
  6
CONTINUOUS
 62
     7
100
AcDbLine
 10
539.043161
 20
150.325962
 30
0.0
 11
540.380892
 21
150.325962
 31
0.0
  0
LWPOLYLINE
  5
2AA
100
AcDbEntity
  8
0
  6
CONTINUOUS
 62
     7
100
AcDbPolyline
 90
       15
 70
   128
 43
0.0
 10
540.38089
 20
322.974211
 10
540.38089
 20
322.974271
 10
540.381611
 20
323.587501
 10
540.382172
 20
324.201055
 10
540.382662
 20
324.873468
 10
540.383015
 20
325.512205
 10
540.383162
 20
326.083356
 10
540.383019
 20
326.577717
 10
540.382683
 20
326.94063
 10
540.382188
 20
327.206665
 10
540.381883
 20
327.296312
 10
540.381524
 20
327.356457
 10
540.381228
 20
327.380457
 10
540.38089
 20
327.387934
 10
540.38089
 20
327.387934
  0
LINE
  5
2AB
100
AcDbEntity
  8
0
  6
CONTINUOUS
 62
     7
100
AcDbLine
 10
540.38089
 20
322.974211
 30
0.0
 11
539.043161
 21
322.974211
 31
0.0
  0
LINE
  5
2AC
100
AcDbEntity
  8
0
  6
CONTINUOUS
 62
     7
100
AcDbLine
 10
540.380892
 20
327.387932
 30
0.0
 11
539.043161
 21
328.873632
 31
0.0
  0
LINE
  5
2AD
100
AcDbEntity
  8
0
  6
CONTINUOUS
 62
     7
100
AcDbLine
 10
539.043153
 20
322.974211
 30
0.0
 11
539.043153
 21
150.325962
 31
0.0
  0
LINE
  5
2AE
100
AcDbEntity
  8
0
  6
CONTINUOUS
 62
     7
100
AcDbLine
 10
540.380892
 20
150.325962
 30
0.0
 11
540.380892
 21
322.974211
 31
0.0
  0
LINE
  5
2AF
100
AcDbEntity
  8
0
  6
CONTINUOUS
 62
     7
100
AcDbLine
 10
512.457948
 20
162.607309
 30
0.0
 11
514.457948
 21
162.502494
 31
0.0
  0
LINE
  5
2B0
100
AcDbEntity
  8
0
  6
CONTINUOUS
 62
     7
100
AcDbLine
 10
512.457948
 20
162.607309
 30
0.0
 11
512.457948
 21
167.302494
 31
0.0
  0
LINE
  5
2B1
100
AcDbEntity
  8
0
  6
CONTINUOUS
 62
     7
100
AcDbLine
 10
512.457948
 20
167.302494
 30
0.0
 11
514.457948
 21
167.302494
 31
0.0
  0
LINE
  5
2B2
100
AcDbEntity
  8
0
  6
CONTINUOUS
 62
     7
100
AcDbLine
 10
512.457948
 20
167.302494
 30
0.0
 11
512.457948
 21
305.997678
 31
0.0
  0
LINE
  5
2B3
100
AcDbEntity
  8
0
  6
CONTINUOUS
 62
     7
100
AcDbLine
 10
512.457948
 20
305.997678
 30
0.0
 11
514.457948
 21
305.997678
 31
0.0
  0
LINE
  5
2B4
100
AcDbEntity
  8
0
  6
CONTINUOUS
 62
     7
100
AcDbLine
 10
512.457948
 20
305.997678
 30
0.0
 11
512.457948
 21
310.692863
 31
0.0
  0
LINE
  5
2B5
100
AcDbEntity
  8
0
  6
CONTINUOUS
 62
     7
100
AcDbLine
 10
512.457948
 20
310.692863
 30
0.0
 11
514.457948
 21
310.797678
 31
0.0
  0
LWPOLYLINE
  5
2B6
100
AcDbEntity
  8
0
  6
CONTINUOUS
 62
     7
100
AcDbPolyline
 90
        3
 70
   128
 43
0.0
 10
540.380892
 20
327.387932
 10
540.438022
 20
327.294703
 10
540.457948
 20
327.187193
  0
LINE
  5
2B7
100
AcDbEntity
  8
0
  6
CONTINUOUS
 62
     7
100
AcDbLine
 10
540.457948
 20
327.187196
 30
0.0
 11
540.457948
 21
322.974211
 31
0.0
  0
LINE
  5
2B8
100
AcDbEntity
  8
0
  6
CONTINUOUS
 62
     7
100
AcDbLine
 10
540.38089
 20
322.974211
 30
0.0
 11
540.457948
 21
322.974211
 31
0.0
  0
LINE
  5
2B9
100
AcDbEntity
  8
0
  6
CONTINUOUS
 62
     7
100
AcDbLine
 10
540.457948
 20
150.324937
 30
0.0
 11
540.457948
 21
146.112982
 31
0.0
  0
LWPOLYLINE
  5
2BA
100
AcDbEntity
  8
0
  6
CONTINUOUS
 62
     7
100
AcDbPolyline
 90
        3
 70
   128
 43
0.0
 10
540.457948
 20
146.112979
 10
540.438022
 20
146.005469
 10
540.380892
 20
145.91224
  0
LWPOLYLINE
  5
2BB
100
AcDbEntity
  8
0
  6
CONTINUOUS
 62
     7
100
AcDbPolyline
 90
        3
 70
   128
 43
0.0
 10
540.380892
 20
150.325962
 10
540.438022
 20
150.325449
 10
540.457948
 20
150.324937
  0
LINE
  5
2BC
100
AcDbEntity
  8
0
  6
CONTINUOUS
 62
     7
100
AcDbLine
 10
540.457948
 20
322.974211
 30
0.0
 11
540.457948
 21
150.324937
 31
0.0
  0
LINE
  5
2BD
100
AcDbEntity
  8
0
  6
CONTINUOUS
 62
     7
100
AcDbLine
 10
512.457948
 20
162.607309
 30
0.0
 11
514.457948
 21
162.502494
 31
0.0
  0
LINE
  5
2BE
100
AcDbEntity
  8
0
  6
CONTINUOUS
 62
     7
100
AcDbLine
 10
512.457948
 20
310.692863
 30
0.0
 11
514.457948
 21
310.797678
 31
0.0
  0
LINE
  5
2BF
100
AcDbEntity
  8
0
  6
CONTINUOUS
 62
     7
100
AcDbLine
 10
512.457948
 20
155.150086
 30
0.0
 11
514.457948
 21
155.150086
 31
0.0
  0
LINE
  5
2C0
100
AcDbEntity
  8
0
  6
CONTINUOUS
 62
     7
100
AcDbLine
 10
512.457948
 20
155.150086
 30
0.0
 11
512.457948
 21
162.607309
 31
0.0
  0
LINE
  5
2C1
100
AcDbEntity
  8
0
  6
CONTINUOUS
 62
     7
100
AcDbLine
 10
512.457948
 20
318.150086
 30
0.0
 11
514.457948
 21
318.150086
 31
0.0
  0
LINE
  5
2C2
100
AcDbEntity
  8
0
  6
CONTINUOUS
 62
     7
100
AcDbLine
 10
512.457948
 20
310.692863
 30
0.0
 11
512.457948
 21
318.150086
 31
0.0
  0
LINE
  5
2C3
100
AcDbEntity
  8
0
  6
CONTINUOUS
 62
     7
100
AcDbLine
 10
512.457948
 20
323.697678
 30
0.0
 11
514.457948
 21
323.697678
 31
0.0
  0
LINE
  5
2C4
100
AcDbEntity
  8
0
  6
CONTINUOUS
 62
     7
100
AcDbLine
 10
512.457948
 20
328.392863
 30
0.0
 11
514.457948
 21
328.497678
 31
0.0
  0
LINE
  5
2C5
100
AcDbEntity
  8
0
  6
CONTINUOUS
 62
     7
100
AcDbLine
 10
512.457948
 20
323.697678
 30
0.0
 11
512.457948
 21
328.392863
 31
0.0
  0
LINE
  5
2C6
100
AcDbEntity
  8
0
  6
CONTINUOUS
 62
     7
100
AcDbLine
 10
512.457948
 20
318.150086
 30
0.0
 11
512.457948
 21
323.697678
 31
0.0
  0
LINE
  5
2C7
100
AcDbEntity
  8
0
  6
CONTINUOUS
 62
     7
100
AcDbLine
 10
512.457948
 20
149.602494
 30
0.0
 11
514.457948
 21
149.602494
 31
0.0
  0
LINE
  5
2C8
100
AcDbEntity
  8
0
  6
CONTINUOUS
 62
     7
100
AcDbLine
 10
512.457948
 20
149.602494
 30
0.0
 11
512.457948
 21
155.150086
 31
0.0
  0
LINE
  5
2C9
100
AcDbEntity
  8
0
  6
CONTINUOUS
 62
     7
100
AcDbLine
 10
512.457948
 20
144.907309
 30
0.0
 11
514.457948
 21
144.802494
 31
0.0
  0
LINE
  5
2CA
100
AcDbEntity
  8
0
  6
CONTINUOUS
 62
     7
100
AcDbLine
 10
512.457948
 20
144.907309
 30
0.0
 11
512.457948
 21
149.602494
 31
0.0
  0
LINE
  5
2CB
100
AcDbEntity
  8
0
  6
HIDDEN
 62
     1
100
AcDbLine
 10
537.984116
 20
165.235448
 30
0.0
 11
512.457948
 21
163.897678
 31
0.0
  0
ARC
  5
2D3
100
AcDbEntity
  8
0
  6
HIDDEN
 62
     7
100
AcDbCircle
 10
537.957948
 20
165.734763
 30
0.0
 40
0.5
100
AcDbArc
 50
273.0
 51
0.0
  0
LINE
  5
2D4
100
AcDbEntity
  8
0
  6
HIDDEN
 62
     1
100
AcDbLine
 10
538.457948
 20
305.997678
 30
0.0
 11
538.457948
 21
307.565409
 31
0.0
  0
LINE
  5
2D7
100
AcDbEntity
  8
0
  6
HIDDEN
 62
     1
100
AcDbLine
 10
538.457948
 20
167.302494
 30
0.0
 11
538.457948
 21
305.997678
 31
0.0
  0
LINE
  5
2DD
100
AcDbEntity
  8
0
  6
HIDDEN
 62
     1
100
AcDbLine
 10
538.457948
 20
307.565409
 30
0.0
 11
538.457948
 21
318.150086
 31
0.0
  0
LINE
  5
2E0
100
AcDbEntity
  8
0
  6
HIDDEN
 62
     1
100
AcDbLine
 10
538.457948
 20
155.150086
 30
0.0
 11
538.457948
 21
165.734763
 31
0.0
  0
LINE
  5
2E5
100
AcDbEntity
  8
0
  6
HIDDEN
 62
     1
100
AcDbLine
 10
537.984116
 20
325.764724
 30
0.0
 11
512.457948
 21
327.102494
 31
0.0
  0
LINE
  5
2E6
100
AcDbEntity
  8
0
  6
HIDDEN
 62
     1
100
AcDbLine
 10
537.984116
 20
147.535448
 30
0.0
 11
512.457948
 21
146.197678
 31
0.0
  0
LINE
  5
2EB
100
AcDbEntity
  8
0
  6
HIDDEN
 62
     1
100
AcDbLine
 10
538.457948
 20
318.150086
 30
0.0
 11
538.457948
 21
323.697678
 31
0.0
  0
ARC
  5
2EC
100
AcDbEntity
  8
0
  6
HIDDEN
 62
     1
100
AcDbCircle
 10
537.957948
 20
325.265409
 30
0.0
 40
0.5
100
AcDbArc
 50
0.0
 51
87.0
  0
LINE
  5
2ED
100
AcDbEntity
  8
0
  6
HIDDEN
 62
     1
100
AcDbLine
 10
538.457948
 20
323.697678
 30
0.0
 11
538.457948
 21
325.265409
 31
0.0
  0
LINE
  5
2F0
100
AcDbEntity
  8
0
  6
HIDDEN
 62
     1
100
AcDbLine
 10
538.457948
 20
149.602494
 30
0.0
 11
538.457948
 21
155.150086
 31
0.0
  0
ARC
  5
2F1
100
AcDbEntity
  8
0
  6
HIDDEN
 62
     1
100
AcDbCircle
 10
537.957948
 20
148.034763
 30
0.0
 40
0.5
100
AcDbArc
 50
273.0
 51
0.0
  0
LINE
  5
2F2
100
AcDbEntity
  8
0
  6
HIDDEN
 62
     1
100
AcDbLine
 10
538.457948
 20
148.034763
 30
0.0
 11
538.457948
 21
149.602494
 31
0.0
  0
LINE
  5
2F5
100
AcDbEntity
  8
0
  6
HIDDEN
 62
     7
100
AcDbLine
 10
512.457948
 20
323.697678
 30
0.0
 11
514.457948
 21
323.697678
 31
0.0
  0
LINE
  5
2F6
100
AcDbEntity
  8
0
  6
HIDDEN
 62
     7
100
AcDbLine
 10
512.457948
 20
149.602494
 30
0.0
 11
514.457948
 21
149.602494
 31
0.0
  0
LINE
  5
303
100
AcDbEntity
  8
0
  6
HIDDEN
 62
     7
100
AcDbLine
 10
512.457948
 20
155.150086
 30
0.0
 11
514.457948
 21
155.150086
 31
0.0
  0
LINE
  5
304
100
AcDbEntity
  8
0
  6
HIDDEN
 62
     7
100
AcDbLine
 10
512.457948
 20
318.150086
 30
0.0
 11
514.457948
 21
318.150086
 31
0.0
  0
ARC
  5
305
100
AcDbEntity
  8
0
  6
HIDDEN
 62
     7
100
AcDbCircle
 10
437.947489
 20
325.923917
 30
0.0
 40
101.138704
100
AcDbArc
 50
358.328734
 51
1.671266
  0
ARC
  5
306
100
AcDbEntity
  8
0
  6
HIDDEN
 62
     7
100
AcDbCircle
 10
432.819473
 20
325.976598
 30
0.0
 40
106.058839
100
AcDbArc
 50
358.381327
 51
1.618673
  0
LWPOLYLINE
  5
307
100
AcDbEntity
  8
0
  6
HIDDEN
 62
     7
100
AcDbPolyline
 90
        3
 70
   128
 43
0.0
 10
539.043169
 20
322.974211
 10
538.949411
 20
322.97746
 10
538.835991
 20
322.98071
  0
LWPOLYLINE
  5
308
100
AcDbEntity
  8
0
  6
HIDDEN
 62
     7
100
AcDbPolyline
 90
       15
 70
   128
 43
0.0
 10
540.38089
 20
327.387934
 10
540.38089
 20
327.387934
 10
540.381611
 20
327.345409
 10
540.382172
 20
327.212716
 10
540.382662
 20
326.956044
 10
540.383015
 20
326.58406
 10
540.383162
 20
326.107555
 10
540.383019
 20
325.52125
 10
540.382683
 20
324.905476
 10
540.382188
 20
324.22159
 10
540.381883
 20
323.867137
 10
540.381524
 20
323.503913
 10
540.381228
 20
323.240102
 10
540.38089
 20
322.974271
 10
540.38089
 20
322.974211
  0
ARC
  5
309
100
AcDbEntity
  8
0
  6
HIDDEN
 62
     7
100
AcDbCircle
 10
439.268233
 20
147.323574
 30
0.0
 40
99.61282
100
AcDbArc
 50
358.276551
 51
1.723449
  0
ARC
  5
30A
100
AcDbEntity
  8
0
  6
HIDDEN
 62
     7
100
AcDbCircle
 10
426.071241
 20
147.376255
 30
0.0
 40
113.01043
100
AcDbArc
 50
358.504342
 51
1.495658
  0
LWPOLYLINE
  5
30B
100
AcDbEntity
  8
0
  6
HIDDEN
 62
     7
100
AcDbPolyline
 90
       15
 70
   128
 43
0.0
 10
540.38089
 20
150.325962
 10
540.38089
 20
150.325902
 10
540.381611
 20
149.712672
 10
540.382172
 20
149.099118
 10
540.382662
 20
148.426704
 10
540.383015
 20
147.787967
 10
540.383162
 20
147.216816
 10
540.383019
 20
146.722455
 10
540.382683
 20
146.359543
 10
540.382188
 20
146.093507
 10
540.381883
 20
146.00386
 10
540.381524
 20
145.943716
 10
540.381228
 20
145.919715
 10
540.38089
 20
145.912239
 10
540.38089
 20
145.912239
  0
LINE
  5
30C
100
AcDbEntity
  8
0
  6
HIDDEN
 62
     7
100
AcDbLine
 10
515.457948
 20
324.205901
 30
0.0
 11
538.835951
 21
322.980712
 31
0.0
  0
LINE
  5
30D
100
AcDbEntity
  8
0
  6
HIDDEN
 62
     7
100
AcDbLine
 10
538.835951
 20
150.31946
 30
0.0
 11
515.457948
 21
149.094271
 31
0.0
  0
LINE
  5
310
100
AcDbEntity
  8
0
  6
HIDDEN
 62
     7
100
AcDbLine
 10
512.457948
 20
167.302494
 30
0.0
 11
514.457948
 21
167.302494
 31
0.0
  0
LINE
  5
315
100
AcDbEntity
  8
0
  6
HIDDEN
 62
     7
100
AcDbLine
 10
512.457948
 20
305.997678
 30
0.0
 11
514.457948
 21
305.997678
 31
0.0
  0
LINE
  5
316
100
AcDbEntity
  8
0
  6
HIDDEN
 62
     7
100
AcDbLine
 10
515.457948
 20
324.258309
 30
0.0
 11
514.457948
 21
324.258309
 31
0.0
  0
LINE
  5
318
100
AcDbEntity
  8
0
  6
HIDDEN
 62
     7
100
AcDbLine
 10
540.380892
 20
322.974211
 30
0.0
 11
540.380892
 21
150.325962
 31
0.0
  0
LINE
  5
319
100
AcDbEntity
  8
0
  6
HIDDEN
 62
     7
100
AcDbLine
 10
539.043153
 20
150.325962
 30
0.0
 11
539.043153
 21
322.974211
 31
0.0
  0
LINE
  5
31A
100
AcDbEntity
  8
0
  6
HIDDEN
 62
     7
100
AcDbLine
 10
538.83591
 20
322.980714
 30
0.0
 11
538.83591
 21
150.319458
 31
0.0
  0
LINE
  5
31B
100
AcDbEntity
  8
0
  6
HIDDEN
 62
     7
100
AcDbLine
 10
515.457948
 20
149.041863
 30
0.0
 11
514.457948
 21
149.041863
 31
0.0
  0
ARC
  5
320
100
AcDbEntity
  8
0
  6
HIDDEN
 62
     1
100
AcDbCircle
 10
537.957948
 20
307.517817
 30
0.0
 40
0.5
100
AcDbArc
 50
0.0
 51
87.0
  0
LINE
  5
323
100
AcDbEntity
  8
0
  6
HIDDEN
 62
     1
100
AcDbLine
 10
512.457948
 20
309.354902
 30
0.0
 11
537.984116
 21
308.017132
 31
0.0
  0
LINE
  5
324
100
AcDbEntity
  8
0
  6
HIDDEN
 62
     7
100
AcDbLine
 10
514.457948
 20
162.550086
 30
0.0
 11
512.457948
 21
162.654902
 31
0.0
  0
LINE
  5
325
100
AcDbEntity
  8
0
  6
HIDDEN
 62
     7
100
AcDbLine
 10
512.457948
 20
310.645271
 30
0.0
 11
514.457948
 21
310.750086
 31
0.0
  0
TEXT
  5
366
100
AcDbEntity
  8
0
100
AcDbText
 10
81.371045
 20
403.31278
 30
0.0
 40
10.0
  1
FIBOX Tempo 1912 Cover
100
AcDbText
  0
ENDSEC
  0
SECTION
  2
OBJECTS
  0
DICTIONARY
  5
C
100
AcDbDictionary
  3
ACAD_GROUP
350
D
  3
ACAD_PLOTSTYLENAME
350
E
  3
ACAD_MLINESTYLE
350
17
  3
ACAD_PLOTSETTINGS
350
19
  3
ACAD_LAYOUT
350
1A
  3
ACDBHEADERROUNDTRIPXREC
350
327
  0
DICTIONARY
  5
359
100
AcDbDictionary
280
     1
  3
ACAD_XREC_ROUNDTRIP
360
35A
  0
DICTIONARY
  5
35B
100
AcDbDictionary
280
     1
  3
ACAD_XREC_ROUNDTRIP
360
35C
  0
DICTIONARY
  5
35D
100
AcDbDictionary
280
     1
  3
ACAD_XREC_ROUNDTRIP
360
35E
  0
DICTIONARY
  5
357
100
AcDbDictionary
280
     1
  3
ACAD_XREC_ROUNDTRIP
360
358
  0
DICTIONARY
  5
361
100
AcDbDictionary
280
     1
  3
ACAD_XREC_ROUNDTRIP
360
362
  0
DICTIONARY
  5
34E
100
AcDbDictionary
280
     1
  3
ACAD_LAYOUTSELFREF
360
34F
  3
ACAD_XREC_ROUNDTRIP
360
354
  0
DICTIONARY
  5
34C
100
AcDbDictionary
280
     1
  3
ACAD_LAYOUTSELFREF
360
34D
  3
ACAD_XREC_ROUNDTRIP
360
355
  0
DICTIONARY
  5
350
100
AcDbDictionary
280
     1
  3
ACAD_LAYOUTSELFREF
360
351
  3
ACAD_XREC_ROUNDTRIP
360
356
  0
DICTIONARY
  5
D
102
{ACAD_REACTORS
330
C
102
}
100
AcDbDictionary
  0
ACAD_PROXY_OBJECT
  5
E
102
{ACAD_XDICTIONARY
360
348
102
}
102
{ACAD_REACTORS
330
C
102
}
100
AcDbProxyObject
 90
      499
 91
      500
 93
       86
310
4050100419393D49350531
350
F
340
F
 94
        0
  0
DICTIONARY
  5
17
102
{ACAD_XDICTIONARY
360
34A
102
}
102
{ACAD_REACTORS
330
C
102
}
100
AcDbDictionary
  3
STANDARD
350
18
  0
DICTIONARY
  5
19
102
{ACAD_REACTORS
330
C
102
}
100
AcDbDictionary
  0
DICTIONARY
  5
1A
102
{ACAD_XDICTIONARY
360
352
102
}
102
{ACAD_REACTORS
330
C
102
}
100
AcDbDictionary
  3
LAYOUT1
350
1E
  3
MODEL
350
22
  3
LAYOUT2
350
26
  0
DICTIONARY
  5
327
102
{ACAD_REACTORS
330
C
102
}
100
AcDbDictionary
  3
TSTACKALIGN
350
328
  3
TSTACKSIZE
350
329
  3
HYPERLINKBASE
350
32A
  3
STYLESHEET
350
32B
  3
LAYOUTDICT
350
32C
  3
PLOTSETDICT
350
32D
  3
PLOTSTYLNAMDICT
350
32E
  3
LWETCUNION
350
32F
  3
INSUNITS
350
330
  3
CEPSNTYPE
350
331
  3
FINGERPRINTGUID
350
332
  3
VERSIONGUID
350
333
  3
PSVPSCALE
350
334
  3
PUCSORTHOREF
350
335
  3
PUCSORTHOVIEW
350
336
  3
PUCSBASE
350
337
  3
PUCSORGTOP
350
338
  3
PUCSORGBOTTOM
350
339
  3
PUCSORGLEFT
350
33A
  3
PUCSORGRIGHT
350
33B
  3
PUCSORGFRONT
350
33C
  3
PUCSORGBACK
350
33D
  3
UCSORTHOREF
350
33E
  3
UCSORTHOVIEW
350
33F
  3
UCSBASE
350
340
  3
UCSORGTOP
350
341
  3
UCSORGBOTTOM
350
342
  3
UCSORGLEFT
350
343
  3
UCSORGRIGHT
350
344
  3
UCSORGFRONT
350
345
  3
UCSORGBACK
350
346
  3
DIMSTYLEDATA
350
347
  0
XRECORD
  5
35A
102
{ACAD_REACTORS
330
359
102
}
100
AcDbXrecord
102
EXTNAMES
  1
BYBLOCK
  2
ByBlock
  0
XRECORD
  5
35C
102
{ACAD_REACTORS
330
35B
102
}
100
AcDbXrecord
102
EXTNAMES
  1
BYLAYER
  2
ByLayer
  0
XRECORD
  5
35E
102
{ACAD_REACTORS
330
35D
102
}
100
AcDbXrecord
102
EXTNAMES
  1
CONTINUOUS
  2
Continuous
  0
XRECORD
  5
358
102
{ACAD_REACTORS
330
357
102
}
100
AcDbXrecord
102
EXTNAMES
  1
STANDARD
  2
Standard
  0
XRECORD
  5
362
102
{ACAD_REACTORS
330
361
102
}
100
AcDbXrecord
102
ACADR14ROUNDTRIP
1000
DSTYLE
1002
{
1070
   278
 70
    44
1002
}
  0
XRECORD
  5
34F
102
{ACAD_REACTORS
330
34E
102
}
100
AcDbXrecord
340
1F
  0
XRECORD
  5
354
102
{ACAD_REACTORS
330
34E
102
}
100
AcDbXrecord
102
EXTNAMES
  1
*MODEL_SPACE
  2
*Model_Space
  0
XRECORD
  5
34D
102
{ACAD_REACTORS
330
34C
102
}
100
AcDbXrecord
340
1B
  0
XRECORD
  5
355
102
{ACAD_REACTORS
330
34C
102
}
100
AcDbXrecord
102
EXTNAMES
  1
*PAPER_SPACE
  2
*Paper_Space
  0
XRECORD
  5
351
102
{ACAD_REACTORS
330
350
102
}
100
AcDbXrecord
340
23
  0
XRECORD
  5
356
102
{ACAD_REACTORS
330
350
102
}
100
AcDbXrecord
102
EXTNAMES
  1
*PAPER_SPACE
  2
*Paper_Space0
  0
DICTIONARY
  5
348
100
AcDbDictionary
280
     1
  3
ACAD_XREC_ROUNDTRIP
360
349
  0
ACAD_PROXY_OBJECT
  5
F
102
{ACAD_REACTORS
330
E
102
}
100
AcDbProxyObject
 90
      499
 91
      504
 93
        0
 94
        0
  0
DICTIONARY
  5
34A
100
AcDbDictionary
280
     1
  3
ACAD_XREC_ROUNDTRIP
360
34B
  0
MLINESTYLE
  5
18
102
{ACAD_REACTORS
330
17
102
}
100
AcDbMlineStyle
  2
STANDARD
 70
     0
  3

 62
   256
 51
90.0
 52
90.0
 71
     2
 49
0.5
 62
   256
  6
BYLAYER
 49
-0.5
 62
   256
  6
BYLAYER
  0
DICTIONARY
  5
352
100
AcDbDictionary
280
     1
  3
ACAD_XREC_ROUNDTRIP
360
353
  0
ACAD_PROXY_OBJECT
  5
1E
102
{ACAD_REACTORS
330
1A
102
}
100
AcDbProxyObject
 90
      499
 91
      505
 93
      468
310
A2C00AAAAAA416AA591069074C61796F75743140501A80000000000000000000000000000000000000000000000000000000000000002A6A6AAAA1
330
1B
330
0
340
0
340
0
 94
        0
  0
ACAD_PROXY_OBJECT
  5
22
102
{ACAD_REACTORS
330
1A
102
}
100
AcDbProxyObject
 90
      499
 91
      505
 93
      556
310
A2C01AAAAAAAAA5A69054D6F64656C901A80000000000000000000000000000000000000000000000000000000000000002A6A6AA80000000000407A400000000000241C9020
330
1F
330
0
340
0
340
0
 94
        0
  0
ACAD_PROXY_OBJECT
  5
26
102
{ACAD_REACTORS
330
1A
102
}
100
AcDbProxyObject
 90
      499
 91
      505
 93
      468
310
A2C00AAAAAA416AA591069074C61796F75743240901A80000000000000000000000000000000000000000000000000000000000000002A6A6AAAAD
330
23
330
0
340
0
340
0
 94
        0
  0
XRECORD
  5
328
102
{ACAD_REACTORS
330
327
102
}
100
AcDbXrecord
 90
        1
  0
XRECORD
  5
329
102
{ACAD_REACTORS
330
327
102
}
100
AcDbXrecord
 90
       70
  0
XRECORD
  5
32A
102
{ACAD_REACTORS
330
327
102
}
100
AcDbXrecord
  1

  0
XRECORD
  5
32B
102
{ACAD_REACTORS
330
327
102
}
100
AcDbXrecord
  1

  0
XRECORD
  5
32C
102
{ACAD_REACTORS
330
327
102
}
100
AcDbXrecord
340
1A
  0
XRECORD
  5
32D
102
{ACAD_REACTORS
330
327
102
}
100
AcDbXrecord
340
19
  0
XRECORD
  5
32E
102
{ACAD_REACTORS
330
327
102
}
100
AcDbXrecord
340
E
  0
XRECORD
  5
32F
102
{ACAD_REACTORS
330
327
102
}
100
AcDbXrecord
 90
    10269
  0
XRECORD
  5
330
102
{ACAD_REACTORS
330
327
102
}
100
AcDbXrecord
 90
        4
  0
XRECORD
  5
331
102
{ACAD_REACTORS
330
327
102
}
100
AcDbXrecord
 90
        0
  0
XRECORD
  5
332
102
{ACAD_REACTORS
330
327
102
}
100
AcDbXrecord
  1
{5ECC0BEF-EF03-40F9-8541-DCFA226C6926}
  0
XRECORD
  5
333
102
{ACAD_REACTORS
330
327
102
}
100
AcDbXrecord
  1
{FAEB1C32-E019-11D5-929B-00C0DF256EC4}
  0
XRECORD
  5
334
102
{ACAD_REACTORS
330
327
102
}
100
AcDbXrecord
 40
0.0
  0
XRECORD
  5
335
102
{ACAD_REACTORS
330
327
102
}
100
AcDbXrecord
340
0
  0
XRECORD
  5
336
102
{ACAD_REACTORS
330
327
102
}
100
AcDbXrecord
 70
     0
  0
XRECORD
  5
337
102
{ACAD_REACTORS
330
327
102
}
100
AcDbXrecord
340
0
  0
XRECORD
  5
338
102
{ACAD_REACTORS
330
327
102
}
100
AcDbXrecord
 10
0.0
 20
0.0
 30
0.0
  0
XRECORD
  5
339
102
{ACAD_REACTORS
330
327
102
}
100
AcDbXrecord
 10
0.0
 20
0.0
 30
0.0
  0
XRECORD
  5
33A
102
{ACAD_REACTORS
330
327
102
}
100
AcDbXrecord
 10
0.0
 20
0.0
 30
0.0
  0
XRECORD
  5
33B
102
{ACAD_REACTORS
330
327
102
}
100
AcDbXrecord
 10
0.0
 20
0.0
 30
0.0
  0
XRECORD
  5
33C
102
{ACAD_REACTORS
330
327
102
}
100
AcDbXrecord
 10
0.0
 20
0.0
 30
0.0
  0
XRECORD
  5
33D
102
{ACAD_REACTORS
330
327
102
}
100
AcDbXrecord
 10
0.0
 20
0.0
 30
0.0
  0
XRECORD
  5
33E
102
{ACAD_REACTORS
330
327
102
}
100
AcDbXrecord
340
0
  0
XRECORD
  5
33F
102
{ACAD_REACTORS
330
327
102
}
100
AcDbXrecord
 70
     0
  0
XRECORD
  5
340
102
{ACAD_REACTORS
330
327
102
}
100
AcDbXrecord
340
0
  0
XRECORD
  5
341
102
{ACAD_REACTORS
330
327
102
}
100
AcDbXrecord
 10
0.0
 20
0.0
 30
0.0
  0
XRECORD
  5
342
102
{ACAD_REACTORS
330
327
102
}
100
AcDbXrecord
 10
0.0
 20
0.0
 30
0.0
  0
XRECORD
  5
343
102
{ACAD_REACTORS
330
327
102
}
100
AcDbXrecord
 10
0.0
 20
0.0
 30
0.0
  0
XRECORD
  5
344
102
{ACAD_REACTORS
330
327
102
}
100
AcDbXrecord
 10
0.0
 20
0.0
 30
0.0
  0
XRECORD
  5
345
102
{ACAD_REACTORS
330
327
102
}
100
AcDbXrecord
 10
0.0
 20
0.0
 30
0.0
  0
XRECORD
  5
346
102
{ACAD_REACTORS
330
327
102
}
100
AcDbXrecord
 10
0.0
 20
0.0
 30
0.0
  0
XRECORD
  5
347
102
{ACAD_REACTORS
330
327
102
}
100
AcDbXrecord
1000
DSTYLE
1002
{
1070
   143
 40
0.03937
1070
    41
 40
6.0
1070
    44
 40
1.0
1070
    42
 40
1.0
1070
   147
 40
1.524
1070
   144
 40
2.0
1070
    73
 70
     1
1070
    74
 70
     1
1070
   340
340
11
1070
   140
 40
3.5
1070
   284
 70
     0
1070
    78
 70
     0
1002
}
  0
XRECORD
  5
349
102
{ACAD_REACTORS
330
348
102
}
100
AcDbXrecord
102
EXTNAMES
  1
NORMAL
  2
Normal
  0
XRECORD
  5
34B
102
{ACAD_REACTORS
330
34A
102
}
100
AcDbXrecord
102
EXTNAMES
  1
STANDARD
  2
Standard
  0
XRECORD
  5
353
102
{ACAD_REACTORS
330
352
102
}
100
AcDbXrecord
102
EXTNAMES
  1
LAYOUT1
  2
Layout1
  1
LAYOUT2
  2
Layout2
  1
MODEL
  2
Model
  0
ENDSEC
  0
EOF
