  0
SECTION
  2
HEADER
  9
$ACADVER
  1
AC1014
  9
$ACADMAINTVER
 70
     0
  9
$DWGCODEPAGE
  3
ANSI_1252
  9
$INSBASE
 10
0.0
 20
0.0
 30
0.0
  9
$EXTMIN
 10
25.763146
 20
49.118163
 30
-0.001526
  9
$EXTMAX
 10
662.662857
 20
479.533161
 30
0.0
  9
$LIMMIN
 10
0.0
 20
0.0
  9
$LIMMAX
 10
0.0
 20
0.0
  9
$ORTHOMODE
 70
     0
  9
$REGENMODE
 70
     1
  9
$FILLMODE
 70
     1
  9
$QTEXTMODE
 70
     0
  9
$MIRRTEXT
 70
     1
  9
$DRAGMODE
 70
     2
  9
$LTSCALE
 40
3.0
  9
$OSMODE
 70
    37
  9
$ATTMODE
 70
     1
  9
$TEXTSIZE
 40
5.0
  9
$TRACEWID
 40
1.0
  9
$TEXTSTYLE
  7
STANDARD
  9
$CLAYER
  8
0
  9
$CELTYPE
  6
BYLAYER
  9
$CECOLOR
 62
   256
  9
$CELTSCALE
 40
1.0
  9
$DELOBJ
 70
     1
  9
$DISPSILH
 70
     0
  9
$DIMSCALE
 40
1.0
  9
$DIMASZ
 40
6.0
  9
$DIMEXO
 40
1.0
  9
$DIMDLI
 40
3.75
  9
$DIMRND
 40
0.0
  9
$DIMDLE
 40
0.0
  9
$DIMEXE
 40
1.0
  9
$DIMTP
 40
0.0
  9
$DIMTM
 40
0.0
  9
$DIMTXT
 40
3.5
  9
$DIMCEN
 40
2.5
  9
$DIMTSZ
 40
0.0
  9
$DIMTOL
 70
     0
  9
$DIMLIM
 70
     0
  9
$DIMTIH
 70
     1
  9
$DIMTOH
 70
     1
  9
$DIMSE1
 70
     0
  9
$DIMSE2
 70
     0
  9
$DIMTAD
 70
     1
  9
$DIMZIN
 70
     0
  9
$DIMBLK
  1

  9
$DIMASO
 70
     1
  9
$DIMSHO
 70
     1
  9
$DIMPOST
  1

  9
$DIMAPOST
  1

  9
$DIMALT
 70
     0
  9
$DIMALTD
 70
     3
  9
$DIMALTF
 40
0.03937
  9
$DIMLFAC
 40
1.0
  9
$DIMTOFL
 70
     1
  9
$DIMTVP
 40
0.0
  9
$DIMTIX
 70
     0
  9
$DIMSOXD
 70
     0
  9
$DIMSAH
 70
     0
  9
$DIMBLK1
  1

  9
$DIMBLK2
  1

  9
$DIMSTYLE
  2
ISO-25
  9
$DIMCLRD
 70
     0
  9
$DIMCLRE
 70
     0
  9
$DIMCLRT
 70
     0
  9
$DIMTFAC
 40
1.0
  9
$DIMGAP
 40
1.524
  9
$DIMJUST
 70
     0
  9
$DIMSD1
 70
     0
  9
$DIMSD2
 70
     0
  9
$DIMTOLJ
 70
     0
  9
$DIMTZIN
 70
     0
  9
$DIMALTZ
 70
     0
  9
$DIMALTTZ
 70
     0
  9
$DIMFIT
 70
     3
  9
$DIMUPT
 70
     0
  9
$DIMUNIT
 70
     2
  9
$DIMDEC
 70
     2
  9
$DIMTDEC
 70
     2
  9
$DIMALTU
 70
     2
  9
$DIMALTTD
 70
     3
  9
$DIMTXSTY
  7
STANDARD
  9
$DIMAUNIT
 70
     0
  9
$LUNITS
 70
     2
  9
$LUPREC
 70
     2
  9
$SKETCHINC
 40
1.0
  9
$FILLETRAD
 40
10.0
  9
$AUNITS
 70
     0
  9
$AUPREC
 70
     0
  9
$MENU
  1
.
  9
$ELEVATION
 40
0.0
  9
$PELEVATION
 40
0.0
  9
$THICKNESS
 40
0.0
  9
$LIMCHECK
 70
     0
  9
$BLIPMODE
 70
     0
  9
$CHAMFERA
 40
10.0
  9
$CHAMFERB
 40
10.0
  9
$CHAMFERC
 40
20.0
  9
$CHAMFERD
 40
0.0
  9
$SKPOLY
 70
     0
  9
$TDCREATE
 40
2454075.503160636
  9
$TDUPDATE
 40
2454075.615507974
  9
$TDINDWG
 40
0.0059765625
  9
$TDUSRTIMER
 40
0.0059765625
  9
$USRTIMER
 70
     1
  9
$ANGBASE
 50
0.0
  9
$ANGDIR
 70
     0
  9
$PDMODE
 70
     0
  9
$PDSIZE
 40
-1.0
  9
$PLINEWID
 40
0.0
  9
$COORDS
 70
     1
  9
$SPLFRAME
 70
     0
  9
$SPLINETYPE
 70
     6
  9
$SPLINESEGS
 70
     8
  9
$ATTDIA
 70
     0
  9
$ATTREQ
 70
     1
  9
$HANDLING
 70
     1
  9
$HANDSEED
  5
55F
  9
$SURFTAB1
 70
     6
  9
$SURFTAB2
 70
     6
  9
$SURFTYPE
 70
     6
  9
$SURFU
 70
     6
  9
$SURFV
 70
     6
  9
$UCSNAME
  2

  9
$UCSORG
 10
0.0
 20
0.0
 30
0.0
  9
$UCSXDIR
 10
1.0
 20
0.0
 30
0.0
  9
$UCSYDIR
 10
0.0
 20
1.0
 30
0.0
  9
$PUCSNAME
  2

  9
$PUCSORG
 10
0.0
 20
0.0
 30
0.0
  9
$PUCSXDIR
 10
1.0
 20
0.0
 30
0.0
  9
$PUCSYDIR
 10
0.0
 20
1.0
 30
0.0
  9
$USERI1
 70
     0
  9
$USERI2
 70
     0
  9
$USERI3
 70
     0
  9
$USERI4
 70
     0
  9
$USERI5
 70
     0
  9
$USERR1
 40
0.0
  9
$USERR2
 40
0.0
  9
$USERR3
 40
0.0
  9
$USERR4
 40
0.0
  9
$USERR5
 40
0.0
  9
$WORLDVIEW
 70
     1
  9
$SHADEDGE
 70
     3
  9
$SHADEDIF
 70
    70
  9
$TILEMODE
 70
     1
  9
$MAXACTVP
 70
    64
  9
$PINSBASE
 10
0.0
 20
0.0
 30
0.0
  9
$PLIMCHECK
 70
     0
  9
$PEXTMIN
 10
1.000000E+20
 20
1.000000E+20
 30
1.000000E+20
  9
$PEXTMAX
 10
-1.000000E+20
 20
-1.000000E+20
 30
-1.000000E+20
  9
$PLIMMIN
 10
0.0
 20
0.0
  9
$PLIMMAX
 10
420.0
 20
297.0
  9
$UNITMODE
 70
     0
  9
$VISRETAIN
 70
     1
  9
$PLINEGEN
 70
     0
  9
$PSLTSCALE
 70
     1
  9
$TREEDEPTH
 70
  3020
  9
$PICKSTYLE
 70
     1
  9
$CMLSTYLE
  2
STANDARD
  9
$CMLJUST
 70
     0
  9
$CMLSCALE
 40
20.0
  9
$PROXYGRAPHICS
 70
     1
  9
$MEASUREMENT
 70
     1
  0
ENDSEC
  0
SECTION
  2
CLASSES
  0
CLASS
  1
ACDBDICTIONARYWDFLT
  2
AcDbDictionaryWithDefault
  3
ObjectDBX Classes
 90
        0
280
     0
281
     0
  0
CLASS
  1
XRECORD
  2
AcDbXrecord
  3
"<Built In>"
 90
        0
280
     0
281
     0
  0
CLASS
  1
LWPOLYLINE
  2
AcDbPolyline
  3
"AutoCAD"
 90
        0
280
     0
281
     1
  0
CLASS
  1
HATCH
  2
AcDbHatch
  3
"ACAD_SEDONA"
 90
        0
280
     0
281
     1
  0
CLASS
  1
ACDBPLACEHOLDER
  2
AcDbPlaceHolder
  3
ObjectDBX Classes
 90
        0
280
     0
281
     0
  0
CLASS
  1
LAYOUT
  2
AcDbLayout
  3
ObjectDBX Classes
 90
        0
280
     0
281
     0
  0
ENDSEC
  0
SECTION
  2
TABLES
  0
TABLE
  2
VPORT
  5
8
100
AcDbSymbolTable
 70
     3
  0
VPORT
  5
55E
100
AcDbSymbolTableRecord
100
AcDbViewportTableRecord
  2
*ACTIVE
 70
     0
 10
0.0
 20
0.0
 11
1.0
 21
1.0
 12
331.331429
 22
239.76658
 13
0.0
 23
0.0
 14
10.0
 24
10.0
 15
10.0
 25
10.0
 16
0.0
 26
0.0
 36
1.0
 17
0.0
 27
0.0
 37
0.0
 40
483.04194
 41
1.440781
 42
50.0
 43
0.0
 44
0.0
 50
0.0
 51
0.0
 71
     0
 72
  2000
 73
     1
 74
     3
 75
     0
 76
     0
 77
     0
 78
     0
  0
ENDTAB
  0
TABLE
  2
LTYPE
  5
5
100
AcDbSymbolTable
 70
     6
  0
LTYPE
  5
14
102
{ACAD_XDICTIONARY
360
54F
102
}
100
AcDbSymbolTableRecord
100
AcDbLinetypeTableRecord
  2
BYBLOCK
 70
     0
  3

 72
    65
 73
     0
 40
0.0
  0
LTYPE
  5
15
102
{ACAD_XDICTIONARY
360
551
102
}
100
AcDbSymbolTableRecord
100
AcDbLinetypeTableRecord
  2
BYLAYER
 70
     0
  3

 72
    65
 73
     0
 40
0.0
  0
LTYPE
  5
16
102
{ACAD_XDICTIONARY
360
553
102
}
100
AcDbSymbolTableRecord
100
AcDbLinetypeTableRecord
  2
CONTINUOUS
 70
     0
  3
Solid line
 72
    65
 73
     0
 40
0.0
  0
LTYPE
  5
2A
100
AcDbSymbolTableRecord
100
AcDbLinetypeTableRecord
  2
HIDDEN
 70
     0
  3
Hidden __ __ __ __ __ __ __ __ __ __ __ __ __ __
 72
    65
 73
     2
 40
1.905
 49
1.27
 74
     0
 49
-0.635
 74
     0
  0
ENDTAB
  0
TABLE
  2
LAYER
  5
2
100
AcDbSymbolTable
 70
     1
  0
LAYER
  5
10
100
AcDbSymbolTableRecord
100
AcDbLayerTableRecord
  2
0
 70
     0
 62
     7
  6
CONTINUOUS
  0
ENDTAB
  0
TABLE
  2
STYLE
  5
3
100
AcDbSymbolTable
 70
     1
  0
STYLE
  5
11
102
{ACAD_XDICTIONARY
360
54D
102
}
100
AcDbSymbolTableRecord
100
AcDbTextStyleTableRecord
  2
STANDARD
 70
     0
 40
0.0
 41
1.0
 50
0.0
 71
     0
 42
5.0
  3
txt
  4

  0
ENDTAB
  0
TABLE
  2
VIEW
  5
6
100
AcDbSymbolTable
 70
     0
  0
ENDTAB
  0
TABLE
  2
UCS
  5
7
100
AcDbSymbolTable
 70
     0
  0
ENDTAB
  0
TABLE
  2
APPID
  5
9
100
AcDbSymbolTable
 70
     1
  0
APPID
  5
12
100
AcDbSymbolTableRecord
100
AcDbRegAppTableRecord
  2
ACAD
 70
     0
  0
ENDTAB
  0
TABLE
  2
DIMSTYLE
  5
A
100
AcDbSymbolTable
 70
     1
  0
DIMSTYLE
105
27
102
{ACAD_XDICTIONARY
360
557
102
}
100
AcDbSymbolTableRecord
100
AcDbDimStyleTableRecord
  2
ISO-25
 70
     0
  3

  4

  5

  6

  7

 40
1.0
 41
2.5
 42
0.625
 43
3.75
 44
1.25
 45
0.0
 46
0.0
 47
0.0
 48
0.0
140
2.5
141
2.5
142
0.0
143
0.03937
144
1.0
145
0.0
146
1.0
147
0.625
 71
     0
 72
     0
 73
     0
 74
     0
 75
     0
 76
     0
 77
     1
 78
     8
170
     0
171
     3
172
     1
173
     0
174
     0
175
     0
176
     0
177
     0
178
     0
270
     2
271
     2
272
     2
273
     2
274
     3
340
11
275
     0
280
     0
281
     0
282
     0
283
     0
284
     8
285
     0
286
     0
287
     3
288
     0
  0
ENDTAB
  0
TABLE
  2
BLOCK_RECORD
  5
1
100
AcDbSymbolTable
 70
     9
  0
BLOCK_RECORD
  5
1F
102
{ACAD_XDICTIONARY
360
544
102
}
100
AcDbSymbolTableRecord
100
AcDbBlockTableRecord
  2
*MODEL_SPACE
  0
BLOCK_RECORD
  5
1B
102
{ACAD_XDICTIONARY
360
542
102
}
100
AcDbSymbolTableRecord
100
AcDbBlockTableRecord
  2
*PAPER_SPACE
  0
BLOCK_RECORD
  5
23
102
{ACAD_XDICTIONARY
360
546
102
}
100
AcDbSymbolTableRecord
100
AcDbBlockTableRecord
  2
*PAPER_SPACE0
  0
BLOCK_RECORD
  5
12F
100
AcDbSymbolTableRecord
100
AcDbBlockTableRecord
  2
SW_CENTERMARKSYMBOL_0
  0
BLOCK_RECORD
  5
50C
100
AcDbSymbolTableRecord
100
AcDbBlockTableRecord
  2
SW_CENTERMARKSYMBOL_6
  0
BLOCK_RECORD
  5
514
100
AcDbSymbolTableRecord
100
AcDbBlockTableRecord
  2
SW_CENTERMARKSYMBOL_7
  0
ENDTAB
  0
ENDSEC
  0
SECTION
  2
BLOCKS
  0
BLOCK
  5
20
100
AcDbEntity
  8
0
100
AcDbBlockBegin
  2
*MODEL_SPACE
 70
     0
 10
0.0
 20
0.0
 30
0.0
  3
*MODEL_SPACE
  1

  0
ENDBLK
  5
21
100
AcDbEntity
  8
0
100
AcDbBlockEnd
  0
BLOCK
  5
1C
100
AcDbEntity
 67
     1
  8
0
100
AcDbBlockBegin
  2
*PAPER_SPACE
 70
     0
 10
0.0
 20
0.0
 30
0.0
  3
*PAPER_SPACE
  1

  0
ENDBLK
  5
1D
100
AcDbEntity
 67
     1
  8
0
100
AcDbBlockEnd
  0
BLOCK
  5
24
100
AcDbEntity
  8
0
100
AcDbBlockBegin
  2
*PAPER_SPACE0
 70
     0
 10
0.0
 20
0.0
 30
0.0
  3
*PAPER_SPACE0
  1

  0
ENDBLK
  5
25
100
AcDbEntity
  8
0
100
AcDbBlockEnd
  0
BLOCK
  5
130
100
AcDbEntity
  8
0
100
AcDbBlockBegin
  2
SW_CENTERMARKSYMBOL_0
 70
     0
 10
0.0
 20
0.0
 30
0.0
  3
SW_CENTERMARKSYMBOL_0
  1

  0
LINE
  5
132
100
AcDbEntity
  8
0
  6
CONTINUOUS
 62
     7
100
AcDbLine
 10
0.0
 20
0.0
 30
0.0
 11
0.0
 21
1.25
 31
0.0
  0
LINE
  5
133
100
AcDbEntity
  8
0
  6
CONTINUOUS
 62
     7
100
AcDbLine
 10
0.0
 20
0.0
 30
0.0
 11
-1.25
 21
0.0
 31
0.0
  0
LINE
  5
134
100
AcDbEntity
  8
0
  6
CONTINUOUS
 62
     7
100
AcDbLine
 10
0.0
 20
0.0
 30
0.0
 11
0.0
 21
-1.25
 31
0.0
  0
LINE
  5
135
100
AcDbEntity
  8
0
  6
CONTINUOUS
 62
     7
100
AcDbLine
 10
0.0
 20
0.0
 30
0.0
 11
1.25
 21
0.0
 31
0.0
  0
ENDBLK
  5
131
100
AcDbEntity
  8
0
100
AcDbBlockEnd
  0
BLOCK
  5
50D
100
AcDbEntity
  8
0
100
AcDbBlockBegin
  2
SW_CENTERMARKSYMBOL_6
 70
     0
 10
0.0
 20
0.0
 30
0.0
  3
SW_CENTERMARKSYMBOL_6
  1

  0
LINE
  5
50F
100
AcDbEntity
  8
0
  6
CONTINUOUS
 62
     7
100
AcDbLine
 10
0.0
 20
0.0
 30
0.0
 11
0.0
 21
1.25
 31
0.0
  0
LINE
  5
510
100
AcDbEntity
  8
0
  6
CONTINUOUS
 62
     7
100
AcDbLine
 10
0.0
 20
0.0
 30
0.0
 11
-1.25
 21
0.0
 31
0.0
  0
LINE
  5
511
100
AcDbEntity
  8
0
  6
CONTINUOUS
 62
     7
100
AcDbLine
 10
0.0
 20
0.0
 30
0.0
 11
0.0
 21
-1.25
 31
0.0
  0
LINE
  5
512
100
AcDbEntity
  8
0
  6
CONTINUOUS
 62
     7
100
AcDbLine
 10
0.0
 20
0.0
 30
0.0
 11
1.25
 21
0.0
 31
0.0
  0
ENDBLK
  5
50E
100
AcDbEntity
  8
0
100
AcDbBlockEnd
  0
BLOCK
  5
515
100
AcDbEntity
  8
0
100
AcDbBlockBegin
  2
SW_CENTERMARKSYMBOL_7
 70
     0
 10
0.0
 20
0.0
 30
0.0
  3
SW_CENTERMARKSYMBOL_7
  1

  0
LINE
  5
517
100
AcDbEntity
  8
0
  6
CONTINUOUS
 62
     7
100
AcDbLine
 10
0.0
 20
0.0
 30
0.0
 11
0.0
 21
1.25
 31
0.0
  0
LINE
  5
518
100
AcDbEntity
  8
0
  6
CONTINUOUS
 62
     7
100
AcDbLine
 10
0.0
 20
0.0
 30
0.0
 11
-1.25
 21
0.0
 31
0.0
  0
LINE
  5
519
100
AcDbEntity
  8
0
  6
CONTINUOUS
 62
     7
100
AcDbLine
 10
0.0
 20
0.0
 30
0.0
 11
0.0
 21
-1.25
 31
0.0
  0
LINE
  5
51A
100
AcDbEntity
  8
0
  6
CONTINUOUS
 62
     7
100
AcDbLine
 10
0.0
 20
0.0
 30
0.0
 11
1.25
 21
0.0
 31
0.0
  0
ENDBLK
  5
516
100
AcDbEntity
  8
0
100
AcDbBlockEnd
  0
ENDSEC
  0
SECTION
  2
ENTITIES
  0
LINE
  5
2F
100
AcDbEntity
  8
0
  6
CONTINUOUS
 62
     7
100
AcDbLine
 10
144.736882
 20
197.175608
 30
0.0
 11
143.873867
 21
197.175608
 31
0.0
  0
LINE
  5
30
100
AcDbEntity
  8
0
  6
CONTINUOUS
 62
     7
100
AcDbLine
 10
143.873867
 20
197.175608
 30
0.0
 11
143.873867
 21
199.13862
 31
0.0
  0
LINE
  5
31
100
AcDbEntity
  8
0
  6
CONTINUOUS
 62
     7
100
AcDbLine
 10
143.873867
 20
199.13862
 30
0.0
 11
145.37387
 21
199.13862
 31
0.0
  0
LINE
  5
32
100
AcDbEntity
  8
0
  6
CONTINUOUS
 62
     7
100
AcDbLine
 10
145.37387
 20
199.13862
 30
0.0
 11
149.236881
 21
195.275606
 31
0.0
  0
LINE
  5
33
100
AcDbEntity
  8
0
  6
CONTINUOUS
 62
     7
100
AcDbLine
 10
149.236881
 20
195.275606
 30
0.0
 11
149.236881
 21
185.575606
 31
0.0
  0
ARC
  5
34
100
AcDbEntity
  8
0
  6
CONTINUOUS
 62
     7
100
AcDbCircle
 10
143.236881
 20
185.575606
 30
0.0
 40
6.0
100
AcDbArc
 50
270.0
 51
0.0
  0
LINE
  5
35
100
AcDbEntity
  8
0
  6
CONTINUOUS
 62
     7
100
AcDbLine
 10
143.236881
 20
179.575606
 30
0.0
 11
131.836881
 21
179.575606
 31
0.0
  0
LINE
  5
36
100
AcDbEntity
  8
0
  6
CONTINUOUS
 62
     7
100
AcDbLine
 10
131.836881
 20
179.575606
 30
0.0
 11
127.973869
 21
183.438623
 31
0.0
  0
LINE
  5
37
100
AcDbEntity
  8
0
  6
CONTINUOUS
 62
     7
100
AcDbLine
 10
127.973869
 20
183.438623
 30
0.0
 11
127.973869
 21
184.938618
 31
0.0
  0
LINE
  5
38
100
AcDbEntity
  8
0
  6
CONTINUOUS
 62
     7
100
AcDbLine
 10
127.973869
 20
184.938618
 30
0.0
 11
131.63688
 21
184.938618
 31
0.0
  0
LINE
  5
39
100
AcDbEntity
  8
0
  6
CONTINUOUS
 62
     7
100
AcDbLine
 10
131.63688
 20
184.938618
 30
0.0
 11
131.63688
 21
183.589817
 31
0.0
  0
LINE
  5
3A
100
AcDbEntity
  8
0
  6
CONTINUOUS
 62
     7
100
AcDbLine
 10
131.63688
 20
183.589817
 30
0.0
 11
133.051094
 21
182.175608
 31
0.0
  0
LINE
  5
3B
100
AcDbEntity
  8
0
  6
CONTINUOUS
 62
     7
100
AcDbLine
 10
133.051094
 20
182.175608
 30
0.0
 11
143.236881
 21
182.175606
 31
0.0
  0
ARC
  5
3C
100
AcDbEntity
  8
0
  6
CONTINUOUS
 62
     7
100
AcDbCircle
 10
143.236881
 20
185.575606
 30
0.0
 40
3.4
100
AcDbArc
 50
270.0
 51
0.0
  0
LINE
  5
3D
100
AcDbEntity
  8
0
  6
CONTINUOUS
 62
     7
100
AcDbLine
 10
146.636881
 20
185.575606
 30
0.0
 11
146.636881
 21
195.275606
 31
0.0
  0
LINE
  5
3E
100
AcDbEntity
  8
0
  6
CONTINUOUS
 62
     7
100
AcDbLine
 10
146.636881
 20
195.275606
 30
0.0
 11
144.736882
 21
197.175608
 31
0.0
  0
CIRCLE
  5
3F
100
AcDbEntity
  8
0
  6
CONTINUOUS
 62
     7
100
AcDbCircle
 10
93.136881
 20
343.975606
 30
0.0
 40
2.1
  0
CIRCLE
  5
40
100
AcDbEntity
  8
0
  6
CONTINUOUS
 62
     7
100
AcDbCircle
 10
93.136881
 20
343.975606
 30
0.0
 40
2.047635
  0
LINE
  5
41
100
AcDbEntity
  8
0
  6
CONTINUOUS
 62
     7
100
AcDbLine
 10
127.973869
 20
362.912589
 30
0.0
 11
127.973869
 21
361.412593
 31
0.0
  0
LINE
  5
42
100
AcDbEntity
  8
0
  6
CONTINUOUS
 62
     7
100
AcDbLine
 10
131.836881
 20
366.775606
 30
0.0
 11
127.973869
 21
362.912589
 31
0.0
  0
LINE
  5
43
100
AcDbEntity
  8
0
  6
CONTINUOUS
 62
     7
100
AcDbLine
 10
143.236881
 20
366.775606
 30
0.0
 11
131.836881
 21
366.775606
 31
0.0
  0
ARC
  5
44
100
AcDbEntity
  8
0
  6
CONTINUOUS
 62
     7
100
AcDbCircle
 10
143.236881
 20
360.775606
 30
0.0
 40
6.0
100
AcDbArc
 50
0.0
 51
90.0
  0
LINE
  5
45
100
AcDbEntity
  8
0
  6
CONTINUOUS
 62
     7
100
AcDbLine
 10
149.236881
 20
351.075606
 30
0.0
 11
149.236881
 21
360.775606
 31
0.0
  0
LINE
  5
46
100
AcDbEntity
  8
0
  6
CONTINUOUS
 62
     7
100
AcDbLine
 10
146.636881
 20
351.075606
 30
0.0
 11
144.736882
 21
349.175603
 31
0.0
  0
LINE
  5
47
100
AcDbEntity
  8
0
  6
CONTINUOUS
 62
     7
100
AcDbLine
 10
146.636881
 20
360.775606
 30
0.0
 11
146.636881
 21
351.075606
 31
0.0
  0
ARC
  5
48
100
AcDbEntity
  8
0
  6
CONTINUOUS
 62
     7
100
AcDbCircle
 10
143.236881
 20
360.775606
 30
0.0
 40
3.4
100
AcDbArc
 50
0.0
 51
90.0
  0
LINE
  5
49
100
AcDbEntity
  8
0
  6
CONTINUOUS
 62
     7
100
AcDbLine
 10
133.051094
 20
364.175604
 30
0.0
 11
143.236881
 21
364.175606
 31
0.0
  0
LINE
  5
4A
100
AcDbEntity
  8
0
  6
CONTINUOUS
 62
     7
100
AcDbLine
 10
131.63688
 20
362.761394
 30
0.0
 11
133.051094
 21
364.175604
 31
0.0
  0
LINE
  5
4B
100
AcDbEntity
  8
0
  6
CONTINUOUS
 62
     7
100
AcDbLine
 10
131.63688
 20
361.412593
 30
0.0
 11
131.63688
 21
362.761394
 31
0.0
  0
LINE
  5
4C
100
AcDbEntity
  8
0
  6
CONTINUOUS
 62
     7
100
AcDbLine
 10
127.973869
 20
361.412593
 30
0.0
 11
131.63688
 21
361.412593
 31
0.0
  0
LINE
  5
4D
100
AcDbEntity
  8
0
  6
CONTINUOUS
 62
     7
100
AcDbLine
 10
143.873867
 20
347.212591
 30
0.0
 11
145.37387
 21
347.212591
 31
0.0
  0
LINE
  5
4E
100
AcDbEntity
  8
0
  6
CONTINUOUS
 62
     7
100
AcDbLine
 10
143.873867
 20
349.175603
 30
0.0
 11
143.873867
 21
347.212591
 31
0.0
  0
LINE
  5
4F
100
AcDbEntity
  8
0
  6
CONTINUOUS
 62
     7
100
AcDbLine
 10
144.736882
 20
349.175603
 30
0.0
 11
143.873867
 21
349.175603
 31
0.0
  0
LINE
  5
50
100
AcDbEntity
  8
0
  6
CONTINUOUS
 62
     7
100
AcDbLine
 10
145.37387
 20
347.212591
 30
0.0
 11
149.236881
 21
351.075606
 31
0.0
  0
ARC
  5
51
100
AcDbEntity
  8
0
  6
CONTINUOUS
 62
     7
100
AcDbCircle
 10
33.036881
 20
360.775606
 30
0.0
 40
6.0
100
AcDbArc
 50
90.0
 51
180.0
  0
LINE
  5
52
100
AcDbEntity
  8
0
  6
CONTINUOUS
 62
     7
100
AcDbLine
 10
33.036881
 20
366.775606
 30
0.0
 11
44.436881
 21
366.775606
 31
0.0
  0
LINE
  5
53
100
AcDbEntity
  8
0
  6
CONTINUOUS
 62
     7
100
AcDbLine
 10
44.436881
 20
366.775606
 30
0.0
 11
48.299894
 21
362.912589
 31
0.0
  0
LINE
  5
54
100
AcDbEntity
  8
0
  6
CONTINUOUS
 62
     7
100
AcDbLine
 10
31.536881
 20
349.175603
 30
0.0
 11
32.399896
 21
349.175603
 31
0.0
  0
LINE
  5
55
100
AcDbEntity
  8
0
  6
CONTINUOUS
 62
     7
100
AcDbLine
 10
32.399896
 20
347.212591
 30
0.0
 11
30.899893
 21
347.212591
 31
0.0
  0
LINE
  5
56
100
AcDbEntity
  8
0
  6
CONTINUOUS
 62
     7
100
AcDbLine
 10
48.299894
 20
362.912589
 30
0.0
 11
48.299894
 21
361.412593
 31
0.0
  0
LINE
  5
57
100
AcDbEntity
  8
0
  6
CONTINUOUS
 62
     7
100
AcDbLine
 10
48.299894
 20
361.412593
 30
0.0
 11
44.636883
 21
361.412593
 31
0.0
  0
LINE
  5
58
100
AcDbEntity
  8
0
  6
CONTINUOUS
 62
     7
100
AcDbLine
 10
44.636883
 20
361.412593
 30
0.0
 11
44.636883
 21
362.761394
 31
0.0
  0
LINE
  5
59
100
AcDbEntity
  8
0
  6
CONTINUOUS
 62
     7
100
AcDbLine
 10
44.636883
 20
362.761394
 30
0.0
 11
43.222669
 21
364.175604
 31
0.0
  0
LINE
  5
5A
100
AcDbEntity
  8
0
  6
CONTINUOUS
 62
     7
100
AcDbLine
 10
43.222669
 20
364.175604
 30
0.0
 11
33.036881
 21
364.175606
 31
0.0
  0
ARC
  5
5B
100
AcDbEntity
  8
0
  6
CONTINUOUS
 62
     7
100
AcDbCircle
 10
33.036881
 20
360.775606
 30
0.0
 40
3.4
100
AcDbArc
 50
90.0
 51
180.0
  0
LINE
  5
5C
100
AcDbEntity
  8
0
  6
CONTINUOUS
 62
     7
100
AcDbLine
 10
29.636881
 20
360.775606
 30
0.0
 11
29.636882
 21
351.075606
 31
0.0
  0
LINE
  5
5D
100
AcDbEntity
  8
0
  6
CONTINUOUS
 62
     7
100
AcDbLine
 10
29.636882
 20
351.075606
 30
0.0
 11
31.536881
 21
349.175603
 31
0.0
  0
LINE
  5
5E
100
AcDbEntity
  8
0
  6
CONTINUOUS
 62
     7
100
AcDbLine
 10
30.899893
 20
347.212591
 30
0.0
 11
27.036881
 21
351.075606
 31
0.0
  0
LINE
  5
5F
100
AcDbEntity
  8
0
  6
CONTINUOUS
 62
     7
100
AcDbLine
 10
27.036881
 20
351.075606
 30
0.0
 11
27.036881
 21
360.775606
 31
0.0
  0
LINE
  5
60
100
AcDbEntity
  8
0
  6
CONTINUOUS
 62
     7
100
AcDbLine
 10
32.399896
 20
349.175603
 30
0.0
 11
32.399896
 21
347.212591
 31
0.0
  0
CIRCLE
  5
61
100
AcDbEntity
  8
0
  6
CONTINUOUS
 62
     7
100
AcDbCircle
 10
83.136881
 20
343.975606
 30
0.0
 40
2.1
  0
CIRCLE
  5
62
100
AcDbEntity
  8
0
  6
CONTINUOUS
 62
     7
100
AcDbCircle
 10
83.136881
 20
343.975606
 30
0.0
 40
2.047635
  0
CIRCLE
  5
63
100
AcDbEntity
  8
0
  6
CONTINUOUS
 62
     7
100
AcDbCircle
 10
49.836881
 20
328.175606
 30
0.0
 40
2.1
  0
CIRCLE
  5
64
100
AcDbEntity
  8
0
  6
CONTINUOUS
 62
     7
100
AcDbCircle
 10
49.836881
 20
328.175606
 30
0.0
 40
2.047635
  0
CIRCLE
  5
65
100
AcDbEntity
  8
0
  6
CONTINUOUS
 62
     7
100
AcDbCircle
 10
49.836881
 20
318.175606
 30
0.0
 40
2.1
  0
CIRCLE
  5
66
100
AcDbEntity
  8
0
  6
CONTINUOUS
 62
     7
100
AcDbCircle
 10
49.836881
 20
318.175606
 30
0.0
 40
2.047635
  0
CIRCLE
  5
67
100
AcDbEntity
  8
0
  6
CONTINUOUS
 62
     7
100
AcDbCircle
 10
126.436881
 20
228.175606
 30
0.0
 40
2.1
  0
CIRCLE
  5
68
100
AcDbEntity
  8
0
  6
CONTINUOUS
 62
     7
100
AcDbCircle
 10
126.436881
 20
228.175606
 30
0.0
 40
2.047635
  0
CIRCLE
  5
69
100
AcDbEntity
  8
0
  6
CONTINUOUS
 62
     7
100
AcDbCircle
 10
49.836881
 20
228.175606
 30
0.0
 40
2.1
  0
CIRCLE
  5
6A
100
AcDbEntity
  8
0
  6
CONTINUOUS
 62
     7
100
AcDbCircle
 10
49.836881
 20
228.175606
 30
0.0
 40
2.047635
  0
CIRCLE
  5
6B
100
AcDbEntity
  8
0
  6
CONTINUOUS
 62
     7
100
AcDbCircle
 10
49.836881
 20
218.175606
 30
0.0
 40
2.1
  0
CIRCLE
  5
6C
100
AcDbEntity
  8
0
  6
CONTINUOUS
 62
     7
100
AcDbCircle
 10
49.836881
 20
218.175606
 30
0.0
 40
2.047635
  0
CIRCLE
  5
6D
100
AcDbEntity
  8
0
  6
CONTINUOUS
 62
     7
100
AcDbCircle
 10
83.136881
 20
202.375606
 30
0.0
 40
2.1
  0
CIRCLE
  5
6E
100
AcDbEntity
  8
0
  6
CONTINUOUS
 62
     7
100
AcDbCircle
 10
83.136881
 20
202.375606
 30
0.0
 40
2.047635
  0
CIRCLE
  5
6F
100
AcDbEntity
  8
0
  6
CONTINUOUS
 62
     7
100
AcDbCircle
 10
93.136881
 20
202.375606
 30
0.0
 40
2.1
  0
CIRCLE
  5
70
100
AcDbEntity
  8
0
  6
CONTINUOUS
 62
     7
100
AcDbCircle
 10
93.136881
 20
202.375606
 30
0.0
 40
2.047635
  0
CIRCLE
  5
71
100
AcDbEntity
  8
0
  6
CONTINUOUS
 62
     7
100
AcDbCircle
 10
126.436881
 20
218.175606
 30
0.0
 40
2.1
  0
CIRCLE
  5
72
100
AcDbEntity
  8
0
  6
CONTINUOUS
 62
     7
100
AcDbCircle
 10
126.436881
 20
218.175606
 30
0.0
 40
2.047635
  0
ARC
  5
73
100
AcDbEntity
  8
0
  6
CONTINUOUS
 62
     7
100
AcDbCircle
 10
33.036881
 20
185.575606
 30
0.0
 40
3.4
100
AcDbArc
 50
180.0
 51
270.0
  0
LINE
  5
74
100
AcDbEntity
  8
0
  6
CONTINUOUS
 62
     7
100
AcDbLine
 10
43.222669
 20
182.175608
 30
0.0
 11
33.036881
 21
182.175606
 31
0.0
  0
LINE
  5
75
100
AcDbEntity
  8
0
  6
CONTINUOUS
 62
     7
100
AcDbLine
 10
44.636883
 20
183.589817
 30
0.0
 11
43.222669
 21
182.175608
 31
0.0
  0
LINE
  5
76
100
AcDbEntity
  8
0
  6
CONTINUOUS
 62
     7
100
AcDbLine
 10
44.636883
 20
184.938618
 30
0.0
 11
44.636883
 21
183.589817
 31
0.0
  0
LINE
  5
77
100
AcDbEntity
  8
0
  6
CONTINUOUS
 62
     7
100
AcDbLine
 10
48.299894
 20
184.938618
 30
0.0
 11
44.636883
 21
184.938618
 31
0.0
  0
LINE
  5
78
100
AcDbEntity
  8
0
  6
CONTINUOUS
 62
     7
100
AcDbLine
 10
48.299894
 20
183.438623
 30
0.0
 11
48.299894
 21
184.938618
 31
0.0
  0
LINE
  5
79
100
AcDbEntity
  8
0
  6
CONTINUOUS
 62
     7
100
AcDbLine
 10
32.399896
 20
199.13862
 30
0.0
 11
30.899893
 21
199.13862
 31
0.0
  0
LINE
  5
7A
100
AcDbEntity
  8
0
  6
CONTINUOUS
 62
     7
100
AcDbLine
 10
32.399896
 20
197.175608
 30
0.0
 11
32.399896
 21
199.13862
 31
0.0
  0
LINE
  5
7B
100
AcDbEntity
  8
0
  6
CONTINUOUS
 62
     7
100
AcDbLine
 10
29.636882
 20
195.275606
 30
0.0
 11
31.536881
 21
197.175608
 31
0.0
  0
LINE
  5
7C
100
AcDbEntity
  8
0
  6
CONTINUOUS
 62
     7
100
AcDbLine
 10
44.436881
 20
179.575606
 30
0.0
 11
48.299894
 21
183.438623
 31
0.0
  0
LINE
  5
7D
100
AcDbEntity
  8
0
  6
CONTINUOUS
 62
     7
100
AcDbLine
 10
29.636881
 20
185.575606
 30
0.0
 11
29.636882
 21
195.275606
 31
0.0
  0
ARC
  5
7E
100
AcDbEntity
  8
0
  6
CONTINUOUS
 62
     7
100
AcDbCircle
 10
33.036881
 20
185.575606
 30
0.0
 40
6.0
100
AcDbArc
 50
180.0
 51
270.0
  0
LINE
  5
7F
100
AcDbEntity
  8
0
  6
CONTINUOUS
 62
     7
100
AcDbLine
 10
33.036881
 20
179.575606
 30
0.0
 11
44.436881
 21
179.575606
 31
0.0
  0
LINE
  5
80
100
AcDbEntity
  8
0
  6
CONTINUOUS
 62
     7
100
AcDbLine
 10
31.536881
 20
197.175608
 30
0.0
 11
32.399896
 21
197.175608
 31
0.0
  0
LINE
  5
81
100
AcDbEntity
  8
0
  6
CONTINUOUS
 62
     7
100
AcDbLine
 10
30.899893
 20
199.13862
 30
0.0
 11
27.036881
 21
195.275606
 31
0.0
  0
LINE
  5
82
100
AcDbEntity
  8
0
  6
CONTINUOUS
 62
     7
100
AcDbLine
 10
27.036881
 20
195.275606
 30
0.0
 11
27.036881
 21
185.575606
 31
0.0
  0
CIRCLE
  5
83
100
AcDbEntity
  8
0
  6
CONTINUOUS
 62
     7
100
AcDbCircle
 10
126.436881
 20
318.175606
 30
0.0
 40
2.047635
  0
CIRCLE
  5
84
100
AcDbEntity
  8
0
  6
CONTINUOUS
 62
     7
100
AcDbCircle
 10
126.436881
 20
318.175606
 30
0.0
 40
2.1
  0
CIRCLE
  5
85
100
AcDbEntity
  8
0
  6
CONTINUOUS
 62
     7
100
AcDbCircle
 10
126.436881
 20
328.175606
 30
0.0
 40
2.1
  0
CIRCLE
  5
86
100
AcDbEntity
  8
0
  6
CONTINUOUS
 62
     7
100
AcDbCircle
 10
126.436881
 20
328.175606
 30
0.0
 40
2.047635
  0
CIRCLE
  5
87
100
AcDbEntity
  8
0
  6
CONTINUOUS
 62
     7
100
AcDbCircle
 10
40.836881
 20
323.175606
 30
0.0
 40
3.25
  0
CIRCLE
  5
88
100
AcDbEntity
  8
0
  6
CONTINUOUS
 62
     7
100
AcDbCircle
 10
40.836881
 20
323.175606
 30
0.0
 40
2.0
  0
CIRCLE
  5
89
100
AcDbEntity
  8
0
  6
CONTINUOUS
 62
     7
100
AcDbCircle
 10
40.836881
 20
323.175606
 30
0.0
 40
1.982545
  0
CIRCLE
  5
8A
100
AcDbEntity
  8
0
  6
CONTINUOUS
 62
     7
100
AcDbCircle
 10
40.836881
 20
223.175606
 30
0.0
 40
3.25
  0
CIRCLE
  5
8B
100
AcDbEntity
  8
0
  6
CONTINUOUS
 62
     7
100
AcDbCircle
 10
40.836881
 20
223.175606
 30
0.0
 40
2.0
  0
CIRCLE
  5
8C
100
AcDbEntity
  8
0
  6
CONTINUOUS
 62
     7
100
AcDbCircle
 10
88.136881
 20
193.375606
 30
0.0
 40
3.25
  0
CIRCLE
  5
8D
100
AcDbEntity
  8
0
  6
CONTINUOUS
 62
     7
100
AcDbCircle
 10
88.136881
 20
193.375606
 30
0.0
 40
2.0
  0
CIRCLE
  5
8E
100
AcDbEntity
  8
0
  6
CONTINUOUS
 62
     7
100
AcDbCircle
 10
88.136881
 20
352.975606
 30
0.0
 40
2.0
  0
CIRCLE
  5
8F
100
AcDbEntity
  8
0
  6
CONTINUOUS
 62
     7
100
AcDbCircle
 10
88.136881
 20
352.975606
 30
0.0
 40
1.982545
  0
CIRCLE
  5
90
100
AcDbEntity
  8
0
  6
CONTINUOUS
 62
     7
100
AcDbCircle
 10
88.136881
 20
352.975606
 30
0.0
 40
3.25
  0
CIRCLE
  5
91
100
AcDbEntity
  8
0
  6
CONTINUOUS
 62
     7
100
AcDbCircle
 10
135.436881
 20
223.175606
 30
0.0
 40
2.0
  0
CIRCLE
  5
92
100
AcDbEntity
  8
0
  6
CONTINUOUS
 62
     7
100
AcDbCircle
 10
135.436881
 20
223.175606
 30
0.0
 40
3.25
  0
CIRCLE
  5
93
100
AcDbEntity
  8
0
  6
CONTINUOUS
 62
     7
100
AcDbCircle
 10
135.436881
 20
323.175606
 30
0.0
 40
2.0
  0
CIRCLE
  5
94
100
AcDbEntity
  8
0
  6
CONTINUOUS
 62
     7
100
AcDbCircle
 10
135.436881
 20
323.175606
 30
0.0
 40
1.982545
  0
CIRCLE
  5
95
100
AcDbEntity
  8
0
  6
CONTINUOUS
 62
     7
100
AcDbCircle
 10
135.436881
 20
323.175606
 30
0.0
 40
3.25
  0
CIRCLE
  5
96
100
AcDbEntity
  8
0
  6
CONTINUOUS
 62
     7
100
AcDbCircle
 10
135.436881
 20
223.175606
 30
0.0
 40
1.982545
  0
CIRCLE
  5
97
100
AcDbEntity
  8
0
  6
CONTINUOUS
 62
     7
100
AcDbCircle
 10
88.136881
 20
193.375606
 30
0.0
 40
1.982545
  0
CIRCLE
  5
98
100
AcDbEntity
  8
0
  6
CONTINUOUS
 62
     7
100
AcDbCircle
 10
40.836881
 20
223.175606
 30
0.0
 40
1.982545
  0
CIRCLE
  5
99
100
AcDbEntity
  8
0
  6
CONTINUOUS
 62
     7
100
AcDbCircle
 10
108.636881
 20
231.175606
 30
0.0
 40
10.311599
  0
CIRCLE
  5
9A
100
AcDbEntity
  8
0
  6
CONTINUOUS
 62
     7
100
AcDbCircle
 10
108.636881
 20
231.175606
 30
0.0
 40
10.276689
  0
CIRCLE
  5
9B
100
AcDbEntity
  8
0
  6
CONTINUOUS
 62
     7
100
AcDbCircle
 10
67.636881
 20
315.175606
 30
0.0
 40
10.311599
  0
CIRCLE
  5
9C
100
AcDbEntity
  8
0
  6
CONTINUOUS
 62
     7
100
AcDbCircle
 10
67.636881
 20
315.175606
 30
0.0
 40
10.276689
  0
CIRCLE
  5
9D
100
AcDbEntity
  8
0
  6
CONTINUOUS
 62
     7
100
AcDbCircle
 10
108.636881
 20
315.175606
 30
0.0
 40
10.311599
  0
CIRCLE
  5
9E
100
AcDbEntity
  8
0
  6
CONTINUOUS
 62
     7
100
AcDbCircle
 10
108.636881
 20
315.175606
 30
0.0
 40
10.276689
  0
CIRCLE
  5
9F
100
AcDbEntity
  8
0
  6
CONTINUOUS
 62
     7
100
AcDbCircle
 10
67.636881
 20
231.175606
 30
0.0
 40
10.311599
  0
CIRCLE
  5
A0
100
AcDbEntity
  8
0
  6
CONTINUOUS
 62
     7
100
AcDbCircle
 10
67.636881
 20
231.175606
 30
0.0
 40
10.276689
  0
CIRCLE
  5
A1
100
AcDbEntity
  8
0
  6
CONTINUOUS
 62
     7
100
AcDbCircle
 10
40.836881
 20
323.175606
 30
0.0
 40
1.6
  0
CIRCLE
  5
A2
100
AcDbEntity
  8
0
  6
CONTINUOUS
 62
     7
100
AcDbCircle
 10
40.836881
 20
223.175606
 30
0.0
 40
1.6
  0
CIRCLE
  5
A3
100
AcDbEntity
  8
0
  6
CONTINUOUS
 62
     7
100
AcDbCircle
 10
40.836881
 20
223.175606
 30
0.0
 40
1.562912
  0
CIRCLE
  5
A4
100
AcDbEntity
  8
0
  6
CONTINUOUS
 62
     7
100
AcDbCircle
 10
40.836881
 20
323.175606
 30
0.0
 40
1.562912
  0
CIRCLE
  5
A5
100
AcDbEntity
  8
0
  6
CONTINUOUS
 62
     7
100
AcDbCircle
 10
135.436881
 20
323.175606
 30
0.0
 40
1.6
  0
CIRCLE
  5
A6
100
AcDbEntity
  8
0
  6
CONTINUOUS
 62
     7
100
AcDbCircle
 10
135.436881
 20
323.175606
 30
0.0
 40
1.562912
  0
CIRCLE
  5
A7
100
AcDbEntity
  8
0
  6
CONTINUOUS
 62
     7
100
AcDbCircle
 10
135.436881
 20
223.175606
 30
0.0
 40
1.6
  0
CIRCLE
  5
A8
100
AcDbEntity
  8
0
  6
CONTINUOUS
 62
     7
100
AcDbCircle
 10
88.136881
 20
352.975606
 30
0.0
 40
1.6
  0
CIRCLE
  5
A9
100
AcDbEntity
  8
0
  6
CONTINUOUS
 62
     7
100
AcDbCircle
 10
88.136881
 20
352.975606
 30
0.0
 40
1.562912
  0
CIRCLE
  5
AA
100
AcDbEntity
  8
0
  6
CONTINUOUS
 62
     7
100
AcDbCircle
 10
88.136881
 20
193.375606
 30
0.0
 40
1.6
  0
CIRCLE
  5
AB
100
AcDbEntity
  8
0
  6
CONTINUOUS
 62
     7
100
AcDbCircle
 10
88.136881
 20
193.375606
 30
0.0
 40
1.562912
  0
CIRCLE
  5
AC
100
AcDbEntity
  8
0
  6
CONTINUOUS
 62
     7
100
AcDbCircle
 10
135.436881
 20
223.175606
 30
0.0
 40
1.562912
  0
CIRCLE
  5
AD
100
AcDbEntity
  8
0
  6
CONTINUOUS
 62
     7
100
AcDbCircle
 10
40.836881
 20
223.175606
 30
0.0
 40
5.0
  0
CIRCLE
  5
AE
100
AcDbEntity
  8
0
  6
CONTINUOUS
 62
     7
100
AcDbCircle
 10
40.836881
 20
323.175606
 30
0.0
 40
5.0
  0
CIRCLE
  5
AF
100
AcDbEntity
  8
0
  6
CONTINUOUS
 62
     7
100
AcDbCircle
 10
88.136881
 20
193.375606
 30
0.0
 40
5.0
  0
CIRCLE
  5
B0
100
AcDbEntity
  8
0
  6
CONTINUOUS
 62
     7
100
AcDbCircle
 10
88.136881
 20
352.975606
 30
0.0
 40
5.0
  0
CIRCLE
  5
B1
100
AcDbEntity
  8
0
  6
CONTINUOUS
 62
     7
100
AcDbCircle
 10
135.436881
 20
223.175606
 30
0.0
 40
5.0
  0
CIRCLE
  5
B2
100
AcDbEntity
  8
0
  6
CONTINUOUS
 62
     7
100
AcDbCircle
 10
135.436881
 20
323.175606
 30
0.0
 40
5.0
  0
CIRCLE
  5
B3
100
AcDbEntity
  8
0
  6
CONTINUOUS
 62
     7
100
AcDbCircle
 10
137.136881
 20
191.675606
 30
0.0
 40
4.890848
  0
CIRCLE
  5
B4
100
AcDbEntity
  8
0
  6
CONTINUOUS
 62
     7
100
AcDbCircle
 10
137.136881
 20
191.675606
 30
0.0
 40
5.0
  0
CIRCLE
  5
B5
100
AcDbEntity
  8
0
  6
CONTINUOUS
 62
     7
100
AcDbCircle
 10
137.136881
 20
354.675606
 30
0.0
 40
5.0
  0
CIRCLE
  5
B6
100
AcDbEntity
  8
0
  6
CONTINUOUS
 62
     7
100
AcDbCircle
 10
39.136881
 20
191.675606
 30
0.0
 40
5.0
  0
CIRCLE
  5
B7
100
AcDbEntity
  8
0
  6
CONTINUOUS
 62
     7
100
AcDbCircle
 10
39.136881
 20
354.675606
 30
0.0
 40
5.0
  0
CIRCLE
  5
B8
100
AcDbEntity
  8
0
  6
CONTINUOUS
 62
     7
100
AcDbCircle
 10
110.636881
 20
273.175606
 30
0.0
 40
10.3
  0
CIRCLE
  5
B9
100
AcDbEntity
  8
0
  6
CONTINUOUS
 62
     7
100
AcDbCircle
 10
65.636881
 20
273.175606
 30
0.0
 40
10.3
  0
LINE
  5
BA
100
AcDbEntity
  8
0
  6
CONTINUOUS
 62
     7
100
AcDbLine
 10
30.899893
 20
347.212591
 30
0.0
 11
30.899893
 21
199.13862
 31
0.0
  0
LINE
  5
BB
100
AcDbEntity
  8
0
  6
CONTINUOUS
 62
     7
100
AcDbLine
 10
48.299894
 20
362.912589
 30
0.0
 11
127.973869
 21
362.912589
 31
0.0
  0
LINE
  5
BC
100
AcDbEntity
  8
0
  6
CONTINUOUS
 62
     7
100
AcDbLine
 10
145.37387
 20
347.212591
 30
0.0
 11
145.37387
 21
199.13862
 31
0.0
  0
LINE
  5
BD
100
AcDbEntity
  8
0
  6
CONTINUOUS
 62
     7
100
AcDbLine
 10
48.299894
 20
183.438623
 30
0.0
 11
127.973869
 21
183.438623
 31
0.0
  0
CIRCLE
  5
BE
100
AcDbEntity
  8
0
  6
CONTINUOUS
 62
     7
100
AcDbCircle
 10
110.636881
 20
273.175606
 30
0.0
 40
9.868555
  0
CIRCLE
  5
BF
100
AcDbEntity
  8
0
  6
CONTINUOUS
 62
     7
100
AcDbCircle
 10
110.636881
 20
273.175606
 30
0.0
 40
9.522145
  0
CIRCLE
  5
C0
100
AcDbEntity
  8
0
  6
CONTINUOUS
 62
     7
100
AcDbCircle
 10
65.636881
 20
273.175606
 30
0.0
 40
10.268555
  0
CIRCLE
  5
C1
100
AcDbEntity
  8
0
  6
CONTINUOUS
 62
     7
100
AcDbCircle
 10
65.636881
 20
273.175606
 30
0.0
 40
9.522145
  0
CIRCLE
  5
C2
100
AcDbEntity
  8
0
  6
CONTINUOUS
 62
     7
100
AcDbCircle
 10
65.636881
 20
273.175606
 30
0.0
 40
9.868555
  0
CIRCLE
  5
C3
100
AcDbEntity
  8
0
  6
CONTINUOUS
 62
     7
100
AcDbCircle
 10
39.136881
 20
354.675606
 30
0.0
 40
4.890848
  0
CIRCLE
  5
C4
100
AcDbEntity
  8
0
  6
CONTINUOUS
 62
     7
100
AcDbCircle
 10
137.136881
 20
354.675606
 30
0.0
 40
4.890848
  0
ELLIPSE
  5
C5
100
AcDbEntity
  8
0
  6
CONTINUOUS
 62
     7
100
AcDbEllipse
 10
48.936881
 20
363.831203
 30
0.0
 11
1.555359922126129
 21
0.0
 31
0.0
210
0.0
220
0.0
230
1.0
 40
0.017458
 41
1.570796326794896
 42
3.159048605006318
  0
LINE
  5
C6
100
AcDbEntity
  8
0
  6
CONTINUOUS
 62
     7
100
AcDbLine
 10
48.936881
 20
363.858358
 30
0.0
 11
127.336882
 21
363.858358
 31
0.0
  0
ELLIPSE
  5
C7
100
AcDbEntity
  8
0
  6
CONTINUOUS
 62
     7
100
AcDbEllipse
 10
127.336881
 20
363.831203
 30
0.0
 11
1.555359922126143
 21
0.0
 31
0.0
210
0.0
220
0.0
230
1.0
 40
0.017458
 41
6.265729355764692
 42
7.853981633974482
  0
CIRCLE
  5
C8
100
AcDbEntity
  8
0
  6
CONTINUOUS
 62
     7
100
AcDbCircle
 10
110.636881
 20
273.175606
 30
0.0
 40
10.268555
  0
ELLIPSE
  5
C9
100
AcDbEntity
  8
0
  6
CONTINUOUS
 62
     7
100
AcDbEllipse
 10
146.292478
 20
346.575606
 30
0.0
 11
0.0
 21
1.555359922126058
 31
0.0
210
0.0
220
0.0
230
1.0
 40
0.017458
 41
4.712388980384689
 42
6.300641258596096
  0
LINE
  5
CA
100
AcDbEntity
  8
0
  6
CONTINUOUS
 62
     7
100
AcDbLine
 10
146.319631
 20
346.575604
 30
0.0
 11
146.319631
 21
199.775607
 31
0.0
  0
ELLIPSE
  5
CB
100
AcDbEntity
  8
0
  6
CONTINUOUS
 62
     7
100
AcDbEllipse
 10
146.292478
 20
199.775606
 30
0.0
 11
0.0
 21
1.555359922126058
 31
0.0
210
0.0
220
0.0
230
1.0
 40
0.017458
 41
3.12413670217405
 42
4.712388980384689
  0
ELLIPSE
  5
CC
100
AcDbEntity
  8
0
  6
CONTINUOUS
 62
     7
100
AcDbEllipse
 10
127.336881
 20
182.520009
 30
0.0
 11
1.555359922126143
 21
0.0
 31
0.0
210
0.0
220
0.0
230
1.0
 40
0.017458
 41
4.712388980384689
 42
6.300641258595098
  0
LINE
  5
CD
100
AcDbEntity
  8
0
  6
CONTINUOUS
 62
     7
100
AcDbLine
 10
48.936881
 20
182.492853
 30
0.0
 11
127.336882
 21
182.492853
 31
0.0
  0
ELLIPSE
  5
CE
100
AcDbEntity
  8
0
  6
CONTINUOUS
 62
     7
100
AcDbEllipse
 10
48.936881
 20
182.520009
 30
0.0
 11
1.555359922126129
 21
0.0
 31
0.0
210
0.0
220
0.0
230
1.0
 40
0.017458
 41
3.124136702175098
 42
4.712388980384689
  0
CIRCLE
  5
CF
100
AcDbEntity
  8
0
  6
CONTINUOUS
 62
     7
100
AcDbCircle
 10
39.136881
 20
191.675606
 30
0.0
 40
4.890848
  0
ELLIPSE
  5
D0
100
AcDbEntity
  8
0
  6
CONTINUOUS
 62
     7
100
AcDbEllipse
 10
29.981285
 20
199.775606
 30
0.0
 11
0.0
 21
1.555359922126058
 31
0.0
210
0.0
220
0.0
230
1.0
 40
0.017458
 41
1.570796326794896
 42
3.159048605006349
  0
LINE
  5
D1
100
AcDbEntity
  8
0
  6
CONTINUOUS
 62
     7
100
AcDbLine
 10
29.954132
 20
346.575604
 30
0.0
 11
29.954132
 21
199.775607
 31
0.0
  0
ELLIPSE
  5
D2
100
AcDbEntity
  8
0
  6
CONTINUOUS
 62
     7
100
AcDbEllipse
 10
29.981285
 20
346.575606
 30
0.0
 11
0.0
 21
1.555359922126058
 31
0.0
210
0.0
220
0.0
230
1.0
 40
0.017458
 41
6.265729355764661
 42
7.853981633974482
  0
CIRCLE
  5
D3
100
AcDbEntity
  8
0
  6
CONTINUOUS
 62
     7
100
AcDbCircle
 10
137.136881
 20
191.675606
 30
0.0
 40
2.5
  0
CIRCLE
  5
D4
100
AcDbEntity
  8
0
  6
CONTINUOUS
 62
     7
100
AcDbCircle
 10
137.136881
 20
354.675606
 30
0.0
 40
2.5
  0
CIRCLE
  5
D5
100
AcDbEntity
  8
0
  6
CONTINUOUS
 62
     7
100
AcDbCircle
 10
39.136881
 20
191.675606
 30
0.0
 40
2.5
  0
CIRCLE
  5
D6
100
AcDbEntity
  8
0
  6
CONTINUOUS
 62
     7
100
AcDbCircle
 10
39.136881
 20
354.675606
 30
0.0
 40
2.5
  0
LINE
  5
D7
100
AcDbEntity
  8
0
  6
CONTINUOUS
 62
     7
100
AcDbLine
 10
146.319631
 20
346.575604
 30
0.0
 11
149.236881
 21
346.575606
 31
0.0
  0
LINE
  5
D8
100
AcDbEntity
  8
0
  6
CONTINUOUS
 62
     7
100
AcDbLine
 10
149.236881
 20
346.575606
 30
0.0
 11
149.236881
 21
351.075606
 31
0.0
  0
LINE
  5
D9
100
AcDbEntity
  8
0
  6
CONTINUOUS
 62
     7
100
AcDbLine
 10
29.954132
 20
346.575604
 30
0.0
 11
27.036881
 21
346.575606
 31
0.0
  0
LINE
  5
DA
100
AcDbEntity
  8
0
  6
CONTINUOUS
 62
     7
100
AcDbLine
 10
27.036881
 20
346.575606
 30
0.0
 11
27.036881
 21
351.075606
 31
0.0
  0
LINE
  5
DB
100
AcDbEntity
  8
0
  6
CONTINUOUS
 62
     7
100
AcDbLine
 10
146.319631
 20
199.775607
 30
0.0
 11
149.236881
 21
199.775606
 31
0.0
  0
LINE
  5
DC
100
AcDbEntity
  8
0
  6
CONTINUOUS
 62
     7
100
AcDbLine
 10
149.236881
 20
195.275606
 30
0.0
 11
149.236881
 21
199.775606
 31
0.0
  0
LINE
  5
DD
100
AcDbEntity
  8
0
  6
CONTINUOUS
 62
     7
100
AcDbLine
 10
48.936881
 20
363.858358
 30
0.0
 11
48.936881
 21
366.775606
 31
0.0
  0
LINE
  5
DE
100
AcDbEntity
  8
0
  6
CONTINUOUS
 62
     7
100
AcDbLine
 10
48.936881
 20
366.775606
 30
0.0
 11
44.436881
 21
366.775606
 31
0.0
  0
LINE
  5
DF
100
AcDbEntity
  8
0
  6
CONTINUOUS
 62
     7
100
AcDbLine
 10
127.336882
 20
363.858358
 30
0.0
 11
127.336881
 21
366.775606
 31
0.0
  0
LINE
  5
E0
100
AcDbEntity
  8
0
  6
CONTINUOUS
 62
     7
100
AcDbLine
 10
131.836881
 20
366.775606
 30
0.0
 11
127.336881
 21
366.775606
 31
0.0
  0
LINE
  5
E1
100
AcDbEntity
  8
0
  6
CONTINUOUS
 62
     7
100
AcDbLine
 10
29.954132
 20
199.775607
 30
0.0
 11
27.036881
 21
199.775606
 31
0.0
  0
LINE
  5
E2
100
AcDbEntity
  8
0
  6
CONTINUOUS
 62
     7
100
AcDbLine
 10
27.036881
 20
195.275606
 30
0.0
 11
27.036881
 21
199.775606
 31
0.0
  0
LINE
  5
E3
100
AcDbEntity
  8
0
  6
CONTINUOUS
 62
     7
100
AcDbLine
 10
48.936881
 20
182.492853
 30
0.0
 11
48.936881
 21
179.575606
 31
0.0
  0
LINE
  5
E4
100
AcDbEntity
  8
0
  6
CONTINUOUS
 62
     7
100
AcDbLine
 10
48.936881
 20
179.575606
 30
0.0
 11
44.436881
 21
179.575606
 31
0.0
  0
LINE
  5
E5
100
AcDbEntity
  8
0
  6
CONTINUOUS
 62
     7
100
AcDbLine
 10
127.336882
 20
182.492853
 30
0.0
 11
127.336881
 21
179.575606
 31
0.0
  0
LINE
  5
E6
100
AcDbEntity
  8
0
  6
CONTINUOUS
 62
     7
100
AcDbLine
 10
131.836881
 20
179.575606
 30
0.0
 11
127.336881
 21
179.575606
 31
0.0
  0
LINE
  5
E7
100
AcDbEntity
  8
0
  6
CONTINUOUS
 62
     7
100
AcDbLine
 10
149.236881
 20
199.775606
 30
0.0
 11
149.236881
 21
346.575606
 31
0.0
  0
LINE
  5
E8
100
AcDbEntity
  8
0
  6
CONTINUOUS
 62
     7
100
AcDbLine
 10
27.036881
 20
199.775606
 30
0.0
 11
27.036881
 21
346.575606
 31
0.0
  0
LINE
  5
E9
100
AcDbEntity
  8
0
  6
CONTINUOUS
 62
     7
100
AcDbLine
 10
127.336881
 20
366.775606
 30
0.0
 11
48.936881
 21
366.775606
 31
0.0
  0
LINE
  5
EA
100
AcDbEntity
  8
0
  6
CONTINUOUS
 62
     7
100
AcDbLine
 10
127.336881
 20
179.575606
 30
0.0
 11
48.936881
 21
179.575606
 31
0.0
  0
LINE
  5
EB
100
AcDbEntity
  8
0
  6
CONTINUOUS
 62
     7
100
AcDbLine
 10
288.109889
 20
218.175606
 30
0.0
 11
289.10989
 21
218.175606
 31
0.0
  0
LINE
  5
EC
100
AcDbEntity
  8
0
  6
CONTINUOUS
 62
     7
100
AcDbLine
 10
289.10989
 20
228.175606
 30
0.0
 11
288.109889
 21
228.175604
 31
0.0
  0
LINE
  5
ED
100
AcDbEntity
  8
0
  6
CONTINUOUS
 62
     7
100
AcDbLine
 10
288.109889
 20
318.175608
 30
0.0
 11
289.10989
 21
318.175606
 31
0.0
  0
LINE
  5
EE
100
AcDbEntity
  8
0
  6
CONTINUOUS
 62
     7
100
AcDbLine
 10
289.10989
 20
328.175606
 30
0.0
 11
288.109889
 21
328.175605
 31
0.0
  0
LINE
  5
EF
100
AcDbEntity
  8
0
  6
CONTINUOUS
 62
     7
100
AcDbLine
 10
289.109891
 20
219.925606
 30
0.0
 11
290.70989
 21
219.925606
 31
0.0
  0
LINE
  5
F0
100
AcDbEntity
  8
0
  6
CONTINUOUS
 62
     7
100
AcDbLine
 10
290.70989
 20
226.425606
 30
0.0
 11
289.109891
 21
226.425604
 31
0.0
  0
LINE
  5
F1
100
AcDbEntity
  8
0
  6
CONTINUOUS
 62
     7
100
AcDbLine
 10
289.109891
 20
319.925607
 30
0.0
 11
290.70989
 21
319.925606
 31
0.0
  0
LINE
  5
F2
100
AcDbEntity
  8
0
  6
CONTINUOUS
 62
     7
100
AcDbLine
 10
290.70989
 20
326.425606
 30
0.0
 11
289.109891
 21
326.425606
 31
0.0
  0
LINE
  5
F3
100
AcDbEntity
  8
0
  6
CONTINUOUS
 62
     7
100
AcDbLine
 10
288.109889
 20
316.075606
 30
0.0
 11
291.10989
 21
316.127971
 31
0.0
  0
LINE
  5
F4
100
AcDbEntity
  8
0
  6
CONTINUOUS
 62
     7
100
AcDbLine
 10
291.10989
 20
320.223241
 30
0.0
 11
290.709892
 21
320.230224
 31
0.0
  0
LINE
  5
F5
100
AcDbEntity
  8
0
  6
CONTINUOUS
 62
     7
100
AcDbLine
 10
288.109889
 20
216.075604
 30
0.0
 11
291.10989
 21
216.127971
 31
0.0
  0
LINE
  5
F6
100
AcDbEntity
  8
0
  6
CONTINUOUS
 62
     7
100
AcDbLine
 10
291.10989
 20
220.223241
 30
0.0
 11
290.709892
 21
220.230223
 31
0.0
  0
LINE
  5
F7
100
AcDbEntity
  8
0
  6
CONTINUOUS
 62
     7
100
AcDbLine
 10
290.709892
 20
226.120987
 30
0.0
 11
291.10989
 21
226.127971
 31
0.0
  0
LINE
  5
F8
100
AcDbEntity
  8
0
  6
CONTINUOUS
 62
     7
100
AcDbLine
 10
291.10989
 20
230.223241
 30
0.0
 11
288.109889
 21
230.275606
 31
0.0
  0
LINE
  5
F9
100
AcDbEntity
  8
0
  6
CONTINUOUS
 62
     7
100
AcDbLine
 10
290.709892
 20
326.120989
 30
0.0
 11
291.10989
 21
326.127971
 31
0.0
  0
LINE
  5
FA
100
AcDbEntity
  8
0
  6
CONTINUOUS
 62
     7
100
AcDbLine
 10
291.10989
 20
330.223241
 30
0.0
 11
288.109889
 21
330.275607
 31
0.0
  0
LINE
  5
FB
100
AcDbEntity
  8
0
  6
CONTINUOUS
 62
     7
100
AcDbLine
 10
290.10989
 20
241.452294
 30
0.0
 11
288.109889
 21
241.487206
 31
0.0
  0
LINE
  5
FC
100
AcDbEntity
  8
0
  6
CONTINUOUS
 62
     7
100
AcDbLine
 10
288.109889
 20
304.864005
 30
0.0
 11
290.10989
 21
304.898917
 31
0.0
  0
LINE
  5
FD
100
AcDbEntity
  8
0
  6
CONTINUOUS
 62
     7
100
AcDbLine
 10
288.109889
 20
341.875606
 30
0.0
 11
291.10989
 21
341.927971
 31
0.0
  0
LINE
  5
FE
100
AcDbEntity
  8
0
  6
CONTINUOUS
 62
     7
100
AcDbLine
 10
291.10989
 20
346.023241
 30
0.0
 11
288.109889
 21
346.075603
 31
0.0
  0
LINE
  5
FF
100
AcDbEntity
  8
0
  6
CONTINUOUS
 62
     7
100
AcDbLine
 10
288.109889
 20
200.275609
 30
0.0
 11
291.10989
 21
200.327971
 31
0.0
  0
LINE
  5
100
100
AcDbEntity
  8
0
  6
CONTINUOUS
 62
     7
100
AcDbLine
 10
291.10989
 20
204.423241
 30
0.0
 11
288.109889
 21
204.475605
 31
0.0
  0
LINE
  5
101
100
AcDbEntity
  8
0
  6
CONTINUOUS
 62
     7
100
AcDbLine
 10
227.20989
 20
360.775606
 30
0.0
 11
227.20989
 21
366.775606
 31
0.0
  0
LINE
  5
102
100
AcDbEntity
  8
0
  6
CONTINUOUS
 62
     7
100
AcDbLine
 10
227.20989
 20
366.775606
 30
0.0
 11
291.10989
 21
366.775606
 31
0.0
  0
LINE
  5
103
100
AcDbEntity
  8
0
  6
CONTINUOUS
 62
     7
100
AcDbLine
 10
291.10989
 20
360.775606
 30
0.0
 11
291.10989
 21
366.775606
 31
0.0
  0
LINE
  5
104
100
AcDbEntity
  8
0
  6
CONTINUOUS
 62
     7
100
AcDbLine
 10
291.10989
 20
360.775606
 30
0.0
 11
227.20989
 21
360.775606
 31
0.0
  0
LINE
  5
105
100
AcDbEntity
  8
0
  6
CONTINUOUS
 62
     7
100
AcDbLine
 10
227.20989
 20
185.575606
 30
0.0
 11
227.20989
 21
360.775606
 31
0.0
  0
LINE
  5
106
100
AcDbEntity
  8
0
  6
CONTINUOUS
 62
     7
100
AcDbLine
 10
291.109892
 20
351.075606
 30
0.0
 11
291.10989
 21
360.775606
 31
0.0
  0
LINE
  5
107
100
AcDbEntity
  8
0
  6
CONTINUOUS
 62
     7
100
AcDbLine
 10
235.50989
 20
351.075606
 30
0.0
 11
291.109892
 21
351.075606
 31
0.0
  0
ARC
  5
108
100
AcDbEntity
  8
0
  6
CONTINUOUS
 62
     7
100
AcDbCircle
 10
235.50989
 20
346.575606
 30
0.0
 40
4.5
100
AcDbArc
 50
90.0
 51
180.0
  0
LINE
  5
109
100
AcDbEntity
  8
0
  6
CONTINUOUS
 62
     7
100
AcDbLine
 10
231.00989
 20
199.775606
 30
0.0
 11
231.00989
 21
346.575606
 31
0.0
  0
ARC
  5
10A
100
AcDbEntity
  8
0
  6
CONTINUOUS
 62
     7
100
AcDbCircle
 10
235.50989
 20
199.775606
 30
0.0
 40
4.5
100
AcDbArc
 50
180.0
 51
270.0
  0
LINE
  5
10B
100
AcDbEntity
  8
0
  6
CONTINUOUS
 62
     7
100
AcDbLine
 10
291.109892
 20
195.275606
 30
0.0
 11
235.50989
 21
195.275606
 31
0.0
  0
LINE
  5
10C
100
AcDbEntity
  8
0
  6
CONTINUOUS
 62
     7
100
AcDbLine
 10
291.109892
 20
195.275606
 30
0.0
 11
291.10989
 21
185.575606
 31
0.0
  0
LINE
  5
10D
100
AcDbEntity
  8
0
  6
CONTINUOUS
 62
     7
100
AcDbLine
 10
227.20989
 20
185.575606
 30
0.0
 11
291.10989
 21
185.575606
 31
0.0
  0
LINE
  5
10E
100
AcDbEntity
  8
0
  6
CONTINUOUS
 62
     7
100
AcDbLine
 10
227.20989
 20
179.575606
 30
0.0
 11
227.20989
 21
185.575606
 31
0.0
  0
LINE
  5
10F
100
AcDbEntity
  8
0
  6
CONTINUOUS
 62
     7
100
AcDbLine
 10
291.10989
 20
185.575606
 30
0.0
 11
291.10989
 21
179.575606
 31
0.0
  0
LINE
  5
110
100
AcDbEntity
  8
0
  6
CONTINUOUS
 62
     7
100
AcDbLine
 10
291.10989
 20
179.575606
 30
0.0
 11
227.20989
 21
179.575606
 31
0.0
  0
ELLIPSE
  5
111
100
AcDbEntity
  8
0
  6
CONTINUOUS
 62
     7
100
AcDbEllipse
 10
235.482737
 20
346.575606
 30
0.0
 11
1.555596919263223
 21
0.0
 31
0.0
210
0.0
220
0.0
230
1.0
 40
0.999848
 41
1.553340375379002
 42
3.141592653589793
  0
LINE
  5
112
100
AcDbEntity
  8
0
  6
CONTINUOUS
 62
     7
100
AcDbLine
 10
233.927141
 20
346.575604
 30
0.0
 11
231.00989
 21
346.575606
 31
0.0
  0
LINE
  5
113
100
AcDbEntity
  8
0
  6
CONTINUOUS
 62
     7
100
AcDbLine
 10
235.50989
 20
348.130726
 30
0.0
 11
235.50989
 21
351.075606
 31
0.0
  0
ELLIPSE
  5
114
100
AcDbEntity
  8
0
  6
CONTINUOUS
 62
     7
100
AcDbEllipse
 10
235.482737
 20
199.775606
 30
0.0
 11
1.555596919263223
 21
0.0
 31
0.0
210
0.0
220
0.0
230
1.0
 40
0.999848
 41
3.141592653589793
 42
4.729844931800596
  0
LINE
  5
115
100
AcDbEntity
  8
0
  6
CONTINUOUS
 62
     7
100
AcDbLine
 10
235.50989
 20
198.220485
 30
0.0
 11
235.50989
 21
195.275606
 31
0.0
  0
LINE
  5
116
100
AcDbEntity
  8
0
  6
CONTINUOUS
 62
     7
100
AcDbLine
 10
233.927141
 20
199.775607
 30
0.0
 11
231.00989
 21
199.775606
 31
0.0
  0
LINE
  5
117
100
AcDbEntity
  8
0
  6
CONTINUOUS
 62
     7
100
AcDbLine
 10
233.927141
 20
346.575604
 30
0.0
 11
233.927141
 21
199.775607
 31
0.0
  0
LINE
  5
118
100
AcDbEntity
  8
0
  6
CONTINUOUS
 62
     7
100
AcDbLine
 10
235.50989
 20
198.220485
 30
0.0
 11
288.109889
 21
199.13862
 31
0.0
  0
LINE
  5
119
100
AcDbEntity
  8
0
  6
CONTINUOUS
 62
     7
100
AcDbLine
 10
291.109892
 20
199.13862
 30
0.0
 11
288.109889
 21
199.13862
 31
0.0
  0
LINE
  5
11A
100
AcDbEntity
  8
0
  6
CONTINUOUS
 62
     7
100
AcDbLine
 10
291.109892
 20
199.13862
 30
0.0
 11
291.109892
 21
195.275606
 31
0.0
  0
LINE
  5
11B
100
AcDbEntity
  8
0
  6
CONTINUOUS
 62
     7
100
AcDbLine
 10
291.109892
 20
347.212591
 30
0.0
 11
291.109892
 21
351.075606
 31
0.0
  0
LINE
  5
11C
100
AcDbEntity
  8
0
  6
CONTINUOUS
 62
     7
100
AcDbLine
 10
291.109892
 20
347.212591
 30
0.0
 11
288.109889
 21
347.212591
 31
0.0
  0
LINE
  5
11D
100
AcDbEntity
  8
0
  6
CONTINUOUS
 62
     7
100
AcDbLine
 10
235.50989
 20
348.130726
 30
0.0
 11
288.109889
 21
347.212591
 31
0.0
  0
LINE
  5
11E
100
AcDbEntity
  8
0
  6
CONTINUOUS
 62
     7
100
AcDbLine
 10
288.109889
 20
347.212591
 30
0.0
 11
288.109889
 21
199.13862
 31
0.0
  0
LINE
  5
11F
100
AcDbEntity
  8
0
  6
CONTINUOUS
 62
     7
100
AcDbLine
 10
289.10989
 20
228.175606
 30
0.0
 11
289.10989
 21
218.175606
 31
0.0
  0
LINE
  5
120
100
AcDbEntity
  8
0
  6
CONTINUOUS
 62
     7
100
AcDbLine
 10
289.10989
 20
328.175606
 30
0.0
 11
289.10989
 21
318.175606
 31
0.0
  0
LINE
  5
121
100
AcDbEntity
  8
0
  6
CONTINUOUS
 62
     7
100
AcDbLine
 10
290.70989
 20
226.425606
 30
0.0
 11
290.70989
 21
219.925606
 31
0.0
  0
LINE
  5
122
100
AcDbEntity
  8
0
  6
CONTINUOUS
 62
     7
100
AcDbLine
 10
290.70989
 20
326.425606
 30
0.0
 11
290.70989
 21
319.925606
 31
0.0
  0
LINE
  5
123
100
AcDbEntity
  8
0
  6
CONTINUOUS
 62
     7
100
AcDbLine
 10
291.10989
 20
320.223241
 30
0.0
 11
291.10989
 21
316.127971
 31
0.0
  0
LINE
  5
124
100
AcDbEntity
  8
0
  6
CONTINUOUS
 62
     7
100
AcDbLine
 10
291.10989
 20
220.223241
 30
0.0
 11
291.10989
 21
216.127971
 31
0.0
  0
LINE
  5
125
100
AcDbEntity
  8
0
  6
CONTINUOUS
 62
     7
100
AcDbLine
 10
291.10989
 20
230.223241
 30
0.0
 11
291.10989
 21
226.127971
 31
0.0
  0
LINE
  5
126
100
AcDbEntity
  8
0
  6
CONTINUOUS
 62
     7
100
AcDbLine
 10
291.10989
 20
330.223241
 30
0.0
 11
291.10989
 21
326.127971
 31
0.0
  0
LINE
  5
127
100
AcDbEntity
  8
0
  6
CONTINUOUS
 62
     7
100
AcDbLine
 10
290.10989
 20
241.452294
 30
0.0
 11
290.10989
 21
230.240696
 31
0.0
  0
LINE
  5
128
100
AcDbEntity
  8
0
  6
CONTINUOUS
 62
     7
100
AcDbLine
 10
290.10989
 20
316.110516
 30
0.0
 11
290.10989
 21
304.898917
 31
0.0
  0
LINE
  5
129
100
AcDbEntity
  8
0
  6
CONTINUOUS
 62
     7
100
AcDbLine
 10
291.10989
 20
346.023241
 30
0.0
 11
291.10989
 21
341.927971
 31
0.0
  0
LINE
  5
12A
100
AcDbEntity
  8
0
  6
CONTINUOUS
 62
     7
100
AcDbLine
 10
291.10989
 20
204.423241
 30
0.0
 11
291.10989
 21
200.327971
 31
0.0
  0
LINE
  5
12B
100
AcDbEntity
  8
0
  6
CONTINUOUS
 62
     7
100
AcDbLine
 10
235.50989
 20
366.775606
 30
0.0
 11
231.00989
 21
366.775606
 31
0.0
  0
LINE
  5
12C
100
AcDbEntity
  8
0
  6
CONTINUOUS
 62
     7
100
AcDbLine
 10
235.50989
 20
179.575606
 30
0.0
 11
231.00989
 21
179.575606
 31
0.0
  0
LINE
  5
12D
100
AcDbEntity
  8
0
  6
CONTINUOUS
 62
     7
100
AcDbLine
 10
291.10989
 20
179.575606
 30
0.0
 11
235.50989
 21
179.575606
 31
0.0
  0
LINE
  5
12E
100
AcDbEntity
  8
0
  6
CONTINUOUS
 62
     7
100
AcDbLine
 10
291.10989
 20
366.775606
 30
0.0
 11
235.50989
 21
366.775606
 31
0.0
  0
INSERT
  5
136
100
AcDbEntity
  8
0
  6
CONTINUOUS
 62
     7
100
AcDbBlockReference
  2
SW_CENTERMARKSYMBOL_0
 10
235.50989
 20
199.775606
 30
0.0
 41
2.0
 42
2.0
 43
2.0
  0
ARC
  5
13F
100
AcDbEntity
  8
0
  6
CONTINUOUS
 62
     7
100
AcDbCircle
 10
381.822722
 20
185.575606
 30
0.0
 40
3.0
100
AcDbArc
 50
180.0
 51
270.0
  0
LINE
  5
140
100
AcDbEntity
  8
0
  6
CONTINUOUS
 62
     7
100
AcDbLine
 10
393.422723
 20
182.575607
 30
0.0
 11
381.822722
 21
182.575606
 31
0.0
  0
LINE
  5
141
100
AcDbEntity
  8
0
  6
CONTINUOUS
 62
     7
100
AcDbLine
 10
393.422722
 20
187.345479
 30
0.0
 11
393.422723
 21
182.575607
 31
0.0
  0
ARC
  5
142
100
AcDbEntity
  8
0
  6
CONTINUOUS
 62
     7
100
AcDbCircle
 10
387.922722
 20
191.675606
 30
0.0
 40
7.0
100
AcDbArc
 50
128.213211
 51
321.786789
  0
LINE
  5
143
100
AcDbEntity
  8
0
  6
CONTINUOUS
 62
     7
100
AcDbLine
 10
378.822722
 20
197.175608
 30
0.0
 11
383.592595
 21
197.175606
 31
0.0
  0
LINE
  5
144
100
AcDbEntity
  8
0
  6
CONTINUOUS
 62
     7
100
AcDbLine
 10
378.822722
 20
185.575606
 30
0.0
 11
378.822722
 21
197.175608
 31
0.0
  0
ARC
  5
145
100
AcDbEntity
  8
0
  6
CONTINUOUS
 62
     7
100
AcDbCircle
 10
485.922722
 20
191.675606
 30
0.0
 40
7.0
100
AcDbArc
 50
218.213211
 51
51.786789
  0
LINE
  5
146
100
AcDbEntity
  8
0
  6
CONTINUOUS
 62
     7
100
AcDbLine
 10
480.422722
 20
187.345479
 30
0.0
 11
480.422721
 21
182.575607
 31
0.0
  0
LINE
  5
147
100
AcDbEntity
  8
0
  6
CONTINUOUS
 62
     7
100
AcDbLine
 10
480.422721
 20
182.575607
 30
0.0
 11
492.022722
 21
182.575606
 31
0.0
  0
ARC
  5
148
100
AcDbEntity
  8
0
  6
CONTINUOUS
 62
     7
100
AcDbCircle
 10
492.022722
 20
185.575606
 30
0.0
 40
3.0
100
AcDbArc
 50
270.0
 51
0.0
  0
LINE
  5
149
100
AcDbEntity
  8
0
  6
CONTINUOUS
 62
     7
100
AcDbLine
 10
495.022722
 20
185.575606
 30
0.0
 11
495.022722
 21
197.175608
 31
0.0
  0
LINE
  5
14A
100
AcDbEntity
  8
0
  6
CONTINUOUS
 62
     7
100
AcDbLine
 10
495.022722
 20
197.175608
 30
0.0
 11
490.252849
 21
197.175606
 31
0.0
  0
LINE
  5
14B
100
AcDbEntity
  8
0
  6
CONTINUOUS
 62
     7
100
AcDbLine
 10
492.022722
 20
366.775606
 30
0.0
 11
381.822722
 21
366.775606
 31
0.0
  0
ARC
  5
14C
100
AcDbEntity
  8
0
  6
CONTINUOUS
 62
     7
100
AcDbCircle
 10
492.022722
 20
360.775606
 30
0.0
 40
6.0
100
AcDbArc
 50
0.0
 51
90.0
  0
LINE
  5
14D
100
AcDbEntity
  8
0
  6
CONTINUOUS
 62
     7
100
AcDbLine
 10
498.022722
 20
185.575606
 30
0.0
 11
498.022722
 21
360.775606
 31
0.0
  0
ARC
  5
14E
100
AcDbEntity
  8
0
  6
CONTINUOUS
 62
     7
100
AcDbCircle
 10
492.022722
 20
185.575606
 30
0.0
 40
6.0
100
AcDbArc
 50
270.0
 51
0.0
  0
LINE
  5
14F
100
AcDbEntity
  8
0
  6
CONTINUOUS
 62
     7
100
AcDbLine
 10
381.822722
 20
179.575606
 30
0.0
 11
492.022722
 21
179.575606
 31
0.0
  0
CIRCLE
  5
150
100
AcDbEntity
  8
0
  6
CONTINUOUS
 62
     7
100
AcDbCircle
 10
387.922722
 20
354.675606
 30
0.0
 40
4.0
  0
CIRCLE
  5
151
100
AcDbEntity
  8
0
  6
CONTINUOUS
 62
     7
100
AcDbCircle
 10
485.922722
 20
354.675606
 30
0.0
 40
4.0
  0
CIRCLE
  5
152
100
AcDbEntity
  8
0
  6
CONTINUOUS
 62
     7
100
AcDbCircle
 10
485.922722
 20
191.675606
 30
0.0
 40
4.0
  0
CIRCLE
  5
153
100
AcDbEntity
  8
0
  6
CONTINUOUS
 62
     7
100
AcDbCircle
 10
387.922722
 20
191.675606
 30
0.0
 40
4.0
  0
ELLIPSE
  5
154
100
AcDbEntity
  8
0
  6
CONTINUOUS
 62
     7
100
AcDbEllipse
 10
491.422494
 20
203.675834
 30
0.0
 11
1.060983283754467
 21
-1.060983283754239
 31
0.0
210
0.0
220
0.0
230
1.0
 40
0.999695
 41
5.497939437029661
 42
7.068431177329361
  0
LINE
  5
155
100
AcDbEntity
  8
0
  6
CONTINUOUS
 62
     7
100
AcDbLine
 10
492.922724
 20
203.675375
 30
0.0
 11
492.922724
 21
342.675836
 31
0.0
  0
ELLIPSE
  5
156
100
AcDbEntity
  8
0
  6
CONTINUOUS
 62
     7
100
AcDbEllipse
 10
491.422494
 20
342.675377
 30
0.0
 11
1.060983283754467
 21
1.060983283754183
 31
0.0
210
0.0
220
0.0
230
1.0
 40
0.999695
 41
5.49793943702988
 42
7.068431177329511
  0
LINE
  5
157
100
AcDbEntity
  8
0
  6
CONTINUOUS
 62
     7
100
AcDbLine
 10
491.422952
 20
344.175608
 30
0.0
 11
485.922722
 21
344.175606
 31
0.0
  0
ARC
  5
158
100
AcDbEntity
  8
0
  6
CONTINUOUS
 62
     7
100
AcDbCircle
 10
485.922722
 20
354.675606
 30
0.0
 40
10.5
100
AcDbArc
 50
180.0
 51
270.0
  0
LINE
  5
159
100
AcDbEntity
  8
0
  6
CONTINUOUS
 62
     7
100
AcDbLine
 10
475.422722
 20
354.675606
 30
0.0
 11
475.422722
 21
360.175834
 31
0.0
  0
ELLIPSE
  5
15A
100
AcDbEntity
  8
0
  6
CONTINUOUS
 62
     7
100
AcDbEllipse
 10
473.922494
 20
360.175377
 30
0.0
 11
1.06098328375458
 21
1.060983283754239
 31
0.0
210
0.0
220
0.0
230
1.0
 40
0.999695
 41
5.497939437029905
 42
7.068431177329616
  0
LINE
  5
15B
100
AcDbEntity
  8
0
  6
CONTINUOUS
 62
     7
100
AcDbLine
 10
473.92295
 20
361.675606
 30
0.0
 11
399.922494
 21
361.675606
 31
0.0
  0
ELLIPSE
  5
15C
100
AcDbEntity
  8
0
  6
CONTINUOUS
 62
     7
100
AcDbEllipse
 10
399.922951
 20
360.175377
 30
0.0
 11
1.060983283754524
 21
-1.060983283754239
 31
0.0
210
0.0
220
0.0
230
1.0
 40
0.999695
 41
2.356346783439855
 42
3.926838523739553
  0
LINE
  5
15D
100
AcDbEntity
  8
0
  6
CONTINUOUS
 62
     7
100
AcDbLine
 10
398.422722
 20
360.175834
 30
0.0
 11
398.422722
 21
354.675606
 31
0.0
  0
ARC
  5
15E
100
AcDbEntity
  8
0
  6
CONTINUOUS
 62
     7
100
AcDbCircle
 10
387.922722
 20
354.675606
 30
0.0
 40
10.5
100
AcDbArc
 50
270.0
 51
0.0
  0
LINE
  5
15F
100
AcDbEntity
  8
0
  6
CONTINUOUS
 62
     7
100
AcDbLine
 10
387.922722
 20
344.175606
 30
0.0
 11
382.422493
 21
344.175608
 31
0.0
  0
ELLIPSE
  5
160
100
AcDbEntity
  8
0
  6
CONTINUOUS
 62
     7
100
AcDbEllipse
 10
382.422951
 20
342.675377
 30
0.0
 11
1.060983283754467
 21
-1.060983283754296
 31
0.0
210
0.0
220
0.0
230
1.0
 40
0.999695
 41
2.356346783439819
 42
3.92683852373962
  0
LINE
  5
161
100
AcDbEntity
  8
0
  6
CONTINUOUS
 62
     7
100
AcDbLine
 10
380.92272
 20
342.675836
 30
0.0
 11
380.92272
 21
203.675375
 31
0.0
  0
ELLIPSE
  5
162
100
AcDbEntity
  8
0
  6
CONTINUOUS
 62
     7
100
AcDbEllipse
 10
382.422951
 20
203.675834
 30
0.0
 11
1.060983283754524
 21
1.060983283754239
 31
0.0
210
0.0
220
0.0
230
1.0
 40
0.999695
 41
2.356346783440053
 42
3.926838523739834
  0
LINE
  5
163
100
AcDbEntity
  8
0
  6
CONTINUOUS
 62
     7
100
AcDbLine
 10
382.422493
 20
202.175603
 30
0.0
 11
387.922722
 21
202.175606
 31
0.0
  0
ARC
  5
164
100
AcDbEntity
  8
0
  6
CONTINUOUS
 62
     7
100
AcDbCircle
 10
387.922722
 20
191.675606
 30
0.0
 40
10.5
100
AcDbArc
 50
0.0
 51
90.0
  0
LINE
  5
165
100
AcDbEntity
  8
0
  6
CONTINUOUS
 62
     7
100
AcDbLine
 10
398.422722
 20
191.675606
 30
0.0
 11
398.422722
 21
186.175377
 31
0.0
  0
ELLIPSE
  5
166
100
AcDbEntity
  8
0
  6
CONTINUOUS
 62
     7
100
AcDbEllipse
 10
399.922951
 20
186.175834
 30
0.0
 11
1.060983283754524
 21
1.060983283754211
 31
0.0
210
0.0
220
0.0
230
1.0
 40
0.999695
 41
2.356346783440059
 42
3.926838523739816
  0
LINE
  5
167
100
AcDbEntity
  8
0
  6
CONTINUOUS
 62
     7
100
AcDbLine
 10
399.922494
 20
184.675605
 30
0.0
 11
473.92295
 21
184.675605
 31
0.0
  0
ELLIPSE
  5
168
100
AcDbEntity
  8
0
  6
CONTINUOUS
 62
     7
100
AcDbEllipse
 10
473.922494
 20
186.175834
 30
0.0
 11
1.06098328375458
 21
-1.060983283754239
 31
0.0
210
0.0
220
0.0
230
1.0
 40
0.999695
 41
5.497939437029588
 42
7.068431177329328
  0
LINE
  5
169
100
AcDbEntity
  8
0
  6
CONTINUOUS
 62
     7
100
AcDbLine
 10
475.422722
 20
186.175377
 30
0.0
 11
475.422722
 21
191.675606
 31
0.0
  0
ARC
  5
16A
100
AcDbEntity
  8
0
  6
CONTINUOUS
 62
     7
100
AcDbCircle
 10
485.922722
 20
191.675606
 30
0.0
 40
10.5
100
AcDbArc
 50
90.0
 51
180.0
  0
LINE
  5
16B
100
AcDbEntity
  8
0
  6
CONTINUOUS
 62
     7
100
AcDbLine
 10
485.922722
 20
202.175606
 30
0.0
 11
491.422952
 21
202.175603
 31
0.0
  0
ARC
  5
16C
100
AcDbEntity
  8
0
  6
CONTINUOUS
 62
     7
100
AcDbCircle
 10
387.922722
 20
354.675606
 30
0.0
 40
7.0
100
AcDbArc
 50
38.213211
 51
231.786789
  0
LINE
  5
16D
100
AcDbEntity
  8
0
  6
CONTINUOUS
 62
     7
100
AcDbLine
 10
393.422722
 20
359.005733
 30
0.0
 11
393.422723
 21
363.775605
 31
0.0
  0
LINE
  5
16E
100
AcDbEntity
  8
0
  6
CONTINUOUS
 62
     7
100
AcDbLine
 10
393.422723
 20
363.775605
 30
0.0
 11
381.822722
 21
363.775606
 31
0.0
  0
ARC
  5
16F
100
AcDbEntity
  8
0
  6
CONTINUOUS
 62
     7
100
AcDbCircle
 10
381.822722
 20
360.775606
 30
0.0
 40
3.0
100
AcDbArc
 50
90.0
 51
180.0
  0
LINE
  5
170
100
AcDbEntity
  8
0
  6
CONTINUOUS
 62
     7
100
AcDbLine
 10
378.822722
 20
360.775606
 30
0.0
 11
378.822722
 21
349.175603
 31
0.0
  0
LINE
  5
171
100
AcDbEntity
  8
0
  6
CONTINUOUS
 62
     7
100
AcDbLine
 10
378.822722
 20
349.175603
 30
0.0
 11
383.592595
 21
349.175606
 31
0.0
  0
ARC
  5
172
100
AcDbEntity
  8
0
  6
CONTINUOUS
 62
     7
100
AcDbCircle
 10
492.022722
 20
360.775606
 30
0.0
 40
3.0
100
AcDbArc
 50
0.0
 51
90.0
  0
LINE
  5
173
100
AcDbEntity
  8
0
  6
CONTINUOUS
 62
     7
100
AcDbLine
 10
480.422721
 20
363.775605
 30
0.0
 11
492.022722
 21
363.775606
 31
0.0
  0
LINE
  5
174
100
AcDbEntity
  8
0
  6
CONTINUOUS
 62
     7
100
AcDbLine
 10
480.422722
 20
359.005733
 30
0.0
 11
480.422721
 21
363.775605
 31
0.0
  0
ARC
  5
175
100
AcDbEntity
  8
0
  6
CONTINUOUS
 62
     7
100
AcDbCircle
 10
485.922722
 20
354.675606
 30
0.0
 40
7.0
100
AcDbArc
 50
308.213211
 51
141.786789
  0
LINE
  5
176
100
AcDbEntity
  8
0
  6
CONTINUOUS
 62
     7
100
AcDbLine
 10
495.022722
 20
349.175603
 30
0.0
 11
490.252849
 21
349.175606
 31
0.0
  0
LINE
  5
177
100
AcDbEntity
  8
0
  6
CONTINUOUS
 62
     7
100
AcDbLine
 10
495.022722
 20
360.775606
 30
0.0
 11
495.022722
 21
349.175603
 31
0.0
  0
LINE
  5
178
100
AcDbEntity
  8
0
  6
CONTINUOUS
 62
     7
100
AcDbLine
 10
375.822722
 20
360.775606
 30
0.0
 11
375.822722
 21
185.575606
 31
0.0
  0
ARC
  5
179
100
AcDbEntity
  8
0
  6
CONTINUOUS
 62
     7
100
AcDbCircle
 10
381.822722
 20
360.775606
 30
0.0
 40
6.0
100
AcDbArc
 50
90.0
 51
180.0
  0
ARC
  5
17A
100
AcDbEntity
  8
0
  6
CONTINUOUS
 62
     7
100
AcDbCircle
 10
381.822722
 20
185.575606
 30
0.0
 40
6.0
100
AcDbArc
 50
180.0
 51
270.0
  0
LINE
  5
17B
100
AcDbEntity
  8
0
  6
CONTINUOUS
 62
     7
100
AcDbLine
 10
378.945772
 20
349.298657
 30
0.0
 11
378.822722
 21
349.175603
 31
0.0
  0
LINE
  5
17C
100
AcDbEntity
  8
0
  6
CONTINUOUS
 62
     7
100
AcDbLine
 10
378.945771
 20
360.775606
 30
0.0
 11
378.822722
 21
360.775606
 31
0.0
  0
LINE
  5
17D
100
AcDbEntity
  8
0
  6
CONTINUOUS
 62
     7
100
AcDbLine
 10
378.945771
 20
354.675606
 30
0.0
 11
378.945771
 21
360.775606
 31
0.0
  0
LINE
  5
17E
100
AcDbEntity
  8
0
  6
CONTINUOUS
 62
     7
100
AcDbLine
 10
378.945772
 20
349.298657
 30
0.0
 11
378.945771
 21
354.675606
 31
0.0
  0
ARC
  5
17F
100
AcDbEntity
  8
0
  6
CONTINUOUS
 62
     7
100
AcDbCircle
 10
381.822722
 20
185.575606
 30
0.0
 40
2.876951
100
AcDbArc
 50
180.0
 51
270.0
  0
LINE
  5
180
100
AcDbEntity
  8
0
  6
CONTINUOUS
 62
     7
100
AcDbLine
 10
381.822722
 20
182.698655
 30
0.0
 11
381.822722
 21
182.575606
 31
0.0
  0
LINE
  5
181
100
AcDbEntity
  8
0
  6
CONTINUOUS
 62
     7
100
AcDbLine
 10
378.945771
 20
185.575606
 30
0.0
 11
378.822722
 21
185.575606
 31
0.0
  0
LINE
  5
182
100
AcDbEntity
  8
0
  6
CONTINUOUS
 62
     7
100
AcDbLine
 10
378.945772
 20
197.052554
 30
0.0
 11
378.945771
 21
191.675606
 31
0.0
  0
LINE
  5
183
100
AcDbEntity
  8
0
  6
CONTINUOUS
 62
     7
100
AcDbLine
 10
378.945771
 20
191.675606
 30
0.0
 11
378.945771
 21
185.575606
 31
0.0
  0
LINE
  5
184
100
AcDbEntity
  8
0
  6
CONTINUOUS
 62
     7
100
AcDbLine
 10
378.945772
 20
197.052554
 30
0.0
 11
378.822722
 21
197.175608
 31
0.0
  0
LINE
  5
185
100
AcDbEntity
  8
0
  6
CONTINUOUS
 62
     7
100
AcDbLine
 10
380.734256
 20
349.298655
 30
0.0
 11
378.945772
 21
349.298657
 31
0.0
  0
LINE
  5
186
100
AcDbEntity
  8
0
  6
CONTINUOUS
 62
     7
100
AcDbLine
 10
380.985031
 20
349.316108
 30
0.0
 11
380.734256
 21
349.298655
 31
0.0
  0
LINE
  5
187
100
AcDbEntity
  8
0
  6
CONTINUOUS
 62
     7
100
AcDbLine
 10
380.985031
 20
349.316108
 30
0.0
 11
383.2044
 21
349.316108
 31
0.0
  0
LINE
  5
188
100
AcDbEntity
  8
0
  6
CONTINUOUS
 62
     7
100
AcDbLine
 10
383.2044
 20
349.316108
 30
0.0
 11
383.592595
 21
349.175606
 31
0.0
  0
LINE
  5
189
100
AcDbEntity
  8
0
  6
CONTINUOUS
 62
     7
100
AcDbLine
 10
380.985031
 20
197.035103
 30
0.0
 11
383.2044
 21
197.035103
 31
0.0
  0
LINE
  5
18A
100
AcDbEntity
  8
0
  6
CONTINUOUS
 62
     7
100
AcDbLine
 10
380.985031
 20
197.035103
 30
0.0
 11
380.734256
 21
197.052557
 31
0.0
  0
LINE
  5
18B
100
AcDbEntity
  8
0
  6
CONTINUOUS
 62
     7
100
AcDbLine
 10
380.734256
 20
197.052557
 30
0.0
 11
378.945772
 21
197.052554
 31
0.0
  0
LINE
  5
18C
100
AcDbEntity
  8
0
  6
CONTINUOUS
 62
     7
100
AcDbLine
 10
383.2044
 20
197.035103
 30
0.0
 11
383.592595
 21
197.175606
 31
0.0
  0
LINE
  5
18D
100
AcDbEntity
  8
0
  6
CONTINUOUS
 62
     7
100
AcDbLine
 10
381.822722
 20
363.652557
 30
0.0
 11
381.822722
 21
363.775606
 31
0.0
  0
ARC
  5
18E
100
AcDbEntity
  8
0
  6
CONTINUOUS
 62
     7
100
AcDbCircle
 10
381.822722
 20
360.775606
 30
0.0
 40
2.876951
100
AcDbArc
 50
90.0
 51
180.0
  0
ARC
  5
18F
100
AcDbEntity
  8
0
  6
CONTINUOUS
 62
     7
100
AcDbCircle
 10
387.922722
 20
191.675606
 30
0.0
 40
7.140503
100
AcDbArc
 50
131.359611
 51
318.640389
  0
LINE
  5
190
100
AcDbEntity
  8
0
  6
CONTINUOUS
 62
     7
100
AcDbLine
 10
393.28222
 20
186.957284
 30
0.0
 11
393.422722
 21
187.345479
 31
0.0
  0
ARC
  5
191
100
AcDbEntity
  8
0
  6
CONTINUOUS
 62
     7
100
AcDbCircle
 10
387.922722
 20
354.675606
 30
0.0
 40
7.140503
100
AcDbArc
 50
41.359611
 51
228.640389
  0
LINE
  5
192
100
AcDbEntity
  8
0
  6
CONTINUOUS
 62
     7
100
AcDbLine
 10
393.28222
 20
359.393928
 30
0.0
 11
393.422722
 21
359.005733
 31
0.0
  0
LINE
  5
193
100
AcDbEntity
  8
0
  6
CONTINUOUS
 62
     7
100
AcDbLine
 10
383.447108
 20
203.200215
 30
0.0
 11
382.422493
 21
202.175603
 31
0.0
  0
LINE
  5
194
100
AcDbEntity
  8
0
  6
CONTINUOUS
 62
     7
100
AcDbLine
 10
380.92272
 20
203.675375
 30
0.0
 11
381.947335
 21
204.699987
 31
0.0
  0
ELLIPSE
  5
195
100
AcDbEntity
  8
0
  6
CONTINUOUS
 62
     7
100
AcDbEllipse
 10
383.447563
 20
204.700447
 30
0.0
 11
1.060983283754524
 21
1.060983283754211
 31
0.0
210
0.0
220
0.0
230
1.0
 40
0.999695
 41
2.356346783440078
 42
3.926838523739854
  0
LINE
  5
196
100
AcDbEntity
  8
0
  6
CONTINUOUS
 62
     7
100
AcDbLine
 10
381.947335
 20
341.651225
 30
0.0
 11
380.92272
 21
342.675836
 31
0.0
  0
LINE
  5
197
100
AcDbEntity
  8
0
  6
CONTINUOUS
 62
     7
100
AcDbLine
 10
382.422493
 20
344.175608
 30
0.0
 11
383.447108
 21
343.150997
 31
0.0
  0
ELLIPSE
  5
198
100
AcDbEntity
  8
0
  6
CONTINUOUS
 62
     7
100
AcDbEllipse
 10
383.447563
 20
341.650765
 30
0.0
 11
1.060983283754467
 21
-1.060983283754296
 31
0.0
210
0.0
220
0.0
230
1.0
 40
0.999695
 41
2.35634678343983
 42
3.926838523739646
  0
LINE
  5
199
100
AcDbEntity
  8
0
  6
CONTINUOUS
 62
     7
100
AcDbLine
 10
381.947335
 20
204.699987
 30
0.0
 11
381.947335
 21
341.651225
 31
0.0
  0
LINE
  5
19A
100
AcDbEntity
  8
0
  6
CONTINUOUS
 62
     7
100
AcDbLine
 10
393.299673
 20
363.652558
 30
0.0
 11
393.422723
 21
363.775605
 31
0.0
  0
LINE
  5
19B
100
AcDbEntity
  8
0
  6
CONTINUOUS
 62
     7
100
AcDbLine
 10
387.922722
 20
363.652557
 30
0.0
 11
393.299673
 21
363.652558
 31
0.0
  0
LINE
  5
19C
100
AcDbEntity
  8
0
  6
CONTINUOUS
 62
     7
100
AcDbLine
 10
381.822722
 20
363.652557
 30
0.0
 11
387.922722
 21
363.652557
 31
0.0
  0
LINE
  5
19D
100
AcDbEntity
  8
0
  6
CONTINUOUS
 62
     7
100
AcDbLine
 10
381.822722
 20
182.698655
 30
0.0
 11
387.922722
 21
182.698655
 31
0.0
  0
LINE
  5
19E
100
AcDbEntity
  8
0
  6
CONTINUOUS
 62
     7
100
AcDbLine
 10
387.922722
 20
182.698655
 30
0.0
 11
393.299673
 21
182.698653
 31
0.0
  0
LINE
  5
19F
100
AcDbEntity
  8
0
  6
CONTINUOUS
 62
     7
100
AcDbLine
 10
393.299673
 20
182.698653
 30
0.0
 11
393.422723
 21
182.575607
 31
0.0
  0
LINE
  5
1A0
100
AcDbEntity
  8
0
  6
CONTINUOUS
 62
     7
100
AcDbLine
 10
387.922722
 20
203.200218
 30
0.0
 11
387.922722
 21
202.175606
 31
0.0
  0
LINE
  5
1A1
100
AcDbEntity
  8
0
  6
CONTINUOUS
 62
     7
100
AcDbLine
 10
387.922722
 20
203.200218
 30
0.0
 11
383.447108
 21
203.200215
 31
0.0
  0
LINE
  5
1A2
100
AcDbEntity
  8
0
  6
CONTINUOUS
 62
     7
100
AcDbLine
 10
387.922722
 20
343.150993
 30
0.0
 11
387.922722
 21
344.175606
 31
0.0
  0
LINE
  5
1A3
100
AcDbEntity
  8
0
  6
CONTINUOUS
 62
     7
100
AcDbLine
 10
383.447108
 20
343.150997
 30
0.0
 11
387.922722
 21
343.150993
 31
0.0
  0
CIRCLE
  5
1A4
100
AcDbEntity
  8
0
  6
CONTINUOUS
 62
     7
100
AcDbCircle
 10
387.922722
 20
354.675606
 30
0.0
 40
3.93455
  0
CIRCLE
  5
1A5
100
AcDbEntity
  8
0
  6
CONTINUOUS
 62
     7
100
AcDbCircle
 10
387.922722
 20
191.675606
 30
0.0
 40
3.93455
  0
LINE
  5
1A6
100
AcDbEntity
  8
0
  6
CONTINUOUS
 62
     7
100
AcDbLine
 10
399.447334
 20
191.675606
 30
0.0
 11
398.422722
 21
191.675606
 31
0.0
  0
ARC
  5
1A7
100
AcDbEntity
  8
0
  6
CONTINUOUS
 62
     7
100
AcDbCircle
 10
387.922722
 20
191.675606
 30
0.0
 40
11.524612
100
AcDbArc
 50
0.0
 51
90.0
  0
LINE
  5
1A8
100
AcDbEntity
  8
0
  6
CONTINUOUS
 62
     7
100
AcDbLine
 10
399.447334
 20
354.675606
 30
0.0
 11
398.422722
 21
354.675606
 31
0.0
  0
ARC
  5
1A9
100
AcDbEntity
  8
0
  6
CONTINUOUS
 62
     7
100
AcDbCircle
 10
387.922722
 20
354.675606
 30
0.0
 40
11.524612
100
AcDbArc
 50
270.0
 51
0.0
  0
LINE
  5
1AA
100
AcDbEntity
  8
0
  6
CONTINUOUS
 62
     7
100
AcDbLine
 10
393.299673
 20
182.698653
 30
0.0
 11
393.299673
 21
184.487139
 31
0.0
  0
LINE
  5
1AB
100
AcDbEntity
  8
0
  6
CONTINUOUS
 62
     7
100
AcDbLine
 10
393.28222
 20
184.737914
 30
0.0
 11
393.299673
 21
184.487139
 31
0.0
  0
LINE
  5
1AC
100
AcDbEntity
  8
0
  6
CONTINUOUS
 62
     7
100
AcDbLine
 10
393.28222
 20
186.957284
 30
0.0
 11
393.28222
 21
184.737914
 31
0.0
  0
LINE
  5
1AD
100
AcDbEntity
  8
0
  6
CONTINUOUS
 62
     7
100
AcDbLine
 10
393.28222
 20
359.393928
 30
0.0
 11
393.28222
 21
361.613297
 31
0.0
  0
LINE
  5
1AE
100
AcDbEntity
  8
0
  6
CONTINUOUS
 62
     7
100
AcDbLine
 10
393.28222
 20
361.613297
 30
0.0
 11
393.299673
 21
361.864072
 31
0.0
  0
LINE
  5
1AF
100
AcDbEntity
  8
0
  6
CONTINUOUS
 62
     7
100
AcDbLine
 10
393.299673
 20
363.652558
 30
0.0
 11
393.299673
 21
361.864072
 31
0.0
  0
LINE
  5
1B0
100
AcDbEntity
  8
0
  6
CONTINUOUS
 62
     7
100
AcDbLine
 10
399.447334
 20
187.199989
 30
0.0
 11
399.447334
 21
191.675606
 31
0.0
  0
LINE
  5
1B1
100
AcDbEntity
  8
0
  6
CONTINUOUS
 62
     7
100
AcDbLine
 10
398.422722
 20
186.175377
 30
0.0
 11
399.447334
 21
187.199989
 31
0.0
  0
LINE
  5
1B2
100
AcDbEntity
  8
0
  6
CONTINUOUS
 62
     7
100
AcDbLine
 10
399.447334
 20
359.151223
 30
0.0
 11
398.422722
 21
360.175834
 31
0.0
  0
LINE
  5
1B3
100
AcDbEntity
  8
0
  6
CONTINUOUS
 62
     7
100
AcDbLine
 10
399.922494
 20
361.675606
 30
0.0
 11
400.947106
 21
360.650995
 31
0.0
  0
ELLIPSE
  5
1B4
100
AcDbEntity
  8
0
  6
CONTINUOUS
 62
     7
100
AcDbEllipse
 10
400.947563
 20
359.150765
 30
0.0
 11
1.060983283754467
 21
-1.060983283754183
 31
0.0
210
0.0
220
0.0
230
1.0
 40
0.999695
 41
2.356346783439841
 42
3.926838523739528
  0
LINE
  5
1B5
100
AcDbEntity
  8
0
  6
CONTINUOUS
 62
     7
100
AcDbLine
 10
400.947106
 20
185.700216
 30
0.0
 11
399.922494
 21
184.675605
 31
0.0
  0
ELLIPSE
  5
1B6
100
AcDbEntity
  8
0
  6
CONTINUOUS
 62
     7
100
AcDbEllipse
 10
400.947563
 20
187.200447
 30
0.0
 11
1.060983283754524
 21
1.060983283754239
 31
0.0
210
0.0
220
0.0
230
1.0
 40
0.999695
 41
2.356346783440071
 42
3.926838523739796
  0
LINE
  5
1B7
100
AcDbEntity
  8
0
  6
CONTINUOUS
 62
     7
100
AcDbLine
 10
399.447334
 20
354.675606
 30
0.0
 11
399.447334
 21
359.151223
 31
0.0
  0
LINE
  5
1B8
100
AcDbEntity
  8
0
  6
CONTINUOUS
 62
     7
100
AcDbLine
 10
472.898339
 20
360.650995
 30
0.0
 11
473.92295
 21
361.675606
 31
0.0
  0
LINE
  5
1B9
100
AcDbEntity
  8
0
  6
CONTINUOUS
 62
     7
100
AcDbLine
 10
400.947106
 20
360.650995
 30
0.0
 11
472.898339
 21
360.650995
 31
0.0
  0
LINE
  5
1BA
100
AcDbEntity
  8
0
  6
CONTINUOUS
 62
     7
100
AcDbLine
 10
473.92295
 20
184.675605
 30
0.0
 11
472.898339
 21
185.700216
 31
0.0
  0
LINE
  5
1BB
100
AcDbEntity
  8
0
  6
CONTINUOUS
 62
     7
100
AcDbLine
 10
472.898339
 20
185.700216
 30
0.0
 11
400.947106
 21
185.700216
 31
0.0
  0
LINE
  5
1BC
100
AcDbEntity
  8
0
  6
CONTINUOUS
 62
     7
100
AcDbLine
 10
475.422722
 20
360.175834
 30
0.0
 11
474.398111
 21
359.151223
 31
0.0
  0
ELLIPSE
  5
1BD
100
AcDbEntity
  8
0
  6
CONTINUOUS
 62
     7
100
AcDbEllipse
 10
472.897881
 20
359.150765
 30
0.0
 11
1.060983283754524
 21
1.060983283754239
 31
0.0
210
0.0
220
0.0
230
1.0
 40
0.999695
 41
5.497939437029865
 42
7.068431177329602
  0
LINE
  5
1BE
100
AcDbEntity
  8
0
  6
CONTINUOUS
 62
     7
100
AcDbLine
 10
474.398111
 20
187.199989
 30
0.0
 11
475.422722
 21
186.175377
 31
0.0
  0
ELLIPSE
  5
1BF
100
AcDbEntity
  8
0
  6
CONTINUOUS
 62
     7
100
AcDbEllipse
 10
472.897881
 20
187.200447
 30
0.0
 11
1.060983283754467
 21
-1.060983283754211
 31
0.0
210
0.0
220
0.0
230
1.0
 40
0.999695
 41
5.497939437029586
 42
7.068431177329334
  0
LINE
  5
1C0
100
AcDbEntity
  8
0
  6
CONTINUOUS
 62
     7
100
AcDbLine
 10
474.39811
 20
191.675606
 30
0.0
 11
475.422722
 21
191.675606
 31
0.0
  0
LINE
  5
1C1
100
AcDbEntity
  8
0
  6
CONTINUOUS
 62
     7
100
AcDbLine
 10
474.39811
 20
191.675606
 30
0.0
 11
474.398111
 21
187.199989
 31
0.0
  0
LINE
  5
1C2
100
AcDbEntity
  8
0
  6
CONTINUOUS
 62
     7
100
AcDbLine
 10
485.922722
 20
203.200218
 30
0.0
 11
485.922722
 21
202.175606
 31
0.0
  0
ARC
  5
1C3
100
AcDbEntity
  8
0
  6
CONTINUOUS
 62
     7
100
AcDbCircle
 10
485.922722
 20
191.675606
 30
0.0
 40
11.524612
100
AcDbArc
 50
90.0
 51
180.0
  0
LINE
  5
1C4
100
AcDbEntity
  8
0
  6
CONTINUOUS
 62
     7
100
AcDbLine
 10
474.39811
 20
354.675606
 30
0.0
 11
475.422722
 21
354.675606
 31
0.0
  0
LINE
  5
1C5
100
AcDbEntity
  8
0
  6
CONTINUOUS
 62
     7
100
AcDbLine
 10
474.398111
 20
359.151223
 30
0.0
 11
474.39811
 21
354.675606
 31
0.0
  0
LINE
  5
1C6
100
AcDbEntity
  8
0
  6
CONTINUOUS
 62
     7
100
AcDbLine
 10
485.922722
 20
343.150993
 30
0.0
 11
485.922722
 21
344.175606
 31
0.0
  0
ARC
  5
1C7
100
AcDbEntity
  8
0
  6
CONTINUOUS
 62
     7
100
AcDbCircle
 10
485.922722
 20
354.675606
 30
0.0
 40
11.524612
100
AcDbArc
 50
180.0
 51
270.0
  0
LINE
  5
1C8
100
AcDbEntity
  8
0
  6
CONTINUOUS
 62
     7
100
AcDbLine
 10
490.641044
 20
197.035103
 30
0.0
 11
490.252849
 21
197.175606
 31
0.0
  0
ARC
  5
1C9
100
AcDbEntity
  8
0
  6
CONTINUOUS
 62
     7
100
AcDbCircle
 10
485.922722
 20
191.675606
 30
0.0
 40
7.140503
100
AcDbArc
 50
221.359611
 51
48.640389
  0
LINE
  5
1CA
100
AcDbEntity
  8
0
  6
CONTINUOUS
 62
     7
100
AcDbLine
 10
480.563225
 20
186.957284
 30
0.0
 11
480.422722
 21
187.345479
 31
0.0
  0
LINE
  5
1CB
100
AcDbEntity
  8
0
  6
CONTINUOUS
 62
     7
100
AcDbLine
 10
492.022722
 20
363.652557
 30
0.0
 11
485.922722
 21
363.652557
 31
0.0
  0
LINE
  5
1CC
100
AcDbEntity
  8
0
  6
CONTINUOUS
 62
     7
100
AcDbLine
 10
485.922722
 20
363.652557
 30
0.0
 11
480.545771
 21
363.652558
 31
0.0
  0
LINE
  5
1CD
100
AcDbEntity
  8
0
  6
CONTINUOUS
 62
     7
100
AcDbLine
 10
480.545771
 20
363.652558
 30
0.0
 11
480.422721
 21
363.775605
 31
0.0
  0
LINE
  5
1CE
100
AcDbEntity
  8
0
  6
CONTINUOUS
 62
     7
100
AcDbLine
 10
492.022722
 20
363.652557
 30
0.0
 11
492.022722
 21
363.775606
 31
0.0
  0
ARC
  5
1CF
100
AcDbEntity
  8
0
  6
CONTINUOUS
 62
     7
100
AcDbCircle
 10
485.922722
 20
354.675606
 30
0.0
 40
7.140503
100
AcDbArc
 50
311.359611
 51
138.640389
  0
LINE
  5
1D0
100
AcDbEntity
  8
0
  6
CONTINUOUS
 62
     7
100
AcDbLine
 10
490.641044
 20
349.316108
 30
0.0
 11
490.252849
 21
349.175606
 31
0.0
  0
LINE
  5
1D1
100
AcDbEntity
  8
0
  6
CONTINUOUS
 62
     7
100
AcDbLine
 10
480.563225
 20
359.393928
 30
0.0
 11
480.422722
 21
359.005733
 31
0.0
  0
LINE
  5
1D2
100
AcDbEntity
  8
0
  6
CONTINUOUS
 62
     7
100
AcDbLine
 10
480.545771
 20
182.698653
 30
0.0
 11
480.422721
 21
182.575607
 31
0.0
  0
LINE
  5
1D3
100
AcDbEntity
  8
0
  6
CONTINUOUS
 62
     7
100
AcDbLine
 10
480.563225
 20
186.957284
 30
0.0
 11
480.563225
 21
184.737914
 31
0.0
  0
LINE
  5
1D4
100
AcDbEntity
  8
0
  6
CONTINUOUS
 62
     7
100
AcDbLine
 10
480.563225
 20
184.737914
 30
0.0
 11
480.545771
 21
184.487139
 31
0.0
  0
LINE
  5
1D5
100
AcDbEntity
  8
0
  6
CONTINUOUS
 62
     7
100
AcDbLine
 10
480.545771
 20
182.698653
 30
0.0
 11
480.545771
 21
184.487139
 31
0.0
  0
LINE
  5
1D6
100
AcDbEntity
  8
0
  6
CONTINUOUS
 62
     7
100
AcDbLine
 10
492.022722
 20
182.698655
 30
0.0
 11
492.022722
 21
182.575606
 31
0.0
  0
LINE
  5
1D7
100
AcDbEntity
  8
0
  6
CONTINUOUS
 62
     7
100
AcDbLine
 10
485.922722
 20
182.698655
 30
0.0
 11
480.545771
 21
182.698653
 31
0.0
  0
LINE
  5
1D8
100
AcDbEntity
  8
0
  6
CONTINUOUS
 62
     7
100
AcDbLine
 10
492.022722
 20
182.698655
 30
0.0
 11
485.922722
 21
182.698655
 31
0.0
  0
LINE
  5
1D9
100
AcDbEntity
  8
0
  6
CONTINUOUS
 62
     7
100
AcDbLine
 10
480.545771
 20
363.652558
 30
0.0
 11
480.545771
 21
361.864072
 31
0.0
  0
LINE
  5
1DA
100
AcDbEntity
  8
0
  6
CONTINUOUS
 62
     7
100
AcDbLine
 10
480.563225
 20
361.613297
 30
0.0
 11
480.545771
 21
361.864072
 31
0.0
  0
LINE
  5
1DB
100
AcDbEntity
  8
0
  6
CONTINUOUS
 62
     7
100
AcDbLine
 10
480.563225
 20
359.393928
 30
0.0
 11
480.563225
 21
361.613297
 31
0.0
  0
CIRCLE
  5
1DC
100
AcDbEntity
  8
0
  6
CONTINUOUS
 62
     7
100
AcDbCircle
 10
485.922722
 20
354.675606
 30
0.0
 40
3.93455
  0
CIRCLE
  5
1DD
100
AcDbEntity
  8
0
  6
CONTINUOUS
 62
     7
100
AcDbCircle
 10
485.922722
 20
191.675606
 30
0.0
 40
3.93455
  0
LINE
  5
1DE
100
AcDbEntity
  8
0
  6
CONTINUOUS
 62
     7
100
AcDbLine
 10
490.398337
 20
343.150997
 30
0.0
 11
491.422952
 21
344.175608
 31
0.0
  0
LINE
  5
1DF
100
AcDbEntity
  8
0
  6
CONTINUOUS
 62
     7
100
AcDbLine
 10
485.922722
 20
343.150993
 30
0.0
 11
490.398337
 21
343.150997
 31
0.0
  0
LINE
  5
1E0
100
AcDbEntity
  8
0
  6
CONTINUOUS
 62
     7
100
AcDbLine
 10
490.398337
 20
203.200215
 30
0.0
 11
485.922722
 21
203.200218
 31
0.0
  0
LINE
  5
1E1
100
AcDbEntity
  8
0
  6
CONTINUOUS
 62
     7
100
AcDbLine
 10
491.422952
 20
202.175603
 30
0.0
 11
490.398337
 21
203.200215
 31
0.0
  0
LINE
  5
1E2
100
AcDbEntity
  8
0
  6
CONTINUOUS
 62
     7
100
AcDbLine
 10
492.860414
 20
349.316108
 30
0.0
 11
490.641044
 21
349.316108
 31
0.0
  0
LINE
  5
1E3
100
AcDbEntity
  8
0
  6
CONTINUOUS
 62
     7
100
AcDbLine
 10
492.860414
 20
349.316108
 30
0.0
 11
493.111189
 21
349.298655
 31
0.0
  0
LINE
  5
1E4
100
AcDbEntity
  8
0
  6
CONTINUOUS
 62
     7
100
AcDbLine
 10
493.111189
 20
349.298655
 30
0.0
 11
494.899672
 21
349.298657
 31
0.0
  0
LINE
  5
1E5
100
AcDbEntity
  8
0
  6
CONTINUOUS
 62
     7
100
AcDbLine
 10
494.899672
 20
349.298657
 30
0.0
 11
495.022722
 21
349.175603
 31
0.0
  0
LINE
  5
1E6
100
AcDbEntity
  8
0
  6
CONTINUOUS
 62
     7
100
AcDbLine
 10
494.899672
 20
197.052554
 30
0.0
 11
495.022722
 21
197.175608
 31
0.0
  0
LINE
  5
1E7
100
AcDbEntity
  8
0
  6
CONTINUOUS
 62
     7
100
AcDbLine
 10
493.111189
 20
197.052557
 30
0.0
 11
494.899672
 21
197.052554
 31
0.0
  0
LINE
  5
1E8
100
AcDbEntity
  8
0
  6
CONTINUOUS
 62
     7
100
AcDbLine
 10
492.860414
 20
197.035103
 30
0.0
 11
493.111189
 21
197.052557
 31
0.0
  0
LINE
  5
1E9
100
AcDbEntity
  8
0
  6
CONTINUOUS
 62
     7
100
AcDbLine
 10
492.860414
 20
197.035103
 30
0.0
 11
490.641044
 21
197.035103
 31
0.0
  0
LINE
  5
1EA
100
AcDbEntity
  8
0
  6
CONTINUOUS
 62
     7
100
AcDbLine
 10
491.898109
 20
204.699987
 30
0.0
 11
492.922724
 21
203.675375
 31
0.0
  0
ELLIPSE
  5
1EB
100
AcDbEntity
  8
0
  6
CONTINUOUS
 62
     7
100
AcDbEllipse
 10
490.397881
 20
204.700447
 30
0.0
 11
1.06098328375458
 21
-1.060983283754239
 31
0.0
210
0.0
220
0.0
230
1.0
 40
0.999695
 41
5.497939437029539
 42
7.068431177329301
  0
LINE
  5
1EC
100
AcDbEntity
  8
0
  6
CONTINUOUS
 62
     7
100
AcDbLine
 10
492.922724
 20
342.675836
 30
0.0
 11
491.898109
 21
341.651225
 31
0.0
  0
ELLIPSE
  5
1ED
100
AcDbEntity
  8
0
  6
CONTINUOUS
 62
     7
100
AcDbEllipse
 10
490.397881
 20
341.650765
 30
0.0
 11
1.060983283754467
 21
1.060983283754183
 31
0.0
210
0.0
220
0.0
230
1.0
 40
0.999695
 41
5.497939437029905
 42
7.0684311773296
  0
LINE
  5
1EE
100
AcDbEntity
  8
0
  6
CONTINUOUS
 62
     7
100
AcDbLine
 10
491.898109
 20
341.651225
 30
0.0
 11
491.898109
 21
204.699987
 31
0.0
  0
LINE
  5
1EF
100
AcDbEntity
  8
0
  6
CONTINUOUS
 62
     7
100
AcDbLine
 10
494.899673
 20
185.575606
 30
0.0
 11
495.022722
 21
185.575606
 31
0.0
  0
ARC
  5
1F0
100
AcDbEntity
  8
0
  6
CONTINUOUS
 62
     7
100
AcDbCircle
 10
492.022722
 20
185.575606
 30
0.0
 40
2.876951
100
AcDbArc
 50
270.0
 51
0.0
  0
ARC
  5
1F1
100
AcDbEntity
  8
0
  6
CONTINUOUS
 62
     7
100
AcDbCircle
 10
492.022722
 20
360.775606
 30
0.0
 40
2.876951
100
AcDbArc
 50
0.0
 51
90.0
  0
LINE
  5
1F2
100
AcDbEntity
  8
0
  6
CONTINUOUS
 62
     7
100
AcDbLine
 10
494.899673
 20
360.775606
 30
0.0
 11
495.022722
 21
360.775606
 31
0.0
  0
LINE
  5
1F3
100
AcDbEntity
  8
0
  6
CONTINUOUS
 62
     7
100
AcDbLine
 10
494.899672
 20
349.298657
 30
0.0
 11
494.899673
 21
354.675606
 31
0.0
  0
LINE
  5
1F4
100
AcDbEntity
  8
0
  6
CONTINUOUS
 62
     7
100
AcDbLine
 10
494.899673
 20
354.675606
 30
0.0
 11
494.899673
 21
360.775606
 31
0.0
  0
LINE
  5
1F5
100
AcDbEntity
  8
0
  6
CONTINUOUS
 62
     7
100
AcDbLine
 10
494.899673
 20
191.675606
 30
0.0
 11
494.899673
 21
185.575606
 31
0.0
  0
LINE
  5
1F6
100
AcDbEntity
  8
0
  6
CONTINUOUS
 62
     7
100
AcDbLine
 10
494.899672
 20
197.052554
 30
0.0
 11
494.899673
 21
191.675606
 31
0.0
  0
ARC
  5
1F7
100
AcDbEntity
  8
0
  6
CONTINUOUS
 62
     7
100
AcDbCircle
 10
387.922722
 20
191.675606
 30
0.0
 40
8.976951
100
AcDbArc
 50
143.203622
 51
180.0
  0
ARC
  5
1F8
100
AcDbEntity
  8
0
  6
CONTINUOUS
 62
     7
100
AcDbCircle
 10
387.922722
 20
354.675606
 30
0.0
 40
8.976951
100
AcDbArc
 50
90.0
 51
180.0
  0
ARC
  5
1F9
100
AcDbEntity
  8
0
  6
CONTINUOUS
 62
     7
100
AcDbCircle
 10
387.922722
 20
191.675606
 30
0.0
 40
8.976951
100
AcDbArc
 50
180.0
 51
270.0
  0
ARC
  5
1FA
100
AcDbEntity
  8
0
  6
CONTINUOUS
 62
     7
100
AcDbCircle
 10
387.922722
 20
354.675606
 30
0.0
 40
8.766743
100
AcDbArc
 50
52.313238
 51
217.686762
  0
ARC
  5
1FB
100
AcDbEntity
  8
0
  6
CONTINUOUS
 62
     7
100
AcDbCircle
 10
387.922722
 20
354.675606
 30
0.0
 40
8.976951
100
AcDbArc
 50
180.0
 51
216.796378
  0
ARC
  5
1FC
100
AcDbEntity
  8
0
  6
CONTINUOUS
 62
     7
100
AcDbCircle
 10
387.922722
 20
354.675606
 30
0.0
 40
8.976951
100
AcDbArc
 50
53.203622
 51
90.0
  0
ARC
  5
1FD
100
AcDbEntity
  8
0
  6
CONTINUOUS
 62
     7
100
AcDbCircle
 10
387.922722
 20
191.675606
 30
0.0
 40
8.766743
100
AcDbArc
 50
142.313238
 51
307.686762
  0
ARC
  5
1FE
100
AcDbEntity
  8
0
  6
CONTINUOUS
 62
     7
100
AcDbCircle
 10
387.922722
 20
191.675606
 30
0.0
 40
8.976951
100
AcDbArc
 50
270.0
 51
306.796378
  0
ARC
  5
1FF
100
AcDbEntity
  8
0
  6
CONTINUOUS
 62
     7
100
AcDbCircle
 10
485.922722
 20
191.675606
 30
0.0
 40
8.976951
100
AcDbArc
 50
233.203622
 51
270.0
  0
ARC
  5
200
100
AcDbEntity
  8
0
  6
CONTINUOUS
 62
     7
100
AcDbCircle
 10
485.922722
 20
191.675606
 30
0.0
 40
8.766743
100
AcDbArc
 50
232.313238
 51
37.686762
  0
ARC
  5
201
100
AcDbEntity
  8
0
  6
CONTINUOUS
 62
     7
100
AcDbCircle
 10
485.922722
 20
191.675606
 30
0.0
 40
8.976951
100
AcDbArc
 50
0.0
 51
36.796378
  0
ARC
  5
202
100
AcDbEntity
  8
0
  6
CONTINUOUS
 62
     7
100
AcDbCircle
 10
485.922722
 20
191.675606
 30
0.0
 40
8.976951
100
AcDbArc
 50
270.0
 51
0.0
  0
ARC
  5
203
100
AcDbEntity
  8
0
  6
CONTINUOUS
 62
     7
100
AcDbCircle
 10
485.922722
 20
354.675606
 30
0.0
 40
8.976951
100
AcDbArc
 50
90.0
 51
126.796378
  0
ARC
  5
204
100
AcDbEntity
  8
0
  6
CONTINUOUS
 62
     7
100
AcDbCircle
 10
485.922722
 20
354.675606
 30
0.0
 40
8.976951
100
AcDbArc
 50
0.0
 51
90.0
  0
ARC
  5
205
100
AcDbEntity
  8
0
  6
CONTINUOUS
 62
     7
100
AcDbCircle
 10
485.922722
 20
354.675606
 30
0.0
 40
8.976951
100
AcDbArc
 50
323.203622
 51
0.0
  0
ARC
  5
206
100
AcDbEntity
  8
0
  6
CONTINUOUS
 62
     7
100
AcDbCircle
 10
485.922722
 20
354.675606
 30
0.0
 40
8.766743
100
AcDbArc
 50
322.313238
 51
127.686762
  0
CIRCLE
  5
207
100
AcDbEntity
  8
0
  6
CONTINUOUS
 62
     7
100
AcDbCircle
 10
387.922722
 20
354.675606
 30
0.0
 40
3.720396
  0
CIRCLE
  5
208
100
AcDbEntity
  8
0
  6
CONTINUOUS
 62
     7
100
AcDbCircle
 10
387.922722
 20
191.675606
 30
0.0
 40
3.720396
  0
CIRCLE
  5
209
100
AcDbEntity
  8
0
  6
CONTINUOUS
 62
     7
100
AcDbCircle
 10
485.922722
 20
191.675606
 30
0.0
 40
3.720396
  0
CIRCLE
  5
20A
100
AcDbEntity
  8
0
  6
CONTINUOUS
 62
     7
100
AcDbCircle
 10
485.922722
 20
354.675606
 30
0.0
 40
3.720396
  0
CIRCLE
  5
20B
100
AcDbEntity
  8
0
  6
CONTINUOUS
 62
     7
100
AcDbCircle
 10
389.622722
 20
223.175606
 30
0.0
 40
3.369087
  0
CIRCLE
  5
20C
100
AcDbEntity
  8
0
  6
CONTINUOUS
 62
     7
100
AcDbCircle
 10
389.622722
 20
323.175606
 30
0.0
 40
3.369087
  0
CIRCLE
  5
20D
100
AcDbEntity
  8
0
  6
CONTINUOUS
 62
     7
100
AcDbCircle
 10
389.622722
 20
323.175606
 30
0.0
 40
3.5
  0
CIRCLE
  5
20E
100
AcDbEntity
  8
0
  6
CONTINUOUS
 62
     7
100
AcDbCircle
 10
389.622722
 20
223.175606
 30
0.0
 40
3.5
  0
ARC
  5
20F
100
AcDbEntity
  8
0
  6
CONTINUOUS
 62
     7
100
AcDbCircle
 10
396.922722
 20
273.175606
 30
0.0
 40
3.369087
100
AcDbArc
 50
215.289361
 51
144.710639
  0
ARC
  5
210
100
AcDbEntity
  8
0
  6
CONTINUOUS
 62
     7
100
AcDbCircle
 10
391.422722
 20
273.175606
 30
0.0
 40
3.369087
100
AcDbArc
 50
282.862509
 51
324.710639
  0
LINE
  5
211
100
AcDbEntity
  8
0
  6
CONTINUOUS
 62
     7
100
AcDbLine
 10
392.172721
 20
266.675606
 30
0.0
 11
392.172722
 21
269.891059
 31
0.0
  0
LINE
  5
212
100
AcDbEntity
  8
0
  6
CONTINUOUS
 62
     7
100
AcDbLine
 10
390.672722
 20
266.675606
 30
0.0
 11
392.172721
 21
266.675606
 31
0.0
  0
LINE
  5
213
100
AcDbEntity
  8
0
  6
CONTINUOUS
 62
     7
100
AcDbLine
 10
390.672722
 20
269.891059
 30
0.0
 11
390.672722
 21
266.675606
 31
0.0
  0
ARC
  5
214
100
AcDbEntity
  8
0
  6
CONTINUOUS
 62
     7
100
AcDbCircle
 10
391.422722
 20
273.175606
 30
0.0
 40
3.369087
100
AcDbArc
 50
102.862509
 51
257.137491
  0
LINE
  5
215
100
AcDbEntity
  8
0
  6
CONTINUOUS
 62
     7
100
AcDbLine
 10
390.672722
 20
279.675606
 30
0.0
 11
390.672722
 21
276.460152
 31
0.0
  0
LINE
  5
216
100
AcDbEntity
  8
0
  6
CONTINUOUS
 62
     7
100
AcDbLine
 10
392.172721
 20
279.675606
 30
0.0
 11
390.672722
 21
279.675606
 31
0.0
  0
LINE
  5
217
100
AcDbEntity
  8
0
  6
CONTINUOUS
 62
     7
100
AcDbLine
 10
392.172722
 20
276.460152
 30
0.0
 11
392.172721
 21
279.675606
 31
0.0
  0
ARC
  5
218
100
AcDbEntity
  8
0
  6
CONTINUOUS
 62
     7
100
AcDbCircle
 10
391.422722
 20
273.175606
 30
0.0
 40
3.369087
100
AcDbArc
 50
35.289361
 51
77.137491
  0
CIRCLE
  5
219
100
AcDbEntity
  8
0
  6
CONTINUOUS
 62
     7
100
AcDbCircle
 10
396.922722
 20
273.175606
 30
0.0
 40
2.0
  0
CIRCLE
  5
21A
100
AcDbEntity
  8
0
  6
CONTINUOUS
 62
     7
100
AcDbCircle
 10
391.422722
 20
273.175606
 30
0.0
 40
2.0
  0
LINE
  5
21B
100
AcDbEntity
  8
0
  6
CONTINUOUS
 62
     7
100
AcDbLine
 10
390.541809
 20
269.788278
 30
0.0
 11
390.672722
 21
269.891059
 31
0.0
  0
ARC
  5
21C
100
AcDbEntity
  8
0
  6
CONTINUOUS
 62
     7
100
AcDbCircle
 10
391.422722
 20
273.175606
 30
0.0
 40
3.5
100
AcDbArc
 50
104.577506
 51
255.422494
  0
LWPOLYLINE
  5
21D
100
AcDbEntity
  8
0
  6
CONTINUOUS
 62
     7
100
AcDbPolyline
 90
        3
 70
   128
 43
0.0
 10
390.672722
 20
276.460153
 10
390.557156
 20
276.551047
 10
390.541807
 20
276.562934
  0
CIRCLE
  5
21E
100
AcDbEntity
  8
0
  6
CONTINUOUS
 62
     7
100
AcDbCircle
 10
391.422722
 20
273.175606
 30
0.0
 40
1.982545
  0
LINE
  5
21F
100
AcDbEntity
  8
0
  6
CONTINUOUS
 62
     7
100
AcDbLine
 10
390.541807
 20
266.544693
 30
0.0
 11
390.672722
 21
266.675606
 31
0.0
  0
LINE
  5
220
100
AcDbEntity
  8
0
  6
CONTINUOUS
 62
     7
100
AcDbLine
 10
392.303635
 20
266.544693
 30
0.0
 11
392.172721
 21
266.675606
 31
0.0
  0
LINE
  5
221
100
AcDbEntity
  8
0
  6
CONTINUOUS
 62
     7
100
AcDbLine
 10
392.303635
 20
266.544693
 30
0.0
 11
390.541807
 21
266.544693
 31
0.0
  0
LINE
  5
222
100
AcDbEntity
  8
0
  6
CONTINUOUS
 62
     7
100
AcDbLine
 10
390.541807
 20
266.544693
 30
0.0
 11
390.541809
 21
269.788278
 31
0.0
  0
LINE
  5
223
100
AcDbEntity
  8
0
  6
CONTINUOUS
 62
     7
100
AcDbLine
 10
390.541809
 20
276.562934
 30
0.0
 11
390.541807
 21
279.806519
 31
0.0
  0
LINE
  5
224
100
AcDbEntity
  8
0
  6
CONTINUOUS
 62
     7
100
AcDbLine
 10
390.541807
 20
279.806519
 30
0.0
 11
390.672722
 21
279.675606
 31
0.0
  0
LINE
  5
225
100
AcDbEntity
  8
0
  6
CONTINUOUS
 62
     7
100
AcDbLine
 10
392.303635
 20
279.806519
 30
0.0
 11
392.172721
 21
279.675606
 31
0.0
  0
LINE
  5
226
100
AcDbEntity
  8
0
  6
CONTINUOUS
 62
     7
100
AcDbLine
 10
390.541807
 20
279.806519
 30
0.0
 11
392.303635
 21
279.806519
 31
0.0
  0
LINE
  5
227
100
AcDbEntity
  8
0
  6
CONTINUOUS
 62
     7
100
AcDbLine
 10
392.303635
 20
269.788278
 30
0.0
 11
392.303635
 21
266.544693
 31
0.0
  0
LWPOLYLINE
  5
228
100
AcDbEntity
  8
0
  6
CONTINUOUS
 62
     7
100
AcDbPolyline
 90
        3
 70
   128
 43
0.0
 10
392.172721
 20
269.891059
 10
392.288287
 20
269.800165
 10
392.303635
 20
269.788278
  0
LINE
  5
229
100
AcDbEntity
  8
0
  6
CONTINUOUS
 62
     7
100
AcDbLine
 10
392.303635
 20
279.806519
 30
0.0
 11
392.303635
 21
276.562934
 31
0.0
  0
LINE
  5
22A
100
AcDbEntity
  8
0
  6
CONTINUOUS
 62
     7
100
AcDbLine
 10
392.303635
 20
276.562934
 30
0.0
 11
392.172722
 21
276.460152
 31
0.0
  0
LINE
  5
22B
100
AcDbEntity
  8
0
  6
CONTINUOUS
 62
     7
100
AcDbLine
 10
394.172722
 20
275.121948
 30
0.0
 11
394.172722
 21
275.340669
 31
0.0
  0
ARC
  5
22C
100
AcDbEntity
  8
0
  6
CONTINUOUS
 62
     7
100
AcDbCircle
 10
391.422722
 20
273.175606
 30
0.0
 40
3.5
100
AcDbArc
 50
38.213211
 51
75.422494
  0
LINE
  5
22D
100
AcDbEntity
  8
0
  6
CONTINUOUS
 62
     7
100
AcDbLine
 10
394.172722
 20
271.229264
 30
0.0
 11
394.172722
 21
271.010542
 31
0.0
  0
ARC
  5
22E
100
AcDbEntity
  8
0
  6
CONTINUOUS
 62
     7
100
AcDbCircle
 10
391.422722
 20
273.175606
 30
0.0
 40
3.5
100
AcDbArc
 50
284.577506
 51
321.786789
  0
ARC
  5
22F
100
AcDbEntity
  8
0
  6
CONTINUOUS
 62
     7
100
AcDbCircle
 10
396.922722
 20
273.175606
 30
0.0
 40
3.5
100
AcDbArc
 50
218.213211
 51
141.786789
  0
CIRCLE
  5
230
100
AcDbEntity
  8
0
  6
CONTINUOUS
 62
     7
100
AcDbCircle
 10
396.922722
 20
273.175606
 30
0.0
 40
1.982545
  0
CIRCLE
  5
231
100
AcDbEntity
  8
0
  6
CONTINUOUS
 62
     7
100
AcDbCircle
 10
404.422722
 20
341.175606
 30
0.0
 40
3.369087
  0
CIRCLE
  5
232
100
AcDbEntity
  8
0
  6
CONTINUOUS
 62
     7
100
AcDbCircle
 10
404.422722
 20
341.175606
 30
0.0
 40
2.0
  0
CIRCLE
  5
233
100
AcDbEntity
  8
0
  6
CONTINUOUS
 62
     7
100
AcDbCircle
 10
404.422722
 20
341.175606
 30
0.0
 40
3.5
  0
CIRCLE
  5
234
100
AcDbEntity
  8
0
  6
CONTINUOUS
 62
     7
100
AcDbCircle
 10
404.422722
 20
205.175606
 30
0.0
 40
3.369087
  0
CIRCLE
  5
235
100
AcDbEntity
  8
0
  6
CONTINUOUS
 62
     7
100
AcDbCircle
 10
404.422722
 20
205.175606
 30
0.0
 40
2.0
  0
CIRCLE
  5
236
100
AcDbEntity
  8
0
  6
CONTINUOUS
 62
     7
100
AcDbCircle
 10
404.422722
 20
205.175606
 30
0.0
 40
3.5
  0
CIRCLE
  5
237
100
AcDbEntity
  8
0
  6
CONTINUOUS
 62
     7
100
AcDbCircle
 10
404.422722
 20
205.175606
 30
0.0
 40
1.982545
  0
CIRCLE
  5
238
100
AcDbEntity
  8
0
  6
CONTINUOUS
 62
     7
100
AcDbCircle
 10
404.422722
 20
341.175606
 30
0.0
 40
1.982545
  0
LINE
  5
239
100
AcDbEntity
  8
0
  6
CONTINUOUS
 62
     7
100
AcDbLine
 10
433.535394
 20
207.294693
 30
0.0
 11
430.291809
 21
207.294696
 31
0.0
  0
LINE
  5
23A
100
AcDbEntity
  8
0
  6
CONTINUOUS
 62
     7
100
AcDbLine
 10
430.291809
 20
207.294696
 30
0.0
 11
430.422722
 21
207.425603
 31
0.0
  0
LINE
  5
23B
100
AcDbEntity
  8
0
  6
CONTINUOUS
 62
     7
100
AcDbLine
 10
430.422722
 20
207.425603
 30
0.0
 11
433.638175
 21
207.425606
 31
0.0
  0
LWPOLYLINE
  5
23C
100
AcDbEntity
  8
0
  6
CONTINUOUS
 62
     7
100
AcDbPolyline
 90
        3
 70
   128
 43
0.0
 10
433.638175
 20
207.425603
 10
433.547281
 20
207.310037
 10
433.535394
 20
207.294696
  0
LINE
  5
23D
100
AcDbEntity
  8
0
  6
CONTINUOUS
 62
     7
100
AcDbLine
 10
430.291809
 20
339.056515
 30
0.0
 11
430.422722
 21
338.925609
 31
0.0
  0
LINE
  5
23E
100
AcDbEntity
  8
0
  6
CONTINUOUS
 62
     7
100
AcDbLine
 10
430.422722
 20
338.925609
 30
0.0
 11
430.422722
 21
337.425606
 31
0.0
  0
LINE
  5
23F
100
AcDbEntity
  8
0
  6
CONTINUOUS
 62
     7
100
AcDbLine
 10
430.291809
 20
337.294691
 30
0.0
 11
430.422722
 21
337.425606
 31
0.0
  0
LINE
  5
240
100
AcDbEntity
  8
0
  6
CONTINUOUS
 62
     7
100
AcDbLine
 10
430.291809
 20
337.294691
 30
0.0
 11
430.291809
 21
339.056515
 31
0.0
  0
LINE
  5
241
100
AcDbEntity
  8
0
  6
CONTINUOUS
 62
     7
100
AcDbLine
 10
430.422722
 20
208.925606
 30
0.0
 11
430.422722
 21
207.425603
 31
0.0
  0
LINE
  5
242
100
AcDbEntity
  8
0
  6
CONTINUOUS
 62
     7
100
AcDbLine
 10
433.638175
 20
208.925606
 30
0.0
 11
430.422722
 21
208.925606
 31
0.0
  0
ARC
  5
243
100
AcDbEntity
  8
0
  6
CONTINUOUS
 62
     7
100
AcDbCircle
 10
436.922722
 20
208.175606
 30
0.0
 40
3.369087
100
AcDbArc
 50
12.862509
 51
167.137491
  0
LINE
  5
244
100
AcDbEntity
  8
0
  6
CONTINUOUS
 62
     7
100
AcDbLine
 10
443.422722
 20
208.925606
 30
0.0
 11
440.207269
 21
208.925606
 31
0.0
  0
LINE
  5
245
100
AcDbEntity
  8
0
  6
CONTINUOUS
 62
     7
100
AcDbLine
 10
443.422722
 20
207.425603
 30
0.0
 11
443.422722
 21
208.925606
 31
0.0
  0
LINE
  5
246
100
AcDbEntity
  8
0
  6
CONTINUOUS
 62
     7
100
AcDbLine
 10
440.207269
 20
207.425606
 30
0.0
 11
443.422722
 21
207.425603
 31
0.0
  0
ARC
  5
247
100
AcDbEntity
  8
0
  6
CONTINUOUS
 62
     7
100
AcDbCircle
 10
436.922722
 20
208.175606
 30
0.0
 40
3.369087
100
AcDbArc
 50
192.862509
 51
347.137491
  0
CIRCLE
  5
248
100
AcDbEntity
  8
0
  6
CONTINUOUS
 62
     7
100
AcDbCircle
 10
436.922722
 20
208.175606
 30
0.0
 40
2.0
  0
LINE
  5
249
100
AcDbEntity
  8
0
  6
CONTINUOUS
 62
     7
100
AcDbLine
 10
433.638175
 20
338.925606
 30
0.0
 11
430.422722
 21
338.925609
 31
0.0
  0
LINE
  5
24A
100
AcDbEntity
  8
0
  6
CONTINUOUS
 62
     7
100
AcDbLine
 10
430.291809
 20
339.056515
 30
0.0
 11
433.535394
 21
339.056519
 31
0.0
  0
LINE
  5
24B
100
AcDbEntity
  8
0
  6
CONTINUOUS
 62
     7
100
AcDbLine
 10
433.535394
 20
339.056519
 30
0.0
 11
433.638175
 21
338.925606
 31
0.0
  0
LINE
  5
24C
100
AcDbEntity
  8
0
  6
CONTINUOUS
 62
     7
100
AcDbLine
 10
430.291809
 20
209.05652
 30
0.0
 11
430.422722
 21
208.925606
 31
0.0
  0
LINE
  5
24D
100
AcDbEntity
  8
0
  6
CONTINUOUS
 62
     7
100
AcDbLine
 10
430.291809
 20
209.05652
 30
0.0
 11
433.535394
 21
209.056519
 31
0.0
  0
LINE
  5
24E
100
AcDbEntity
  8
0
  6
CONTINUOUS
 62
     7
100
AcDbLine
 10
433.535394
 20
209.056519
 30
0.0
 11
433.638175
 21
208.925606
 31
0.0
  0
LINE
  5
24F
100
AcDbEntity
  8
0
  6
CONTINUOUS
 62
     7
100
AcDbLine
 10
430.291809
 20
207.294696
 30
0.0
 11
430.291809
 21
209.05652
 31
0.0
  0
LINE
  5
250
100
AcDbEntity
  8
0
  6
CONTINUOUS
 62
     7
100
AcDbLine
 10
430.422722
 20
337.425606
 30
0.0
 11
433.638175
 21
337.425606
 31
0.0
  0
ARC
  5
251
100
AcDbEntity
  8
0
  6
CONTINUOUS
 62
     7
100
AcDbCircle
 10
436.922722
 20
338.175606
 30
0.0
 40
3.369087
100
AcDbArc
 50
12.862509
 51
167.137491
  0
LINE
  5
252
100
AcDbEntity
  8
0
  6
CONTINUOUS
 62
     7
100
AcDbLine
 10
443.422722
 20
338.925609
 30
0.0
 11
440.207269
 21
338.925606
 31
0.0
  0
LINE
  5
253
100
AcDbEntity
  8
0
  6
CONTINUOUS
 62
     7
100
AcDbLine
 10
443.422722
 20
337.425606
 30
0.0
 11
443.422722
 21
338.925609
 31
0.0
  0
LINE
  5
254
100
AcDbEntity
  8
0
  6
CONTINUOUS
 62
     7
100
AcDbLine
 10
440.207269
 20
337.425606
 30
0.0
 11
443.422722
 21
337.425606
 31
0.0
  0
ARC
  5
255
100
AcDbEntity
  8
0
  6
CONTINUOUS
 62
     7
100
AcDbCircle
 10
436.922722
 20
338.175606
 30
0.0
 40
3.369087
100
AcDbArc
 50
192.862509
 51
347.137491
  0
CIRCLE
  5
256
100
AcDbEntity
  8
0
  6
CONTINUOUS
 62
     7
100
AcDbCircle
 10
436.922722
 20
338.175606
 30
0.0
 40
2.0
  0
LINE
  5
257
100
AcDbEntity
  8
0
  6
CONTINUOUS
 62
     7
100
AcDbLine
 10
433.535394
 20
337.294693
 30
0.0
 11
430.291809
 21
337.294691
 31
0.0
  0
LWPOLYLINE
  5
258
100
AcDbEntity
  8
0
  6
CONTINUOUS
 62
     7
100
AcDbPolyline
 90
        3
 70
   128
 43
0.0
 10
433.638175
 20
337.425606
 10
433.547281
 20
337.31004
 10
433.535394
 20
337.294691
  0
CIRCLE
  5
259
100
AcDbEntity
  8
0
  6
CONTINUOUS
 62
     7
100
AcDbCircle
 10
436.922722
 20
193.375606
 30
0.0
 40
3.5
  0
CIRCLE
  5
25A
100
AcDbEntity
  8
0
  6
CONTINUOUS
 62
     7
100
AcDbCircle
 10
436.922722
 20
193.375606
 30
0.0
 40
3.369087
  0
CIRCLE
  5
25B
100
AcDbEntity
  8
0
  6
CONTINUOUS
 62
     7
100
AcDbCircle
 10
436.922722
 20
352.975606
 30
0.0
 40
3.5
  0
CIRCLE
  5
25C
100
AcDbEntity
  8
0
  6
CONTINUOUS
 62
     7
100
AcDbCircle
 10
436.922722
 20
352.975606
 30
0.0
 40
3.369087
  0
LINE
  5
25D
100
AcDbEntity
  8
0
  6
CONTINUOUS
 62
     7
100
AcDbLine
 10
440.31005
 20
337.294693
 30
0.0
 11
440.207269
 21
337.425606
 31
0.0
  0
ARC
  5
25E
100
AcDbEntity
  8
0
  6
CONTINUOUS
 62
     7
100
AcDbCircle
 10
436.922722
 20
338.175606
 30
0.0
 40
3.5
100
AcDbArc
 50
194.577506
 51
345.422494
  0
ARC
  5
25F
100
AcDbEntity
  8
0
  6
CONTINUOUS
 62
     7
100
AcDbCircle
 10
436.922722
 20
208.175606
 30
0.0
 40
3.5
100
AcDbArc
 50
14.577506
 51
165.422494
  0
LWPOLYLINE
  5
260
100
AcDbEntity
  8
0
  6
CONTINUOUS
 62
     7
100
AcDbPolyline
 90
        3
 70
   128
 43
0.0
 10
440.207269
 20
208.925606
 10
440.298163
 20
209.041172
 10
440.31005
 20
209.05652
  0
LINE
  5
261
100
AcDbEntity
  8
0
  6
CONTINUOUS
 62
     7
100
AcDbLine
 10
440.31005
 20
207.294693
 30
0.0
 11
440.207269
 21
207.425606
 31
0.0
  0
ARC
  5
262
100
AcDbEntity
  8
0
  6
CONTINUOUS
 62
     7
100
AcDbCircle
 10
436.922722
 20
208.175606
 30
0.0
 40
3.5
100
AcDbArc
 50
194.577506
 51
345.422494
  0
ARC
  5
263
100
AcDbEntity
  8
0
  6
CONTINUOUS
 62
     7
100
AcDbCircle
 10
436.922722
 20
338.175606
 30
0.0
 40
3.5
100
AcDbArc
 50
14.577506
 51
165.422494
  0
LWPOLYLINE
  5
264
100
AcDbEntity
  8
0
  6
CONTINUOUS
 62
     7
100
AcDbPolyline
 90
        3
 70
   128
 43
0.0
 10
440.207269
 20
338.925609
 10
440.298163
 20
339.041175
 10
440.31005
 20
339.056515
  0
CIRCLE
  5
265
100
AcDbEntity
  8
0
  6
CONTINUOUS
 62
     7
100
AcDbCircle
 10
436.922722
 20
208.175606
 30
0.0
 40
1.982545
  0
CIRCLE
  5
266
100
AcDbEntity
  8
0
  6
CONTINUOUS
 62
     7
100
AcDbCircle
 10
436.922722
 20
338.175606
 30
0.0
 40
1.982545
  0
LINE
  5
267
100
AcDbEntity
  8
0
  6
CONTINUOUS
 62
     7
100
AcDbLine
 10
440.31005
 20
209.056519
 30
0.0
 11
443.553635
 21
209.05652
 31
0.0
  0
LINE
  5
268
100
AcDbEntity
  8
0
  6
CONTINUOUS
 62
     7
100
AcDbLine
 10
443.553635
 20
209.05652
 30
0.0
 11
443.422722
 21
208.925606
 31
0.0
  0
LINE
  5
269
100
AcDbEntity
  8
0
  6
CONTINUOUS
 62
     7
100
AcDbLine
 10
440.31005
 20
339.056519
 30
0.0
 11
443.553635
 21
339.056515
 31
0.0
  0
LINE
  5
26A
100
AcDbEntity
  8
0
  6
CONTINUOUS
 62
     7
100
AcDbLine
 10
443.553635
 20
339.056515
 30
0.0
 11
443.422722
 21
338.925609
 31
0.0
  0
LINE
  5
26B
100
AcDbEntity
  8
0
  6
CONTINUOUS
 62
     7
100
AcDbLine
 10
443.553635
 20
337.294691
 30
0.0
 11
443.422722
 21
337.425606
 31
0.0
  0
LINE
  5
26C
100
AcDbEntity
  8
0
  6
CONTINUOUS
 62
     7
100
AcDbLine
 10
443.553635
 20
337.294691
 30
0.0
 11
440.31005
 21
337.294693
 31
0.0
  0
LINE
  5
26D
100
AcDbEntity
  8
0
  6
CONTINUOUS
 62
     7
100
AcDbLine
 10
443.553635
 20
207.294696
 30
0.0
 11
443.422722
 21
207.425603
 31
0.0
  0
LINE
  5
26E
100
AcDbEntity
  8
0
  6
CONTINUOUS
 62
     7
100
AcDbLine
 10
443.553635
 20
207.294696
 30
0.0
 11
440.31005
 21
207.294693
 31
0.0
  0
LINE
  5
26F
100
AcDbEntity
  8
0
  6
CONTINUOUS
 62
     7
100
AcDbLine
 10
443.553635
 20
209.05652
 30
0.0
 11
443.553635
 21
207.294696
 31
0.0
  0
LINE
  5
270
100
AcDbEntity
  8
0
  6
CONTINUOUS
 62
     7
100
AcDbLine
 10
443.553635
 20
339.056515
 30
0.0
 11
443.553635
 21
337.294691
 31
0.0
  0
CIRCLE
  5
271
100
AcDbEntity
  8
0
  6
CONTINUOUS
 62
     7
100
AcDbCircle
 10
469.422722
 20
205.175606
 30
0.0
 40
3.5
  0
CIRCLE
  5
272
100
AcDbEntity
  8
0
  6
CONTINUOUS
 62
     7
100
AcDbCircle
 10
469.422722
 20
205.175606
 30
0.0
 40
3.369087
  0
CIRCLE
  5
273
100
AcDbEntity
  8
0
  6
CONTINUOUS
 62
     7
100
AcDbCircle
 10
469.422722
 20
205.175606
 30
0.0
 40
2.0
  0
CIRCLE
  5
274
100
AcDbEntity
  8
0
  6
CONTINUOUS
 62
     7
100
AcDbCircle
 10
469.422722
 20
341.175606
 30
0.0
 40
3.5
  0
CIRCLE
  5
275
100
AcDbEntity
  8
0
  6
CONTINUOUS
 62
     7
100
AcDbCircle
 10
469.422722
 20
341.175606
 30
0.0
 40
3.369087
  0
CIRCLE
  5
276
100
AcDbEntity
  8
0
  6
CONTINUOUS
 62
     7
100
AcDbCircle
 10
469.422722
 20
341.175606
 30
0.0
 40
2.0
  0
CIRCLE
  5
277
100
AcDbEntity
  8
0
  6
CONTINUOUS
 62
     7
100
AcDbCircle
 10
469.422722
 20
341.175606
 30
0.0
 40
1.982545
  0
CIRCLE
  5
278
100
AcDbEntity
  8
0
  6
CONTINUOUS
 62
     7
100
AcDbCircle
 10
469.422722
 20
205.175606
 30
0.0
 40
1.982545
  0
LINE
  5
279
100
AcDbEntity
  8
0
  6
CONTINUOUS
 62
     7
100
AcDbLine
 10
483.172723
 20
266.675606
 30
0.0
 11
483.172722
 21
269.891059
 31
0.0
  0
LINE
  5
27A
100
AcDbEntity
  8
0
  6
CONTINUOUS
 62
     7
100
AcDbLine
 10
481.672723
 20
266.675606
 30
0.0
 11
483.172723
 21
266.675606
 31
0.0
  0
LINE
  5
27B
100
AcDbEntity
  8
0
  6
CONTINUOUS
 62
     7
100
AcDbLine
 10
481.672722
 20
269.891059
 30
0.0
 11
481.672723
 21
266.675606
 31
0.0
  0
ARC
  5
27C
100
AcDbEntity
  8
0
  6
CONTINUOUS
 62
     7
100
AcDbCircle
 10
482.422722
 20
273.175606
 30
0.0
 40
3.369087
100
AcDbArc
 50
215.289361
 51
257.137491
  0
ARC
  5
27D
100
AcDbEntity
  8
0
  6
CONTINUOUS
 62
     7
100
AcDbCircle
 10
476.922722
 20
273.175606
 30
0.0
 40
3.369087
100
AcDbArc
 50
35.289361
 51
324.710639
  0
ARC
  5
27E
100
AcDbEntity
  8
0
  6
CONTINUOUS
 62
     7
100
AcDbCircle
 10
482.422722
 20
273.175606
 30
0.0
 40
3.369087
100
AcDbArc
 50
102.862509
 51
144.710639
  0
LINE
  5
27F
100
AcDbEntity
  8
0
  6
CONTINUOUS
 62
     7
100
AcDbLine
 10
481.672723
 20
279.675606
 30
0.0
 11
481.672722
 21
276.460152
 31
0.0
  0
LINE
  5
280
100
AcDbEntity
  8
0
  6
CONTINUOUS
 62
     7
100
AcDbLine
 10
483.172723
 20
279.675606
 30
0.0
 11
481.672723
 21
279.675606
 31
0.0
  0
LINE
  5
281
100
AcDbEntity
  8
0
  6
CONTINUOUS
 62
     7
100
AcDbLine
 10
483.172722
 20
276.460152
 30
0.0
 11
483.172723
 21
279.675606
 31
0.0
  0
ARC
  5
282
100
AcDbEntity
  8
0
  6
CONTINUOUS
 62
     7
100
AcDbCircle
 10
482.422722
 20
273.175606
 30
0.0
 40
3.369087
100
AcDbArc
 50
282.862509
 51
77.137491
  0
CIRCLE
  5
283
100
AcDbEntity
  8
0
  6
CONTINUOUS
 62
     7
100
AcDbCircle
 10
482.422722
 20
273.175606
 30
0.0
 40
2.0
  0
CIRCLE
  5
284
100
AcDbEntity
  8
0
  6
CONTINUOUS
 62
     7
100
AcDbCircle
 10
476.922722
 20
273.175606
 30
0.0
 40
2.0
  0
LINE
  5
285
100
AcDbEntity
  8
0
  6
CONTINUOUS
 62
     7
100
AcDbLine
 10
479.672722
 20
275.121948
 30
0.0
 11
479.672722
 21
275.340669
 31
0.0
  0
LINE
  5
286
100
AcDbEntity
  8
0
  6
CONTINUOUS
 62
     7
100
AcDbLine
 10
479.672722
 20
271.229264
 30
0.0
 11
479.672722
 21
271.010542
 31
0.0
  0
ARC
  5
287
100
AcDbEntity
  8
0
  6
CONTINUOUS
 62
     7
100
AcDbCircle
 10
476.922722
 20
273.175606
 30
0.0
 40
3.5
100
AcDbArc
 50
38.213211
 51
321.786789
  0
CIRCLE
  5
288
100
AcDbEntity
  8
0
  6
CONTINUOUS
 62
     7
100
AcDbCircle
 10
476.922722
 20
273.175606
 30
0.0
 40
1.982545
  0
LINE
  5
289
100
AcDbEntity
  8
0
  6
CONTINUOUS
 62
     7
100
AcDbLine
 10
481.541809
 20
269.788278
 30
0.0
 11
481.672722
 21
269.891059
 31
0.0
  0
ARC
  5
28A
100
AcDbEntity
  8
0
  6
CONTINUOUS
 62
     7
100
AcDbCircle
 10
482.422722
 20
273.175606
 30
0.0
 40
3.5
100
AcDbArc
 50
218.213211
 51
255.422494
  0
ARC
  5
28B
100
AcDbEntity
  8
0
  6
CONTINUOUS
 62
     7
100
AcDbCircle
 10
482.422722
 20
273.175606
 30
0.0
 40
3.5
100
AcDbArc
 50
104.577506
 51
141.786789
  0
LWPOLYLINE
  5
28C
100
AcDbEntity
  8
0
  6
CONTINUOUS
 62
     7
100
AcDbPolyline
 90
        3
 70
   128
 43
0.0
 10
481.672723
 20
276.460153
 10
481.557158
 20
276.551047
 10
481.541809
 20
276.562934
  0
CIRCLE
  5
28D
100
AcDbEntity
  8
0
  6
CONTINUOUS
 62
     7
100
AcDbCircle
 10
484.222722
 20
323.175606
 30
0.0
 40
3.369087
  0
CIRCLE
  5
28E
100
AcDbEntity
  8
0
  6
CONTINUOUS
 62
     7
100
AcDbCircle
 10
484.222722
 20
323.175606
 30
0.0
 40
3.5
  0
CIRCLE
  5
28F
100
AcDbEntity
  8
0
  6
CONTINUOUS
 62
     7
100
AcDbCircle
 10
484.222722
 20
223.175606
 30
0.0
 40
3.369087
  0
CIRCLE
  5
290
100
AcDbEntity
  8
0
  6
CONTINUOUS
 62
     7
100
AcDbCircle
 10
484.222722
 20
223.175606
 30
0.0
 40
3.5
  0
CIRCLE
  5
291
100
AcDbEntity
  8
0
  6
CONTINUOUS
 62
     7
100
AcDbCircle
 10
482.422722
 20
273.175606
 30
0.0
 40
1.982545
  0
LINE
  5
292
100
AcDbEntity
  8
0
  6
CONTINUOUS
 62
     7
100
AcDbLine
 10
481.541809
 20
266.544693
 30
0.0
 11
481.672723
 21
266.675606
 31
0.0
  0
LINE
  5
293
100
AcDbEntity
  8
0
  6
CONTINUOUS
 62
     7
100
AcDbLine
 10
483.303637
 20
266.544693
 30
0.0
 11
483.172723
 21
266.675606
 31
0.0
  0
LINE
  5
294
100
AcDbEntity
  8
0
  6
CONTINUOUS
 62
     7
100
AcDbLine
 10
483.303637
 20
266.544693
 30
0.0
 11
481.541809
 21
266.544693
 31
0.0
  0
LINE
  5
295
100
AcDbEntity
  8
0
  6
CONTINUOUS
 62
     7
100
AcDbLine
 10
483.303637
 20
279.806519
 30
0.0
 11
483.172723
 21
279.675606
 31
0.0
  0
LINE
  5
296
100
AcDbEntity
  8
0
  6
CONTINUOUS
 62
     7
100
AcDbLine
 10
481.541809
 20
279.806519
 30
0.0
 11
481.672723
 21
279.675606
 31
0.0
  0
LINE
  5
297
100
AcDbEntity
  8
0
  6
CONTINUOUS
 62
     7
100
AcDbLine
 10
481.541809
 20
279.806519
 30
0.0
 11
483.303637
 21
279.806519
 31
0.0
  0
LINE
  5
298
100
AcDbEntity
  8
0
  6
CONTINUOUS
 62
     7
100
AcDbLine
 10
481.541809
 20
276.562934
 30
0.0
 11
481.541809
 21
279.806519
 31
0.0
  0
LINE
  5
299
100
AcDbEntity
  8
0
  6
CONTINUOUS
 62
     7
100
AcDbLine
 10
481.541809
 20
266.544693
 30
0.0
 11
481.541809
 21
269.788278
 31
0.0
  0
LINE
  5
29A
100
AcDbEntity
  8
0
  6
CONTINUOUS
 62
     7
100
AcDbLine
 10
483.303637
 20
279.806519
 30
0.0
 11
483.303635
 21
276.562934
 31
0.0
  0
LINE
  5
29B
100
AcDbEntity
  8
0
  6
CONTINUOUS
 62
     7
100
AcDbLine
 10
483.303635
 20
276.562934
 30
0.0
 11
483.172722
 21
276.460152
 31
0.0
  0
LINE
  5
29C
100
AcDbEntity
  8
0
  6
CONTINUOUS
 62
     7
100
AcDbLine
 10
483.303635
 20
269.788278
 30
0.0
 11
483.303637
 21
266.544693
 31
0.0
  0
LWPOLYLINE
  5
29D
100
AcDbEntity
  8
0
  6
CONTINUOUS
 62
     7
100
AcDbPolyline
 90
        3
 70
   128
 43
0.0
 10
483.172723
 20
269.891059
 10
483.288289
 20
269.800165
 10
483.303637
 20
269.788278
  0
ARC
  5
29E
100
AcDbEntity
  8
0
  6
CONTINUOUS
 62
     7
100
AcDbCircle
 10
482.422722
 20
273.175606
 30
0.0
 40
3.5
100
AcDbArc
 50
284.577506
 51
75.422494
  0
CIRCLE
  5
29F
100
AcDbEntity
  8
0
  6
CONTINUOUS
 62
     7
100
AcDbCircle
 10
391.422722
 20
273.175606
 30
0.0
 40
1.6
  0
CIRCLE
  5
2A0
100
AcDbEntity
  8
0
  6
CONTINUOUS
 62
     7
100
AcDbCircle
 10
391.422722
 20
273.175606
 30
0.0
 40
1.567275
  0
CIRCLE
  5
2A1
100
AcDbEntity
  8
0
  6
CONTINUOUS
 62
     7
100
AcDbCircle
 10
396.922722
 20
273.175606
 30
0.0
 40
1.6
  0
CIRCLE
  5
2A2
100
AcDbEntity
  8
0
  6
CONTINUOUS
 62
     7
100
AcDbCircle
 10
396.922722
 20
273.175606
 30
0.0
 40
1.567275
  0
CIRCLE
  5
2A3
100
AcDbEntity
  8
0
  6
CONTINUOUS
 62
     7
100
AcDbCircle
 10
404.422722
 20
341.175606
 30
0.0
 40
1.6
  0
CIRCLE
  5
2A4
100
AcDbEntity
  8
0
  6
CONTINUOUS
 62
     7
100
AcDbCircle
 10
404.422722
 20
205.175606
 30
0.0
 40
1.6
  0
CIRCLE
  5
2A5
100
AcDbEntity
  8
0
  6
CONTINUOUS
 62
     7
100
AcDbCircle
 10
404.422722
 20
341.175606
 30
0.0
 40
1.567275
  0
CIRCLE
  5
2A6
100
AcDbEntity
  8
0
  6
CONTINUOUS
 62
     7
100
AcDbCircle
 10
404.422722
 20
205.175606
 30
0.0
 40
1.567275
  0
CIRCLE
  5
2A7
100
AcDbEntity
  8
0
  6
CONTINUOUS
 62
     7
100
AcDbCircle
 10
436.922722
 20
338.175606
 30
0.0
 40
1.6
  0
CIRCLE
  5
2A8
100
AcDbEntity
  8
0
  6
CONTINUOUS
 62
     7
100
AcDbCircle
 10
436.922722
 20
338.175606
 30
0.0
 40
1.567275
  0
CIRCLE
  5
2A9
100
AcDbEntity
  8
0
  6
CONTINUOUS
 62
     7
100
AcDbCircle
 10
436.922722
 20
208.175606
 30
0.0
 40
1.6
  0
CIRCLE
  5
2AA
100
AcDbEntity
  8
0
  6
CONTINUOUS
 62
     7
100
AcDbCircle
 10
436.922722
 20
208.175606
 30
0.0
 40
1.567275
  0
CIRCLE
  5
2AB
100
AcDbEntity
  8
0
  6
CONTINUOUS
 62
     7
100
AcDbCircle
 10
469.422722
 20
341.175606
 30
0.0
 40
1.6
  0
CIRCLE
  5
2AC
100
AcDbEntity
  8
0
  6
CONTINUOUS
 62
     7
100
AcDbCircle
 10
469.422722
 20
205.175606
 30
0.0
 40
1.6
  0
CIRCLE
  5
2AD
100
AcDbEntity
  8
0
  6
CONTINUOUS
 62
     7
100
AcDbCircle
 10
469.422722
 20
341.175606
 30
0.0
 40
1.567275
  0
CIRCLE
  5
2AE
100
AcDbEntity
  8
0
  6
CONTINUOUS
 62
     7
100
AcDbCircle
 10
469.422722
 20
205.175606
 30
0.0
 40
1.567275
  0
CIRCLE
  5
2AF
100
AcDbEntity
  8
0
  6
CONTINUOUS
 62
     7
100
AcDbCircle
 10
476.922722
 20
273.175606
 30
0.0
 40
1.6
  0
CIRCLE
  5
2B0
100
AcDbEntity
  8
0
  6
CONTINUOUS
 62
     7
100
AcDbCircle
 10
476.922722
 20
273.175606
 30
0.0
 40
1.567275
  0
CIRCLE
  5
2B1
100
AcDbEntity
  8
0
  6
CONTINUOUS
 62
     7
100
AcDbCircle
 10
482.422722
 20
273.175606
 30
0.0
 40
1.6
  0
CIRCLE
  5
2B2
100
AcDbEntity
  8
0
  6
CONTINUOUS
 62
     7
100
AcDbCircle
 10
482.422722
 20
273.175606
 30
0.0
 40
1.567275
  0
CIRCLE
  5
2B3
100
AcDbEntity
  8
0
  6
CONTINUOUS
 62
     7
100
AcDbCircle
 10
416.422722
 20
231.175606
 30
0.0
 40
10.271452
  0
CIRCLE
  5
2B4
100
AcDbEntity
  8
0
  6
CONTINUOUS
 62
     7
100
AcDbCircle
 10
416.422722
 20
231.175606
 30
0.0
 40
8.65
  0
CIRCLE
  5
2B5
100
AcDbEntity
  8
0
  6
CONTINUOUS
 62
     7
100
AcDbCircle
 10
416.422722
 20
315.175606
 30
0.0
 40
10.35
  0
CIRCLE
  5
2B6
100
AcDbEntity
  8
0
  6
CONTINUOUS
 62
     7
100
AcDbCircle
 10
416.422722
 20
315.175606
 30
0.0
 40
10.271452
  0
CIRCLE
  5
2B7
100
AcDbEntity
  8
0
  6
CONTINUOUS
 62
     7
100
AcDbCircle
 10
416.422722
 20
231.175606
 30
0.0
 40
10.35
  0
CIRCLE
  5
2B8
100
AcDbEntity
  8
0
  6
CONTINUOUS
 62
     7
100
AcDbCircle
 10
416.422722
 20
315.175606
 30
0.0
 40
8.65
  0
CIRCLE
  5
2B9
100
AcDbEntity
  8
0
  6
CONTINUOUS
 62
     7
100
AcDbCircle
 10
416.422722
 20
231.175606
 30
0.0
 40
8.520833
  0
CIRCLE
  5
2BA
100
AcDbEntity
  8
0
  6
CONTINUOUS
 62
     7
100
AcDbCircle
 10
416.422722
 20
315.175606
 30
0.0
 40
8.520833
  0
CIRCLE
  5
2BB
100
AcDbEntity
  8
0
  6
CONTINUOUS
 62
     7
100
AcDbCircle
 10
457.422722
 20
315.175606
 30
0.0
 40
10.271452
  0
CIRCLE
  5
2BC
100
AcDbEntity
  8
0
  6
CONTINUOUS
 62
     7
100
AcDbCircle
 10
457.422722
 20
315.175606
 30
0.0
 40
8.65
  0
CIRCLE
  5
2BD
100
AcDbEntity
  8
0
  6
CONTINUOUS
 62
     7
100
AcDbCircle
 10
457.422722
 20
315.175606
 30
0.0
 40
10.35
  0
CIRCLE
  5
2BE
100
AcDbEntity
  8
0
  6
CONTINUOUS
 62
     7
100
AcDbCircle
 10
457.422722
 20
231.175606
 30
0.0
 40
10.35
  0
CIRCLE
  5
2BF
100
AcDbEntity
  8
0
  6
CONTINUOUS
 62
     7
100
AcDbCircle
 10
457.422722
 20
231.175606
 30
0.0
 40
10.271452
  0
CIRCLE
  5
2C0
100
AcDbEntity
  8
0
  6
CONTINUOUS
 62
     7
100
AcDbCircle
 10
457.422722
 20
231.175606
 30
0.0
 40
8.65
  0
CIRCLE
  5
2C1
100
AcDbEntity
  8
0
  6
CONTINUOUS
 62
     7
100
AcDbCircle
 10
457.422722
 20
315.175606
 30
0.0
 40
8.520833
  0
CIRCLE
  5
2C2
100
AcDbEntity
  8
0
  6
CONTINUOUS
 62
     7
100
AcDbCircle
 10
457.422722
 20
231.175606
 30
0.0
 40
8.520833
  0
CIRCLE
  5
2C3
100
AcDbEntity
  8
0
  6
CONTINUOUS
 62
     7
100
AcDbCircle
 10
387.922722
 20
191.675606
 30
0.0
 40
2.5
  0
CIRCLE
  5
2C4
100
AcDbEntity
  8
0
  6
CONTINUOUS
 62
     7
100
AcDbCircle
 10
387.922722
 20
354.675606
 30
0.0
 40
2.5
  0
CIRCLE
  5
2C5
100
AcDbEntity
  8
0
  6
CONTINUOUS
 62
     7
100
AcDbCircle
 10
485.922722
 20
191.675606
 30
0.0
 40
2.5
  0
CIRCLE
  5
2C6
100
AcDbEntity
  8
0
  6
CONTINUOUS
 62
     7
100
AcDbCircle
 10
485.922722
 20
354.675606
 30
0.0
 40
2.5
  0
LINE
  5
2C7
100
AcDbEntity
  8
0
  6
CONTINUOUS
 62
     7
100
AcDbLine
 10
419.622722
 20
312.175606
 30
0.0
 11
419.622722
 21
318.175606
 31
0.0
  0
ARC
  5
2C8
100
AcDbEntity
  8
0
  6
CONTINUOUS
 62
     7
100
AcDbCircle
 10
416.422722
 20
318.175606
 30
0.0
 40
3.2
100
AcDbArc
 50
0.0
 51
180.0
  0
LINE
  5
2C9
100
AcDbEntity
  8
0
  6
CONTINUOUS
 62
     7
100
AcDbLine
 10
413.222722
 20
318.175606
 30
0.0
 11
413.222722
 21
312.175606
 31
0.0
  0
ARC
  5
2CA
100
AcDbEntity
  8
0
  6
CONTINUOUS
 62
     7
100
AcDbCircle
 10
416.422722
 20
312.175606
 30
0.0
 40
3.2
100
AcDbArc
 50
180.0
 51
0.0
  0
LINE
  5
2CB
100
AcDbEntity
  8
0
  6
CONTINUOUS
 62
     7
100
AcDbLine
 10
419.422722
 20
234.375606
 30
0.0
 11
413.422722
 21
234.375606
 31
0.0
  0
ARC
  5
2CC
100
AcDbEntity
  8
0
  6
CONTINUOUS
 62
     7
100
AcDbCircle
 10
413.422722
 20
231.175606
 30
0.0
 40
3.2
100
AcDbArc
 50
90.0
 51
270.0
  0
LINE
  5
2CD
100
AcDbEntity
  8
0
  6
CONTINUOUS
 62
     7
100
AcDbLine
 10
413.422722
 20
227.975606
 30
0.0
 11
419.422722
 21
227.975606
 31
0.0
  0
ARC
  5
2CE
100
AcDbEntity
  8
0
  6
CONTINUOUS
 62
     7
100
AcDbCircle
 10
419.422722
 20
231.175606
 30
0.0
 40
3.2
100
AcDbArc
 50
270.0
 51
90.0
  0
LINE
  5
2CF
100
AcDbEntity
  8
0
  6
CONTINUOUS
 62
     7
100
AcDbLine
 10
413.422722
 20
227.980842
 30
0.0
 11
413.422722
 21
227.975606
 31
0.0
  0
LINE
  5
2D0
100
AcDbEntity
  8
0
  6
CONTINUOUS
 62
     7
100
AcDbLine
 10
413.422722
 20
234.370369
 30
0.0
 11
413.422722
 21
234.375606
 31
0.0
  0
ARC
  5
2D1
100
AcDbEntity
  8
0
  6
CONTINUOUS
 62
     7
100
AcDbCircle
 10
413.422722
 20
231.175606
 30
0.0
 40
3.194763
100
AcDbArc
 50
90.0
 51
270.0
  0
ARC
  5
2D2
100
AcDbEntity
  8
0
  6
CONTINUOUS
 62
     7
100
AcDbCircle
 10
413.422722
 20
231.175606
 30
0.0
 40
2.916558
100
AcDbArc
 50
90.0
 51
270.0
  0
LINE
  5
2D3
100
AcDbEntity
  8
0
  6
CONTINUOUS
 62
     7
100
AcDbLine
 10
419.422722
 20
234.092164
 30
0.0
 11
413.422722
 21
234.092164
 31
0.0
  0
ARC
  5
2D4
100
AcDbEntity
  8
0
  6
CONTINUOUS
 62
     7
100
AcDbCircle
 10
419.422722
 20
231.175606
 30
0.0
 40
2.916558
100
AcDbArc
 50
270.0
 51
90.0
  0
LINE
  5
2D5
100
AcDbEntity
  8
0
  6
CONTINUOUS
 62
     7
100
AcDbLine
 10
413.422722
 20
228.259047
 30
0.0
 11
419.422722
 21
228.259047
 31
0.0
  0
LINE
  5
2D6
100
AcDbEntity
  8
0
  6
CONTINUOUS
 62
     7
100
AcDbLine
 10
413.422722
 20
228.259047
 30
0.0
 11
413.422722
 21
228.085842
 31
0.0
  0
ARC
  5
2D7
100
AcDbEntity
  8
0
  6
CONTINUOUS
 62
     7
100
AcDbCircle
 10
413.422722
 20
231.175606
 30
0.0
 40
3.089763
100
AcDbArc
 50
90.0
 51
270.0
  0
LINE
  5
2D8
100
AcDbEntity
  8
0
  6
CONTINUOUS
 62
     7
100
AcDbLine
 10
413.422722
 20
234.092164
 30
0.0
 11
413.422722
 21
234.265369
 31
0.0
  0
LINE
  5
2D9
100
AcDbEntity
  8
0
  6
CONTINUOUS
 62
     7
100
AcDbLine
 10
419.344281
 20
312.175606
 30
0.0
 11
419.517486
 21
312.175606
 31
0.0
  0
ARC
  5
2DA
100
AcDbEntity
  8
0
  6
CONTINUOUS
 62
     7
100
AcDbCircle
 10
416.422722
 20
312.175606
 30
0.0
 40
3.094763
100
AcDbArc
 50
180.0
 51
0.0
  0
LINE
  5
2DB
100
AcDbEntity
  8
0
  6
CONTINUOUS
 62
     7
100
AcDbLine
 10
413.501164
 20
312.175606
 30
0.0
 11
413.327959
 21
312.175606
 31
0.0
  0
ARC
  5
2DC
100
AcDbEntity
  8
0
  6
CONTINUOUS
 62
     7
100
AcDbCircle
 10
416.422722
 20
312.175606
 30
0.0
 40
2.921558
100
AcDbArc
 50
180.0
 51
0.0
  0
LINE
  5
2DD
100
AcDbEntity
  8
0
  6
CONTINUOUS
 62
     7
100
AcDbLine
 10
419.422722
 20
234.265369
 30
0.0
 11
413.422722
 21
234.265369
 31
0.0
  0
LINE
  5
2DE
100
AcDbEntity
  8
0
  6
CONTINUOUS
 62
     7
100
AcDbLine
 10
419.422722
 20
234.092164
 30
0.0
 11
419.422722
 21
234.265369
 31
0.0
  0
LINE
  5
2DF
100
AcDbEntity
  8
0
  6
CONTINUOUS
 62
     7
100
AcDbLine
 10
419.422722
 20
234.370369
 30
0.0
 11
419.422722
 21
234.375606
 31
0.0
  0
LINE
  5
2E0
100
AcDbEntity
  8
0
  6
CONTINUOUS
 62
     7
100
AcDbLine
 10
413.422722
 20
234.370369
 30
0.0
 11
419.422722
 21
234.370369
 31
0.0
  0
LINE
  5
2E1
100
AcDbEntity
  8
0
  6
CONTINUOUS
 62
     7
100
AcDbLine
 10
413.327959
 20
318.175606
 30
0.0
 11
413.327959
 21
312.175606
 31
0.0
  0
LINE
  5
2E2
100
AcDbEntity
  8
0
  6
CONTINUOUS
 62
     7
100
AcDbLine
 10
413.501164
 20
318.175606
 30
0.0
 11
413.327959
 21
318.175606
 31
0.0
  0
LINE
  5
2E3
100
AcDbEntity
  8
0
  6
CONTINUOUS
 62
     7
100
AcDbLine
 10
413.501164
 20
318.175606
 30
0.0
 11
413.501164
 21
312.175606
 31
0.0
  0
LINE
  5
2E4
100
AcDbEntity
  8
0
  6
CONTINUOUS
 62
     7
100
AcDbLine
 10
419.617486
 20
312.175606
 30
0.0
 11
419.622722
 21
312.175606
 31
0.0
  0
LINE
  5
2E5
100
AcDbEntity
  8
0
  6
CONTINUOUS
 62
     7
100
AcDbLine
 10
413.227959
 20
312.175606
 30
0.0
 11
413.222722
 21
312.175606
 31
0.0
  0
ARC
  5
2E6
100
AcDbEntity
  8
0
  6
CONTINUOUS
 62
     7
100
AcDbCircle
 10
416.422722
 20
312.175606
 30
0.0
 40
3.194763
100
AcDbArc
 50
180.0
 51
0.0
  0
ARC
  5
2E7
100
AcDbEntity
  8
0
  6
CONTINUOUS
 62
     7
100
AcDbCircle
 10
416.422722
 20
318.175606
 30
0.0
 40
2.921558
100
AcDbArc
 50
0.0
 51
180.0
  0
LINE
  5
2E8
100
AcDbEntity
  8
0
  6
CONTINUOUS
 62
     7
100
AcDbLine
 10
419.344281
 20
312.175606
 30
0.0
 11
419.344281
 21
318.175606
 31
0.0
  0
LINE
  5
2E9
100
AcDbEntity
  8
0
  6
CONTINUOUS
 62
     7
100
AcDbLine
 10
419.422722
 20
227.980842
 30
0.0
 11
419.422722
 21
227.975606
 31
0.0
  0
LINE
  5
2EA
100
AcDbEntity
  8
0
  6
CONTINUOUS
 62
     7
100
AcDbLine
 10
419.422722
 20
227.980842
 30
0.0
 11
413.422722
 21
227.980842
 31
0.0
  0
LINE
  5
2EB
100
AcDbEntity
  8
0
  6
CONTINUOUS
 62
     7
100
AcDbLine
 10
413.227959
 20
318.175606
 30
0.0
 11
413.222722
 21
318.175606
 31
0.0
  0
LINE
  5
2EC
100
AcDbEntity
  8
0
  6
CONTINUOUS
 62
     7
100
AcDbLine
 10
413.227959
 20
312.175606
 30
0.0
 11
413.227959
 21
318.175606
 31
0.0
  0
ARC
  5
2ED
100
AcDbEntity
  8
0
  6
CONTINUOUS
 62
     7
100
AcDbCircle
 10
416.422722
 20
318.175606
 30
0.0
 40
3.094763
100
AcDbArc
 50
0.0
 51
180.0
  0
LINE
  5
2EE
100
AcDbEntity
  8
0
  6
CONTINUOUS
 62
     7
100
AcDbLine
 10
419.344281
 20
318.175606
 30
0.0
 11
419.517486
 21
318.175606
 31
0.0
  0
LINE
  5
2EF
100
AcDbEntity
  8
0
  6
CONTINUOUS
 62
     7
100
AcDbLine
 10
419.422722
 20
228.259047
 30
0.0
 11
419.422722
 21
228.085842
 31
0.0
  0
LINE
  5
2F0
100
AcDbEntity
  8
0
  6
CONTINUOUS
 62
     7
100
AcDbLine
 10
413.422722
 20
228.085842
 30
0.0
 11
419.422722
 21
228.085842
 31
0.0
  0
LINE
  5
2F1
100
AcDbEntity
  8
0
  6
CONTINUOUS
 62
     7
100
AcDbLine
 10
419.617486
 20
318.175606
 30
0.0
 11
419.622722
 21
318.175606
 31
0.0
  0
ARC
  5
2F2
100
AcDbEntity
  8
0
  6
CONTINUOUS
 62
     7
100
AcDbCircle
 10
416.422722
 20
318.175606
 30
0.0
 40
3.194763
100
AcDbArc
 50
0.0
 51
180.0
  0
ARC
  5
2F3
100
AcDbEntity
  8
0
  6
CONTINUOUS
 62
     7
100
AcDbCircle
 10
419.422722
 20
231.175606
 30
0.0
 40
3.089763
100
AcDbArc
 50
270.0
 51
90.0
  0
ARC
  5
2F4
100
AcDbEntity
  8
0
  6
CONTINUOUS
 62
     7
100
AcDbCircle
 10
419.422722
 20
231.175606
 30
0.0
 40
3.194763
100
AcDbArc
 50
270.0
 51
90.0
  0
LINE
  5
2F5
100
AcDbEntity
  8
0
  6
CONTINUOUS
 62
     7
100
AcDbLine
 10
419.517486
 20
312.175606
 30
0.0
 11
419.517486
 21
318.175606
 31
0.0
  0
LINE
  5
2F6
100
AcDbEntity
  8
0
  6
CONTINUOUS
 62
     7
100
AcDbLine
 10
419.617486
 20
318.175606
 30
0.0
 11
419.617486
 21
312.175606
 31
0.0
  0
LINE
  5
2F7
100
AcDbEntity
  8
0
  6
CONTINUOUS
 62
     7
100
AcDbLine
 10
460.622722
 20
228.175606
 30
0.0
 11
460.622722
 21
234.175606
 31
0.0
  0
ARC
  5
2F8
100
AcDbEntity
  8
0
  6
CONTINUOUS
 62
     7
100
AcDbCircle
 10
457.422722
 20
234.175606
 30
0.0
 40
3.2
100
AcDbArc
 50
0.0
 51
180.0
  0
LINE
  5
2F9
100
AcDbEntity
  8
0
  6
CONTINUOUS
 62
     7
100
AcDbLine
 10
454.222722
 20
234.175606
 30
0.0
 11
454.222722
 21
228.175606
 31
0.0
  0
ARC
  5
2FA
100
AcDbEntity
  8
0
  6
CONTINUOUS
 62
     7
100
AcDbCircle
 10
457.422722
 20
228.175606
 30
0.0
 40
3.2
100
AcDbArc
 50
180.0
 51
0.0
  0
LINE
  5
2FB
100
AcDbEntity
  8
0
  6
CONTINUOUS
 62
     7
100
AcDbLine
 10
460.422722
 20
318.375606
 30
0.0
 11
454.422722
 21
318.375606
 31
0.0
  0
ARC
  5
2FC
100
AcDbEntity
  8
0
  6
CONTINUOUS
 62
     7
100
AcDbCircle
 10
454.422722
 20
315.175606
 30
0.0
 40
3.2
100
AcDbArc
 50
90.0
 51
270.0
  0
LINE
  5
2FD
100
AcDbEntity
  8
0
  6
CONTINUOUS
 62
     7
100
AcDbLine
 10
454.422722
 20
311.975606
 30
0.0
 11
460.422722
 21
311.975606
 31
0.0
  0
ARC
  5
2FE
100
AcDbEntity
  8
0
  6
CONTINUOUS
 62
     7
100
AcDbCircle
 10
460.422722
 20
315.175606
 30
0.0
 40
3.2
100
AcDbArc
 50
270.0
 51
90.0
  0
LINE
  5
2FF
100
AcDbEntity
  8
0
  6
CONTINUOUS
 62
     7
100
AcDbLine
 10
454.422722
 20
311.980842
 30
0.0
 11
454.422722
 21
311.975606
 31
0.0
  0
LINE
  5
300
100
AcDbEntity
  8
0
  6
CONTINUOUS
 62
     7
100
AcDbLine
 10
454.422722
 20
318.370369
 30
0.0
 11
454.422722
 21
318.375606
 31
0.0
  0
ARC
  5
301
100
AcDbEntity
  8
0
  6
CONTINUOUS
 62
     7
100
AcDbCircle
 10
454.422722
 20
315.175606
 30
0.0
 40
3.194763
100
AcDbArc
 50
90.0
 51
270.0
  0
LINE
  5
302
100
AcDbEntity
  8
0
  6
CONTINUOUS
 62
     7
100
AcDbLine
 10
454.422722
 20
312.254047
 30
0.0
 11
454.422722
 21
312.080842
 31
0.0
  0
ARC
  5
303
100
AcDbEntity
  8
0
  6
CONTINUOUS
 62
     7
100
AcDbCircle
 10
454.422722
 20
315.175606
 30
0.0
 40
3.094763
100
AcDbArc
 50
90.0
 51
270.0
  0
LINE
  5
304
100
AcDbEntity
  8
0
  6
CONTINUOUS
 62
     7
100
AcDbLine
 10
454.422722
 20
318.097164
 30
0.0
 11
454.422722
 21
318.270369
 31
0.0
  0
ARC
  5
305
100
AcDbEntity
  8
0
  6
CONTINUOUS
 62
     7
100
AcDbCircle
 10
454.422722
 20
315.175606
 30
0.0
 40
2.921558
100
AcDbArc
 50
90.0
 51
270.0
  0
LINE
  5
306
100
AcDbEntity
  8
0
  6
CONTINUOUS
 62
     7
100
AcDbLine
 10
460.422722
 20
318.097164
 30
0.0
 11
454.422722
 21
318.097164
 31
0.0
  0
ARC
  5
307
100
AcDbEntity
  8
0
  6
CONTINUOUS
 62
     7
100
AcDbCircle
 10
460.422722
 20
315.175606
 30
0.0
 40
2.921558
100
AcDbArc
 50
270.0
 51
90.0
  0
LINE
  5
308
100
AcDbEntity
  8
0
  6
CONTINUOUS
 62
     7
100
AcDbLine
 10
454.422722
 20
312.254047
 30
0.0
 11
460.422722
 21
312.254047
 31
0.0
  0
LINE
  5
309
100
AcDbEntity
  8
0
  6
CONTINUOUS
 62
     7
100
AcDbLine
 10
454.227959
 20
234.175606
 30
0.0
 11
454.222722
 21
234.175606
 31
0.0
  0
LINE
  5
30A
100
AcDbEntity
  8
0
  6
CONTINUOUS
 62
     7
100
AcDbLine
 10
460.617486
 20
234.175606
 30
0.0
 11
460.622722
 21
234.175606
 31
0.0
  0
ARC
  5
30B
100
AcDbEntity
  8
0
  6
CONTINUOUS
 62
     7
100
AcDbCircle
 10
457.422722
 20
234.175606
 30
0.0
 40
3.194763
100
AcDbArc
 50
0.0
 51
180.0
  0
LINE
  5
30C
100
AcDbEntity
  8
0
  6
CONTINUOUS
 62
     7
100
AcDbLine
 10
454.227959
 20
228.175606
 30
0.0
 11
454.222722
 21
228.175606
 31
0.0
  0
LINE
  5
30D
100
AcDbEntity
  8
0
  6
CONTINUOUS
 62
     7
100
AcDbLine
 10
454.227959
 20
228.175606
 30
0.0
 11
454.227959
 21
234.175606
 31
0.0
  0
LINE
  5
30E
100
AcDbEntity
  8
0
  6
CONTINUOUS
 62
     7
100
AcDbLine
 10
460.617486
 20
228.175606
 30
0.0
 11
460.622722
 21
228.175606
 31
0.0
  0
ARC
  5
30F
100
AcDbEntity
  8
0
  6
CONTINUOUS
 62
     7
100
AcDbCircle
 10
457.422722
 20
228.175606
 30
0.0
 40
3.194763
100
AcDbArc
 50
180.0
 51
0.0
  0
LINE
  5
310
100
AcDbEntity
  8
0
  6
CONTINUOUS
 62
     7
100
AcDbLine
 10
460.422722
 20
311.980842
 30
0.0
 11
460.422722
 21
311.975606
 31
0.0
  0
LINE
  5
311
100
AcDbEntity
  8
0
  6
CONTINUOUS
 62
     7
100
AcDbLine
 10
460.422722
 20
311.980842
 30
0.0
 11
454.422722
 21
311.980842
 31
0.0
  0
LINE
  5
312
100
AcDbEntity
  8
0
  6
CONTINUOUS
 62
     7
100
AcDbLine
 10
454.511164
 20
234.175606
 30
0.0
 11
454.337959
 21
234.175606
 31
0.0
  0
ARC
  5
313
100
AcDbEntity
  8
0
  6
CONTINUOUS
 62
     7
100
AcDbCircle
 10
457.422722
 20
234.175606
 30
0.0
 40
3.084763
100
AcDbArc
 50
0.0
 51
180.0
  0
LINE
  5
314
100
AcDbEntity
  8
0
  6
CONTINUOUS
 62
     7
100
AcDbLine
 10
460.334281
 20
234.175606
 30
0.0
 11
460.507486
 21
234.175606
 31
0.0
  0
ARC
  5
315
100
AcDbEntity
  8
0
  6
CONTINUOUS
 62
     7
100
AcDbCircle
 10
457.422722
 20
234.175606
 30
0.0
 40
2.911558
100
AcDbArc
 50
0.0
 51
180.0
  0
LINE
  5
316
100
AcDbEntity
  8
0
  6
CONTINUOUS
 62
     7
100
AcDbLine
 10
460.334281
 20
228.175606
 30
0.0
 11
460.334281
 21
234.175606
 31
0.0
  0
ARC
  5
317
100
AcDbEntity
  8
0
  6
CONTINUOUS
 62
     7
100
AcDbCircle
 10
457.422722
 20
228.175606
 30
0.0
 40
2.911558
100
AcDbArc
 50
180.0
 51
0.0
  0
LINE
  5
318
100
AcDbEntity
  8
0
  6
CONTINUOUS
 62
     7
100
AcDbLine
 10
454.511164
 20
234.175606
 30
0.0
 11
454.511164
 21
228.175606
 31
0.0
  0
LINE
  5
319
100
AcDbEntity
  8
0
  6
CONTINUOUS
 62
     7
100
AcDbLine
 10
460.422722
 20
312.254047
 30
0.0
 11
460.422722
 21
312.080842
 31
0.0
  0
LINE
  5
31A
100
AcDbEntity
  8
0
  6
CONTINUOUS
 62
     7
100
AcDbLine
 10
454.422722
 20
312.080842
 30
0.0
 11
460.422722
 21
312.080842
 31
0.0
  0
LINE
  5
31B
100
AcDbEntity
  8
0
  6
CONTINUOUS
 62
     7
100
AcDbLine
 10
460.422722
 20
318.270369
 30
0.0
 11
454.422722
 21
318.270369
 31
0.0
  0
LINE
  5
31C
100
AcDbEntity
  8
0
  6
CONTINUOUS
 62
     7
100
AcDbLine
 10
460.422722
 20
318.097164
 30
0.0
 11
460.422722
 21
318.270369
 31
0.0
  0
LINE
  5
31D
100
AcDbEntity
  8
0
  6
CONTINUOUS
 62
     7
100
AcDbLine
 10
460.334281
 20
228.175606
 30
0.0
 11
460.507486
 21
228.175606
 31
0.0
  0
ARC
  5
31E
100
AcDbEntity
  8
0
  6
CONTINUOUS
 62
     7
100
AcDbCircle
 10
457.422722
 20
228.175606
 30
0.0
 40
3.084763
100
AcDbArc
 50
180.0
 51
0.0
  0
LINE
  5
31F
100
AcDbEntity
  8
0
  6
CONTINUOUS
 62
     7
100
AcDbLine
 10
454.511164
 20
228.175606
 30
0.0
 11
454.337959
 21
228.175606
 31
0.0
  0
LINE
  5
320
100
AcDbEntity
  8
0
  6
CONTINUOUS
 62
     7
100
AcDbLine
 10
454.337959
 20
234.175606
 30
0.0
 11
454.337959
 21
228.175606
 31
0.0
  0
LINE
  5
321
100
AcDbEntity
  8
0
  6
CONTINUOUS
 62
     7
100
AcDbLine
 10
460.422722
 20
318.370369
 30
0.0
 11
460.422722
 21
318.375606
 31
0.0
  0
LINE
  5
322
100
AcDbEntity
  8
0
  6
CONTINUOUS
 62
     7
100
AcDbLine
 10
454.422722
 20
318.370369
 30
0.0
 11
460.422722
 21
318.370369
 31
0.0
  0
LINE
  5
323
100
AcDbEntity
  8
0
  6
CONTINUOUS
 62
     7
100
AcDbLine
 10
460.507486
 20
228.175606
 30
0.0
 11
460.507486
 21
234.175606
 31
0.0
  0
ARC
  5
324
100
AcDbEntity
  8
0
  6
CONTINUOUS
 62
     7
100
AcDbCircle
 10
460.422722
 20
315.175606
 30
0.0
 40
3.194763
100
AcDbArc
 50
270.0
 51
90.0
  0
LINE
  5
325
100
AcDbEntity
  8
0
  6
CONTINUOUS
 62
     7
100
AcDbLine
 10
460.617486
 20
234.175606
 30
0.0
 11
460.617486
 21
228.175606
 31
0.0
  0
ARC
  5
326
100
AcDbEntity
  8
0
  6
CONTINUOUS
 62
     7
100
AcDbCircle
 10
460.422722
 20
315.175606
 30
0.0
 40
3.094763
100
AcDbArc
 50
270.0
 51
90.0
  0
LINE
  5
327
100
AcDbEntity
  8
0
  6
CONTINUOUS
 62
     7
100
AcDbLine
 10
601.742635
 20
328.175605
 30
0.0
 11
600.742634
 21
328.175606
 31
0.0
  0
LINE
  5
329
100
AcDbEntity
  8
0
  6
CONTINUOUS
 62
     7
100
AcDbLine
 10
601.742635
 20
228.175604
 30
0.0
 11
600.742634
 21
228.175606
 31
0.0
  0
LINE
  5
32A
100
AcDbEntity
  8
0
  6
CONTINUOUS
 62
     7
100
AcDbLine
 10
600.742634
 20
218.175606
 30
0.0
 11
601.742635
 21
218.175606
 31
0.0
  0
LINE
  5
32B
100
AcDbEntity
  8
0
  6
CONTINUOUS
 62
     7
100
AcDbLine
 10
600.742633
 20
326.425606
 30
0.0
 11
599.142634
 21
326.425606
 31
0.0
  0
LINE
  5
32C
100
AcDbEntity
  8
0
  6
CONTINUOUS
 62
     7
100
AcDbLine
 10
599.142634
 20
319.925606
 30
0.0
 11
600.742633
 21
319.925607
 31
0.0
  0
LINE
  5
32D
100
AcDbEntity
  8
0
  6
CONTINUOUS
 62
     7
100
AcDbLine
 10
600.742633
 20
226.425604
 30
0.0
 11
599.142634
 21
226.425606
 31
0.0
  0
LINE
  5
32E
100
AcDbEntity
  8
0
  6
CONTINUOUS
 62
     7
100
AcDbLine
 10
599.142634
 20
219.925606
 30
0.0
 11
600.742633
 21
219.925606
 31
0.0
  0
LINE
  5
32F
100
AcDbEntity
  8
0
  6
CONTINUOUS
 62
     7
100
AcDbLine
 10
599.142632
 20
220.230223
 30
0.0
 11
598.742634
 21
220.223241
 31
0.0
  0
LINE
  5
330
100
AcDbEntity
  8
0
  6
CONTINUOUS
 62
     7
100
AcDbLine
 10
598.742634
 20
216.127971
 30
0.0
 11
601.742635
 21
216.075604
 31
0.0
  0
LINE
  5
331
100
AcDbEntity
  8
0
  6
CONTINUOUS
 62
     7
100
AcDbLine
 10
599.142632
 20
320.230224
 30
0.0
 11
598.742634
 21
320.223241
 31
0.0
  0
LINE
  5
332
100
AcDbEntity
  8
0
  6
CONTINUOUS
 62
     7
100
AcDbLine
 10
598.742634
 20
316.127971
 30
0.0
 11
601.742635
 21
316.075606
 31
0.0
  0
LINE
  5
333
100
AcDbEntity
  8
0
  6
CONTINUOUS
 62
     7
100
AcDbLine
 10
601.742635
 20
330.275607
 30
0.0
 11
598.742634
 21
330.223241
 31
0.0
  0
LINE
  5
334
100
AcDbEntity
  8
0
  6
CONTINUOUS
 62
     7
100
AcDbLine
 10
598.742634
 20
326.127971
 30
0.0
 11
599.142632
 21
326.120989
 31
0.0
  0
LINE
  5
335
100
AcDbEntity
  8
0
  6
CONTINUOUS
 62
     7
100
AcDbLine
 10
601.742635
 20
230.275606
 30
0.0
 11
598.742634
 21
230.223241
 31
0.0
  0
LINE
  5
336
100
AcDbEntity
  8
0
  6
CONTINUOUS
 62
     7
100
AcDbLine
 10
598.742634
 20
226.127971
 30
0.0
 11
599.142632
 21
226.120987
 31
0.0
  0
LINE
  5
337
100
AcDbEntity
  8
0
  6
CONTINUOUS
 62
     7
100
AcDbLine
 10
601.742635
 20
241.487206
 30
0.0
 11
599.742634
 21
241.452294
 31
0.0
  0
LINE
  5
338
100
AcDbEntity
  8
0
  6
CONTINUOUS
 62
     7
100
AcDbLine
 10
599.742634
 20
304.898917
 30
0.0
 11
601.742635
 21
304.864005
 31
0.0
  0
LINE
  5
339
100
AcDbEntity
  8
0
  6
CONTINUOUS
 62
     7
100
AcDbLine
 10
601.742635
 20
204.475605
 30
0.0
 11
598.742634
 21
204.423241
 31
0.0
  0
LINE
  5
33A
100
AcDbEntity
  8
0
  6
CONTINUOUS
 62
     7
100
AcDbLine
 10
598.742634
 20
200.327971
 30
0.0
 11
601.742635
 21
200.275609
 31
0.0
  0
LINE
  5
33B
100
AcDbEntity
  8
0
  6
CONTINUOUS
 62
     7
100
AcDbLine
 10
601.742635
 20
346.075603
 30
0.0
 11
598.742634
 21
346.023241
 31
0.0
  0
LINE
  5
33C
100
AcDbEntity
  8
0
  6
CONTINUOUS
 62
     7
100
AcDbLine
 10
598.742634
 20
341.927971
 30
0.0
 11
601.742635
 21
341.875606
 31
0.0
  0
LINE
  5
33D
100
AcDbEntity
  8
0
  6
CONTINUOUS
 62
     7
100
AcDbLine
 10
662.642634
 20
366.775606
 30
0.0
 11
662.642634
 21
360.775606
 31
0.0
  0
LINE
  5
33E
100
AcDbEntity
  8
0
  6
CONTINUOUS
 62
     7
100
AcDbLine
 10
662.642634
 20
360.775606
 30
0.0
 11
598.742634
 21
360.775606
 31
0.0
  0
LINE
  5
33F
100
AcDbEntity
  8
0
  6
CONTINUOUS
 62
     7
100
AcDbLine
 10
598.742634
 20
360.775606
 30
0.0
 11
598.742634
 21
366.775606
 31
0.0
  0
LINE
  5
340
100
AcDbEntity
  8
0
  6
CONTINUOUS
 62
     7
100
AcDbLine
 10
598.742634
 20
366.775606
 30
0.0
 11
662.642634
 21
366.775606
 31
0.0
  0
LINE
  5
341
100
AcDbEntity
  8
0
  6
CONTINUOUS
 62
     7
100
AcDbLine
 10
598.742632
 20
351.075606
 30
0.0
 11
598.742634
 21
360.775606
 31
0.0
  0
LINE
  5
342
100
AcDbEntity
  8
0
  6
CONTINUOUS
 62
     7
100
AcDbLine
 10
662.642634
 20
360.775606
 30
0.0
 11
662.642634
 21
185.575606
 31
0.0
  0
LINE
  5
343
100
AcDbEntity
  8
0
  6
CONTINUOUS
 62
     7
100
AcDbLine
 10
598.742634
 20
185.575606
 30
0.0
 11
662.642634
 21
185.575606
 31
0.0
  0
LINE
  5
344
100
AcDbEntity
  8
0
  6
CONTINUOUS
 62
     7
100
AcDbLine
 10
598.742632
 20
195.275606
 30
0.0
 11
654.342634
 21
195.275606
 31
0.0
  0
ARC
  5
345
100
AcDbEntity
  8
0
  6
CONTINUOUS
 62
     7
100
AcDbCircle
 10
654.342634
 20
199.775606
 30
0.0
 40
4.5
100
AcDbArc
 50
270.0
 51
0.0
  0
LINE
  5
346
100
AcDbEntity
  8
0
  6
CONTINUOUS
 62
     7
100
AcDbLine
 10
658.842634
 20
199.775606
 30
0.0
 11
658.842634
 21
346.575606
 31
0.0
  0
ARC
  5
347
100
AcDbEntity
  8
0
  6
CONTINUOUS
 62
     7
100
AcDbCircle
 10
654.342634
 20
346.575606
 30
0.0
 40
4.5
100
AcDbArc
 50
0.0
 51
90.0
  0
LINE
  5
348
100
AcDbEntity
  8
0
  6
CONTINUOUS
 62
     7
100
AcDbLine
 10
654.342634
 20
351.075606
 30
0.0
 11
598.742632
 21
351.075606
 31
0.0
  0
LINE
  5
349
100
AcDbEntity
  8
0
  6
CONTINUOUS
 62
     7
100
AcDbLine
 10
598.742632
 20
195.275606
 30
0.0
 11
598.742634
 21
185.575606
 31
0.0
  0
LINE
  5
34A
100
AcDbEntity
  8
0
  6
CONTINUOUS
 62
     7
100
AcDbLine
 10
662.642634
 20
185.575606
 30
0.0
 11
662.642634
 21
179.575606
 31
0.0
  0
LINE
  5
34B
100
AcDbEntity
  8
0
  6
CONTINUOUS
 62
     7
100
AcDbLine
 10
662.642634
 20
179.575606
 30
0.0
 11
598.742634
 21
179.575606
 31
0.0
  0
LINE
  5
34C
100
AcDbEntity
  8
0
  6
CONTINUOUS
 62
     7
100
AcDbLine
 10
598.742634
 20
185.575606
 30
0.0
 11
598.742634
 21
179.575606
 31
0.0
  0
LINE
  5
34D
100
AcDbEntity
  8
0
  6
CONTINUOUS
 62
     7
100
AcDbLine
 10
654.342634
 20
348.130726
 30
0.0
 11
654.342634
 21
351.075606
 31
0.0
  0
LINE
  5
34E
100
AcDbEntity
  8
0
  6
CONTINUOUS
 62
     7
100
AcDbLine
 10
654.342634
 20
348.130726
 30
0.0
 11
601.742635
 21
347.212591
 31
0.0
  0
LINE
  5
34F
100
AcDbEntity
  8
0
  6
CONTINUOUS
 62
     7
100
AcDbLine
 10
598.742632
 20
347.212591
 30
0.0
 11
601.742635
 21
347.212591
 31
0.0
  0
LINE
  5
350
100
AcDbEntity
  8
0
  6
CONTINUOUS
 62
     7
100
AcDbLine
 10
598.742632
 20
347.212591
 30
0.0
 11
598.742632
 21
351.075606
 31
0.0
  0
LINE
  5
351
100
AcDbEntity
  8
0
  6
CONTINUOUS
 62
     7
100
AcDbLine
 10
598.742632
 20
199.13862
 30
0.0
 11
601.742635
 21
199.13862
 31
0.0
  0
LINE
  5
352
100
AcDbEntity
  8
0
  6
CONTINUOUS
 62
     7
100
AcDbLine
 10
654.342634
 20
198.220485
 30
0.0
 11
601.742635
 21
199.13862
 31
0.0
  0
LINE
  5
353
100
AcDbEntity
  8
0
  6
CONTINUOUS
 62
     7
100
AcDbLine
 10
654.342634
 20
198.220485
 30
0.0
 11
654.342634
 21
195.275606
 31
0.0
  0
LINE
  5
354
100
AcDbEntity
  8
0
  6
CONTINUOUS
 62
     7
100
AcDbLine
 10
598.742632
 20
199.13862
 30
0.0
 11
598.742632
 21
195.275606
 31
0.0
  0
ELLIPSE
  5
355
100
AcDbEntity
  8
0
  6
CONTINUOUS
 62
     7
100
AcDbEllipse
 10
654.369787
 20
199.775606
 30
0.0
 11
1.555596919263166
 21
0.0
 31
0.0
210
0.0
220
0.0
230
1.0
 40
0.999848
 41
4.694933028968845
 42
6.283185307179586
  0
LINE
  5
356
100
AcDbEntity
  8
0
  6
CONTINUOUS
 62
     7
100
AcDbLine
 10
655.925383
 20
199.775607
 30
0.0
 11
658.842634
 21
199.775606
 31
0.0
  0
LINE
  5
357
100
AcDbEntity
  8
0
  6
CONTINUOUS
 62
     7
100
AcDbLine
 10
655.925383
 20
346.575604
 30
0.0
 11
658.842634
 21
346.575606
 31
0.0
  0
ELLIPSE
  5
358
100
AcDbEntity
  8
0
  6
CONTINUOUS
 62
     7
100
AcDbEllipse
 10
654.369787
 20
346.575606
 30
0.0
 11
1.555596919263166
 21
0.0
 31
0.0
210
0.0
220
0.0
230
1.0
 40
0.999848
 41
0.0
 42
1.588252278210754
  0
LINE
  5
359
100
AcDbEntity
  8
0
  6
CONTINUOUS
 62
     7
100
AcDbLine
 10
655.925383
 20
346.575604
 30
0.0
 11
655.925383
 21
199.775607
 31
0.0
  0
LINE
  5
35A
100
AcDbEntity
  8
0
  6
CONTINUOUS
 62
     7
100
AcDbLine
 10
601.742635
 20
347.212591
 30
0.0
 11
601.742635
 21
199.13862
 31
0.0
  0
LINE
  5
35B
100
AcDbEntity
  8
0
  6
CONTINUOUS
 62
     7
100
AcDbLine
 10
600.742634
 20
318.175606
 30
0.0
 11
600.742634
 21
328.175606
 31
0.0
  0
LINE
  5
35C
100
AcDbEntity
  8
0
  6
CONTINUOUS
 62
     7
100
AcDbLine
 10
600.742634
 20
218.175606
 30
0.0
 11
600.742634
 21
228.175606
 31
0.0
  0
LINE
  5
35D
100
AcDbEntity
  8
0
  6
CONTINUOUS
 62
     7
100
AcDbLine
 10
599.142634
 20
319.925606
 30
0.0
 11
599.142634
 21
326.425606
 31
0.0
  0
LINE
  5
35E
100
AcDbEntity
  8
0
  6
CONTINUOUS
 62
     7
100
AcDbLine
 10
599.142634
 20
219.925606
 30
0.0
 11
599.142634
 21
226.425606
 31
0.0
  0
LINE
  5
35F
100
AcDbEntity
  8
0
  6
CONTINUOUS
 62
     7
100
AcDbLine
 10
598.742634
 20
216.127971
 30
0.0
 11
598.742634
 21
220.223241
 31
0.0
  0
LINE
  5
360
100
AcDbEntity
  8
0
  6
CONTINUOUS
 62
     7
100
AcDbLine
 10
598.742634
 20
316.127971
 30
0.0
 11
598.742634
 21
320.223241
 31
0.0
  0
LINE
  5
361
100
AcDbEntity
  8
0
  6
CONTINUOUS
 62
     7
100
AcDbLine
 10
598.742634
 20
326.127971
 30
0.0
 11
598.742634
 21
330.223241
 31
0.0
  0
LINE
  5
362
100
AcDbEntity
  8
0
  6
CONTINUOUS
 62
     7
100
AcDbLine
 10
598.742634
 20
226.127971
 30
0.0
 11
598.742634
 21
230.223241
 31
0.0
  0
LINE
  5
363
100
AcDbEntity
  8
0
  6
CONTINUOUS
 62
     7
100
AcDbLine
 10
599.742634
 20
230.240696
 30
0.0
 11
599.742634
 21
241.452294
 31
0.0
  0
LINE
  5
364
100
AcDbEntity
  8
0
  6
CONTINUOUS
 62
     7
100
AcDbLine
 10
599.742634
 20
304.898917
 30
0.0
 11
599.742634
 21
316.110516
 31
0.0
  0
LINE
  5
365
100
AcDbEntity
  8
0
  6
CONTINUOUS
 62
     7
100
AcDbLine
 10
598.742634
 20
200.327971
 30
0.0
 11
598.742634
 21
204.423241
 31
0.0
  0
LINE
  5
366
100
AcDbEntity
  8
0
  6
CONTINUOUS
 62
     7
100
AcDbLine
 10
598.742634
 20
341.927971
 30
0.0
 11
598.742634
 21
346.023241
 31
0.0
  0
LINE
  5
367
100
AcDbEntity
  8
0
  6
HIDDEN
 62
     7
100
AcDbLine
 10
598.742634
 20
185.575606
 30
0.0
 11
601.742634
 21
185.575606
 31
0.0
  0
LINE
  5
36C
100
AcDbEntity
  8
0
  6
HIDDEN
 62
     7
100
AcDbLine
 10
598.742634
 20
360.775606
 30
0.0
 11
601.742634
 21
360.775606
 31
0.0
  0
LINE
  5
374
100
AcDbEntity
  8
0
  6
HIDDEN
 62
     7
100
AcDbLine
 10
648.542634
 20
360.775606
 30
0.0
 11
662.642634
 21
360.775606
 31
0.0
  0
LINE
  5
377
100
AcDbEntity
  8
0
  6
HIDDEN
 62
     7
100
AcDbLine
 10
648.542634
 20
185.575606
 30
0.0
 11
662.642634
 21
185.575606
 31
0.0
  0
LINE
  5
388
100
AcDbEntity
  8
0
  6
HIDDEN
 62
     1
100
AcDbLine
 10
603.942634
 20
343.150993
 30
0.0
 11
603.942635
 21
341.651225
 31
0.0
  0
LINE
  5
38B
100
AcDbEntity
  8
0
  6
HIDDEN
 62
     1
100
AcDbLine
 10
603.942635
 20
204.699987
 30
0.0
 11
603.942634
 21
203.200218
 31
0.0
  0
LINE
  5
38F
100
AcDbEntity
  8
0
  6
HIDDEN
 62
     1
100
AcDbLine
 10
603.942635
 20
204.699987
 30
0.0
 11
603.942635
 21
341.651225
 31
0.0
  0
LINE
  5
396
100
AcDbEntity
  8
0
  6
HIDDEN
 62
     1
100
AcDbLine
 10
611.442634
 20
326.544693
 30
0.0
 11
611.442634
 21
319.806519
 31
0.0
  0
LINE
  5
397
100
AcDbEntity
  8
0
  6
HIDDEN
 62
     1
100
AcDbLine
 10
611.442634
 20
226.544693
 30
0.0
 11
611.442634
 21
219.806519
 31
0.0
  0
LINE
  5
3A0
100
AcDbEntity
  8
0
  6
HIDDEN
 62
     1
100
AcDbLine
 10
611.442634
 20
276.460152
 30
0.0
 11
611.442634
 21
269.891059
 31
0.0
  0
LINE
  5
3A5
100
AcDbEntity
  8
0
  6
HIDDEN
 62
     1
100
AcDbLine
 10
603.942635
 20
266.544693
 30
0.0
 11
611.442635
 21
266.675606
 31
0.0
  0
LINE
  5
3A6
100
AcDbEntity
  8
0
  6
HIDDEN
 62
     1
100
AcDbLine
 10
611.442634
 20
269.891059
 30
0.0
 11
611.442635
 21
266.675606
 31
0.0
  0
LINE
  5
3A7
100
AcDbEntity
  8
0
  6
HIDDEN
 62
     1
100
AcDbLine
 10
603.942635
 20
279.806519
 30
0.0
 11
611.442635
 21
279.675606
 31
0.0
  0
LINE
  5
3A8
100
AcDbEntity
  8
0
  6
HIDDEN
 62
     1
100
AcDbLine
 10
611.442635
 20
279.675606
 30
0.0
 11
611.442634
 21
276.460152
 31
0.0
  0
LINE
  5
3C1
100
AcDbEntity
  8
0
  6
HIDDEN
 62
     1
100
AcDbLine
 10
611.442634
 20
344.544693
 30
0.0
 11
611.442634
 21
337.806519
 31
0.0
  0
LINE
  5
3C2
100
AcDbEntity
  8
0
  6
HIDDEN
 62
     1
100
AcDbLine
 10
611.442634
 20
208.544693
 30
0.0
 11
611.442634
 21
201.806519
 31
0.0
  0
LINE
  5
3C8
100
AcDbEntity
  8
0
  6
HIDDEN
 62
     1
100
AcDbLine
 10
608.442634
 20
241.447058
 30
0.0
 11
608.442634
 21
220.904154
 31
0.0
  0
LINE
  5
3C9
100
AcDbEntity
  8
0
  6
HIDDEN
 62
     1
100
AcDbLine
 10
608.442634
 20
325.447058
 30
0.0
 11
608.442634
 21
304.904154
 31
0.0
  0
LINE
  5
3DA
100
AcDbEntity
  8
0
  6
HIDDEN
 62
     1
100
AcDbLine
 10
611.442634
 20
208.925606
 30
0.0
 11
611.442634
 21
208.544693
 31
0.0
  0
LINE
  5
3DD
100
AcDbEntity
  8
0
  6
HIDDEN
 62
     1
100
AcDbLine
 10
611.442634
 20
337.806519
 30
0.0
 11
611.442634
 21
337.425606
 31
0.0
  0
LINE
  5
3E3
100
AcDbEntity
  8
0
  6
HIDDEN
 62
     1
100
AcDbLine
 10
611.442634
 20
211.544693
 30
0.0
 11
611.442634
 21
208.925606
 31
0.0
  0
LINE
  5
3E4
100
AcDbEntity
  8
0
  6
HIDDEN
 62
     1
100
AcDbLine
 10
611.442634
 20
337.425606
 30
0.0
 11
611.442634
 21
334.806519
 31
0.0
  0
LINE
  5
400
100
AcDbEntity
  8
0
  6
HIDDEN
 62
     7
100
AcDbLine
 10
598.742634
 20
360.775606
 30
0.0
 11
662.642634
 21
360.775606
 31
0.0
  0
LINE
  5
401
100
AcDbEntity
  8
0
  6
HIDDEN
 62
     7
100
AcDbLine
 10
662.642634
 20
185.575606
 30
0.0
 11
598.742634
 21
185.575606
 31
0.0
  0
LINE
  5
402
100
AcDbEntity
  8
0
  6
HIDDEN
 62
     7
100
AcDbLine
 10
598.742634
 20
360.775606
 30
0.0
 11
601.742634
 21
360.775606
 31
0.0
  0
LINE
  5
403
100
AcDbEntity
  8
0
  6
HIDDEN
 62
     7
100
AcDbLine
 10
598.742634
 20
185.575606
 30
0.0
 11
601.742634
 21
185.575606
 31
0.0
  0
LINE
  5
404
100
AcDbEntity
  8
0
  6
HIDDEN
 62
     7
100
AcDbLine
 10
648.542634
 20
360.775606
 30
0.0
 11
662.642634
 21
360.775606
 31
0.0
  0
LINE
  5
405
100
AcDbEntity
  8
0
  6
HIDDEN
 62
     7
100
AcDbLine
 10
648.542634
 20
185.575606
 30
0.0
 11
662.642634
 21
185.575606
 31
0.0
  0
LINE
  5
406
100
AcDbEntity
  8
0
  6
HIDDEN
 62
     7
100
AcDbLine
 10
654.342634
 20
348.130726
 30
0.0
 11
654.342634
 21
351.075606
 31
0.0
  0
LINE
  5
407
100
AcDbEntity
  8
0
  6
HIDDEN
 62
     7
100
AcDbLine
 10
654.342634
 20
198.220485
 30
0.0
 11
654.342634
 21
195.275606
 31
0.0
  0
LINE
  5
408
100
AcDbEntity
  8
0
  6
HIDDEN
 62
     7
100
AcDbLine
 10
655.925383
 20
199.775607
 30
0.0
 11
658.842634
 21
199.775606
 31
0.0
  0
LINE
  5
409
100
AcDbEntity
  8
0
  6
HIDDEN
 62
     7
100
AcDbLine
 10
655.925383
 20
346.575604
 30
0.0
 11
658.842634
 21
346.575606
 31
0.0
  0
LINE
  5
41E
100
AcDbEntity
  8
0
  6
HIDDEN
 62
     1
100
AcDbLine
 10
603.942635
 20
319.675607
 30
0.0
 11
611.442634
 21
319.806519
 31
0.0
  0
LINE
  5
41F
100
AcDbEntity
  8
0
  6
HIDDEN
 62
     1
100
AcDbLine
 10
611.442634
 20
326.544693
 30
0.0
 11
603.942635
 21
326.675606
 31
0.0
  0
LINE
  5
420
100
AcDbEntity
  8
0
  6
HIDDEN
 62
     1
100
AcDbLine
 10
603.942635
 20
219.675605
 30
0.0
 11
611.442634
 21
219.806519
 31
0.0
  0
LINE
  5
421
100
AcDbEntity
  8
0
  6
HIDDEN
 62
     1
100
AcDbLine
 10
611.442634
 20
226.544693
 30
0.0
 11
603.942635
 21
226.675605
 31
0.0
  0
LINE
  5
435
100
AcDbEntity
  8
0
  6
HIDDEN
 62
     1
100
AcDbLine
 10
611.442634
 20
344.544693
 30
0.0
 11
603.942635
 21
344.675609
 31
0.0
  0
LINE
  5
436
100
AcDbEntity
  8
0
  6
HIDDEN
 62
     1
100
AcDbLine
 10
603.942635
 20
201.675602
 30
0.0
 11
611.442634
 21
201.806519
 31
0.0
  0
LINE
  5
444
100
AcDbEntity
  8
0
  6
HIDDEN
 62
     1
100
AcDbLine
 10
603.942635
 20
220.825606
 30
0.0
 11
608.442634
 21
220.904154
 31
0.0
  0
LINE
  5
445
100
AcDbEntity
  8
0
  6
HIDDEN
 62
     1
100
AcDbLine
 10
608.442634
 20
241.447058
 30
0.0
 11
603.942635
 21
241.525606
 31
0.0
  0
LINE
  5
446
100
AcDbEntity
  8
0
  6
HIDDEN
 62
     1
100
AcDbLine
 10
603.942635
 20
304.825605
 30
0.0
 11
608.442634
 21
304.904154
 31
0.0
  0
LINE
  5
447
100
AcDbEntity
  8
0
  6
HIDDEN
 62
     1
100
AcDbLine
 10
608.442634
 20
325.447058
 30
0.0
 11
603.942635
 21
325.525605
 31
0.0
  0
LINE
  5
45A
100
AcDbEntity
  8
0
  6
HIDDEN
 62
     1
100
AcDbLine
 10
611.442634
 20
211.544693
 30
0.0
 11
603.942635
 21
211.675604
 31
0.0
  0
LINE
  5
45C
100
AcDbEntity
  8
0
  6
HIDDEN
 62
     1
100
AcDbLine
 10
603.942635
 20
334.675607
 30
0.0
 11
611.442634
 21
334.806519
 31
0.0
  0
LINE
  5
486
100
AcDbEntity
  8
0
  6
CONTINUOUS
 62
     7
100
AcDbLine
 10
431.922722
 20
418.618527
 30
0.0
 11
431.922722
 21
417.618526
 31
0.0
  0
LINE
  5
487
100
AcDbEntity
  8
0
  6
CONTINUOUS
 62
     7
100
AcDbLine
 10
441.922722
 20
417.618526
 30
0.0
 11
441.922722
 21
418.618527
 31
0.0
  0
LINE
  5
488
100
AcDbEntity
  8
0
  6
CONTINUOUS
 62
     7
100
AcDbLine
 10
433.672722
 20
417.618525
 30
0.0
 11
433.672722
 21
416.018526
 31
0.0
  0
LINE
  5
489
100
AcDbEntity
  8
0
  6
CONTINUOUS
 62
     7
100
AcDbLine
 10
440.172722
 20
416.018526
 30
0.0
 11
440.172722
 21
417.618525
 31
0.0
  0
LINE
  5
48A
100
AcDbEntity
  8
0
  6
CONTINUOUS
 62
     7
100
AcDbLine
 10
439.868105
 20
416.018524
 30
0.0
 11
439.875087
 21
415.618526
 31
0.0
  0
LINE
  5
48B
100
AcDbEntity
  8
0
  6
CONTINUOUS
 62
     7
100
AcDbLine
 10
443.970357
 20
415.618526
 30
0.0
 11
444.022722
 21
418.618527
 31
0.0
  0
LINE
  5
48C
100
AcDbEntity
  8
0
  6
CONTINUOUS
 62
     7
100
AcDbLine
 10
429.822722
 20
418.618527
 30
0.0
 11
429.875087
 21
415.618526
 31
0.0
  0
LINE
  5
48D
100
AcDbEntity
  8
0
  6
CONTINUOUS
 62
     7
100
AcDbLine
 10
433.970357
 20
415.618526
 30
0.0
 11
433.977339
 21
416.018524
 31
0.0
  0
LINE
  5
48E
100
AcDbEntity
  8
0
  6
CONTINUOUS
 62
     7
100
AcDbLine
 10
400.670357
 20
415.618526
 30
0.0
 11
400.72272
 21
418.618527
 31
0.0
  0
LINE
  5
48F
100
AcDbEntity
  8
0
  6
CONTINUOUS
 62
     7
100
AcDbLine
 10
473.122724
 20
418.618527
 30
0.0
 11
473.175087
 21
415.618526
 31
0.0
  0
LINE
  5
490
100
AcDbEntity
  8
0
  6
CONTINUOUS
 62
     7
100
AcDbLine
 10
406.111124
 20
418.618527
 30
0.0
 11
406.146033
 21
416.618526
 31
0.0
  0
LINE
  5
491
100
AcDbEntity
  8
0
  6
CONTINUOUS
 62
     7
100
AcDbLine
 10
426.699411
 20
416.618526
 30
0.0
 11
426.734321
 21
418.618527
 31
0.0
  0
LINE
  5
492
100
AcDbEntity
  8
0
  6
CONTINUOUS
 62
     7
100
AcDbLine
 10
447.111123
 20
418.618527
 30
0.0
 11
447.146033
 21
416.618526
 31
0.0
  0
LINE
  5
493
100
AcDbEntity
  8
0
  6
CONTINUOUS
 62
     7
100
AcDbLine
 10
467.699411
 20
416.618526
 30
0.0
 11
467.734321
 21
418.618527
 31
0.0
  0
LINE
  5
494
100
AcDbEntity
  8
0
  6
CONTINUOUS
 62
     7
100
AcDbLine
 10
381.822722
 20
479.518526
 30
0.0
 11
492.022722
 21
479.518526
 31
0.0
  0
LINE
  5
495
100
AcDbEntity
  8
0
  6
CONTINUOUS
 62
     7
100
AcDbLine
 10
492.022722
 20
415.618526
 30
0.0
 11
492.022722
 21
479.518526
 31
0.0
  0
LINE
  5
496
100
AcDbEntity
  8
0
  6
CONTINUOUS
 62
     7
100
AcDbLine
 10
492.022722
 20
415.618526
 30
0.0
 11
480.622721
 21
415.618525
 31
0.0
  0
LINE
  5
497
100
AcDbEntity
  8
0
  6
CONTINUOUS
 62
     7
100
AcDbLine
 10
480.622722
 20
471.218526
 30
0.0
 11
480.622721
 21
415.618525
 31
0.0
  0
ARC
  5
498
100
AcDbEntity
  8
0
  6
CONTINUOUS
 62
     7
100
AcDbCircle
 10
476.122722
 20
471.218526
 30
0.0
 40
4.5
100
AcDbArc
 50
0.0
 51
90.0
  0
LINE
  5
499
100
AcDbEntity
  8
0
  6
CONTINUOUS
 62
     7
100
AcDbLine
 10
397.722722
 20
475.718526
 30
0.0
 11
476.122722
 21
475.718526
 31
0.0
  0
ARC
  5
49A
100
AcDbEntity
  8
0
  6
CONTINUOUS
 62
     7
100
AcDbCircle
 10
397.722722
 20
471.218526
 30
0.0
 40
4.5
100
AcDbArc
 50
90.0
 51
180.0
  0
LINE
  5
49B
100
AcDbEntity
  8
0
  6
CONTINUOUS
 62
     7
100
AcDbLine
 10
393.222724
 20
415.618525
 30
0.0
 11
393.222722
 21
471.218526
 31
0.0
  0
LINE
  5
49C
100
AcDbEntity
  8
0
  6
CONTINUOUS
 62
     7
100
AcDbLine
 10
381.822722
 20
479.518526
 30
0.0
 11
381.822722
 21
415.618526
 31
0.0
  0
LINE
  5
49D
100
AcDbEntity
  8
0
  6
CONTINUOUS
 62
     7
100
AcDbLine
 10
381.822722
 20
415.618526
 30
0.0
 11
393.222724
 21
415.618525
 31
0.0
  0
LINE
  5
49E
100
AcDbEntity
  8
0
  6
CONTINUOUS
 62
     7
100
AcDbLine
 10
375.822722
 20
479.518526
 30
0.0
 11
381.822722
 21
479.518526
 31
0.0
  0
LINE
  5
49F
100
AcDbEntity
  8
0
  6
CONTINUOUS
 62
     7
100
AcDbLine
 10
375.822722
 20
415.618526
 30
0.0
 11
375.822722
 21
479.518526
 31
0.0
  0
LINE
  5
4A0
100
AcDbEntity
  8
0
  6
CONTINUOUS
 62
     7
100
AcDbLine
 10
375.822722
 20
415.618526
 30
0.0
 11
381.822722
 21
415.618526
 31
0.0
  0
LINE
  5
4A1
100
AcDbEntity
  8
0
  6
CONTINUOUS
 62
     7
100
AcDbLine
 10
477.677845
 20
471.218526
 30
0.0
 11
480.622722
 21
471.218526
 31
0.0
  0
LINE
  5
4A2
100
AcDbEntity
  8
0
  6
CONTINUOUS
 62
     7
100
AcDbLine
 10
476.759709
 20
415.618526
 30
0.0
 11
476.75971
 21
418.618527
 31
0.0
  0
LINE
  5
4A3
100
AcDbEntity
  8
0
  6
CONTINUOUS
 62
     7
100
AcDbLine
 10
477.677845
 20
471.218526
 30
0.0
 11
476.75971
 21
418.618527
 31
0.0
  0
LINE
  5
4A4
100
AcDbEntity
  8
0
  6
CONTINUOUS
 62
     7
100
AcDbLine
 10
480.622721
 20
415.618525
 30
0.0
 11
476.759709
 21
415.618526
 31
0.0
  0
LINE
  5
4A5
100
AcDbEntity
  8
0
  6
CONTINUOUS
 62
     7
100
AcDbLine
 10
492.022722
 20
479.518526
 30
0.0
 11
498.022722
 21
479.518526
 31
0.0
  0
LINE
  5
4A6
100
AcDbEntity
  8
0
  6
CONTINUOUS
 62
     7
100
AcDbLine
 10
498.022722
 20
479.518526
 30
0.0
 11
498.022722
 21
415.618526
 31
0.0
  0
LINE
  5
4A7
100
AcDbEntity
  8
0
  6
CONTINUOUS
 62
     7
100
AcDbLine
 10
498.022722
 20
415.618526
 30
0.0
 11
492.022722
 21
415.618526
 31
0.0
  0
LINE
  5
4A8
100
AcDbEntity
  8
0
  6
CONTINUOUS
 62
     7
100
AcDbLine
 10
396.167599
 20
471.218526
 30
0.0
 11
397.085734
 21
418.618527
 31
0.0
  0
LINE
  5
4A9
100
AcDbEntity
  8
0
  6
CONTINUOUS
 62
     7
100
AcDbLine
 10
397.085736
 20
415.618526
 30
0.0
 11
397.085734
 21
418.618527
 31
0.0
  0
LINE
  5
4AA
100
AcDbEntity
  8
0
  6
CONTINUOUS
 62
     7
100
AcDbLine
 10
396.167599
 20
471.218526
 30
0.0
 11
393.222722
 21
471.218526
 31
0.0
  0
LINE
  5
4AB
100
AcDbEntity
  8
0
  6
CONTINUOUS
 62
     7
100
AcDbLine
 10
393.222724
 20
415.618525
 30
0.0
 11
397.085736
 21
415.618526
 31
0.0
  0
ELLIPSE
  5
4AC
100
AcDbEntity
  8
0
  6
CONTINUOUS
 62
     7
100
AcDbEllipse
 10
397.722722
 20
471.245679
 30
0.0
 11
0.0
 21
1.55559691926328
 31
0.0
210
0.0
220
0.0
230
1.0
 40
0.999848
 41
0.0
 42
1.588252278210826
  0
LINE
  5
4AD
100
AcDbEntity
  8
0
  6
CONTINUOUS
 62
     7
100
AcDbLine
 10
397.722722
 20
472.801276
 30
0.0
 11
397.722722
 21
475.718526
 31
0.0
  0
LINE
  5
4AE
100
AcDbEntity
  8
0
  6
CONTINUOUS
 62
     7
100
AcDbLine
 10
476.122723
 20
472.801276
 30
0.0
 11
397.722722
 21
472.801276
 31
0.0
  0
LINE
  5
4AF
100
AcDbEntity
  8
0
  6
CONTINUOUS
 62
     7
100
AcDbLine
 10
476.122723
 20
472.801276
 30
0.0
 11
476.122722
 21
475.718526
 31
0.0
  0
ELLIPSE
  5
4B0
100
AcDbEntity
  8
0
  6
CONTINUOUS
 62
     7
100
AcDbEllipse
 10
476.122722
 20
471.245679
 30
0.0
 11
0.0
 21
1.555596919263166
 31
0.0
210
0.0
220
0.0
230
1.0
 40
0.999848
 41
4.694933028968698
 42
6.283185307179586
  0
LINE
  5
4B1
100
AcDbEntity
  8
0
  6
CONTINUOUS
 62
     7
100
AcDbLine
 10
476.75971
 20
418.618527
 30
0.0
 11
397.085734
 21
418.618527
 31
0.0
  0
LINE
  5
4B2
100
AcDbEntity
  8
0
  6
CONTINUOUS
 62
     7
100
AcDbLine
 10
436.922722
 20
417.618526
 30
0.0
 11
431.922722
 21
417.618526
 31
0.0
  0
LINE
  5
4B3
100
AcDbEntity
  8
0
  6
CONTINUOUS
 62
     7
100
AcDbLine
 10
441.922722
 20
417.618526
 30
0.0
 11
436.922722
 21
417.618526
 31
0.0
  0
LINE
  5
4B4
100
AcDbEntity
  8
0
  6
CONTINUOUS
 62
     7
100
AcDbLine
 10
436.922722
 20
416.018526
 30
0.0
 11
433.672722
 21
416.018526
 31
0.0
  0
LINE
  5
4B5
100
AcDbEntity
  8
0
  6
CONTINUOUS
 62
     7
100
AcDbLine
 10
440.172722
 20
416.018526
 30
0.0
 11
436.922722
 21
416.018526
 31
0.0
  0
LINE
  5
4B6
100
AcDbEntity
  8
0
  6
CONTINUOUS
 62
     7
100
AcDbLine
 10
443.970357
 20
415.618526
 30
0.0
 11
439.875087
 21
415.618526
 31
0.0
  0
LINE
  5
4B7
100
AcDbEntity
  8
0
  6
CONTINUOUS
 62
     7
100
AcDbLine
 10
433.970357
 20
415.618526
 30
0.0
 11
429.875087
 21
415.618526
 31
0.0
  0
LINE
  5
4B8
100
AcDbEntity
  8
0
  6
CONTINUOUS
 62
     7
100
AcDbLine
 10
398.622722
 20
415.618526
 30
0.0
 11
397.085736
 21
415.618526
 31
0.0
  0
LINE
  5
4B9
100
AcDbEntity
  8
0
  6
CONTINUOUS
 62
     7
100
AcDbLine
 10
400.670357
 20
415.618526
 30
0.0
 11
398.622722
 21
415.618526
 31
0.0
  0
LINE
  5
4BA
100
AcDbEntity
  8
0
  6
CONTINUOUS
 62
     7
100
AcDbLine
 10
476.759709
 20
415.618526
 30
0.0
 11
473.175087
 21
415.618526
 31
0.0
  0
LINE
  5
4BB
100
AcDbEntity
  8
0
  6
CONTINUOUS
 62
     7
100
AcDbLine
 10
426.699411
 20
416.618526
 30
0.0
 11
406.146033
 21
416.618526
 31
0.0
  0
LINE
  5
4BC
100
AcDbEntity
  8
0
  6
CONTINUOUS
 62
     7
100
AcDbLine
 10
467.699411
 20
416.618526
 30
0.0
 11
447.146033
 21
416.618526
 31
0.0
  0
LINE
  5
4BD
100
AcDbEntity
  8
0
  6
CONTINUOUS
 62
     7
100
AcDbLine
 10
498.022722
 20
475.718526
 30
0.0
 11
498.022722
 21
471.218526
 31
0.0
  0
LINE
  5
4BE
100
AcDbEntity
  8
0
  6
CONTINUOUS
 62
     7
100
AcDbLine
 10
375.822722
 20
475.718526
 30
0.0
 11
375.822722
 21
471.218526
 31
0.0
  0
LINE
  5
4BF
100
AcDbEntity
  8
0
  6
CONTINUOUS
 62
     7
100
AcDbLine
 10
375.822722
 20
471.218526
 30
0.0
 11
375.822722
 21
415.618526
 31
0.0
  0
LINE
  5
4C0
100
AcDbEntity
  8
0
  6
CONTINUOUS
 62
     7
100
AcDbLine
 10
498.022722
 20
471.218526
 30
0.0
 11
498.022722
 21
415.618526
 31
0.0
  0
LINE
  5
4D1
100
AcDbEntity
  8
0
  6
CONTINUOUS
 62
     7
100
AcDbLine
 10
441.922722
 20
110.040649
 30
0.0
 11
441.922722
 21
111.04065
 31
0.0
  0
LINE
  5
4D2
100
AcDbEntity
  8
0
  6
CONTINUOUS
 62
     7
100
AcDbLine
 10
431.922722
 20
111.04065
 30
0.0
 11
431.922722
 21
110.040649
 31
0.0
  0
LINE
  5
4D3
100
AcDbEntity
  8
0
  6
CONTINUOUS
 62
     7
100
AcDbLine
 10
440.172722
 20
111.040651
 30
0.0
 11
440.172722
 21
112.64065
 31
0.0
  0
LINE
  5
4D4
100
AcDbEntity
  8
0
  6
CONTINUOUS
 62
     7
100
AcDbLine
 10
433.672722
 20
112.64065
 30
0.0
 11
433.672722
 21
111.040651
 31
0.0
  0
LINE
  5
4D5
100
AcDbEntity
  8
0
  6
CONTINUOUS
 62
     7
100
AcDbLine
 10
444.022722
 20
110.040649
 30
0.0
 11
443.970357
 21
113.04065
 31
0.0
  0
LINE
  5
4D6
100
AcDbEntity
  8
0
  6
CONTINUOUS
 62
     7
100
AcDbLine
 10
439.875087
 20
113.04065
 30
0.0
 11
439.868105
 21
112.640652
 31
0.0
  0
LINE
  5
4D7
100
AcDbEntity
  8
0
  6
CONTINUOUS
 62
     7
100
AcDbLine
 10
433.977339
 20
112.640652
 30
0.0
 11
433.970357
 21
113.04065
 31
0.0
  0
LINE
  5
4D8
100
AcDbEntity
  8
0
  6
CONTINUOUS
 62
     7
100
AcDbLine
 10
429.875087
 20
113.04065
 30
0.0
 11
429.822722
 21
110.040649
 31
0.0
  0
LINE
  5
4D9
100
AcDbEntity
  8
0
  6
CONTINUOUS
 62
     7
100
AcDbLine
 10
473.175087
 20
113.04065
 30
0.0
 11
473.122724
 21
110.040649
 31
0.0
  0
LINE
  5
4DA
100
AcDbEntity
  8
0
  6
CONTINUOUS
 62
     7
100
AcDbLine
 10
400.72272
 20
110.040649
 30
0.0
 11
400.670357
 21
113.04065
 31
0.0
  0
LINE
  5
4DB
100
AcDbEntity
  8
0
  6
CONTINUOUS
 62
     7
100
AcDbLine
 10
467.734321
 20
110.040649
 30
0.0
 11
467.699411
 21
112.04065
 31
0.0
  0
LINE
  5
4DC
100
AcDbEntity
  8
0
  6
CONTINUOUS
 62
     7
100
AcDbLine
 10
447.146033
 20
112.04065
 30
0.0
 11
447.111123
 21
110.040649
 31
0.0
  0
LINE
  5
4DD
100
AcDbEntity
  8
0
  6
CONTINUOUS
 62
     7
100
AcDbLine
 10
426.734321
 20
110.040649
 30
0.0
 11
426.699411
 21
112.04065
 31
0.0
  0
LINE
  5
4DE
100
AcDbEntity
  8
0
  6
CONTINUOUS
 62
     7
100
AcDbLine
 10
406.146033
 20
112.04065
 30
0.0
 11
406.111124
 21
110.040649
 31
0.0
  0
LINE
  5
4DF
100
AcDbEntity
  8
0
  6
CONTINUOUS
 62
     7
100
AcDbLine
 10
498.022722
 20
49.14065
 30
0.0
 11
492.022722
 21
49.14065
 31
0.0
  0
LINE
  5
4E0
100
AcDbEntity
  8
0
  6
CONTINUOUS
 62
     7
100
AcDbLine
 10
492.022722
 20
49.14065
 30
0.0
 11
492.022722
 21
113.04065
 31
0.0
  0
LINE
  5
4E1
100
AcDbEntity
  8
0
  6
CONTINUOUS
 62
     7
100
AcDbLine
 10
498.022722
 20
113.04065
 30
0.0
 11
492.022722
 21
113.04065
 31
0.0
  0
LINE
  5
4E2
100
AcDbEntity
  8
0
  6
CONTINUOUS
 62
     7
100
AcDbLine
 10
498.022722
 20
113.04065
 30
0.0
 11
498.022722
 21
49.14065
 31
0.0
  0
LINE
  5
4E3
100
AcDbEntity
  8
0
  6
CONTINUOUS
 62
     7
100
AcDbLine
 10
381.822722
 20
49.14065
 30
0.0
 11
375.822722
 21
49.14065
 31
0.0
  0
LINE
  5
4E4
100
AcDbEntity
  8
0
  6
CONTINUOUS
 62
     7
100
AcDbLine
 10
375.822722
 20
49.14065
 30
0.0
 11
375.822722
 21
113.04065
 31
0.0
  0
LINE
  5
4E5
100
AcDbEntity
  8
0
  6
CONTINUOUS
 62
     7
100
AcDbLine
 10
375.822722
 20
113.04065
 30
0.0
 11
381.822722
 21
113.04065
 31
0.0
  0
LINE
  5
4E6
100
AcDbEntity
  8
0
  6
CONTINUOUS
 62
     7
100
AcDbLine
 10
381.822722
 20
113.04065
 30
0.0
 11
381.822722
 21
49.14065
 31
0.0
  0
LINE
  5
4E7
100
AcDbEntity
  8
0
  6
CONTINUOUS
 62
     7
100
AcDbLine
 10
393.222724
 20
113.040651
 30
0.0
 11
393.222722
 21
57.44065
 31
0.0
  0
LINE
  5
4E8
100
AcDbEntity
  8
0
  6
CONTINUOUS
 62
     7
100
AcDbLine
 10
393.222724
 20
113.040651
 30
0.0
 11
397.085736
 21
113.04065
 31
0.0
  0
LINE
  5
4E9
100
AcDbEntity
  8
0
  6
CONTINUOUS
 62
     7
100
AcDbLine
 10
397.085736
 20
113.04065
 30
0.0
 11
397.085734
 21
110.040649
 31
0.0
  0
LINE
  5
4EA
100
AcDbEntity
  8
0
  6
CONTINUOUS
 62
     7
100
AcDbLine
 10
396.167599
 20
57.44065
 30
0.0
 11
397.085734
 21
110.040649
 31
0.0
  0
LINE
  5
4EB
100
AcDbEntity
  8
0
  6
CONTINUOUS
 62
     7
100
AcDbLine
 10
396.167599
 20
57.44065
 30
0.0
 11
393.222722
 21
57.44065
 31
0.0
  0
LINE
  5
4EC
100
AcDbEntity
  8
0
  6
CONTINUOUS
 62
     7
100
AcDbLine
 10
477.677845
 20
57.44065
 30
0.0
 11
480.622722
 21
57.44065
 31
0.0
  0
LINE
  5
4ED
100
AcDbEntity
  8
0
  6
CONTINUOUS
 62
     7
100
AcDbLine
 10
477.677845
 20
57.44065
 30
0.0
 11
476.75971
 21
110.040649
 31
0.0
  0
LINE
  5
4EE
100
AcDbEntity
  8
0
  6
CONTINUOUS
 62
     7
100
AcDbLine
 10
476.759709
 20
113.04065
 30
0.0
 11
476.75971
 21
110.040649
 31
0.0
  0
LINE
  5
4EF
100
AcDbEntity
  8
0
  6
CONTINUOUS
 62
     7
100
AcDbLine
 10
480.622722
 20
57.44065
 30
0.0
 11
480.622721
 21
113.040651
 31
0.0
  0
LINE
  5
4F0
100
AcDbEntity
  8
0
  6
CONTINUOUS
 62
     7
100
AcDbLine
 10
480.622721
 20
113.040651
 30
0.0
 11
476.759709
 21
113.04065
 31
0.0
  0
LINE
  5
4F1
100
AcDbEntity
  8
0
  6
CONTINUOUS
 62
     7
100
AcDbLine
 10
492.022722
 20
49.14065
 30
0.0
 11
381.822722
 21
49.14065
 31
0.0
  0
ARC
  5
4F2
100
AcDbEntity
  8
0
  6
CONTINUOUS
 62
     7
100
AcDbCircle
 10
397.722722
 20
57.44065
 30
0.0
 40
4.5
100
AcDbArc
 50
180.0
 51
270.0
  0
LINE
  5
4F3
100
AcDbEntity
  8
0
  6
CONTINUOUS
 62
     7
100
AcDbLine
 10
397.722722
 20
52.94065
 30
0.0
 11
476.122722
 21
52.94065
 31
0.0
  0
ARC
  5
4F4
100
AcDbEntity
  8
0
  6
CONTINUOUS
 62
     7
100
AcDbCircle
 10
476.122722
 20
57.44065
 30
0.0
 40
4.5
100
AcDbArc
 50
270.0
 51
0.0
  0
LINE
  5
4F5
100
AcDbEntity
  8
0
  6
CONTINUOUS
 62
     7
100
AcDbLine
 10
381.822722
 20
113.04065
 30
0.0
 11
393.222724
 21
113.040651
 31
0.0
  0
LINE
  5
4F6
100
AcDbEntity
  8
0
  6
CONTINUOUS
 62
     7
100
AcDbLine
 10
492.022722
 20
113.04065
 30
0.0
 11
480.622721
 21
113.040651
 31
0.0
  0
LINE
  5
4F7
100
AcDbEntity
  8
0
  6
CONTINUOUS
 62
     7
100
AcDbLine
 10
476.122723
 20
55.8579
 30
0.0
 11
476.122722
 21
52.94065
 31
0.0
  0
ELLIPSE
  5
4F8
100
AcDbEntity
  8
0
  6
CONTINUOUS
 62
     7
100
AcDbEllipse
 10
476.122722
 20
57.413497
 30
0.0
 11
-0.0000000000001137
 21
1.555596919263265
 31
0.0
210
0.0
220
0.0
230
1.0
 40
0.999848
 41
3.14159265358972
 42
4.729844931800533
  0
LINE
  5
4F9
100
AcDbEntity
  8
0
  6
CONTINUOUS
 62
     7
100
AcDbLine
 10
397.722722
 20
55.8579
 30
0.0
 11
397.722722
 21
52.94065
 31
0.0
  0
LINE
  5
4FA
100
AcDbEntity
  8
0
  6
CONTINUOUS
 62
     7
100
AcDbLine
 10
476.122723
 20
55.8579
 30
0.0
 11
397.722722
 21
55.8579
 31
0.0
  0
ELLIPSE
  5
4FB
100
AcDbEntity
  8
0
  6
CONTINUOUS
 62
     7
100
AcDbEllipse
 10
397.722722
 20
57.413497
 30
0.0
 11
-0.0000000000000568
 21
1.555596919263265
 31
0.0
210
0.0
220
0.0
230
1.0
 40
0.999848
 41
1.553340375378967
 42
3.141592653589756
  0
LINE
  5
4FC
100
AcDbEntity
  8
0
  6
CONTINUOUS
 62
     7
100
AcDbLine
 10
476.75971
 20
110.040649
 30
0.0
 11
397.085734
 21
110.040649
 31
0.0
  0
LINE
  5
4FD
100
AcDbEntity
  8
0
  6
CONTINUOUS
 62
     7
100
AcDbLine
 10
431.922722
 20
111.04065
 30
0.0
 11
441.922722
 21
111.04065
 31
0.0
  0
LINE
  5
4FE
100
AcDbEntity
  8
0
  6
CONTINUOUS
 62
     7
100
AcDbLine
 10
433.672722
 20
112.64065
 30
0.0
 11
440.172722
 21
112.64065
 31
0.0
  0
LINE
  5
4FF
100
AcDbEntity
  8
0
  6
CONTINUOUS
 62
     7
100
AcDbLine
 10
439.875087
 20
113.04065
 30
0.0
 11
443.970357
 21
113.04065
 31
0.0
  0
LINE
  5
500
100
AcDbEntity
  8
0
  6
CONTINUOUS
 62
     7
100
AcDbLine
 10
429.875087
 20
113.04065
 30
0.0
 11
433.970357
 21
113.04065
 31
0.0
  0
LINE
  5
501
100
AcDbEntity
  8
0
  6
CONTINUOUS
 62
     7
100
AcDbLine
 10
473.175087
 20
113.04065
 30
0.0
 11
476.759709
 21
113.04065
 31
0.0
  0
LINE
  5
502
100
AcDbEntity
  8
0
  6
CONTINUOUS
 62
     7
100
AcDbLine
 10
398.622722
 20
113.04065
 30
0.0
 11
400.670357
 21
113.04065
 31
0.0
  0
LINE
  5
503
100
AcDbEntity
  8
0
  6
CONTINUOUS
 62
     7
100
AcDbLine
 10
397.085736
 20
113.04065
 30
0.0
 11
398.622722
 21
113.04065
 31
0.0
  0
LINE
  5
504
100
AcDbEntity
  8
0
  6
CONTINUOUS
 62
     7
100
AcDbLine
 10
457.422722
 20
112.04065
 30
0.0
 11
467.699411
 21
112.04065
 31
0.0
  0
LINE
  5
505
100
AcDbEntity
  8
0
  6
CONTINUOUS
 62
     7
100
AcDbLine
 10
447.146033
 20
112.04065
 30
0.0
 11
457.422722
 21
112.04065
 31
0.0
  0
LINE
  5
506
100
AcDbEntity
  8
0
  6
CONTINUOUS
 62
     7
100
AcDbLine
 10
416.422722
 20
112.04065
 30
0.0
 11
426.699411
 21
112.04065
 31
0.0
  0
LINE
  5
507
100
AcDbEntity
  8
0
  6
CONTINUOUS
 62
     7
100
AcDbLine
 10
406.146033
 20
112.04065
 30
0.0
 11
416.422722
 21
112.04065
 31
0.0
  0
LINE
  5
508
100
AcDbEntity
  8
0
  6
CONTINUOUS
 62
     7
100
AcDbLine
 10
498.022722
 20
57.44065
 30
0.0
 11
498.022722
 21
52.94065
 31
0.0
  0
LINE
  5
509
100
AcDbEntity
  8
0
  6
CONTINUOUS
 62
     7
100
AcDbLine
 10
375.822722
 20
57.44065
 30
0.0
 11
375.822722
 21
52.94065
 31
0.0
  0
LINE
  5
50A
100
AcDbEntity
  8
0
  6
CONTINUOUS
 62
     7
100
AcDbLine
 10
375.822722
 20
113.04065
 30
0.0
 11
375.822722
 21
57.44065
 31
0.0
  0
LINE
  5
50B
100
AcDbEntity
  8
0
  6
CONTINUOUS
 62
     7
100
AcDbLine
 10
498.022722
 20
113.04065
 30
0.0
 11
498.022722
 21
57.44065
 31
0.0
  0
INSERT
  5
513
100
AcDbEntity
  8
0
  6
CONTINUOUS
 62
     7
100
AcDbBlockReference
  2
SW_CENTERMARKSYMBOL_6
 10
397.722722
 20
57.44065
 30
0.0
 41
2.0
 42
2.0
 43
2.0
  0
INSERT
  5
51B
100
AcDbEntity
  8
0
  6
CONTINUOUS
 62
     7
100
AcDbBlockReference
  2
SW_CENTERMARKSYMBOL_7
 10
476.122722
 20
57.44065
 30
0.0
 41
2.0
 42
2.0
 43
2.0
  0
TEXT
  5
55D
100
AcDbEntity
  8
0
100
AcDbText
 10
26.076413
 20
456.840917
 30
0.0
 40
10.0
  1
FIBOX Tempo 1912 Base
100
AcDbText
  0
ENDSEC
  0
SECTION
  2
OBJECTS
  0
DICTIONARY
  5
C
100
AcDbDictionary
  3
ACAD_GROUP
350
D
  3
ACAD_PLOTSTYLENAME
350
E
  3
ACAD_MLINESTYLE
350
17
  3
ACAD_PLOTSETTINGS
350
19
  3
ACAD_LAYOUT
350
1A
  3
ACDBHEADERROUNDTRIPXREC
350
51D
  0
DICTIONARY
  5
54F
100
AcDbDictionary
280
     1
  3
ACAD_XREC_ROUNDTRIP
360
550
  0
DICTIONARY
  5
551
100
AcDbDictionary
280
     1
  3
ACAD_XREC_ROUNDTRIP
360
552
  0
DICTIONARY
  5
553
100
AcDbDictionary
280
     1
  3
ACAD_XREC_ROUNDTRIP
360
554
  0
DICTIONARY
  5
54D
100
AcDbDictionary
280
     1
  3
ACAD_XREC_ROUNDTRIP
360
54E
  0
DICTIONARY
  5
557
100
AcDbDictionary
280
     1
  3
ACAD_XREC_ROUNDTRIP
360
558
  0
DICTIONARY
  5
544
100
AcDbDictionary
280
     1
  3
ACAD_LAYOUTSELFREF
360
545
  3
ACAD_XREC_ROUNDTRIP
360
54A
  0
DICTIONARY
  5
542
100
AcDbDictionary
280
     1
  3
ACAD_LAYOUTSELFREF
360
543
  3
ACAD_XREC_ROUNDTRIP
360
54B
  0
DICTIONARY
  5
546
100
AcDbDictionary
280
     1
  3
ACAD_LAYOUTSELFREF
360
547
  3
ACAD_XREC_ROUNDTRIP
360
54C
  0
DICTIONARY
  5
D
102
{ACAD_REACTORS
330
C
102
}
100
AcDbDictionary
  0
ACAD_PROXY_OBJECT
  5
E
102
{ACAD_XDICTIONARY
360
53E
102
}
102
{ACAD_REACTORS
330
C
102
}
100
AcDbProxyObject
 90
      499
 91
      500
 93
       86
310
4050100419393D49350530
350
F
340
F
 94
        0
  0
DICTIONARY
  5
17
102
{ACAD_XDICTIONARY
360
540
102
}
102
{ACAD_REACTORS
330
C
102
}
100
AcDbDictionary
  3
STANDARD
350
18
  0
DICTIONARY
  5
19
102
{ACAD_REACTORS
330
C
102
}
100
AcDbDictionary
  0
DICTIONARY
  5
1A
102
{ACAD_XDICTIONARY
360
548
102
}
102
{ACAD_REACTORS
330
C
102
}
100
AcDbDictionary
  3
LAYOUT1
350
1E
  3
MODEL
350
22
  3
LAYOUT2
350
26
  0
DICTIONARY
  5
51D
102
{ACAD_REACTORS
330
C
102
}
100
AcDbDictionary
  3
TSTACKALIGN
350
51E
  3
TSTACKSIZE
350
51F
  3
HYPERLINKBASE
350
520
  3
STYLESHEET
350
521
  3
LAYOUTDICT
350
522
  3
PLOTSETDICT
350
523
  3
PLOTSTYLNAMDICT
350
524
  3
LWETCUNION
350
525
  3
INSUNITS
350
526
  3
CEPSNTYPE
350
527
  3
FINGERPRINTGUID
350
528
  3
VERSIONGUID
350
529
  3
PSVPSCALE
350
52A
  3
PUCSORTHOREF
350
52B
  3
PUCSORTHOVIEW
350
52C
  3
PUCSBASE
350
52D
  3
PUCSORGTOP
350
52E
  3
PUCSORGBOTTOM
350
52F
  3
PUCSORGLEFT
350
530
  3
PUCSORGRIGHT
350
531
  3
PUCSORGFRONT
350
532
  3
PUCSORGBACK
350
533
  3
UCSORTHOREF
350
534
  3
UCSORTHOVIEW
350
535
  3
UCSBASE
350
536
  3
UCSORGTOP
350
537
  3
UCSORGBOTTOM
350
538
  3
UCSORGLEFT
350
539
  3
UCSORGRIGHT
350
53A
  3
UCSORGFRONT
350
53B
  3
UCSORGBACK
350
53C
  3
DIMSTYLEDATA
350
53D
  0
XRECORD
  5
550
102
{ACAD_REACTORS
330
54F
102
}
100
AcDbXrecord
102
EXTNAMES
  1
BYBLOCK
  2
ByBlock
  0
XRECORD
  5
552
102
{ACAD_REACTORS
330
551
102
}
100
AcDbXrecord
102
EXTNAMES
  1
BYLAYER
  2
ByLayer
  0
XRECORD
  5
554
102
{ACAD_REACTORS
330
553
102
}
100
AcDbXrecord
102
EXTNAMES
  1
CONTINUOUS
  2
Continuous
  0
XRECORD
  5
54E
102
{ACAD_REACTORS
330
54D
102
}
100
AcDbXrecord
102
EXTNAMES
  1
STANDARD
  2
Standard
  0
XRECORD
  5
558
102
{ACAD_REACTORS
330
557
102
}
100
AcDbXrecord
102
ACADR14ROUNDTRIP
1000
DSTYLE
1002
{
1070
   278
 70
    44
1002
}
  0
XRECORD
  5
545
102
{ACAD_REACTORS
330
544
102
}
100
AcDbXrecord
340
1F
  0
XRECORD
  5
54A
102
{ACAD_REACTORS
330
544
102
}
100
AcDbXrecord
102
EXTNAMES
  1
*MODEL_SPACE
  2
*Model_Space
  0
XRECORD
  5
543
102
{ACAD_REACTORS
330
542
102
}
100
AcDbXrecord
340
1B
  0
XRECORD
  5
54B
102
{ACAD_REACTORS
330
542
102
}
100
AcDbXrecord
102
EXTNAMES
  1
*PAPER_SPACE
  2
*Paper_Space
  0
XRECORD
  5
547
102
{ACAD_REACTORS
330
546
102
}
100
AcDbXrecord
340
23
  0
XRECORD
  5
54C
102
{ACAD_REACTORS
330
546
102
}
100
AcDbXrecord
102
EXTNAMES
  1
*PAPER_SPACE
  2
*Paper_Space0
  0
DICTIONARY
  5
53E
100
AcDbDictionary
280
     1
  3
ACAD_XREC_ROUNDTRIP
360
53F
  0
ACAD_PROXY_OBJECT
  5
F
102
{ACAD_REACTORS
330
E
102
}
100
AcDbProxyObject
 90
      499
 91
      504
 93
        0
 94
        0
  0
DICTIONARY
  5
540
100
AcDbDictionary
280
     1
  3
ACAD_XREC_ROUNDTRIP
360
541
  0
MLINESTYLE
  5
18
102
{ACAD_REACTORS
330
17
102
}
100
AcDbMlineStyle
  2
STANDARD
 70
     0
  3

 62
   256
 51
90.0
 52
90.0
 71
     2
 49
0.5
 62
   256
  6
BYLAYER
 49
-0.5
 62
   256
  6
BYLAYER
  0
DICTIONARY
  5
548
100
AcDbDictionary
280
     1
  3
ACAD_XREC_ROUNDTRIP
360
549
  0
ACAD_PROXY_OBJECT
  5
1E
102
{ACAD_REACTORS
330
1A
102
}
100
AcDbProxyObject
 90
      499
 91
      505
 93
      468
310
A2C00AAAAAA416AA591069074C61796F75743140501A80000000000000000000000000000000000000000000000000000000000000002A6A6AAAA0
330
1B
330
0
340
0
340
0
 94
        0
  0
ACAD_PROXY_OBJECT
  5
22
102
{ACAD_REACTORS
330
1A
102
}
100
AcDbProxyObject
 90
      499
 91
      505
 93
      556
310
A2C01AAAAAAAAA5A69054D6F64656C901A80000000000000000000000000000000000000000000000000000000000000002A6A6AA80000000000407A400000000000241C9020
330
1F
330
0
340
0
340
0
 94
        0
  0
ACAD_PROXY_OBJECT
  5
26
102
{ACAD_REACTORS
330
1A
102
}
100
AcDbProxyObject
 90
      499
 91
      505
 93
      468
310
A2C00AAAAAA416AA591069074C61796F75743240901A80000000000000000000000000000000000000000000000000000000000000002A6A6AAAA0
330
23
330
0
340
0
340
0
 94
        0
  0
XRECORD
  5
51E
102
{ACAD_REACTORS
330
51D
102
}
100
AcDbXrecord
 90
        1
  0
XRECORD
  5
51F
102
{ACAD_REACTORS
330
51D
102
}
100
AcDbXrecord
 90
       70
  0
XRECORD
  5
520
102
{ACAD_REACTORS
330
51D
102
}
100
AcDbXrecord
  1

  0
XRECORD
  5
521
102
{ACAD_REACTORS
330
51D
102
}
100
AcDbXrecord
  1

  0
XRECORD
  5
522
102
{ACAD_REACTORS
330
51D
102
}
100
AcDbXrecord
340
1A
  0
XRECORD
  5
523
102
{ACAD_REACTORS
330
51D
102
}
100
AcDbXrecord
340
19
  0
XRECORD
  5
524
102
{ACAD_REACTORS
330
51D
102
}
100
AcDbXrecord
340
E
  0
XRECORD
  5
525
102
{ACAD_REACTORS
330
51D
102
}
100
AcDbXrecord
 90
    10269
  0
XRECORD
  5
526
102
{ACAD_REACTORS
330
51D
102
}
100
AcDbXrecord
 90
        4
  0
XRECORD
  5
527
102
{ACAD_REACTORS
330
51D
102
}
100
AcDbXrecord
 90
        0
  0
XRECORD
  5
528
102
{ACAD_REACTORS
330
51D
102
}
100
AcDbXrecord
  1
{4D595D5E-1309-4916-B545-634ADF622478}
  0
XRECORD
  5
529
102
{ACAD_REACTORS
330
51D
102
}
100
AcDbXrecord
  1
{FAEB1C32-E019-11D5-929B-00C0DF256EC4}
  0
XRECORD
  5
52A
102
{ACAD_REACTORS
330
51D
102
}
100
AcDbXrecord
 40
0.0
  0
XRECORD
  5
52B
102
{ACAD_REACTORS
330
51D
102
}
100
AcDbXrecord
340
0
  0
XRECORD
  5
52C
102
{ACAD_REACTORS
330
51D
102
}
100
AcDbXrecord
 70
     0
  0
XRECORD
  5
52D
102
{ACAD_REACTORS
330
51D
102
}
100
AcDbXrecord
340
0
  0
XRECORD
  5
52E
102
{ACAD_REACTORS
330
51D
102
}
100
AcDbXrecord
 10
0.0
 20
0.0
 30
0.0
  0
XRECORD
  5
52F
102
{ACAD_REACTORS
330
51D
102
}
100
AcDbXrecord
 10
0.0
 20
0.0
 30
0.0
  0
XRECORD
  5
530
102
{ACAD_REACTORS
330
51D
102
}
100
AcDbXrecord
 10
0.0
 20
0.0
 30
0.0
  0
XRECORD
  5
531
102
{ACAD_REACTORS
330
51D
102
}
100
AcDbXrecord
 10
0.0
 20
0.0
 30
0.0
  0
XRECORD
  5
532
102
{ACAD_REACTORS
330
51D
102
}
100
AcDbXrecord
 10
0.0
 20
0.0
 30
0.0
  0
XRECORD
  5
533
102
{ACAD_REACTORS
330
51D
102
}
100
AcDbXrecord
 10
0.0
 20
0.0
 30
0.0
  0
XRECORD
  5
534
102
{ACAD_REACTORS
330
51D
102
}
100
AcDbXrecord
340
0
  0
XRECORD
  5
535
102
{ACAD_REACTORS
330
51D
102
}
100
AcDbXrecord
 70
     0
  0
XRECORD
  5
536
102
{ACAD_REACTORS
330
51D
102
}
100
AcDbXrecord
340
0
  0
XRECORD
  5
537
102
{ACAD_REACTORS
330
51D
102
}
100
AcDbXrecord
 10
0.0
 20
0.0
 30
0.0
  0
XRECORD
  5
538
102
{ACAD_REACTORS
330
51D
102
}
100
AcDbXrecord
 10
0.0
 20
0.0
 30
0.0
  0
XRECORD
  5
539
102
{ACAD_REACTORS
330
51D
102
}
100
AcDbXrecord
 10
0.0
 20
0.0
 30
0.0
  0
XRECORD
  5
53A
102
{ACAD_REACTORS
330
51D
102
}
100
AcDbXrecord
 10
0.0
 20
0.0
 30
0.0
  0
XRECORD
  5
53B
102
{ACAD_REACTORS
330
51D
102
}
100
AcDbXrecord
 10
0.0
 20
0.0
 30
0.0
  0
XRECORD
  5
53C
102
{ACAD_REACTORS
330
51D
102
}
100
AcDbXrecord
 10
0.0
 20
0.0
 30
0.0
  0
XRECORD
  5
53D
102
{ACAD_REACTORS
330
51D
102
}
100
AcDbXrecord
1000
DSTYLE
1002
{
1070
   143
 40
0.03937
1070
    41
 40
6.0
1070
    44
 40
1.0
1070
    42
 40
1.0
1070
   147
 40
1.524
1070
   144
 40
2.0
1070
    73
 70
     1
1070
    74
 70
     1
1070
   340
340
11
1070
   140
 40
3.5
1070
   284
 70
     0
1070
    78
 70
     0
1002
}
  0
XRECORD
  5
53F
102
{ACAD_REACTORS
330
53E
102
}
100
AcDbXrecord
102
EXTNAMES
  1
NORMAL
  2
Normal
  0
XRECORD
  5
541
102
{ACAD_REACTORS
330
540
102
}
100
AcDbXrecord
102
EXTNAMES
  1
STANDARD
  2
Standard
  0
XRECORD
  5
549
102
{ACAD_REACTORS
330
548
102
}
100
AcDbXrecord
102
EXTNAMES
  1
LAYOUT1
  2
Layout1
  1
LAYOUT2
  2
Layout2
  1
MODEL
  2
Model
  0
ENDSEC
  0
EOF
