  0
SECTION
  2
HEADER
  9
$ACADVER
  1
AC1014
  9
$ACADMAINTVER
 70
     9
  9
$DWGCODEPAGE
  3
ANSI_1252
  9
$INSBASE
 10
0.0
 20
0.0
 30
0.0
  9
$EXTMIN
 10
-4.999999999999968
 20
0.0
 30
-0.0000000000000207
  9
$EXTMAX
 10
379.8489829513218
 20
230.6092433447652
 30
0.0000000000000427
  9
$LIMMIN
 10
0.0
 20
0.0
  9
$LIMMAX
 10
12.0
 20
9.0
  9
$ORTHOMODE
 70
     0
  9
$REGENMODE
 70
     1
  9
$FILLMODE
 70
     1
  9
$QTEXTMODE
 70
     0
  9
$MIRRTEXT
 70
     1
  9
$DRAGMODE
 70
     2
  9
$LTSCALE
 40
1.0
  9
$OSMODE
 70
    37
  9
$ATTMODE
 70
     1
  9
$TEXTSIZE
 40
0.2
  9
$TRACEWID
 40
0.05
  9
$TEXTSTYLE
  7
STANDARD
  9
$CLAYER
  8
0
  9
$CELTYPE
  6
BYLAYER
  9
$CECOLOR
 62
   256
  9
$CELTSCALE
 40
1.0
  9
$DELOBJ
 70
     1
  9
$DISPSILH
 70
     0
  9
$DIMSCALE
 40
1.0
  9
$DIMASZ
 40
0.18
  9
$DIMEXO
 40
0.0625
  9
$DIMDLI
 40
0.38
  9
$DIMRND
 40
0.0
  9
$DIMDLE
 40
0.0
  9
$DIMEXE
 40
0.18
  9
$DIMTP
 40
0.0
  9
$DIMTM
 40
0.0
  9
$DIMTXT
 40
0.18
  9
$DIMCEN
 40
0.09
  9
$DIMTSZ
 40
0.0
  9
$DIMTOL
 70
     0
  9
$DIMLIM
 70
     0
  9
$DIMTIH
 70
     1
  9
$DIMTOH
 70
     1
  9
$DIMSE1
 70
     0
  9
$DIMSE2
 70
     0
  9
$DIMTAD
 70
     0
  9
$DIMZIN
 70
     0
  9
$DIMBLK
  1

  9
$DIMASO
 70
     1
  9
$DIMSHO
 70
     1
  9
$DIMPOST
  1

  9
$DIMAPOST
  1

  9
$DIMALT
 70
     0
  9
$DIMALTD
 70
     2
  9
$DIMALTF
 40
25.4
  9
$DIMLFAC
 40
1.0
  9
$DIMTOFL
 70
     0
  9
$DIMTVP
 40
0.0
  9
$DIMTIX
 70
     0
  9
$DIMSOXD
 70
     0
  9
$DIMSAH
 70
     0
  9
$DIMBLK1
  1

  9
$DIMBLK2
  1

  9
$DIMSTYLE
  2
STANDARD
  9
$DIMCLRD
 70
     0
  9
$DIMCLRE
 70
     0
  9
$DIMCLRT
 70
     0
  9
$DIMTFAC
 40
1.0
  9
$DIMGAP
 40
0.09
  9
$DIMJUST
 70
     0
  9
$DIMSD1
 70
     0
  9
$DIMSD2
 70
     0
  9
$DIMTOLJ
 70
     1
  9
$DIMTZIN
 70
     0
  9
$DIMALTZ
 70
     0
  9
$DIMALTTZ
 70
     0
  9
$DIMFIT
 70
     3
  9
$DIMUPT
 70
     0
  9
$DIMUNIT
 70
     2
  9
$DIMDEC
 70
     4
  9
$DIMTDEC
 70
     4
  9
$DIMALTU
 70
     2
  9
$DIMALTTD
 70
     2
  9
$DIMTXSTY
  7
STANDARD
  9
$DIMAUNIT
 70
     0
  9
$LUNITS
 70
     2
  9
$LUPREC
 70
     4
  9
$SKETCHINC
 40
0.1
  9
$FILLETRAD
 40
0.5
  9
$AUNITS
 70
     0
  9
$AUPREC
 70
     0
  9
$MENU
  1
.
  9
$ELEVATION
 40
0.0
  9
$PELEVATION
 40
0.0
  9
$THICKNESS
 40
0.0
  9
$LIMCHECK
 70
     0
  9
$CHAMFERA
 40
0.5
  9
$CHAMFERB
 40
0.5
  9
$CHAMFERC
 40
1.0
  9
$CHAMFERD
 40
0.0
  9
$SKPOLY
 70
     0
  9
$TDCREATE
 40
2453353.842125822
  9
$TDUPDATE
 40
2454692.60052963
  9
$TDINDWG
 40
0.043506956
  9
$TDUSRTIMER
 40
0.043506956
  9
$USRTIMER
 70
     1
  9
$ANGBASE
 50
0.0
  9
$ANGDIR
 70
     0
  9
$PDMODE
 70
     0
  9
$PDSIZE
 40
0.0
  9
$PLINEWID
 40
0.0
  9
$COORDS
 70
     1
  9
$SPLFRAME
 70
     0
  9
$SPLINETYPE
 70
     6
  9
$SPLINESEGS
 70
     8
  9
$ATTDIA
 70
     0
  9
$ATTREQ
 70
     1
  9
$HANDLING
 70
     1
  9
$HANDSEED
  5
2DF
  9
$SURFTAB1
 70
     6
  9
$SURFTAB2
 70
     6
  9
$SURFTYPE
 70
     6
  9
$SURFU
 70
     6
  9
$SURFV
 70
     6
  9
$UCSNAME
  2

  9
$UCSORG
 10
0.0
 20
0.0
 30
0.0
  9
$UCSXDIR
 10
1.0
 20
0.0
 30
0.0
  9
$UCSYDIR
 10
0.0
 20
1.0
 30
0.0
  9
$PUCSNAME
  2

  9
$PUCSORG
 10
0.0
 20
0.0
 30
0.0
  9
$PUCSXDIR
 10
1.0
 20
0.0
 30
0.0
  9
$PUCSYDIR
 10
0.0
 20
1.0
 30
0.0
  9
$USERI1
 70
     0
  9
$USERI2
 70
     0
  9
$USERI3
 70
     0
  9
$USERI4
 70
     0
  9
$USERI5
 70
     0
  9
$USERR1
 40
0.0
  9
$USERR2
 40
0.0
  9
$USERR3
 40
0.0
  9
$USERR4
 40
0.0
  9
$USERR5
 40
0.0
  9
$WORLDVIEW
 70
     1
  9
$SHADEDGE
 70
     3
  9
$SHADEDIF
 70
    70
  9
$TILEMODE
 70
     1
  9
$MAXACTVP
 70
    64
  9
$PINSBASE
 10
0.0
 20
0.0
 30
0.0
  9
$PLIMCHECK
 70
     0
  9
$PEXTMIN
 10
1.000000000000000E+20
 20
1.000000000000000E+20
 30
1.000000000000000E+20
  9
$PEXTMAX
 10
-1.000000000000000E+20
 20
-1.000000000000000E+20
 30
-1.000000000000000E+20
  9
$PLIMMIN
 10
0.0
 20
0.0
  9
$PLIMMAX
 10
12.0
 20
9.0
  9
$UNITMODE
 70
     0
  9
$VISRETAIN
 70
     1
  9
$PLINEGEN
 70
     0
  9
$PSLTSCALE
 70
     1
  9
$TREEDEPTH
 70
  3020
  9
$PICKSTYLE
 70
     1
  9
$CMLSTYLE
  2
STANDARD
  9
$CMLJUST
 70
     0
  9
$CMLSCALE
 40
1.0
  9
$PROXYGRAPHICS
 70
     1
  9
$MEASUREMENT
 70
     0
  0
ENDSEC
  0
SECTION
  2
CLASSES
  0
CLASS
  1
ACDBDICTIONARYWDFLT
  2
AcDbDictionaryWithDefault
  3
ObjectDBX Classes
 90
        0
280
     0
281
     0
  0
CLASS
  1
ACDBPLACEHOLDER
  2
AcDbPlaceHolder
  3
ObjectDBX Classes
 90
        0
280
     0
281
     0
  0
CLASS
  1
LAYOUT
  2
AcDbLayout
  3
ObjectDBX Classes
 90
        0
280
     0
281
     0
  0
CLASS
  1
DICTIONARYVAR
  2
AcDbDictionaryVar
  3
ObjectDBX Classes
 90
        0
280
     0
281
     0
  0
CLASS
  1
TABLESTYLE
  2
AcDbTableStyle
  3
ObjectDBX Classes
 90
     2047
280
     0
281
     0
  0
CLASS
  1
XRECORD
  2
AcDbXrecord
  3
AutoCAD 2000
 90
        0
280
     0
281
     0
  0
CLASS
  1
LWPOLYLINE
  2
AcDbPolyline
  3
AutoCAD 2000
 90
        0
280
     0
281
     1
  0
CLASS
  1
HATCH
  2
AcDbHatch
  3
AutoCAD 2000
 90
        0
280
     0
281
     1
  0
ENDSEC
  0
SECTION
  2
TABLES
  0
TABLE
  2
VPORT
  5
8
330
0
100
AcDbSymbolTable
 70
     2
  0
VPORT
  5
97
330
8
100
AcDbSymbolTableRecord
100
AcDbViewportTableRecord
  2
*ACTIVE
 70
     0
 10
0.0
 20
0.0
 11
1.0
 21
1.0
 12
221.5652510432479
 22
108.5348851276762
 13
0.0
 23
0.0
 14
0.5
 24
0.5
 15
0.5
 25
0.5
 16
0.0
 26
0.0
 36
1.0
 17
0.0
 27
0.0
 37
0.0
 40
337.2023432580907
 41
1.6
 42
50.0
 43
0.0
 44
0.0
 50
0.0
 51
0.0
 71
    16
 72
   100
 73
     1
 74
     1
 75
     0
 76
     0
 77
     0
 78
     0
  0
ENDTAB
  0
TABLE
  2
LTYPE
  5
5
330
0
100
AcDbSymbolTable
 70
     1
  0
LTYPE
  5
14
330
5
100
AcDbSymbolTableRecord
100
AcDbLinetypeTableRecord
  2
BYBLOCK
 70
     0
  3

 72
    65
 73
     0
 40
0.0
  0
LTYPE
  5
15
330
5
100
AcDbSymbolTableRecord
100
AcDbLinetypeTableRecord
  2
BYLAYER
 70
     0
  3

 72
    65
 73
     0
 40
0.0
  0
LTYPE
  5
16
330
5
100
AcDbSymbolTableRecord
100
AcDbLinetypeTableRecord
  2
CONTINUOUS
 70
     0
  3
Solid line
 72
    65
 73
     0
 40
0.0
  0
ENDTAB
  0
TABLE
  2
LAYER
  5
2
330
0
100
AcDbSymbolTable
 70
     3
  0
LAYER
  5
10
330
2
100
AcDbSymbolTableRecord
100
AcDbLayerTableRecord
  2
0
 70
     0
 62
     7
  6
CONTINUOUS
  0
LAYER
  5
2A
330
2
100
AcDbSymbolTableRecord
100
AcDbLayerTableRecord
  2
LAYER_01
 70
     0
 62
     1
  6
CONTINUOUS
  0
LAYER
  5
34
330
2
100
AcDbSymbolTableRecord
100
AcDbLayerTableRecord
  2
FORMAT
 70
     0
 62
     7
  6
CONTINUOUS
  0
ENDTAB
  0
TABLE
  2
STYLE
  5
3
330
0
100
AcDbSymbolTable
 70
     2
  0
STYLE
  5
11
330
3
100
AcDbSymbolTableRecord
100
AcDbTextStyleTableRecord
  2
STANDARD
 70
     0
 40
0.0
 41
1.0
 50
0.0
 71
     0
 42
0.2
  3
txt
  4

  0
STYLE
  5
35
330
3
100
AcDbSymbolTableRecord
100
AcDbTextStyleTableRecord
  2
DEFAULT
 70
     0
 40
0.0
 41
1.0
 50
0.0
 71
     0
 42
0.2
  3
ARIAL.TTF
  4

1001
ACAD
1000
Arial
1071
      256
  0
ENDTAB
  0
TABLE
  2
VIEW
  5
6
330
0
100
AcDbSymbolTable
 70
     0
  0
ENDTAB
  0
TABLE
  2
UCS
  5
7
330
0
100
AcDbSymbolTable
 70
     0
  0
ENDTAB
  0
TABLE
  2
APPID
  5
9
330
0
100
AcDbSymbolTable
 70
     1
  0
APPID
  5
12
330
9
100
AcDbSymbolTableRecord
100
AcDbRegAppTableRecord
  2
ACAD
 70
     0
  0
ENDTAB
  0
TABLE
  2
DIMSTYLE
  5
A
330
0
100
AcDbSymbolTable
 70
     1
  0
DIMSTYLE
105
27
330
A
100
AcDbSymbolTableRecord
100
AcDbDimStyleTableRecord
  2
STANDARD
 70
     0
  3

  4

  5

  6

  7

 40
1.0
 41
0.18
 42
0.0625
 43
0.38
 44
0.18
 45
0.0
 46
0.0
 47
0.0
 48
0.0
140
0.18
141
0.09
142
0.0
143
25.4
144
1.0
145
0.0
146
1.0
147
0.09
 71
     0
 72
     0
 73
     1
 74
     1
 75
     0
 76
     0
 77
     0
 78
     0
170
     0
171
     2
172
     0
173
     0
174
     0
175
     0
176
     0
177
     0
178
     0
270
     2
271
     4
272
     4
273
     2
274
     2
340
11
275
     0
280
     0
281
     0
282
     0
283
     1
284
     0
285
     0
286
     0
287
     3
288
     0
  0
ENDTAB
  0
TABLE
  2
BLOCK_RECORD
  5
1
330
0
100
AcDbSymbolTable
 70
     9
  0
BLOCK_RECORD
  5
1F
330
1
100
AcDbSymbolTableRecord
100
AcDbBlockTableRecord
  2
*MODEL_SPACE
  0
BLOCK_RECORD
  5
73
330
1
100
AcDbSymbolTableRecord
100
AcDbBlockTableRecord
  2
*PAPER_SPACE
  0
BLOCK_RECORD
  5
F1
330
1
100
AcDbSymbolTableRecord
100
AcDbBlockTableRecord
  2
SW_CENTERMARKSYMBOL_0
  0
BLOCK_RECORD
  5
FD
330
1
100
AcDbSymbolTableRecord
100
AcDbBlockTableRecord
  2
SW_CENTERMARKSYMBOL_1
  0
BLOCK_RECORD
  5
109
330
1
100
AcDbSymbolTableRecord
100
AcDbBlockTableRecord
  2
SW_CENTERMARKSYMBOL_2
  0
BLOCK_RECORD
  5
115
330
1
100
AcDbSymbolTableRecord
100
AcDbBlockTableRecord
  2
SW_CENTERMARKSYMBOL_3
  0
BLOCK_RECORD
  5
235
330
1
100
AcDbSymbolTableRecord
100
AcDbBlockTableRecord
  2
SW_CENTERMARKSYMBOL_4
  0
BLOCK_RECORD
  5
241
330
1
100
AcDbSymbolTableRecord
100
AcDbBlockTableRecord
  2
SW_CENTERMARKSYMBOL_5
  0
BLOCK_RECORD
  5
24D
330
1
100
AcDbSymbolTableRecord
100
AcDbBlockTableRecord
  2
SW_CENTERMARKSYMBOL_6
  0
BLOCK_RECORD
  5
259
330
1
100
AcDbSymbolTableRecord
100
AcDbBlockTableRecord
  2
SW_CENTERMARKSYMBOL_7
  0
ENDTAB
  0
ENDSEC
  0
SECTION
  2
BLOCKS
  0
BLOCK
  5
20
330
1F
100
AcDbEntity
  8
0
100
AcDbBlockBegin
  2
*MODEL_SPACE
 70
     0
 71
     0
 10
0.0
 20
0.0
 30
0.0
  3
*MODEL_SPACE
  1

  0
ENDBLK
  5
21
330
1F
100
AcDbEntity
  8
0
100
AcDbBlockEnd
  0
BLOCK
  5
75
330
73
100
AcDbEntity
 67
     1
  8
0
100
AcDbBlockBegin
  2
*PAPER_SPACE
 70
     0
 71
     0
 10
0.0
 20
0.0
 30
0.0
  3
*PAPER_SPACE
  1

  0
ENDBLK
  5
76
330
73
100
AcDbEntity
 67
     1
  8
0
100
AcDbBlockEnd
  0
BLOCK
  5
2AB
330
F1
100
AcDbEntity
  8
0
100
AcDbBlockBegin
  2
SW_CENTERMARKSYMBOL_0
 70
     0
 71
     0
 10
0.0
 20
0.0
 30
0.0
  3
SW_CENTERMARKSYMBOL_0
  1

  0
LINE
  5
F2
330
F1
100
AcDbEntity
  8
FORMAT
100
AcDbLine
 10
0.0
 20
0.0
 30
0.0
 11
0.0
 21
2.500000000000002
 31
0.0
  0
LINE
  5
F3
330
F1
100
AcDbEntity
  8
FORMAT
100
AcDbLine
 10
0.0
 20
0.0
 30
0.0
 11
-2.500000000000002
 21
0.0
 31
0.0
  0
LINE
  5
F4
330
F1
100
AcDbEntity
  8
FORMAT
100
AcDbLine
 10
0.0
 20
0.0
 30
0.0
 11
0.0
 21
-2.500000000000002
 31
0.0
  0
LINE
  5
F5
330
F1
100
AcDbEntity
  8
FORMAT
100
AcDbLine
 10
0.0
 20
0.0
 30
0.0
 11
2.500000000000002
 21
0.0
 31
0.0
  0
LINE
  5
F6
330
F1
100
AcDbEntity
  8
FORMAT
100
AcDbLine
 10
0.0
 20
5.000000000000004
 30
0.0
 11
0.0
 21
8.250000000000036
 31
0.0
  0
LINE
  5
F7
330
F1
100
AcDbEntity
  8
FORMAT
100
AcDbLine
 10
-5.000000000000004
 20
0.0
 30
0.0
 11
-8.250000000000036
 21
0.0
 31
0.0
  0
LINE
  5
F8
330
F1
100
AcDbEntity
  8
FORMAT
100
AcDbLine
 10
0.0
 20
-5.000000000000004
 30
0.0
 11
0.0
 21
-8.249999999999979
 31
0.0
  0
LINE
  5
F9
330
F1
100
AcDbEntity
  8
FORMAT
100
AcDbLine
 10
5.000000000000004
 20
0.0
 30
0.0
 11
8.249999999999979
 21
0.0
 31
0.0
  0
ENDBLK
  5
2AC
330
F1
100
AcDbEntity
  8
0
100
AcDbBlockEnd
  0
BLOCK
  5
2AD
330
FD
100
AcDbEntity
  8
0
100
AcDbBlockBegin
  2
SW_CENTERMARKSYMBOL_1
 70
     0
 71
     0
 10
0.0
 20
0.0
 30
0.0
  3
SW_CENTERMARKSYMBOL_1
  1

  0
LINE
  5
FE
330
FD
100
AcDbEntity
  8
FORMAT
100
AcDbLine
 10
0.0
 20
0.0
 30
0.0
 11
0.0
 21
2.500000000000002
 31
0.0
  0
LINE
  5
FF
330
FD
100
AcDbEntity
  8
FORMAT
100
AcDbLine
 10
0.0
 20
0.0
 30
0.0
 11
-2.500000000000002
 21
0.0
 31
0.0
  0
LINE
  5
100
330
FD
100
AcDbEntity
  8
FORMAT
100
AcDbLine
 10
0.0
 20
0.0
 30
0.0
 11
0.0
 21
-2.500000000000002
 31
0.0
  0
LINE
  5
101
330
FD
100
AcDbEntity
  8
FORMAT
100
AcDbLine
 10
0.0
 20
0.0
 30
0.0
 11
2.500000000000002
 21
0.0
 31
0.0
  0
LINE
  5
102
330
FD
100
AcDbEntity
  8
FORMAT
100
AcDbLine
 10
0.0
 20
5.000000000000004
 30
0.0
 11
0.0
 21
8.250000000000036
 31
0.0
  0
LINE
  5
103
330
FD
100
AcDbEntity
  8
FORMAT
100
AcDbLine
 10
-5.000000000000004
 20
0.0
 30
0.0
 11
-8.249999999999979
 21
0.0
 31
0.0
  0
LINE
  5
104
330
FD
100
AcDbEntity
  8
FORMAT
100
AcDbLine
 10
0.0
 20
-5.000000000000004
 30
0.0
 11
0.0
 21
-8.249999999999979
 31
0.0
  0
LINE
  5
105
330
FD
100
AcDbEntity
  8
FORMAT
100
AcDbLine
 10
5.000000000000004
 20
0.0
 30
0.0
 11
8.250000000000036
 21
0.0
 31
0.0
  0
ENDBLK
  5
2AE
330
FD
100
AcDbEntity
  8
0
100
AcDbBlockEnd
  0
BLOCK
  5
2AF
330
109
100
AcDbEntity
  8
0
100
AcDbBlockBegin
  2
SW_CENTERMARKSYMBOL_2
 70
     0
 71
     0
 10
0.0
 20
0.0
 30
0.0
  3
SW_CENTERMARKSYMBOL_2
  1

  0
LINE
  5
10A
330
109
100
AcDbEntity
  8
FORMAT
100
AcDbLine
 10
0.0
 20
0.0
 30
0.0
 11
0.0
 21
2.500000000000002
 31
0.0
  0
LINE
  5
10B
330
109
100
AcDbEntity
  8
FORMAT
100
AcDbLine
 10
0.0
 20
0.0
 30
0.0
 11
-2.500000000000002
 21
0.0
 31
0.0
  0
LINE
  5
10C
330
109
100
AcDbEntity
  8
FORMAT
100
AcDbLine
 10
0.0
 20
0.0
 30
0.0
 11
0.0
 21
-2.500000000000002
 31
0.0
  0
LINE
  5
10D
330
109
100
AcDbEntity
  8
FORMAT
100
AcDbLine
 10
0.0
 20
0.0
 30
0.0
 11
2.500000000000002
 21
0.0
 31
0.0
  0
LINE
  5
10E
330
109
100
AcDbEntity
  8
FORMAT
100
AcDbLine
 10
0.0
 20
4.999999999999977
 30
0.0
 11
0.0
 21
8.249999999999979
 31
0.0
  0
LINE
  5
10F
330
109
100
AcDbEntity
  8
FORMAT
100
AcDbLine
 10
-5.000000000000004
 20
0.0
 30
0.0
 11
-8.249999999999979
 21
0.0
 31
0.0
  0
LINE
  5
110
330
109
100
AcDbEntity
  8
FORMAT
100
AcDbLine
 10
0.0
 20
-5.000000000000004
 30
0.0
 11
0.0
 21
-8.250000000000007
 31
0.0
  0
LINE
  5
111
330
109
100
AcDbEntity
  8
FORMAT
100
AcDbLine
 10
5.000000000000004
 20
0.0
 30
0.0
 11
8.250000000000036
 21
0.0
 31
0.0
  0
ENDBLK
  5
2B0
330
109
100
AcDbEntity
  8
0
100
AcDbBlockEnd
  0
BLOCK
  5
2B1
330
115
100
AcDbEntity
  8
0
100
AcDbBlockBegin
  2
SW_CENTERMARKSYMBOL_3
 70
     0
 71
     0
 10
0.0
 20
0.0
 30
0.0
  3
SW_CENTERMARKSYMBOL_3
  1

  0
LINE
  5
116
330
115
100
AcDbEntity
  8
FORMAT
100
AcDbLine
 10
0.0
 20
0.0
 30
0.0
 11
0.0
 21
2.500000000000002
 31
0.0
  0
LINE
  5
117
330
115
100
AcDbEntity
  8
FORMAT
100
AcDbLine
 10
0.0
 20
0.0
 30
0.0
 11
-2.500000000000002
 21
0.0
 31
0.0
  0
LINE
  5
118
330
115
100
AcDbEntity
  8
FORMAT
100
AcDbLine
 10
0.0
 20
0.0
 30
0.0
 11
0.0
 21
-2.500000000000002
 31
0.0
  0
LINE
  5
119
330
115
100
AcDbEntity
  8
FORMAT
100
AcDbLine
 10
0.0
 20
0.0
 30
0.0
 11
2.500000000000002
 21
0.0
 31
0.0
  0
LINE
  5
11A
330
115
100
AcDbEntity
  8
FORMAT
100
AcDbLine
 10
0.0
 20
4.999999999999977
 30
0.0
 11
0.0
 21
8.249999999999979
 31
0.0
  0
LINE
  5
11B
330
115
100
AcDbEntity
  8
FORMAT
100
AcDbLine
 10
-5.000000000000004
 20
0.0
 30
0.0
 11
-8.250000000000036
 21
0.0
 31
0.0
  0
LINE
  5
11C
330
115
100
AcDbEntity
  8
FORMAT
100
AcDbLine
 10
0.0
 20
-5.000000000000004
 30
0.0
 11
0.0
 21
-8.250000000000007
 31
0.0
  0
LINE
  5
11D
330
115
100
AcDbEntity
  8
FORMAT
100
AcDbLine
 10
5.000000000000004
 20
0.0
 30
0.0
 11
8.249999999999979
 21
0.0
 31
0.0
  0
ENDBLK
  5
2B2
330
115
100
AcDbEntity
  8
0
100
AcDbBlockEnd
  0
BLOCK
  5
2B3
330
235
100
AcDbEntity
  8
0
100
AcDbBlockBegin
  2
SW_CENTERMARKSYMBOL_4
 70
     0
 71
     0
 10
0.0
 20
0.0
 30
0.0
  3
SW_CENTERMARKSYMBOL_4
  1

  0
LINE
  5
236
330
235
100
AcDbEntity
  8
FORMAT
100
AcDbLine
 10
0.0
 20
0.0
 30
0.0
 11
0.0
 21
2.500000000000002
 31
0.0
  0
LINE
  5
237
330
235
100
AcDbEntity
  8
FORMAT
100
AcDbLine
 10
0.0
 20
0.0
 30
0.0
 11
-2.500000000000002
 21
0.0
 31
0.0
  0
LINE
  5
238
330
235
100
AcDbEntity
  8
FORMAT
100
AcDbLine
 10
0.0
 20
0.0
 30
0.0
 11
0.0
 21
-2.500000000000002
 31
0.0
  0
LINE
  5
239
330
235
100
AcDbEntity
  8
FORMAT
100
AcDbLine
 10
0.0
 20
0.0
 30
0.0
 11
2.500000000000002
 21
0.0
 31
0.0
  0
LINE
  5
23A
330
235
100
AcDbEntity
  8
FORMAT
100
AcDbLine
 10
0.0
 20
4.999999999999977
 30
0.0
 11
0.0
 21
12.50000000000001
 31
0.0
  0
LINE
  5
23B
330
235
100
AcDbEntity
  8
FORMAT
100
AcDbLine
 10
-5.000000000000004
 20
0.0
 30
0.0
 11
-12.50000000000001
 21
0.0
 31
0.0
  0
LINE
  5
23C
330
235
100
AcDbEntity
  8
FORMAT
100
AcDbLine
 10
0.0
 20
-5.000000000000004
 30
0.0
 11
0.0
 21
-12.50000000000001
 31
0.0
  0
LINE
  5
23D
330
235
100
AcDbEntity
  8
FORMAT
100
AcDbLine
 10
5.000000000000004
 20
0.0
 30
0.0
 11
12.50000000000001
 21
0.0
 31
0.0
  0
ENDBLK
  5
2B4
330
235
100
AcDbEntity
  8
0
100
AcDbBlockEnd
  0
BLOCK
  5
2B5
330
241
100
AcDbEntity
  8
0
100
AcDbBlockBegin
  2
SW_CENTERMARKSYMBOL_5
 70
     0
 71
     0
 10
0.0
 20
0.0
 30
0.0
  3
SW_CENTERMARKSYMBOL_5
  1

  0
LINE
  5
242
330
241
100
AcDbEntity
  8
FORMAT
100
AcDbLine
 10
0.0
 20
0.0
 30
0.0
 11
0.0
 21
2.500000000000002
 31
0.0
  0
LINE
  5
243
330
241
100
AcDbEntity
  8
FORMAT
100
AcDbLine
 10
0.0
 20
0.0
 30
0.0
 11
-2.500000000000002
 21
0.0
 31
0.0
  0
LINE
  5
244
330
241
100
AcDbEntity
  8
FORMAT
100
AcDbLine
 10
0.0
 20
0.0
 30
0.0
 11
0.0
 21
-2.500000000000002
 31
0.0
  0
LINE
  5
245
330
241
100
AcDbEntity
  8
FORMAT
100
AcDbLine
 10
0.0
 20
0.0
 30
0.0
 11
2.500000000000002
 21
0.0
 31
0.0
  0
LINE
  5
246
330
241
100
AcDbEntity
  8
FORMAT
100
AcDbLine
 10
0.0
 20
5.000000000000004
 30
0.0
 11
0.0
 21
12.50000000000001
 31
0.0
  0
LINE
  5
247
330
241
100
AcDbEntity
  8
FORMAT
100
AcDbLine
 10
-5.000000000000004
 20
0.0
 30
0.0
 11
-12.50000000000001
 21
0.0
 31
0.0
  0
LINE
  5
248
330
241
100
AcDbEntity
  8
FORMAT
100
AcDbLine
 10
0.0
 20
-5.000000000000004
 30
0.0
 11
0.0
 21
-12.50000000000001
 31
0.0
  0
LINE
  5
249
330
241
100
AcDbEntity
  8
FORMAT
100
AcDbLine
 10
5.000000000000004
 20
0.0
 30
0.0
 11
12.50000000000001
 21
0.0
 31
0.0
  0
ENDBLK
  5
2B6
330
241
100
AcDbEntity
  8
0
100
AcDbBlockEnd
  0
BLOCK
  5
2B7
330
24D
100
AcDbEntity
  8
0
100
AcDbBlockBegin
  2
SW_CENTERMARKSYMBOL_6
 70
     0
 71
     0
 10
0.0
 20
0.0
 30
0.0
  3
SW_CENTERMARKSYMBOL_6
  1

  0
LINE
  5
24E
330
24D
100
AcDbEntity
  8
FORMAT
100
AcDbLine
 10
0.0
 20
0.0
 30
0.0
 11
0.0
 21
2.500000000000002
 31
0.0
  0
LINE
  5
24F
330
24D
100
AcDbEntity
  8
FORMAT
100
AcDbLine
 10
0.0
 20
0.0
 30
0.0
 11
-2.500000000000002
 21
0.0
 31
0.0
  0
LINE
  5
250
330
24D
100
AcDbEntity
  8
FORMAT
100
AcDbLine
 10
0.0
 20
0.0
 30
0.0
 11
0.0
 21
-2.500000000000002
 31
0.0
  0
LINE
  5
251
330
24D
100
AcDbEntity
  8
FORMAT
100
AcDbLine
 10
0.0
 20
0.0
 30
0.0
 11
2.500000000000002
 21
0.0
 31
0.0
  0
LINE
  5
252
330
24D
100
AcDbEntity
  8
FORMAT
100
AcDbLine
 10
0.0
 20
5.000000000000004
 30
0.0
 11
0.0
 21
12.50000000000001
 31
0.0
  0
LINE
  5
253
330
24D
100
AcDbEntity
  8
FORMAT
100
AcDbLine
 10
-4.99999999999999
 20
0.0
 30
0.0
 11
-12.50000000000001
 21
0.0
 31
0.0
  0
LINE
  5
254
330
24D
100
AcDbEntity
  8
FORMAT
100
AcDbLine
 10
0.0
 20
-5.000000000000004
 30
0.0
 11
0.0
 21
-12.50000000000001
 31
0.0
  0
LINE
  5
255
330
24D
100
AcDbEntity
  8
FORMAT
100
AcDbLine
 10
5.000000000000004
 20
0.0
 30
0.0
 11
12.50000000000001
 21
0.0
 31
0.0
  0
ENDBLK
  5
2B8
330
24D
100
AcDbEntity
  8
0
100
AcDbBlockEnd
  0
BLOCK
  5
2B9
330
259
100
AcDbEntity
  8
0
100
AcDbBlockBegin
  2
SW_CENTERMARKSYMBOL_7
 70
     0
 71
     0
 10
0.0
 20
0.0
 30
0.0
  3
SW_CENTERMARKSYMBOL_7
  1

  0
LINE
  5
25A
330
259
100
AcDbEntity
  8
FORMAT
100
AcDbLine
 10
0.0
 20
0.0
 30
0.0
 11
0.0
 21
2.500000000000002
 31
0.0
  0
LINE
  5
25B
330
259
100
AcDbEntity
  8
FORMAT
100
AcDbLine
 10
0.0
 20
0.0
 30
0.0
 11
-2.500000000000002
 21
0.0
 31
0.0
  0
LINE
  5
25C
330
259
100
AcDbEntity
  8
FORMAT
100
AcDbLine
 10
0.0
 20
0.0
 30
0.0
 11
0.0
 21
-2.500000000000002
 31
0.0
  0
LINE
  5
25D
330
259
100
AcDbEntity
  8
FORMAT
100
AcDbLine
 10
0.0
 20
0.0
 30
0.0
 11
2.500000000000002
 21
0.0
 31
0.0
  0
LINE
  5
25E
330
259
100
AcDbEntity
  8
FORMAT
100
AcDbLine
 10
0.0
 20
4.999999999999977
 30
0.0
 11
0.0
 21
12.49999999999998
 31
0.0
  0
LINE
  5
25F
330
259
100
AcDbEntity
  8
FORMAT
100
AcDbLine
 10
-4.99999999999999
 20
0.0
 30
0.0
 11
-12.5
 21
0.0
 31
0.0
  0
LINE
  5
260
330
259
100
AcDbEntity
  8
FORMAT
100
AcDbLine
 10
0.0
 20
-5.000000000000004
 30
0.0
 11
0.0
 21
-12.50000000000001
 31
0.0
  0
LINE
  5
261
330
259
100
AcDbEntity
  8
FORMAT
100
AcDbLine
 10
5.000000000000004
 20
0.0
 30
0.0
 11
12.50000000000001
 21
0.0
 31
0.0
  0
ENDBLK
  5
2BA
330
259
100
AcDbEntity
  8
0
100
AcDbBlockEnd
  0
ENDSEC
  0
SECTION
  2
ENTITIES
  0
LINE
  5
2B
330
1F
100
AcDbEntity
  8
LAYER_01
100
AcDbLine
 10
377.8489826831007
 20
68.53468926595416
 30
0.0
 11
377.8489826831007
 21
167.185283311302
 31
0.0
  0
ARC
  5
2C
330
1F
100
AcDbEntity
  8
LAYER_01
100
AcDbCircle
 10
376.8489826831007
 20
167.185283311302
 30
0.0
 40
1.0
100
AcDbArc
 50
0.0
 51
88.99999999999824
  0
ARC
  5
2D
330
1F
100
AcDbEntity
  8
LAYER_01
100
AcDbCircle
 10
376.8489826831007
 20
68.53468926595417
 30
0.0
 40
1.0
100
AcDbArc
 50
271.0000000000018
 51
359.9999999999992
  0
LINE
  5
2E
330
1F
100
AcDbEntity
  8
LAYER_01
100
AcDbLine
 10
366.8489826831007
 20
67.35998453029109
 30
0.0
 11
376.8664354446316
 21
67.53484220632029
 31
0.0
  0
LINE
  5
2F
330
1F
100
AcDbEntity
  8
LAYER_01
100
AcDbLine
 10
366.8489826831007
 20
168.3599880469651
 30
0.0
 11
376.8664354446316
 21
168.1851303709359
 31
0.0
  0
ARC
  5
30
330
1F
100
AcDbEntity
  8
LAYER_01
100
AcDbCircle
 10
376.8489826831008
 20
81.5346892659542
 30
0.0
 40
1.000000000000012
100
AcDbArc
 50
270.9999999999953
 51
359.9999999999992
  0
ARC
  5
31
330
1F
100
AcDbEntity
  8
LAYER_01
100
AcDbCircle
 10
376.8489826831008
 20
154.185283311302
 30
0.0
 40
1.000000000000012
100
AcDbArc
 50
0.0
 51
89.00000000000476
  0
LINE
  5
32
330
1F
100
AcDbEntity
  8
LAYER_01
100
AcDbLine
 10
366.8489826831008
 20
155.3599877787442
 30
0.0
 11
376.8664354446317
 21
155.185130102715
 31
0.0
  0
LINE
  5
33
330
1F
100
AcDbEntity
  8
LAYER_01
100
AcDbLine
 10
366.8489826831008
 20
80.35998479851199
 30
0.0
 11
376.8664354446317
 21
80.5348424745412
 31
0.0
  0
TEXT
  5
36
330
1F
100
AcDbEntity
  8
FORMAT
100
AcDbText
 10
25.65857868233705
 20
220.6985116624743
 30
0.0
 40
6.879166666666666
  1
FIBOX Tempo 1111 Cover
  7
DEFAULT
100
AcDbText
  0
LINE
  5
37
330
1F
100
AcDbEntity
  8
0
100
AcDbLine
 10
322.6553990530244
 20
166.6514366800602
 30
0.0
 11
321.6200264555162
 21
166.6514366800602
 31
0.0
  0
LINE
  5
38
330
1F
100
AcDbEntity
  8
0
100
AcDbLine
 10
322.655400295019
 20
166.6514358056397
 30
0.0
 11
322.655400295019
 21
69.06853677161646
 31
0.0
  0
LINE
  5
39
330
1F
100
AcDbEntity
  8
0
100
AcDbLine
 10
321.6200264555162
 20
69.068535897196
 30
0.0
 11
322.6553990530244
 21
69.068535897196
 31
0.0
  0
LINE
  5
3A
330
1F
100
AcDbEntity
  8
0
100
AcDbLine
 10
321.6200266370772
 20
69.06853677161646
 30
0.0
 11
321.6200266370772
 21
166.6514358056397
 31
0.0
  0
LINE
  5
3B
330
1F
100
AcDbEntity
  8
0
100
AcDbLine
 10
214.1096985257915
 20
166.6514366800602
 30
0.0
 11
213.0743259282834
 21
166.6514366800602
 31
0.0
  0
LINE
  5
3C
330
1F
100
AcDbEntity
  8
0
100
AcDbLine
 10
214.1096983442305
 20
69.06853677161646
 30
0.0
 11
214.1096983442305
 21
166.6514358056397
 31
0.0
  0
LINE
  5
3D
330
1F
100
AcDbEntity
  8
0
100
AcDbLine
 10
213.0743259282834
 20
69.068535897196
 30
0.0
 11
214.1096985257915
 21
69.068535897196
 31
0.0
  0
LINE
  5
3E
330
1F
100
AcDbEntity
  8
0
100
AcDbLine
 10
213.0743246862887
 20
166.6514358056397
 30
0.0
 11
213.0743246862887
 21
69.06853677161646
 31
0.0
  0
CIRCLE
  5
3F
330
1F
100
AcDbEntity
  8
0
100
AcDbCircle
 10
220.3648624906539
 20
70.35998628862811
 30
0.0
 40
5.75
  0
CIRCLE
  5
40
330
1F
100
AcDbEntity
  8
0
100
AcDbCircle
 10
315.3648624906539
 20
70.35998628862811
 30
0.0
 40
5.75
  0
CIRCLE
  5
41
330
1F
100
AcDbEntity
  8
0
100
AcDbCircle
 10
220.3648624906539
 20
165.3599862886281
 30
0.0
 40
5.75
  0
LWPOLYLINE
  5
42
330
1F
100
AcDbEntity
  8
0
100
AcDbPolyline
 90
       17
 70
     0
 43
0.0
 10
219.0734120992217
 20
171.6151502534904
 10
218.5866735451434
 20
171.5919376155674
 10
218.1053227446085
 20
171.519619546217
 10
217.6335219138247
 20
171.4001050960767
 10
217.1754332689997
 20
171.235303315784
 10
216.7352190263411
 20
171.0271232559765
 10
216.3170414020568
 20
170.7774739672917
 10
215.9250626123544
 20
170.4882645003672
 10
215.5634448734416
 20
170.1614039058404
 10
215.2365842789148
 20
169.7997861669276
 10
214.9473748119902
 20
169.4078073772252
 10
214.6977255233055
 20
168.9896297529409
 10
214.489545463498
 20
168.5494155102824
 10
214.3247436832053
 20
168.0913268654573
 10
214.205229233065
 20
167.6195260346735
 10
214.1329111637146
 20
167.1381752341386
 10
214.1096985257915
 20
166.6514366800602
  0
LINE
  5
55
330
1F
100
AcDbEntity
  8
0
100
AcDbLine
 10
316.6563120076655
 20
171.6151504350514
 30
0.0
 11
219.0734129736422
 21
171.6151504350514
 31
0.0
  0
LWPOLYLINE
  5
56
330
1F
100
AcDbEntity
  8
0
100
AcDbPolyline
 90
       14
 70
     0
 43
0.0
 10
321.6200264555163
 20
166.6514366800602
 10
321.5467822635866
 20
167.5074187087834
 10
321.3914936169024
 20
168.1363475542701
 10
321.2401795178098
 20
168.5494155102823
 10
321.0314840537836
 20
168.9918260788185
 10
320.7808505230031
 20
169.4121984641898
 10
320.4920952577059
 20
169.8019940035012
 10
320.1662801078661
 20
170.1614039058404
 10
319.8071768634328
 20
170.4869757604494
 10
319.4177444767205
 20
170.7755298891764
 10
318.9970887451594
 20
171.0263731138896
 10
318.1830092570538
 20
171.3732073318786
 10
317.42797438036
 20
171.5561134212379
 10
316.656312882086
 20
171.6151502534904
  0
LWPOLYLINE
  5
66
330
1F
100
AcDbEntity
  8
0
100
AcDbPolyline
 90
       17
 70
     0
 43
0.0
 10
316.656312882086
 20
64.10482232376572
 10
317.1430514361643
 20
64.12803496168877
 10
317.6244022366992
 20
64.20035303103921
 10
318.0962030674831
 20
64.31986748117953
 10
318.5542917123081
 20
64.48466926147219
 10
318.9945059549667
 20
64.69284932127968
 10
319.4126835792509
 20
64.94249860996446
 10
319.8046623689534
 20
65.23170807688902
 10
320.1662801078662
 20
65.55856867141584
 10
320.4931407023929
 20
65.92018641032865
 10
320.7823501693175
 20
66.31216520003105
 10
321.0319994580023
 20
66.73034282431536
 10
321.2401795178098
 20
67.17055706697387
 10
321.4049812981024
 20
67.6286457117989
 10
321.5244957482428
 20
68.10044654258272
 10
321.5968138175932
 20
68.58179734311766
 10
321.6200264555162
 20
69.068535897196
  0
LINE
  5
79
330
1F
100
AcDbEntity
  8
0
100
AcDbLine
 10
316.6563120076655
 20
64.10482214220477
 30
0.0
 11
219.0734129736422
 21
64.10482214220477
 31
0.0
  0
LWPOLYLINE
  5
7A
330
1F
100
AcDbEntity
  8
0
100
AcDbPolyline
 90
       14
 70
     0
 43
0.0
 10
214.1096985257915
 20
69.068535897196
 10
214.1829427177212
 20
68.21255386847281
 10
214.3382313644053
 20
67.58362502298607
 10
214.4895454634979
 20
67.1705570669739
 10
214.6982409275242
 20
66.72814649843772
 10
214.9488744583046
 20
66.30777411306647
 10
215.2376297236018
 20
65.91797857375501
 10
215.5634448734416
 20
65.55856867141583
 10
215.922548117875
 20
65.23299681680686
 10
216.3119805045873
 20
64.94444268807982
 10
216.7326362361483
 20
64.69359946336662
 10
217.5467157242539
 20
64.34676524537755
 10
218.3017506009477
 20
64.1638591560183
 10
219.0734120992217
 20
64.10482232376572
  0
CIRCLE
  5
8A
330
1F
100
AcDbEntity
  8
0
100
AcDbCircle
 10
315.3648624906539
 20
165.3599862886281
 30
0.0
 40
5.75
  0
LINE
  5
8B
330
1F
100
AcDbEntity
  8
0
100
AcDbLine
 10
316.656312882086
 20
172.6505228509986
 30
0.0
 11
316.656312882086
 21
171.6151502534904
 31
0.0
  0
LINE
  5
8C
330
1F
100
AcDbEntity
  8
0
100
AcDbLine
 10
219.0734120992217
 20
171.6151502534904
 30
0.0
 11
219.0734120992217
 21
172.6505228509986
 31
0.0
  0
LINE
  5
8D
330
1F
100
AcDbEntity
  8
0
100
AcDbLine
 10
219.0734129736422
 20
172.6505240929933
 30
0.0
 11
316.6563120076655
 21
172.6505240929933
 31
0.0
  0
LWPOLYLINE
  5
8E
330
1F
100
AcDbEntity
  8
0
100
AcDbPolyline
 90
       17
 70
     0
 43
0.0
 10
213.0743259282834
 20
166.6514366800602
 10
213.1024098913701
 20
167.2396737635541
 10
213.189838643591
 20
167.8214027323025
 10
213.3343047855045
 20
168.3915933235224
 10
213.5335009176689
 20
168.9452152744304
 10
213.7851196406424
 20
169.4772383222434
 10
214.0868535549835
 20
169.9826322041783
 10
214.4363952612503
 20
170.4563666574519
 10
214.8314373600011
 20
170.8934114192809
 10
215.2684821218301
 20
171.2884535180317
 10
215.7422165751036
 20
171.6379952242985
 10
216.2476104570385
 20
171.9397291386395
 10
216.7796335048516
 20
172.1913478616131
 10
217.3332554557597
 20
172.3905439937774
 10
217.9034460469795
 20
172.535010135691
 10
218.4851750157279
 20
172.6224388879119
 10
219.0734120992217
 20
172.6505228509986
  0
LWPOLYLINE
  5
A1
330
1F
100
AcDbEntity
  8
0
100
AcDbPolyline
 90
       11
 70
     0
 43
0.0
 10
219.0734120992217
 20
63.06944972625766
 10
218.1349483274665
 20
63.143345662648
 10
217.2196170950851
 20
63.36311707123885
 10
216.3499436189223
 20
63.72335423684785
 10
215.5473314273909
 20
64.21519110159663
 10
214.8315354810144
 20
64.82652329259881
 10
214.2201758320349
 20
65.54230587316388
 10
213.7283037976444
 20
66.34492349572011
 10
213.3680313300594
 20
67.21462385174053
 10
213.1482327121886
 20
68.13000375492824
 10
213.0743259282834
 20
69.068535897196
  0
LINE
  5
AE
330
1F
100
AcDbEntity
  8
0
100
AcDbLine
 10
219.0734120992217
 20
63.06944972625766
 30
0.0
 11
219.0734120992217
 21
64.10482232376575
 31
0.0
  0
LWPOLYLINE
  5
AF
330
1F
100
AcDbEntity
  8
0
100
AcDbPolyline
 90
       11
 70
     0
 43
0.0
 10
316.656312882086
 20
172.6505228509986
 10
317.5947766538413
 20
172.5766269146082
 10
318.5101078862226
 20
172.3568555060174
 10
319.3797813623855
 20
171.9966183404083
 10
320.1823935539169
 20
171.5047814756596
 10
320.8981895002933
 20
170.8934492846574
 10
321.5095491492729
 20
170.1776667040923
 10
322.0014211836634
 20
169.375049081536
 10
322.3616936512483
 20
168.5053487255157
 10
322.5814922691191
 20
167.589968822328
 10
322.6553990530244
 20
166.6514366800602
  0
LWPOLYLINE
  5
BC
330
1F
100
AcDbEntity
  8
0
100
AcDbPolyline
 90
       17
 70
     0
 43
0.0
 10
322.6553990530244
 20
69.068535897196
 10
322.6273150899377
 20
68.48029881370215
 10
322.5398863377167
 20
67.8985698449537
 10
322.3954201958032
 20
67.32837925373389
 10
322.1962240636389
 20
66.77475730282585
 10
321.9446053406653
 20
66.24273425501279
 10
321.6428714263243
 20
65.73734037307791
 10
321.2933297200575
 20
65.26360591980438
 10
320.8982876213066
 20
64.82656115797538
 10
320.4612428594776
 20
64.43151905922451
 10
319.9875084062041
 20
64.08197735295774
 10
319.4821145242692
 20
63.78024343861672
 10
318.9500914764561
 20
63.52862471564318
 10
318.3964695255481
 20
63.3294285834788
 10
317.8262789343283
 20
63.18496244156529
 10
317.2445499655798
 20
63.09753368934435
 10
316.656312882086
 20
63.06944972625766
  0
LINE
  5
CF
330
1F
100
AcDbEntity
  8
0
100
AcDbLine
 10
316.656312882086
 20
64.10482232376572
 30
0.0
 11
316.656312882086
 21
63.06944972625766
 31
0.0
  0
LINE
  5
D0
330
1F
100
AcDbEntity
  8
0
100
AcDbLine
 10
219.0734129736422
 20
63.06944848426295
 30
0.0
 11
316.6563120076655
 21
63.06944848426295
 31
0.0
  0
LINE
  5
D1
330
1F
100
AcDbEntity
  8
0
100
AcDbLine
 10
212.8648627886771
 20
166.8609014285417
 30
0.0
 11
213.0743246862887
 21
166.6514358056397
 31
0.0
  0
LWPOLYLINE
  5
D2
330
1F
100
AcDbEntity
  8
0
100
AcDbPolyline
 90
        3
 70
     0
 43
0.0
 10
218.8639486615922
 20
172.8599862886282
 42
0.1989412228626361
 10
214.6218433238998
 20
171.1030054553821
 42
0.198916295984052
 10
212.8648624906539
 20
166.8609001176897
  0
LINE
  5
D7
330
1F
100
AcDbEntity
  8
0
100
AcDbLine
 10
219.0734129736422
 20
172.6505240929933
 30
0.0
 11
218.8639473507403
 21
172.8599859906049
 31
0.0
  0
LWPOLYLINE
  5
D8
330
1F
100
AcDbEntity
  8
0
100
AcDbPolyline
 90
        3
 70
     0
 43
0.0
 10
322.864862490654
 20
166.8609001176899
 42
0.1989412228626116
 10
321.1078816574079
 20
171.1030054553821
 42
0.1989162959840717
 10
316.8657763197154
 20
172.8599862886281
  0
LINE
  5
DD
330
1F
100
AcDbEntity
  8
0
100
AcDbLine
 10
322.8648621926307
 20
166.8609014285417
 30
0.0
 11
322.655400295019
 21
166.6514358056397
 31
0.0
  0
LINE
  5
DE
330
1F
100
AcDbEntity
  8
0
100
AcDbLine
 10
316.6563120076655
 20
172.6505240929933
 30
0.0
 11
316.8657776305674
 21
172.8599859906049
 31
0.0
  0
LINE
  5
DF
330
1F
100
AcDbEntity
  8
0
100
AcDbLine
 10
322.8648621926307
 20
68.85907114871455
 30
0.0
 11
322.655400295019
 21
69.06853677161646
 31
0.0
  0
LWPOLYLINE
  5
E0
330
1F
100
AcDbEntity
  8
0
100
AcDbPolyline
 90
        3
 70
     0
 43
0.0
 10
316.8657763197156
 20
62.85998628862808
 42
0.1989412228626548
 10
321.1078816574079
 20
64.61696712187404
 42
0.1989162959840391
 10
322.8648624906539
 20
68.85907245956656
  0
LINE
  5
E5
330
1F
100
AcDbEntity
  8
0
100
AcDbLine
 10
316.6563120076655
 20
63.06944848426295
 30
0.0
 11
316.8657776305674
 21
62.85998658665133
 31
0.0
  0
LWPOLYLINE
  5
E6
330
1F
100
AcDbEntity
  8
0
100
AcDbPolyline
 90
        3
 70
     0
 43
0.0
 10
212.8648624906538
 20
68.85907245956636
 42
0.1989412228626377
 10
214.6218433238998
 20
64.61696712187404
 42
0.1989162959840418
 10
218.8639486615922
 20
62.85998628862808
  0
LINE
  5
EB
330
1F
100
AcDbEntity
  8
0
100
AcDbLine
 10
212.8648627886771
 20
68.85907114871455
 30
0.0
 11
213.0743246862887
 21
69.06853677161646
 31
0.0
  0
LINE
  5
EC
330
1F
100
AcDbEntity
  8
0
100
AcDbLine
 10
219.0734129736422
 20
63.06944848426295
 30
0.0
 11
218.8639473507403
 21
62.85998658665133
 31
0.0
  0
LINE
  5
ED
330
1F
100
AcDbEntity
  8
0
100
AcDbLine
 10
212.8648627886771
 20
68.85907114871455
 30
0.0
 11
212.8648627886771
 21
166.8609014285417
 31
0.0
  0
LINE
  5
EE
330
1F
100
AcDbEntity
  8
0
100
AcDbLine
 10
322.8648621926307
 20
68.85907114871455
 30
0.0
 11
322.8648621926307
 21
166.8609014285417
 31
0.0
  0
LINE
  5
EF
330
1F
100
AcDbEntity
  8
0
100
AcDbLine
 10
316.8657776305674
 20
62.85998658665133
 30
0.0
 11
218.8639473507403
 21
62.85998658665133
 31
0.0
  0
LINE
  5
F0
330
1F
100
AcDbEntity
  8
0
100
AcDbLine
 10
316.8657776305674
 20
172.8599859906049
 30
0.0
 11
218.8639473507403
 21
172.8599859906049
 31
0.0
  0
INSERT
  5
FC
330
1F
100
AcDbEntity
  8
FORMAT
100
AcDbBlockReference
  2
SW_CENTERMARKSYMBOL_0
 10
220.3648624906539
 20
165.3599862886281
 30
0.0
  0
INSERT
  5
108
330
1F
100
AcDbEntity
  8
FORMAT
100
AcDbBlockReference
  2
SW_CENTERMARKSYMBOL_1
 10
315.3648624906539
 20
165.3599862886281
 30
0.0
  0
INSERT
  5
114
330
1F
100
AcDbEntity
  8
FORMAT
100
AcDbBlockReference
  2
SW_CENTERMARKSYMBOL_2
 10
315.3648624906539
 20
70.35998628862811
 30
0.0
  0
INSERT
  5
120
330
1F
100
AcDbEntity
  8
FORMAT
100
AcDbBlockReference
  2
SW_CENTERMARKSYMBOL_3
 10
220.3648624906539
 20
70.35998628862811
 30
0.0
  0
LINE
  5
121
330
1F
100
AcDbEntity
  8
0
100
AcDbLine
 10
378.8491345929887
 20
166.6514358056397
 30
0.0
 11
378.8491345929887
 21
69.06853677161646
 31
0.0
  0
LINE
  5
122
330
1F
100
AcDbEntity
  8
0
100
AcDbLine
 10
366.8489826831009
 20
68.85907114871455
 30
0.0
 11
378.8491345929887
 21
69.06853677161646
 31
0.0
  0
LINE
  5
123
330
1F
100
AcDbEntity
  8
0
100
AcDbLine
 10
366.8489826831009
 20
68.85907114871455
 30
0.0
 11
366.8489826831009
 21
166.8609014285417
 31
0.0
  0
LINE
  5
124
330
1F
100
AcDbEntity
  8
0
100
AcDbLine
 10
366.8489826831009
 20
166.8609014285417
 30
0.0
 11
378.8491345929887
 21
166.6514358056397
 31
0.0
  0
LWPOLYLINE
  5
125
330
1F
100
AcDbEntity
  8
0
100
AcDbPolyline
 90
        2
 70
     0
 43
0.0
 10
378.8491349879445
 20
166.6514366800602
 10
378.8491349879445
 20
172.6505228509986
  0
LINE
  5
129
330
1F
100
AcDbEntity
  8
0
100
AcDbLine
 10
366.8489826831008
 20
172.8599859906049
 30
0.0
 11
366.8489826831009
 21
166.8609014285417
 31
0.0
  0
LINE
  5
12A
330
1F
100
AcDbEntity
  8
0
100
AcDbLine
 10
378.8491345929886
 20
172.6505240929933
 30
0.0
 11
366.8489826831008
 21
172.8599859906049
 31
0.0
  0
LINE
  5
12B
330
1F
100
AcDbEntity
  8
0
100
AcDbLine
 10
366.8489826831008
 20
62.85998658665133
 30
0.0
 11
366.8489826831009
 21
68.85907114871455
 31
0.0
  0
LWPOLYLINE
  5
12C
330
1F
100
AcDbEntity
  8
0
100
AcDbPolyline
 90
        2
 70
     0
 43
0.0
 10
378.8491349879445
 20
63.06944972625766
 10
378.8491349879445
 20
69.068535897196
  0
LINE
  5
130
330
1F
100
AcDbEntity
  8
0
100
AcDbLine
 10
378.8491345929886
 20
63.06944848426295
 30
0.0
 11
366.8489826831008
 21
62.85998658665133
 31
0.0
  0
POLYLINE
  5
131
330
1F
100
AcDbEntity
  8
0
100
AcDb3dPolyline
 66
     1
 10
0.0
 20
0.0
 30
0.0
 70
     8
  0
VERTEX
  5
133
330
131
100
AcDbEntity
  8
0
100
AcDbVertex
100
AcDb3dPolylineVertex
 10
379.8489826831009
 20
171.6151502534904
 30
0.0
 70
    32
  0
VERTEX
  5
134
330
131
100
AcDbEntity
  8
0
100
AcDbVertex
100
AcDb3dPolylineVertex
 10
379.8489826831009
 20
171.6151742202598
 30
0.0
 70
    32
  0
VERTEX
  5
135
330
131
100
AcDbEntity
  8
0
100
AcDbVertex
100
AcDb3dPolylineVertex
 10
379.8489826831009
 20
166.6514366800602
 30
0.0
 70
    32
  0
SEQEND
  5
2BB
330
131
100
AcDbEntity
  8
0
  0
LINE
  5
136
330
1F
100
AcDbEntity
  8
0
100
AcDbLine
 10
379.8489826831009
 20
166.6514366800602
 30
0.0
 11
378.8491349879445
 21
166.6514366800602
 31
0.0
  0
LINE
  5
137
330
1F
100
AcDbEntity
  8
0
100
AcDbLine
 10
379.8489826831009
 20
171.6151502534904
 30
0.0
 11
378.8491349879445
 21
172.6505228509986
 31
0.0
  0
LINE
  5
138
330
1F
100
AcDbEntity
  8
0
100
AcDbLine
 10
378.8491349879445
 20
69.068535897196
 30
0.0
 11
379.8489826831009
 21
69.068535897196
 31
0.0
  0
LINE
  5
139
330
1F
100
AcDbEntity
  8
0
100
AcDbLine
 10
379.8489826831009
 20
69.068535897196
 30
0.0
 11
379.8489826831009
 21
64.10482232376572
 31
0.0
  0
LINE
  5
13A
330
1F
100
AcDbEntity
  8
0
100
AcDbLine
 10
378.8491349879445
 20
63.06944972625766
 30
0.0
 11
379.8489826831009
 21
64.10482232376575
 31
0.0
  0
LINE
  5
13B
330
1F
100
AcDbEntity
  8
0
100
AcDbLine
 10
379.8489829513218
 20
69.06853677161646
 30
0.0
 11
379.8489829513218
 21
166.6514358056397
 31
0.0
  0
LINE
  5
13C
330
1F
100
AcDbEntity
  8
0
100
AcDbLine
 10
168.231036232559
 20
68.85907114871455
 30
0.0
 11
168.231036232559
 21
166.8609014285417
 31
0.0
  0
LINE
  5
13D
330
1F
100
AcDbEntity
  8
0
100
AcDbLine
 10
168.231036232559
 20
68.85907114871455
 30
0.0
 11
156.2308843226712
 21
69.06853677161646
 31
0.0
  0
LINE
  5
13E
330
1F
100
AcDbEntity
  8
0
100
AcDbLine
 10
156.2308843226712
 20
166.6514358056397
 30
0.0
 11
156.2308843226712
 21
69.06853677161646
 31
0.0
  0
LINE
  5
13F
330
1F
100
AcDbEntity
  8
0
100
AcDbLine
 10
168.231036232559
 20
166.8609014285417
 30
0.0
 11
156.2308843226712
 21
166.6514358056397
 31
0.0
  0
LWPOLYLINE
  5
140
330
1F
100
AcDbEntity
  8
0
100
AcDbPolyline
 90
        2
 70
     0
 43
0.0
 10
156.2308839277154
 20
69.068535897196
 10
156.2308839277154
 20
63.06944972625766
  0
LINE
  5
144
330
1F
100
AcDbEntity
  8
0
100
AcDbLine
 10
168.2310362325591
 20
62.85998658665133
 30
0.0
 11
168.231036232559
 21
68.85907114871455
 31
0.0
  0
LINE
  5
145
330
1F
100
AcDbEntity
  8
0
100
AcDbLine
 10
156.2308843226713
 20
63.06944848426295
 30
0.0
 11
168.2310362325591
 21
62.85998658665133
 31
0.0
  0
LINE
  5
146
330
1F
100
AcDbEntity
  8
0
100
AcDbLine
 10
168.2310362325591
 20
172.8599859906049
 30
0.0
 11
168.231036232559
 21
166.8609014285417
 31
0.0
  0
LWPOLYLINE
  5
147
330
1F
100
AcDbEntity
  8
0
100
AcDbPolyline
 90
        2
 70
     0
 43
0.0
 10
156.2308839277154
 20
172.6505228509986
 10
156.2308839277154
 20
166.6514366800602
  0
LINE
  5
14B
330
1F
100
AcDbEntity
  8
0
100
AcDbLine
 10
156.2308843226713
 20
172.6505240929933
 30
0.0
 11
168.2310362325591
 21
172.8599859906049
 31
0.0
  0
LINE
  5
14C
330
1F
100
AcDbEntity
  8
0
100
AcDbLine
 10
156.2308839277154
 20
166.6514366800602
 30
0.0
 11
155.231036232559
 21
166.6514366800602
 31
0.0
  0
LINE
  5
14D
330
1F
100
AcDbEntity
  8
0
100
AcDbLine
 10
155.231036232559
 20
166.6514366800602
 30
0.0
 11
155.2310362325591
 21
171.6151502534904
 31
0.0
  0
LINE
  5
14E
330
1F
100
AcDbEntity
  8
0
100
AcDbLine
 10
156.2308839277154
 20
172.6505228509986
 30
0.0
 11
155.2310362325591
 21
171.6151502534904
 31
0.0
  0
LWPOLYLINE
  5
14F
330
1F
100
AcDbEntity
  8
0
100
AcDbPolyline
 90
        3
 70
     0
 43
0.0
 10
155.2310362325591
 20
64.10482232376572
 10
155.2310362325591
 20
64.10479835699633
 10
155.231036232559
 20
69.068535897196
  0
LINE
  5
154
330
1F
100
AcDbEntity
  8
0
100
AcDbLine
 10
155.231036232559
 20
69.068535897196
 30
0.0
 11
156.2308839277154
 21
69.068535897196
 31
0.0
  0
LINE
  5
155
330
1F
100
AcDbEntity
  8
0
100
AcDbLine
 10
155.2310362325591
 20
64.10482232376572
 30
0.0
 11
156.2308839277154
 21
63.06944972625766
 31
0.0
  0
LINE
  5
156
330
1F
100
AcDbEntity
  8
0
100
AcDbLine
 10
155.2310359643381
 20
69.06853677161646
 30
0.0
 11
155.2310359643381
 21
166.6514358056397
 31
0.0
  0
LWPOLYLINE
  5
157
330
1F
100
AcDbEntity
  8
0
100
AcDbPolyline
 90
        6
 70
     0
 43
0.0
 10
322.6553990530244
 20
229.6093953813879
 10
322.6554260802711
 20
229.6095064500158
 10
322.6552128419862
 20
229.6096167741185
 10
322.6547599014995
 20
229.6097263516944
 10
322.6273150899377
 20
229.611082015512
 10
316.656312882086
 20
229.6093953813879
  0
LINE
  5
15F
330
1F
100
AcDbEntity
  8
0
100
AcDbLine
 10
322.8648621926307
 20
217.6092430765443
 30
0.0
 11
322.655400295019
 21
229.6093949864321
 31
0.0
  0
LINE
  5
160
330
1F
100
AcDbEntity
  8
0
100
AcDbLine
 10
316.8657776305674
 20
217.6092430765443
 30
0.0
 11
322.8648621926307
 21
217.6092430765443
 31
0.0
  0
LINE
  5
161
330
1F
100
AcDbEntity
  8
0
100
AcDbLine
 10
316.6563120076655
 20
229.6093949864321
 30
0.0
 11
316.8657776305674
 21
217.6092430765443
 31
0.0
  0
LINE
  5
162
330
1F
100
AcDbEntity
  8
0
100
AcDbLine
 10
219.0734129736422
 20
229.6093949864321
 30
0.0
 11
218.8639473507403
 21
217.6092430765443
 31
0.0
  0
LINE
  5
163
330
1F
100
AcDbEntity
  8
0
100
AcDbLine
 10
219.0734129736422
 20
229.6093949864321
 30
0.0
 11
316.6563120076655
 21
229.6093949864321
 31
0.0
  0
LINE
  5
164
330
1F
100
AcDbEntity
  8
0
100
AcDbLine
 10
316.8657776305674
 20
217.6092430765443
 30
0.0
 11
218.8639473507403
 21
217.6092430765443
 31
0.0
  0
LINE
  5
165
330
1F
100
AcDbEntity
  8
0
100
AcDbLine
 10
218.8639473507403
 20
217.6092430765443
 30
0.0
 11
212.8648627886771
 21
217.6092430765443
 31
0.0
  0
LINE
  5
166
330
1F
100
AcDbEntity
  8
0
100
AcDbLine
 10
212.8648627886771
 20
217.6092430765443
 30
0.0
 11
213.0743246862887
 21
229.6093949864321
 31
0.0
  0
LWPOLYLINE
  5
167
330
1F
100
AcDbEntity
  8
0
100
AcDbPolyline
 90
        2
 70
     0
 43
0.0
 10
219.0734120992217
 20
229.6093953813879
 10
213.0743259282834
 20
229.6093953813879
  0
LINE
  5
16B
330
1F
100
AcDbEntity
  8
0
100
AcDbLine
 10
213.0743259282834
 20
229.6093953813879
 30
0.0
 11
214.1096985257915
 21
230.6092430765443
 31
0.0
  0
LINE
  5
16C
330
1F
100
AcDbEntity
  8
0
100
AcDbLine
 10
214.1096985257915
 20
230.6092430765443
 30
0.0
 11
219.0734120992217
 21
230.6092430765443
 31
0.0
  0
LINE
  5
16D
330
1F
100
AcDbEntity
  8
0
100
AcDbLine
 10
219.0734120992217
 20
229.6093953813879
 30
0.0
 11
219.0734120992217
 21
230.6092430765443
 31
0.0
  0
LINE
  5
16E
330
1F
100
AcDbEntity
  8
0
100
AcDbLine
 10
316.656312882086
 20
230.6092430765443
 30
0.0
 11
321.6200264555162
 21
230.6092430765443
 31
0.0
  0
LINE
  5
16F
330
1F
100
AcDbEntity
  8
0
100
AcDbLine
 10
321.6200264555162
 20
230.6092430765443
 30
0.0
 11
322.6553990530244
 21
229.6093953813879
 31
0.0
  0
LINE
  5
170
330
1F
100
AcDbEntity
  8
0
100
AcDbLine
 10
316.656312882086
 20
230.6092430765443
 30
0.0
 11
316.656312882086
 21
229.6093953813879
 31
0.0
  0
LINE
  5
171
330
1F
100
AcDbEntity
  8
0
100
AcDbLine
 10
316.6563120076655
 20
230.6092433447652
 30
0.0
 11
219.0734129736422
 21
230.6092433447652
 31
0.0
  0
LINE
  5
172
330
1F
100
AcDbEntity
  8
0
100
AcDbLine
 10
316.8657776305674
 20
13.00000026822089
 30
0.0
 11
322.8648621926307
 21
13.00000026822092
 31
0.0
  0
LINE
  5
173
330
1F
100
AcDbEntity
  8
0
100
AcDbLine
 10
322.8648621926307
 20
13.00000026822092
 30
0.0
 11
322.655400295019
 21
0.999848358333125
 31
0.0
  0
LWPOLYLINE
  5
174
330
1F
100
AcDbEntity
  8
0
100
AcDbPolyline
 90
        2
 70
     0
 43
0.0
 10
316.656312882086
 20
0.9998479633772916
 10
322.6553990530244
 20
0.9998479633773201
  0
LINE
  5
178
330
1F
100
AcDbEntity
  8
0
100
AcDbLine
 10
316.6563120076655
 20
0.9998483583331108
 30
0.0
 11
316.8657776305674
 21
13.00000026822089
 31
0.0
  0
LINE
  5
179
330
1F
100
AcDbEntity
  8
0
100
AcDbLine
 10
219.0734129736422
 20
0.9998483583331108
 30
0.0
 11
316.6563120076655
 21
0.9998483583331108
 31
0.0
  0
LINE
  5
17A
330
1F
100
AcDbEntity
  8
0
100
AcDbLine
 10
219.0734129736422
 20
0.9998483583331108
 30
0.0
 11
218.8639473507403
 21
13.00000026822089
 31
0.0
  0
LINE
  5
17B
330
1F
100
AcDbEntity
  8
0
100
AcDbLine
 10
316.8657776305674
 20
13.00000026822089
 30
0.0
 11
218.8639473507403
 21
13.00000026822089
 31
0.0
  0
LWPOLYLINE
  5
17C
330
1F
100
AcDbEntity
  8
0
100
AcDbPolyline
 90
        6
 70
     0
 43
0.0
 10
213.0743259282834
 20
0.9998479633773201
 10
213.0742989010366
 20
0.999736894749489
 10
213.0745121393216
 20
0.9996265706468097
 10
213.0749650798082
 20
0.9995169930708946
 10
213.1024098913701
 20
0.998161329253271
 10
219.0734120992217
 20
0.9998479633773059
  0
LINE
  5
184
330
1F
100
AcDbEntity
  8
0
100
AcDbLine
 10
212.8648627886771
 20
13.00000026822092
 30
0.0
 11
213.0743246862887
 21
0.999848358333125
 31
0.0
  0
LINE
  5
185
330
1F
100
AcDbEntity
  8
0
100
AcDbLine
 10
218.8639473507403
 20
13.00000026822089
 30
0.0
 11
212.8648627886771
 21
13.00000026822092
 31
0.0
  0
LINE
  5
186
330
1F
100
AcDbEntity
  8
0
100
AcDbLine
 10
219.0734120992217
 20
0.0000002682209015
 30
0.0
 11
214.1096985257915
 21
0.0000002682209157
 31
0.0
  0
LINE
  5
187
330
1F
100
AcDbEntity
  8
0
100
AcDbLine
 10
214.1096985257915
 20
0.0000002682209157
 30
0.0
 11
213.0743259282834
 21
0.9998479633773201
 31
0.0
  0
LINE
  5
188
330
1F
100
AcDbEntity
  8
0
100
AcDbLine
 10
219.0734120992217
 20
0.0000002682209015
 30
0.0
 11
219.0734120992217
 21
0.9998479633773059
 31
0.0
  0
LINE
  5
189
330
1F
100
AcDbEntity
  8
0
100
AcDbLine
 10
322.6553990530244
 20
0.9998479633773201
 30
0.0
 11
321.6200264555162
 21
0.0000002682209157
 31
0.0
  0
LINE
  5
18A
330
1F
100
AcDbEntity
  8
0
100
AcDbLine
 10
321.6200264555163
 20
0.0000002682209157
 30
0.0
 11
316.656312882086
 21
0.0000002682209015
 31
0.0
  0
LINE
  5
18B
330
1F
100
AcDbEntity
  8
0
100
AcDbLine
 10
316.656312882086
 20
0.9998479633773059
 30
0.0
 11
316.656312882086
 21
0.0000002682209015
 31
0.0
  0
LINE
  5
18C
330
1F
100
AcDbEntity
  8
0
100
AcDbLine
 10
316.6563120076655
 20
0.0
 30
0.0
 11
219.0734129736422
 21
0.0
 31
0.0
  0
LWPOLYLINE
  5
18D
330
1F
100
AcDbEntity
  8
0
100
AcDbPolyline
 90
        3
 70
     0
 43
0.0
 38
0.0000000000000038
 10
4.500000000000006
 20
80.85991013620625
 42
0.1989412228624768
 10
4.646415069437211
 20
80.50640135806526
 42
0.1989162959840833
 10
4.999923847578208
 20
80.35998628862808
  0
LINE
  5
192
330
1F
100
AcDbEntity
  8
0
100
AcDbLine
 10
7.500000596046505
 20
80.35998479851199
 30
0.0
 11
4.999924749136028
 21
80.35998479851199
 31
0.0
  0
ARC
  5
193
330
1F
100
AcDbEntity
  8
0
100
AcDbCircle
 10
7.500000000000043
 20
70.35998628862811
 30
0.0
 40
10.00000000000003
100
AcDbArc
 50
0.0
 51
89.9999999999996
  0
LINE
  5
194
330
1F
100
AcDbEntity
  8
0
100
AcDbLine
 10
17.49999850988394
 20
67.85991103776408
 30
0.0
 11
17.49999850988394
 21
70.35998688467456
 31
0.0
  0
LWPOLYLINE
  5
195
330
1F
100
AcDbEntity
  8
0
100
AcDbPolyline
 90
        3
 70
     0
 43
0.0
 38
0.0000000000000038
 10
17.50000000000003
 20
67.85991013620634
 42
0.1989412228627009
 10
17.6464150694372
 20
67.50640135806523
 42
0.1989162959840028
 10
17.99992384757823
 20
67.35998628862805
  0
LINE
  5
19A
330
1F
100
AcDbEntity
  8
0
100
AcDbLine
 10
92.00007498264317
 20
67.35998453029109
 30
0.0
 11
17.99992501735693
 21
67.35998453029109
 31
0.0
  0
LWPOLYLINE
  5
19B
330
1F
100
AcDbEntity
  8
0
100
AcDbPolyline
 90
        3
 70
     0
 43
0.0
 38
-0.0000000000000013
 10
92.00007615242185
 20
67.35998628862805
 42
0.1989412228626457
 10
92.35358493056286
 20
67.50640135806523
 42
0.1989162959839618
 10
92.50000000000007
 20
67.8599101362063
  0
LINE
  5
1A0
330
1F
100
AcDbEntity
  8
0
100
AcDbLine
 10
92.50000149011616
 20
67.85991103776408
 30
0.0
 11
92.50000149011616
 21
70.35998688467456
 31
0.0
  0
ARC
  5
1A1
330
1F
100
AcDbEntity
  8
0
100
AcDbCircle
 10
102.5
 20
70.35998628862811
 30
0.0
 40
10.00000000000003
100
AcDbArc
 50
90.0
 51
179.9999999999996
  0
LINE
  5
1A2
330
1F
100
AcDbEntity
  8
0
100
AcDbLine
 10
102.4999994039536
 20
80.35998479851199
 30
0.0
 11
105.0000752508641
 21
80.35998479851199
 31
0.0
  0
LWPOLYLINE
  5
1A3
330
1F
100
AcDbEntity
  8
0
100
AcDbPolyline
 90
        3
 70
     0
 43
0.0
 38
-0.0000000000000019
 10
105.0000761524218
 20
80.3599862886281
 42
0.1989412228627114
 10
105.3535849305629
 20
80.50640135806526
 42
0.1989162959840664
 10
105.5000000000001
 20
80.85991013620632
  0
LINE
  5
1A8
330
1F
100
AcDbEntity
  8
0
100
AcDbLine
 10
105.5000017583371
 20
154.8600612712712
 30
0.0
 11
105.5000017583371
 21
80.85991130598498
 31
0.0
  0
LWPOLYLINE
  5
1A9
330
1F
100
AcDbEntity
  8
0
100
AcDbPolyline
 90
        3
 70
     0
 43
0.0
 38
-0.0000000000000038
 10
105.5000000000001
 20
154.8600624410499
 42
0.1989412228627589
 10
105.3535849305629
 20
155.2135712191909
 42
0.1989162959839313
 10
105.0000761524219
 20
155.3599862886281
  0
LINE
  5
1AE
330
1F
100
AcDbEntity
  8
0
100
AcDbLine
 10
102.4999994039536
 20
155.3599877787442
 30
0.0
 11
105.0000752508641
 21
155.3599877787442
 31
0.0
  0
ARC
  5
1AF
330
1F
100
AcDbEntity
  8
0
100
AcDbCircle
 10
102.5
 20
165.3599862886281
 30
0.0
 40
10.0
100
AcDbArc
 50
180.0
 51
270.0000000000012
  0
LINE
  5
1B0
330
1F
100
AcDbEntity
  8
0
100
AcDbLine
 10
92.50000149011616
 20
167.8600615394921
 30
0.0
 11
92.50000149011616
 21
165.3599856925817
 31
0.0
  0
LWPOLYLINE
  5
1B1
330
1F
100
AcDbEntity
  8
0
100
AcDbPolyline
 90
        3
 70
     0
 43
0.0
 38
-0.0000000000000031
 10
92.50000000000001
 20
167.8600624410499
 42
0.1989412228624732
 10
92.35358493056286
 20
168.2135712191909
 42
0.1989162959841432
 10
92.00007615242183
 20
168.3599862886281
  0
LINE
  5
1B6
330
1F
100
AcDbEntity
  8
0
100
AcDbLine
 10
92.00007498264317
 20
168.3599880469651
 30
0.0
 11
17.99992501735693
 21
168.3599880469651
 31
0.0
  0
LWPOLYLINE
  5
1B7
330
1F
100
AcDbEntity
  8
0
100
AcDbPolyline
 90
        3
 70
     0
 43
0.0
 38
0.0000000000000019
 10
17.99992384757821
 20
168.3599862886281
 42
0.1989412228627324
 10
17.6464150694372
 20
168.2135712191909
 42
0.1989162959840415
 10
17.50000000000007
 20
167.8600624410499
  0
LINE
  5
1BC
330
1F
100
AcDbEntity
  8
0
100
AcDbLine
 10
17.49999850988394
 20
167.8600615394921
 30
0.0
 11
17.49999850988394
 21
165.3599856925817
 31
0.0
  0
ARC
  5
1BD
330
1F
100
AcDbEntity
  8
0
100
AcDbCircle
 10
7.500000000000043
 20
165.3599862886281
 30
0.0
 40
10.0
100
AcDbArc
 50
270.0000000000008
 51
0.0000000000003257
  0
LINE
  5
1BE
330
1F
100
AcDbEntity
  8
0
100
AcDbLine
 10
7.500000596046505
 20
155.3599877787442
 30
0.0
 11
4.999924749136028
 21
155.3599877787442
 31
0.0
  0
LWPOLYLINE
  5
1BF
330
1F
100
AcDbEntity
  8
0
100
AcDbPolyline
 90
        3
 70
     0
 43
0.0
 38
0.0000000000000019
 10
4.999923847578207
 20
155.3599862886281
 42
0.1989412228627333
 10
4.646415069437211
 20
155.2135712191909
 42
0.1989162959840232
 10
4.500000000000059
 20
154.8600624410499
  0
LINE
  5
1C4
330
1F
100
AcDbEntity
  8
0
100
AcDbLine
 10
4.499998241663036
 20
154.8600612712712
 30
0.0
 11
4.499998241663036
 21
80.85991130598498
 31
0.0
  0
LINE
  5
1C5
330
1F
100
AcDbEntity
  8
0
100
AcDbLine
 10
109.9999997019768
 20
68.85907114871455
 30
0.0
 11
109.9999997019768
 21
166.8609014285417
 31
0.0
  0
LWPOLYLINE
  5
1C6
330
1F
100
AcDbEntity
  8
0
100
AcDbPolyline
 90
        3
 70
     0
 43
0.0
 38
0.0
 10
104.0009138290618
 20
62.85998628862812
 42
0.1989412228626422
 10
108.2430191667541
 20
64.61696712187404
 42
0.1989162959840546
 10
110.0000000000001
 20
68.85907245956656
  0
LWPOLYLINE
  5
1CB
330
1F
100
AcDbEntity
  8
0
100
AcDbPolyline
 90
        3
 70
     0
 43
0.0
 38
-0.0000000000000207
 10
110.0
 20
166.8609001176899
 42
0.198941222862647
 10
108.2430191667541
 20
171.1030054553821
 42
0.1989162959840346
 10
104.0009138290616
 20
172.8599862886281
  0
LINE
  5
1D0
330
1F
100
AcDbEntity
  8
0
100
AcDbLine
 10
5.999084860086498
 20
62.85998658665133
 30
0.0
 11
104.0009151399136
 21
62.85998658665133
 31
0.0
  0
LINE
  5
1D1
330
1F
100
AcDbEntity
  8
0
100
AcDbLine
 10
5.999084860086498
 20
172.8599859906049
 30
0.0
 11
104.0009151399136
 21
172.8599859906049
 31
0.0
  0
LWPOLYLINE
  5
1D2
330
1F
100
AcDbEntity
  8
0
100
AcDbPolyline
 90
        3
 70
     0
 43
0.0
 38
0.0
 10
5.999086170938327
 20
172.8599862886281
 42
0.1989412228626567
 10
1.75698083324599
 20
171.1030054553821
 42
0.1989162959840368
 10
0.0000000000000098
 20
166.8609001176896
  0
LWPOLYLINE
  5
1D7
330
1F
100
AcDbEntity
  8
0
100
AcDbPolyline
 90
        3
 70
     0
 43
0.0
 38
0.0000000000000214
 10
0.0000000000000049
 20
68.85907245956636
 42
0.1989412228626424
 10
1.75698083324599
 20
64.61696712187404
 42
0.1989162959840451
 10
5.999086170938458
 20
62.85998628862806
  0
LINE
  5
1DC
330
1F
100
AcDbEntity
  8
0
100
AcDbLine
 10
0.0000002980232807
 20
68.85907114871455
 30
0.0
 11
0.0000002980232807
 21
166.8609014285417
 31
0.0
  0
LINE
  5
1DD
330
1F
100
AcDbEntity
  8
0
100
AcDbLine
 10
4.674855917692156
 20
154.6852073205323
 30
0.0
 11
4.499998241663036
 21
154.8600612712712
 31
0.0
  0
LINE
  5
1DE
330
1F
100
AcDbEntity
  8
0
100
AcDbLine
 10
4.674855917692156
 20
81.03476525672389
 30
0.0
 11
4.674855917692156
 21
154.6852073205323
 31
0.0
  0
LINE
  5
1DF
330
1F
100
AcDbEntity
  8
0
100
AcDbLine
 10
4.674855917692156
 20
81.03476525672389
 30
0.0
 11
4.499998241663036
 21
80.85991130598498
 31
0.0
  0
ARC
  5
1E0
330
1F
100
AcDbEntity
  8
0
100
AcDbCircle
 10
5.174957298826271
 20
81.0349438556753
 30
0.0
 40
0.5001014130252334
100
AcDbArc
 50
180.0204617825347
 51
269.9795382174638
  0
LINE
  5
1E1
330
1F
100
AcDbEntity
  8
0
100
AcDbLine
 10
4.999924749136028
 20
80.35998479851199
 30
0.0
 11
5.17477869987485
 21
80.5348424745412
 31
0.0
  0
LINE
  5
1E2
330
1F
100
AcDbEntity
  8
0
100
AcDbLine
 10
4.999924749136028
 20
155.3599877787442
 30
0.0
 11
5.17477869987485
 21
155.185130102715
 31
0.0
  0
ARC
  5
1E3
330
1F
100
AcDbEntity
  8
0
100
AcDbCircle
 10
5.174957298826271
 20
154.6850287215809
 30
0.0
 40
0.5001014130252334
100
AcDbArc
 50
90.02046178253646
 51
179.9795382174685
  0
LINE
  5
1E4
330
1F
100
AcDbEntity
  8
0
100
AcDbLine
 10
7.500000596046419
 20
80.5348424745412
 30
0.0
 11
5.17477869987485
 21
80.5348424745412
 31
0.0
  0
LINE
  5
1E5
330
1F
100
AcDbEntity
  8
0
100
AcDbLine
 10
7.500000596046419
 20
80.5348424745412
 30
0.0
 11
7.500000596046505
 21
80.35998479851199
 31
0.0
  0
LINE
  5
1E6
330
1F
100
AcDbEntity
  8
0
100
AcDbLine
 10
7.500000596046419
 20
155.185130102715
 30
0.0
 11
7.500000596046505
 21
155.3599877787442
 31
0.0
  0
LINE
  5
1E7
330
1F
100
AcDbEntity
  8
0
100
AcDbLine
 10
5.17477869987485
 20
155.185130102715
 30
0.0
 11
7.500000596046419
 21
155.185130102715
 31
0.0
  0
ARC
  5
1E8
330
1F
100
AcDbEntity
  8
0
100
AcDbCircle
 10
7.499999999999986
 20
70.35998628862811
 30
0.0
 40
10.17485528216969
100
AcDbArc
 50
0.0
 51
89.99999999999993
  0
LINE
  5
1E9
330
1F
100
AcDbEntity
  8
0
100
AcDbLine
 10
17.67485618591306
 20
70.35998688467456
 30
0.0
 11
17.49999850988394
 21
70.35998688467456
 31
0.0
  0
LINE
  5
1EA
330
1F
100
AcDbEntity
  8
0
100
AcDbLine
 10
17.67485618591306
 20
165.3599856925817
 30
0.0
 11
17.49999850988394
 21
165.3599856925817
 31
0.0
  0
ARC
  5
1EB
330
1F
100
AcDbEntity
  8
0
100
AcDbCircle
 10
7.499999999999986
 20
165.3599862886281
 30
0.0
 40
10.17485528216969
100
AcDbArc
 50
270.0000000000008
 51
0.0
  0
LINE
  5
1EC
330
1F
100
AcDbEntity
  8
0
100
AcDbLine
 10
17.67485618591306
 20
68.03476498850299
 30
0.0
 11
17.49999850988394
 21
67.85991103776408
 31
0.0
  0
ARC
  5
1ED
330
1F
100
AcDbEntity
  8
0
100
AcDbCircle
 10
18.17495756704717
 20
68.03494358745439
 30
0.0
 40
0.5001014130252334
100
AcDbArc
 50
180.0204617825347
 51
269.9795382174636
  0
LINE
  5
1EE
330
1F
100
AcDbEntity
  8
0
100
AcDbLine
 10
17.99992501735693
 20
67.35998453029109
 30
0.0
 11
18.17477896809575
 21
67.53484220632029
 31
0.0
  0
LINE
  5
1EF
330
1F
100
AcDbEntity
  8
0
100
AcDbLine
 10
17.99992501735693
 20
168.3599880469651
 30
0.0
 11
18.17477896809575
 21
168.1851303709359
 31
0.0
  0
ARC
  5
1F0
330
1F
100
AcDbEntity
  8
0
100
AcDbCircle
 10
18.17495756704717
 20
167.6850289898019
 30
0.0
 40
0.5001014130252334
100
AcDbArc
 50
90.02046178253636
 51
179.9795382174685
  0
LINE
  5
1F1
330
1F
100
AcDbEntity
  8
0
100
AcDbLine
 10
17.67485618591306
 20
167.6852075887532
 30
0.0
 11
17.49999850988394
 21
167.8600615394921
 31
0.0
  0
LINE
  5
1F2
330
1F
100
AcDbEntity
  8
0
100
AcDbLine
 10
17.67485618591306
 20
68.03476498850299
 30
0.0
 11
17.67485618591306
 21
70.35998688467456
 31
0.0
  0
LINE
  5
1F3
330
1F
100
AcDbEntity
  8
0
100
AcDbLine
 10
17.67485618591306
 20
165.3599856925817
 30
0.0
 11
17.67485618591306
 21
167.6852075887532
 31
0.0
  0
LINE
  5
1F4
330
1F
100
AcDbEntity
  8
0
100
AcDbLine
 10
91.82522103190418
 20
67.53484220632029
 30
0.0
 11
18.17477896809575
 21
67.53484220632029
 31
0.0
  0
LINE
  5
1F5
330
1F
100
AcDbEntity
  8
0
100
AcDbLine
 10
92.00007498264317
 20
67.35998453029109
 30
0.0
 11
91.82522103190418
 21
67.53484220632029
 31
0.0
  0
LINE
  5
1F6
330
1F
100
AcDbEntity
  8
0
100
AcDbLine
 10
92.00007498264317
 20
168.3599880469651
 30
0.0
 11
91.82522103190418
 21
168.1851303709359
 31
0.0
  0
LINE
  5
1F7
330
1F
100
AcDbEntity
  8
0
100
AcDbLine
 10
18.17477896809575
 20
168.1851303709359
 30
0.0
 11
91.82522103190418
 21
168.1851303709359
 31
0.0
  0
LINE
  5
1F8
330
1F
100
AcDbEntity
  8
0
100
AcDbLine
 10
92.32514381408687
 20
167.6852075887532
 30
0.0
 11
92.50000149011616
 21
167.8600615394921
 31
0.0
  0
ARC
  5
1F9
330
1F
100
AcDbEntity
  8
0
100
AcDbCircle
 10
91.8250424329528
 20
167.6850289898019
 30
0.0
 40
0.5001014130251907
100
AcDbArc
 50
0.0204617825314756
 51
89.9795382174669
  0
ARC
  5
1FA
330
1F
100
AcDbEntity
  8
0
100
AcDbCircle
 10
91.8250424329528
 20
68.03494358745439
 30
0.0
 40
0.5001014130252192
100
AcDbArc
 50
270.0204617825315
 51
359.9795382174653
  0
LINE
  5
1FB
330
1F
100
AcDbEntity
  8
0
100
AcDbLine
 10
92.32514381408687
 20
68.03476498850299
 30
0.0
 11
92.50000149011616
 21
67.85991103776408
 31
0.0
  0
LINE
  5
1FC
330
1F
100
AcDbEntity
  8
0
100
AcDbLine
 10
102.4999994039535
 20
155.185130102715
 30
0.0
 11
102.4999994039536
 21
155.3599877787442
 31
0.0
  0
ARC
  5
1FD
330
1F
100
AcDbEntity
  8
0
100
AcDbCircle
 10
102.5
 20
165.3599862886281
 30
0.0
 40
10.17485528216969
100
AcDbArc
 50
180.0
 51
270.0000000000017
  0
LINE
  5
1FE
330
1F
100
AcDbEntity
  8
0
100
AcDbLine
 10
92.32514381408687
 20
165.3599856925817
 30
0.0
 11
92.50000149011616
 21
165.3599856925817
 31
0.0
  0
LINE
  5
1FF
330
1F
100
AcDbEntity
  8
0
100
AcDbLine
 10
92.32514381408687
 20
167.6852075887532
 30
0.0
 11
92.32514381408687
 21
165.3599856925817
 31
0.0
  0
LINE
  5
200
330
1F
100
AcDbEntity
  8
0
100
AcDbLine
 10
92.32514381408687
 20
70.35998688467456
 30
0.0
 11
92.50000149011616
 21
70.35998688467456
 31
0.0
  0
ARC
  5
201
330
1F
100
AcDbEntity
  8
0
100
AcDbCircle
 10
102.5
 20
70.35998628862811
 30
0.0
 40
10.17485528216969
100
AcDbArc
 50
90.0
 51
179.9999999999991
  0
LINE
  5
202
330
1F
100
AcDbEntity
  8
0
100
AcDbLine
 10
102.4999994039535
 20
80.5348424745412
 30
0.0
 11
102.4999994039536
 21
80.35998479851199
 31
0.0
  0
LINE
  5
203
330
1F
100
AcDbEntity
  8
0
100
AcDbLine
 10
92.32514381408687
 20
70.35998688467456
 30
0.0
 11
92.32514381408687
 21
68.03476498850299
 31
0.0
  0
LINE
  5
204
330
1F
100
AcDbEntity
  8
0
100
AcDbLine
 10
104.8252213001251
 20
80.5348424745412
 30
0.0
 11
102.4999994039535
 21
80.5348424745412
 31
0.0
  0
LINE
  5
205
330
1F
100
AcDbEntity
  8
0
100
AcDbLine
 10
105.0000752508641
 20
80.35998479851199
 30
0.0
 11
104.8252213001251
 21
80.5348424745412
 31
0.0
  0
LINE
  5
206
330
1F
100
AcDbEntity
  8
0
100
AcDbLine
 10
105.0000752508641
 20
155.3599877787442
 30
0.0
 11
104.8252213001251
 21
155.185130102715
 31
0.0
  0
LINE
  5
207
330
1F
100
AcDbEntity
  8
0
100
AcDbLine
 10
102.4999994039535
 20
155.185130102715
 30
0.0
 11
104.8252213001251
 21
155.185130102715
 31
0.0
  0
ARC
  5
208
330
1F
100
AcDbEntity
  8
0
100
AcDbCircle
 10
104.8250427011737
 20
81.0349438556753
 30
0.0
 40
0.5001014130252192
100
AcDbArc
 50
270.0204617825315
 51
359.9795382174653
  0
LINE
  5
209
330
1F
100
AcDbEntity
  8
0
100
AcDbLine
 10
105.3251440823078
 20
81.03476525672389
 30
0.0
 11
105.5000017583371
 21
80.85991130598498
 31
0.0
  0
LINE
  5
20A
330
1F
100
AcDbEntity
  8
0
100
AcDbLine
 10
105.3251440823078
 20
154.6852073205323
 30
0.0
 11
105.5000017583371
 21
154.8600612712712
 31
0.0
  0
ARC
  5
20B
330
1F
100
AcDbEntity
  8
0
100
AcDbCircle
 10
104.8250427011737
 20
154.6850287215809
 30
0.0
 40
0.5001014130251907
100
AcDbArc
 50
0.0204617825314756
 51
89.9795382174669
  0
LINE
  5
20C
330
1F
100
AcDbEntity
  8
0
100
AcDbLine
 10
105.3251440823078
 20
154.6852073205323
 30
0.0
 11
105.3251440823078
 21
81.03476525672389
 31
0.0
  0
LINE
  5
20D
330
1F
100
AcDbEntity
  8
0
100
AcDbLine
 10
4.674855917692156
 20
81.03476525672389
 30
0.0
 11
5.674701482057543
 21
81.53468803890658
 31
0.0
  0
LINE
  5
20E
330
1F
100
AcDbEntity
  8
0
100
AcDbLine
 10
5.17477869987485
 20
80.5348424745412
 30
0.0
 11
5.674701482057543
 21
81.53468803890658
 31
0.0
  0
LINE
  5
20F
330
1F
100
AcDbEntity
  8
0
100
AcDbLine
 10
4.674855917692156
 20
154.6852073205323
 30
0.0
 11
5.674701482057543
 21
154.1852845383496
 31
0.0
  0
LINE
  5
210
330
1F
100
AcDbEntity
  8
0
100
AcDbLine
 10
5.674701482057543
 20
154.1852845383496
 30
0.0
 11
5.674701482057543
 21
81.53468803890658
 31
0.0
  0
LINE
  5
211
330
1F
100
AcDbEntity
  8
0
100
AcDbLine
 10
5.674701482057543
 20
154.1852845383496
 30
0.0
 11
5.17477869987485
 21
155.185130102715
 31
0.0
  0
LINE
  5
212
330
1F
100
AcDbEntity
  8
0
100
AcDbLine
 10
7.500000596046419
 20
154.1852845383496
 30
0.0
 11
5.674701482057543
 21
154.1852845383496
 31
0.0
  0
LINE
  5
213
330
1F
100
AcDbEntity
  8
0
100
AcDbLine
 10
7.500000596046419
 20
154.1852845383496
 30
0.0
 11
7.500000596046419
 21
155.185130102715
 31
0.0
  0
LINE
  5
214
330
1F
100
AcDbEntity
  8
0
100
AcDbLine
 10
5.674701482057543
 20
81.53468803890658
 30
0.0
 11
7.500000596046419
 21
81.53468803890658
 31
0.0
  0
LINE
  5
215
330
1F
100
AcDbEntity
  8
0
100
AcDbLine
 10
7.500000596046419
 20
80.5348424745412
 30
0.0
 11
7.500000596046419
 21
81.53468803890658
 31
0.0
  0
ARC
  5
216
330
1F
100
AcDbEntity
  8
0
100
AcDbCircle
 10
7.499999999999972
 20
165.3599862886281
 30
0.0
 40
11.17470297732609
100
AcDbArc
 50
270.0000000000008
 51
0.0000000000004372
  0
LINE
  5
217
330
1F
100
AcDbEntity
  8
0
100
AcDbLine
 10
18.67470175027844
 20
165.3599856925817
 30
0.0
 11
17.67485618591306
 21
165.3599856925817
 31
0.0
  0
ARC
  5
218
330
1F
100
AcDbEntity
  8
0
100
AcDbCircle
 10
7.499999999999972
 20
70.35998628862811
 30
0.0
 40
11.17470297732609
100
AcDbArc
 50
0.0
 51
89.9999999999996
  0
LINE
  5
219
330
1F
100
AcDbEntity
  8
0
100
AcDbLine
 10
17.67485618591306
 20
70.35998688467456
 30
0.0
 11
18.67470175027844
 21
70.35998688467456
 31
0.0
  0
LINE
  5
21A
330
1F
100
AcDbEntity
  8
0
100
AcDbLine
 10
18.67470175027844
 20
70.35998688467456
 30
0.0
 11
18.67470175027844
 21
68.53468777068568
 31
0.0
  0
LINE
  5
21B
330
1F
100
AcDbEntity
  8
0
100
AcDbLine
 10
17.67485618591306
 20
68.03476498850299
 30
0.0
 11
18.67470175027844
 21
68.53468777068568
 31
0.0
  0
LINE
  5
21C
330
1F
100
AcDbEntity
  8
0
100
AcDbLine
 10
18.67470175027844
 20
167.1852848065705
 30
0.0
 11
18.67470175027844
 21
165.3599856925817
 31
0.0
  0
LINE
  5
21D
330
1F
100
AcDbEntity
  8
0
100
AcDbLine
 10
18.67470175027844
 20
167.1852848065705
 30
0.0
 11
17.67485618591306
 21
167.6852075887532
 31
0.0
  0
LINE
  5
21E
330
1F
100
AcDbEntity
  8
0
100
AcDbLine
 10
18.17477896809575
 20
67.53484220632029
 30
0.0
 11
18.67470175027844
 21
68.53468777068568
 31
0.0
  0
LINE
  5
21F
330
1F
100
AcDbEntity
  8
0
100
AcDbLine
 10
18.67470175027844
 20
167.1852848065705
 30
0.0
 11
18.17477896809575
 21
168.1851303709359
 31
0.0
  0
LINE
  5
220
330
1F
100
AcDbEntity
  8
0
100
AcDbLine
 10
91.32529824972148
 20
167.1852848065705
 30
0.0
 11
18.67470175027844
 21
167.1852848065705
 31
0.0
  0
LINE
  5
221
330
1F
100
AcDbEntity
  8
0
100
AcDbLine
 10
91.32529824972148
 20
167.1852848065705
 30
0.0
 11
91.82522103190418
 21
168.1851303709359
 31
0.0
  0
LINE
  5
222
330
1F
100
AcDbEntity
  8
0
100
AcDbLine
 10
18.67470175027844
 20
68.53468777068568
 30
0.0
 11
91.32529824972148
 21
68.53468777068568
 31
0.0
  0
LINE
  5
223
330
1F
100
AcDbEntity
  8
0
100
AcDbLine
 10
91.82522103190418
 20
67.53484220632029
 30
0.0
 11
91.32529824972148
 21
68.53468777068568
 31
0.0
  0
ARC
  5
224
330
1F
100
AcDbEntity
  8
0
100
AcDbCircle
 10
102.5
 20
165.3599862886281
 30
0.0
 40
11.17470297732609
100
AcDbArc
 50
180.0
 51
270.0000000000012
  0
LINE
  5
225
330
1F
100
AcDbEntity
  8
0
100
AcDbLine
 10
91.32529824972148
 20
165.3599856925817
 30
0.0
 11
92.32514381408687
 21
165.3599856925817
 31
0.0
  0
LINE
  5
226
330
1F
100
AcDbEntity
  8
0
100
AcDbLine
 10
102.4999994039535
 20
154.1852845383496
 30
0.0
 11
102.4999994039535
 21
155.185130102715
 31
0.0
  0
LINE
  5
227
330
1F
100
AcDbEntity
  8
0
100
AcDbLine
 10
91.32529824972148
 20
165.3599856925817
 30
0.0
 11
91.32529824972148
 21
167.1852848065705
 31
0.0
  0
LINE
  5
228
330
1F
100
AcDbEntity
  8
0
100
AcDbLine
 10
91.32529824972148
 20
167.1852848065705
 30
0.0
 11
92.32514381408687
 21
167.6852075887532
 31
0.0
  0
LINE
  5
229
330
1F
100
AcDbEntity
  8
0
100
AcDbLine
 10
92.32514381408687
 20
70.35998688467456
 30
0.0
 11
91.32529824972148
 21
70.35998688467456
 31
0.0
  0
ARC
  5
22A
330
1F
100
AcDbEntity
  8
0
100
AcDbCircle
 10
102.5
 20
70.35998628862811
 30
0.0
 40
11.17470297732609
100
AcDbArc
 50
90.0
 51
179.9999999999996
  0
LINE
  5
22B
330
1F
100
AcDbEntity
  8
0
100
AcDbLine
 10
102.4999994039535
 20
80.5348424745412
 30
0.0
 11
102.4999994039535
 21
81.53468803890658
 31
0.0
  0
LINE
  5
22C
330
1F
100
AcDbEntity
  8
0
100
AcDbLine
 10
92.32514381408687
 20
68.03476498850299
 30
0.0
 11
91.32529824972148
 21
68.53468777068568
 31
0.0
  0
LINE
  5
22D
330
1F
100
AcDbEntity
  8
0
100
AcDbLine
 10
91.32529824972148
 20
68.53468777068568
 30
0.0
 11
91.32529824972148
 21
70.35998688467456
 31
0.0
  0
LINE
  5
22E
330
1F
100
AcDbEntity
  8
0
100
AcDbLine
 10
102.4999994039535
 20
81.53468803890658
 30
0.0
 11
104.3252985179424
 21
81.53468803890658
 31
0.0
  0
LINE
  5
22F
330
1F
100
AcDbEntity
  8
0
100
AcDbLine
 10
104.8252213001251
 20
80.5348424745412
 30
0.0
 11
104.3252985179424
 21
81.53468803890658
 31
0.0
  0
LINE
  5
230
330
1F
100
AcDbEntity
  8
0
100
AcDbLine
 10
104.3252985179424
 20
154.1852845383496
 30
0.0
 11
102.4999994039535
 21
154.1852845383496
 31
0.0
  0
LINE
  5
231
330
1F
100
AcDbEntity
  8
0
100
AcDbLine
 10
104.3252985179424
 20
154.1852845383496
 30
0.0
 11
104.8252213001251
 21
155.185130102715
 31
0.0
  0
LINE
  5
232
330
1F
100
AcDbEntity
  8
0
100
AcDbLine
 10
104.3252985179424
 20
154.1852845383496
 30
0.0
 11
105.3251440823078
 21
154.6852073205323
 31
0.0
  0
LINE
  5
233
330
1F
100
AcDbEntity
  8
0
100
AcDbLine
 10
104.3252985179424
 20
81.53468803890658
 30
0.0
 11
104.3252985179424
 21
154.1852845383496
 31
0.0
  0
LINE
  5
234
330
1F
100
AcDbEntity
  8
0
100
AcDbLine
 10
104.3252985179424
 20
81.53468803890658
 30
0.0
 11
105.3251440823078
 21
81.03476525672389
 31
0.0
  0
INSERT
  5
240
330
1F
100
AcDbEntity
  8
FORMAT
100
AcDbBlockReference
  2
SW_CENTERMARKSYMBOL_4
 10
102.5
 20
70.35998628862811
 30
0.0
  0
INSERT
  5
24C
330
1F
100
AcDbEntity
  8
FORMAT
100
AcDbBlockReference
  2
SW_CENTERMARKSYMBOL_5
 10
102.5
 20
165.3599862886281
 30
0.0
  0
INSERT
  5
258
330
1F
100
AcDbEntity
  8
FORMAT
100
AcDbBlockReference
  2
SW_CENTERMARKSYMBOL_6
 10
7.500000000000043
 20
165.3599862886281
 30
0.0
  0
INSERT
  5
264
330
1F
100
AcDbEntity
  8
FORMAT
100
AcDbBlockReference
  2
SW_CENTERMARKSYMBOL_7
 10
7.500000000000043
 20
70.35998628862811
 30
0.0
  0
ENDSEC
  0
SECTION
  2
OBJECTS
  0
DICTIONARY
  5
C
330
0
100
AcDbDictionary
  3
ACAD_COLOR
350
6C
  3
ACAD_GROUP
350
D
  3
ACAD_LAYOUT
350
1A
  3
ACAD_MATERIAL
350
6B
  3
ACAD_MLINESTYLE
350
17
  3
ACAD_PLOTSETTINGS
350
19
  3
ACAD_TABLESTYLE
350
92
  3
ACDBHEADERROUNDTRIPXREC
350
2BC
  3
ACDBVARIABLEDICTIONARY
350
59
  3
DWGPROPS
350
2DE
  0
DICTIONARY
  5
6C
102
{ACAD_REACTORS
330
C
102
}
330
C
100
AcDbDictionary
  0
DICTIONARY
  5
D
102
{ACAD_REACTORS
330
C
102
}
330
C
100
AcDbDictionary
  0
DICTIONARY
  5
1A
102
{ACAD_REACTORS
330
C
102
}
330
C
100
AcDbDictionary
  0
DICTIONARY
  5
6B
102
{ACAD_REACTORS
330
C
102
}
330
C
100
AcDbDictionary
  0
DICTIONARY
  5
17
102
{ACAD_REACTORS
330
C
102
}
330
C
100
AcDbDictionary
  3
STANDARD
350
18
  0
DICTIONARY
  5
19
102
{ACAD_REACTORS
330
C
102
}
330
C
100
AcDbDictionary
  0
DICTIONARY
  5
92
102
{ACAD_REACTORS
330
C
102
}
330
C
100
AcDbDictionary
  3
STANDARD
350
93
  0
DICTIONARY
  5
2BC
102
{ACAD_REACTORS
330
C
102
}
330
C
100
AcDbDictionary
  3
CEPSNTYPE
350
2C5
  3
COLORDICT
350
2DC
  3
DIMSTYLEDATA
350
2DB
  3
FINGERPRINTGUID
350
2C6
  3
HYPERLINKBASE
350
2BF
  3
INSUNITS
350
2C4
  3
LAYOUTDICT
350
2C1
  3
LWETCUNION
350
2C3
  3
MATERIALDICT
350
2DD
  3
PLOTSETDICT
350
2C2
  3
PSVPSCALE
350
2C8
  3
PUCSBASE
350
2CB
  3
PUCSORGBACK
350
2D1
  3
PUCSORGBOTTOM
350
2CD
  3
PUCSORGFRONT
350
2D0
  3
PUCSORGLEFT
350
2CE
  3
PUCSORGRIGHT
350
2CF
  3
PUCSORGTOP
350
2CC
  3
PUCSORTHOREF
350
2C9
  3
PUCSORTHOVIEW
350
2CA
  3
STYLESHEET
350
2C0
  3
TSTACKALIGN
350
2BD
  3
TSTACKSIZE
350
2BE
  3
UCSBASE
350
2D4
  3
UCSORGBACK
350
2DA
  3
UCSORGBOTTOM
350
2D6
  3
UCSORGFRONT
350
2D9
  3
UCSORGLEFT
350
2D7
  3
UCSORGRIGHT
350
2D8
  3
UCSORGTOP
350
2D5
  3
UCSORTHOREF
350
2D2
  3
UCSORTHOVIEW
350
2D3
  3
VERSIONGUID
350
2C7
  0
DICTIONARY
  5
59
102
{ACAD_REACTORS
330
C
102
}
330
C
100
AcDbDictionary
  3
CTABLESTYLE
350
98
  3
HIDETEXT
350
2A7
  0
XRECORD
  5
2DE
102
{ACAD_REACTORS
330
C
102
}
330
C
100
AcDbXrecord
  1
DWGPROPS COOKIE
  2

  3

  4

  6

  7

  8
fottrem
  9

300
=
301
=
302
=
303
=
304
=
305
=
306
=
307
=
308
=
309
=
 40
0.0
 41
2453353.717125822
 42
2454692.47552963
  1

 90
        0
  0
MLINESTYLE
  5
18
102
{ACAD_REACTORS
330
17
102
}
330
17
100
AcDbMlineStyle
  2
Standard
 70
     0
  3

 62
   256
 51
90.0
 52
90.0
 71
     2
 49
0.5
 62
   256
  6
BYLAYER
 49
-0.5
 62
   256
  6
BYLAYER
  0
TABLESTYLE
  5
93
102
{ACAD_REACTORS
330
92
102
}
330
92
100
AcDbTableStyle
  3
Standard
 70
     0
 71
     0
 40
0.06
 41
0.06
280
     0
281
     0
  7
STANDARD
140
0.18
170
     2
 62
     0
 63
     7
283
     0
274
    -2
284
     1
 64
     0
275
    -2
285
     1
 65
     0
276
    -2
286
     1
 66
     0
277
    -2
287
     1
 67
     0
278
    -2
288
     1
 68
     0
279
    -2
289
     1
 69
     0
  7
STANDARD
140
0.25
170
     5
 62
     0
 63
     7
283
     0
274
    -2
284
     1
 64
     0
275
    -2
285
     1
 65
     0
276
    -2
286
     1
 66
     0
277
    -2
287
     1
 67
     0
278
    -2
288
     1
 68
     0
279
    -2
289
     1
 69
     0
  7
STANDARD
140
0.18
170
     5
 62
     0
 63
     7
283
     0
274
    -2
284
     1
 64
     0
275
    -2
285
     1
 65
     0
276
    -2
286
     1
 66
     0
277
    -2
287
     1
 67
     0
278
    -2
288
     1
 68
     0
279
    -2
289
     1
 69
     0
  0
XRECORD
  5
2C5
102
{ACAD_REACTORS
330
2BC
102
}
330
2BC
100
AcDbXrecord
 90
        0
  0
XRECORD
  5
2DC
102
{ACAD_REACTORS
330
2BC
102
}
330
2BC
100
AcDbXrecord
340
6C
  0
XRECORD
  5
2DB
102
{ACAD_REACTORS
330
2BC
102
}
330
2BC
100
AcDbXrecord
1000
DSTYLE
1002
{
1070
   340
340
11
1002
}
  0
XRECORD
  5
2C6
102
{ACAD_REACTORS
330
2BC
102
}
330
2BC
100
AcDbXrecord
  1
{FAEB1C30-E019-11D5-929B-00C0DF256EC4}
  0
XRECORD
  5
2BF
102
{ACAD_REACTORS
330
2BC
102
}
330
2BC
100
AcDbXrecord
  1

  0
XRECORD
  5
2C4
102
{ACAD_REACTORS
330
2BC
102
}
330
2BC
100
AcDbXrecord
 90
        4
  0
XRECORD
  5
2C1
102
{ACAD_REACTORS
330
2BC
102
}
330
2BC
100
AcDbXrecord
340
1A
  0
XRECORD
  5
2C3
102
{ACAD_REACTORS
330
2BC
102
}
330
2BC
100
AcDbXrecord
 90
     3584
  0
XRECORD
  5
2DD
102
{ACAD_REACTORS
330
2BC
102
}
330
2BC
100
AcDbXrecord
340
6B
  0
XRECORD
  5
2C2
102
{ACAD_REACTORS
330
2BC
102
}
330
2BC
100
AcDbXrecord
340
19
  0
XRECORD
  5
2C8
102
{ACAD_REACTORS
330
2BC
102
}
330
2BC
100
AcDbXrecord
 40
0.0
  0
XRECORD
  5
2CB
102
{ACAD_REACTORS
330
2BC
102
}
330
2BC
100
AcDbXrecord
340
0
  0
XRECORD
  5
2D1
102
{ACAD_REACTORS
330
2BC
102
}
330
2BC
100
AcDbXrecord
 10
0.0
 20
0.0
 30
0.0
  0
XRECORD
  5
2CD
102
{ACAD_REACTORS
330
2BC
102
}
330
2BC
100
AcDbXrecord
 10
0.0
 20
0.0
 30
0.0
  0
XRECORD
  5
2D0
102
{ACAD_REACTORS
330
2BC
102
}
330
2BC
100
AcDbXrecord
 10
0.0
 20
0.0
 30
0.0
  0
XRECORD
  5
2CE
102
{ACAD_REACTORS
330
2BC
102
}
330
2BC
100
AcDbXrecord
 10
0.0
 20
0.0
 30
0.0
  0
XRECORD
  5
2CF
102
{ACAD_REACTORS
330
2BC
102
}
330
2BC
100
AcDbXrecord
 10
0.0
 20
0.0
 30
0.0
  0
XRECORD
  5
2CC
102
{ACAD_REACTORS
330
2BC
102
}
330
2BC
100
AcDbXrecord
 10
0.0
 20
0.0
 30
0.0
  0
XRECORD
  5
2C9
102
{ACAD_REACTORS
330
2BC
102
}
330
2BC
100
AcDbXrecord
340
0
  0
XRECORD
  5
2CA
102
{ACAD_REACTORS
330
2BC
102
}
330
2BC
100
AcDbXrecord
 70
     0
  0
XRECORD
  5
2C0
102
{ACAD_REACTORS
330
2BC
102
}
330
2BC
100
AcDbXrecord
  1

  0
XRECORD
  5
2BD
102
{ACAD_REACTORS
330
2BC
102
}
330
2BC
100
AcDbXrecord
 90
        1
  0
XRECORD
  5
2BE
102
{ACAD_REACTORS
330
2BC
102
}
330
2BC
100
AcDbXrecord
 90
       70
  0
XRECORD
  5
2D4
102
{ACAD_REACTORS
330
2BC
102
}
330
2BC
100
AcDbXrecord
340
0
  0
XRECORD
  5
2DA
102
{ACAD_REACTORS
330
2BC
102
}
330
2BC
100
AcDbXrecord
 10
0.0
 20
0.0
 30
0.0
  0
XRECORD
  5
2D6
102
{ACAD_REACTORS
330
2BC
102
}
330
2BC
100
AcDbXrecord
 10
0.0
 20
0.0
 30
0.0
  0
XRECORD
  5
2D9
102
{ACAD_REACTORS
330
2BC
102
}
330
2BC
100
AcDbXrecord
 10
0.0
 20
0.0
 30
0.0
  0
XRECORD
  5
2D7
102
{ACAD_REACTORS
330
2BC
102
}
330
2BC
100
AcDbXrecord
 10
0.0
 20
0.0
 30
0.0
  0
XRECORD
  5
2D8
102
{ACAD_REACTORS
330
2BC
102
}
330
2BC
100
AcDbXrecord
 10
0.0
 20
0.0
 30
0.0
  0
XRECORD
  5
2D5
102
{ACAD_REACTORS
330
2BC
102
}
330
2BC
100
AcDbXrecord
 10
0.0
 20
0.0
 30
0.0
  0
XRECORD
  5
2D2
102
{ACAD_REACTORS
330
2BC
102
}
330
2BC
100
AcDbXrecord
340
0
  0
XRECORD
  5
2D3
102
{ACAD_REACTORS
330
2BC
102
}
330
2BC
100
AcDbXrecord
 70
     0
  0
XRECORD
  5
2C7
102
{ACAD_REACTORS
330
2BC
102
}
330
2BC
100
AcDbXrecord
  1
{FAEB1C32-E019-11D5-929B-00C0DF256EC4}
  0
DICTIONARYVAR
  5
98
102
{ACAD_REACTORS
330
59
102
}
330
59
100
DictionaryVariables
280
     0
  1
STANDARD
  0
DICTIONARYVAR
  5
2A7
102
{ACAD_REACTORS
330
59
102
}
330
59
100
DictionaryVariables
280
     0
  1
1
  0
ENDSEC
  0
EOF
