  0
SECTION
  2
HEADER
  9
$ACADVER
  1
AC1009
  9
$INSBASE
 10
0.0
 20
0.0
 30
0.0
  9
$EXTMIN
 10
-367.0
 20
-54.849905
 30
0.0
  9
$EXTMAX
 10
436.004755
 20
340.849905
 30
0.0
  9
$LIMMIN
 10
0.0
 20
0.0
  9
$LIMMAX
 10
420.0
 20
297.0
  9
$ORTHOMODE
 70
     0
  9
$REGENMODE
 70
     1
  9
$FILLMODE
 70
     1
  9
$QTEXTMODE
 70
     0
  9
$MIRRTEXT
 70
     1
  9
$DRAGMODE
 70
     2
  9
$LTSCALE
 40
7.0
  9
$OSMODE
 70
     0
  9
$ATTMODE
 70
     1
  9
$TEXTSIZE
 40
3.5
  9
$TRACEWID
 40
0.05
  9
$TEXTSTYLE
  7
STANDARD
  9
$CLAYER
  8
L1
  9
$CELTYPE
  6
BYLAYER
  9
$CECOLOR
 62
   256
  9
$DIMSCALE
 40
1.0
  9
$DIMASZ
 40
3.5
  9
$DIMEXO
 40
0.0
  9
$DIMDLI
 40
10.0
  9
$DIMRND
 40
0.0
  9
$DIMDLE
 40
0.0
  9
$DIMEXE
 40
2.0
  9
$DIMTP
 40
0.0
  9
$DIMTM
 40
0.0
  9
$DIMTXT
 40
3.5
  9
$DIMCEN
 40
2.5
  9
$DIMTSZ
 40
0.0
  9
$DIMTOL
 70
     0
  9
$DIMLIM
 70
     0
  9
$DIMTIH
 70
     0
  9
$DIMTOH
 70
     0
  9
$DIMSE1
 70
     0
  9
$DIMSE2
 70
     0
  9
$DIMTAD
 70
     1
  9
$DIMZIN
 70
     8
  9
$DIMBLK
  1

  9
$DIMASO
 70
     1
  9
$DIMSHO
 70
     1
  9
$DIMPOST
  1

  9
$DIMAPOST
  1

  9
$DIMALT
 70
     0
  9
$DIMALTD
 70
     2
  9
$DIMALTF
 40
25.4
  9
$DIMLFAC
 40
1.0
  9
$DIMTOFL
 70
     1
  9
$DIMTVP
 40
0.0
  9
$DIMTIX
 70
     0
  9
$DIMSOXD
 70
     0
  9
$DIMSAH
 70
     0
  9
$DIMBLK1
  1

  9
$DIMBLK2
  1

  9
$DIMSTYLE
  2
*UNNAMED
  9
$DIMCLRD
 70
   256
  9
$DIMCLRE
 70
   256
  9
$DIMCLRT
 70
     3
  9
$DIMTFAC
 40
1.0
  9
$DIMGAP
 40
2.0
  9
$LUNITS
 70
     2
  9
$LUPREC
 70
     2
  9
$SKETCHINC
 40
1.0
  9
$FILLETRAD
 40
0.0
  9
$AUNITS
 70
     0
  9
$AUPREC
 70
     2
  9
$MENU
  1
CAESAR
  9
$ELEVATION
 40
0.0
  9
$PELEVATION
 40
0.0
  9
$THICKNESS
 40
0.0
  9
$LIMCHECK
 70
     0
  9
$BLIPMODE
 70
     1
  9
$CHAMFERA
 40
5.0
  9
$CHAMFERB
 40
5.0
  9
$SKPOLY
 70
     0
  9
$TDCREATE
 40
2449682.499224999
  9
$TDUPDATE
 40
2449682.499224999
  9
$TDINDWG
 40
0.0000000000
  9
$TDUSRTIMER
 40
0.0000000000
  9
$USRTIMER
 70
     1
  9
$ANGBASE
 50
0.0
  9
$ANGDIR
 70
     0
  9
$PDMODE
 70
     0
  9
$PDSIZE
 40
0.0
  9
$PLINEWID
 40
0.0
  9
$COORDS
 70
     2
  9
$SPLFRAME
 70
     0
  9
$SPLINETYPE
 70
     6
  9
$SPLINESEGS
 70
     8
  9
$ATTDIA
 70
     0
  9
$ATTREQ
 70
     1
  9
$HANDLING
 70
     1
  9
$HANDSEED
  5
2C2D4
  9
$SURFTAB1
 70
     6
  9
$SURFTAB2
 70
     6
  9
$SURFTYPE
 70
     6
  9
$SURFU
 70
     6
  9
$SURFV
 70
     6
  9
$UCSNAME
  2

  9
$UCSORG
 10
0.0
 20
0.0
 30
0.0
  9
$UCSXDIR
 10
1.0
 20
0.0
 30
0.0
  9
$UCSYDIR
 10
0.0
 20
1.0
 30
0.0
  9
$PUCSNAME
  2

  9
$PUCSORG
 10
0.0
 20
0.0
 30
0.0
  9
$PUCSXDIR
 10
1.0
 20
0.0
 30
0.0
  9
$PUCSYDIR
 10
0.0
 20
1.0
 30
0.0
  9
$USERI1
 70
     0
  9
$USERI2
 70
     0
  9
$USERI3
 70
     0
  9
$USERI4
 70
     0
  9
$USERI5
 70
     0
  9
$USERR1
 40
1.0
  9
$USERR2
 40
0.0
  9
$USERR3
 40
3.5
  9
$USERR4
 40
0.0
  9
$USERR5
 40
0.0
  9
$WORLDVIEW
 70
     1
  9
$SHADEDGE
 70
     3
  9
$SHADEDIF
 70
    70
  9
$TILEMODE
 70
     1
  9
$MAXACTVP
 70
    16
  9
$PINSBASE
 10
0.0
 20
0.0
 30
0.0
  9
$PLIMCHECK
 70
     0
  9
$PEXTMIN
 10
1.000000E+20
 20
1.000000E+20
 30
1.000000E+20
  9
$PEXTMAX
 10
-1.000000E+20
 20
-1.000000E+20
 30
-1.000000E+20
  9
$PLIMMIN
 10
0.0
 20
0.0
  9
$PLIMMAX
 10
420.0
 20
297.0
  9
$UNITMODE
 70
     0
  9
$VISRETAIN
 70
     0
  9
$PLINEGEN
 70
     0
  9
$PSLTSCALE
 70
     0
  9
$TREEDEPTH
 70
  3020
  9
$DWGCODEPAGE
  3
dos850
  0
ENDSEC
  0
SECTION
  2
TABLES
  0
TABLE
  2
VPORT
 70
     2
  0
VPORT
  2
*ACTIVE
 70
     0
 10
0.0
 20
0.0
 11
1.0
 21
1.0
 12
287.564723
 22
225.231556
 13
0.0
 23
0.0
 14
1.0
 24
1.0
 15
10.0
 25
10.0
 16
0.0
 26
0.0
 36
1.0
 17
0.0
 27
0.0
 37
0.0
 40
456.463112
 41
1.273114
 42
50.0
 43
0.0
 44
0.0
 50
0.0
 51
0.0
 71
     0
 72
  1000
 73
     1
 74
     1
 75
     1
 76
     0
 77
     0
 78
     0
  0
ENDTAB
  0
TABLE
  2
LTYPE
 70
    10
  0
LTYPE
  2
CONTINUOUS
 70
    64
  3
Solid line
 72
    65
 73
     0
 40
0.0
  0
LTYPE
  2
BORDER
 70
     0
  3
__ __ . __ __ . __ __ . __ __ . __ __ . __ __ .
 72
    65
 73
     6
 40
1.75
 49
0.5
 49
-0.25
 49
0.5
 49
-0.25
 49
0.0
 49
-0.25
  0
LTYPE
  2
CENTER
 70
    64
  3
____ _ ____ _ ____ _ ____ _ ____ _ ____ _ ____ 
 72
    65
 73
     4
 40
2.0
 49
1.25
 49
-0.25
 49
0.25
 49
-0.25
  0
LTYPE
  2
DASHDOT
 70
     0
  3
__ . __ . __ . __ . __ . __ . __ . __ . __ . __
 72
    65
 73
     4
 40
1.0
 49
0.5
 49
-0.25
 49
0.0
 49
-0.25
  0
LTYPE
  2
DASHED
 70
    64
  3
__ __ __ __ __ __ __ __ __ __ __ __ __ __ __ __
 72
    65
 73
     2
 40
0.75
 49
0.5
 49
-0.25
  0
LTYPE
  2
DIVIDE
 70
     0
  3
____ . . ____ . . ____ . . ____ . . ____ . . __
 72
    65
 73
     6
 40
1.25
 49
0.5
 49
-0.25
 49
0.0
 49
-0.25
 49
0.0
 49
-0.25
  0
LTYPE
  2
DOT
 70
     0
  3
. . . . . . . . . . . . . . . . . . . . . . . .
 72
    65
 73
     2
 40
0.25
 49
0.0
 49
-0.25
  0
LTYPE
  2
HIDDEN
 70
    64
  3
__ __ __ __ __ __ __ __ __ __ __ __ __ __ __ __
 72
    65
 73
     2
 40
0.375
 49
0.25
 49
-0.125
  0
LTYPE
  2
PHANTOM
 70
    64
  3
______  __  __  ______  __  __  ______  __  __ 
 72
    65
 73
     6
 40
2.5
 49
1.25
 49
-0.25
 49
0.25
 49
-0.25
 49
0.25
 49
-0.25
  0
LTYPE
  2
DOTX2
 70
    64
  3
.  .  .  .  .  .  .  .  .  .  .  .  .  .  .  . 
 72
    65
 73
     2
 40
0.5
 49
0.0
 49
-0.5
  0
ENDTAB
  0
TABLE
  2
LAYER
 70
    74
  0
LAYER
  2
0
 70
    64
 62
     7
  6
CONTINUOUS
  0
LAYER
  2
L1
 70
     0
 62
     3
  6
CONTINUOUS
  0
LAYER
  2
L2
 70
     0
 62
     1
  6
CONTINUOUS
  0
LAYER
  2
L3
 70
     0
 62
     7
  6
DASHED
  0
LAYER
  2
L4
 70
     0
 62
     1
  6
DASHED
  0
LAYER
  2
L5
 70
     0
 62
     6
  6
CENTER
  0
LAYER
  2
L6
 70
     0
 62
     1
  6
CENTER
  0
LAYER
  2
L7
 70
     0
 62
     1
  6
PHANTOM
  0
LAYER
  2
VPORT
 70
     0
 62
     7
  6
CONTINUOUS
  0
LAYER
  2
L8
 70
     0
 62
     1
  6
CONTINUOUS
  0
LAYER
  2
L20
 70
     0
 62
     3
  6
CONTINUOUS
  0
LAYER
  2
L21
 70
     0
 62
     1
  6
CONTINUOUS
  0
LAYER
  2
L22
 70
     0
 62
     1
  6
CONTINUOUS
  0
LAYER
  2
L23
 70
     0
 62
     1
  6
CONTINUOUS
  0
LAYER
  2
L30
 70
     0
 62
     3
  6
CONTINUOUS
  0
LAYER
  2
L31
 70
     0
 62
     1
  6
CONTINUOUS
  0
LAYER
  2
L32
 70
     0
 62
     3
  6
CONTINUOUS
  0
LAYER
  2
L33
 70
     0
 62
     1
  6
CONTINUOUS
  0
LAYER
  2
L34
 70
     0
 62
     3
  6
CONTINUOUS
  0
LAYER
  2
L35
 70
     0
 62
     1
  6
CONTINUOUS
  0
LAYER
  2
L40
 70
     0
 62
     7
  6
CONTINUOUS
  0
LAYER
  2
L41
 70
     0
 62
     1
  6
CONTINUOUS
  0
LAYER
  2
L42
 70
     0
 62
     1
  6
CONTINUOUS
  0
LAYER
  2
L43
 70
     0
 62
     7
  6
CONTINUOUS
  0
LAYER
  2
L44
 70
     0
 62
     1
  6
CONTINUOUS
  0
LAYER
  2
L45
 70
     0
 62
     1
  6
CONTINUOUS
  0
LAYER
  2
L46
 70
     0
 62
     3
  6
CONTINUOUS
  0
LAYER
  2
L50
 70
     0
 62
     7
  6
CONTINUOUS
  0
LAYER
  2
L51
 70
     0
 62
     1
  6
CONTINUOUS
  0
LAYER
  2
L52
 70
     0
 62
     7
  6
CONTINUOUS
  0
LAYER
  2
L53
 70
     0
 62
     1
  6
CONTINUOUS
  0
LAYER
  2
L54
 70
     0
 62
     3
  6
CONTINUOUS
  0
LAYER
  2
L55
 70
     0
 62
     3
  6
CONTINUOUS
  0
LAYER
  2
L56
 70
     0
 62
     3
  6
CONTINUOUS
  0
LAYER
  2
L57
 70
     0
 62
     1
  6
CONTINUOUS
  0
LAYER
  2
L9
 70
     0
 62
     7
  6
HIDDEN
  0
LAYER
  2
L15
 70
     0
 62
     2
  6
CONTINUOUS
  0
LAYER
  2
L16
 70
     0
 62
     5
  6
DOTX2
  0
LAYER
  2
L24
 70
     0
 62
     1
  6
CONTINUOUS
  0
LAYER
  2
A1
 70
     0
 62
     7
  6
CONTINUOUS
  0
LAYER
  2
RA1
 70
     0
 62
     1
  6
CONTINUOUS
  0
LAYER
  2
TITEL
 70
     0
 62
     7
  6
CONTINUOUS
  0
LAYER
  2
DEFPOINTS
 70
     0
 62
     7
  6
CONTINUOUS
  0
LAYER
  2
1
 70
     0
 62
     7
  6
CONTINUOUS
  0
LAYER
  2
11
 70
    64
 62
     7
  6
CONTINUOUS
  0
LAYER
  2
12
 70
     0
 62
     1
  6
CONTINUOUS
  0
LAYER
  2
13
 70
    64
 62
     1
  6
CENTER
  0
LAYER
  2
14
 70
    64
 62
     1
  6
DASHED
  0
LAYER
  2
15
 70
     0
 62
     2
  6
DASHED
  0
LAYER
  2
21
 70
    64
 62
     7
  6
CONTINUOUS
  0
LAYER
  2
22
 70
     0
 62
     1
  6
CONTINUOUS
  0
LAYER
  2
23
 70
    64
 62
     1
  6
CENTER
  0
LAYER
  2
24
 70
    64
 62
     1
  6
DASHED
  0
LAYER
  2
25
 70
     0
 62
     2
  6
DASHED
  0
LAYER
  2
31
 70
    64
 62
     7
  6
CONTINUOUS
  0
LAYER
  2
32
 70
     0
 62
     1
  6
CONTINUOUS
  0
LAYER
  2
33
 70
    64
 62
     1
  6
CENTER
  0
LAYER
  2
34
 70
    64
 62
     1
  6
DASHED
  0
LAYER
  2
35
 70
     0
 62
     2
  6
DASHED
  0
LAYER
  2
41
 70
    64
 62
     7
  6
CONTINUOUS
  0
LAYER
  2
42
 70
     0
 62
     1
  6
CONTINUOUS
  0
LAYER
  2
43
 70
    64
 62
     1
  6
CENTER
  0
LAYER
  2
44
 70
    64
 62
     1
  6
DASHED
  0
LAYER
  2
45
 70
     0
 62
     2
  6
DASHED
  0
LAYER
  2
51
 70
    64
 62
     7
  6
CONTINUOUS
  0
LAYER
  2
52
 70
     0
 62
     1
  6
CONTINUOUS
  0
LAYER
  2
53
 70
    64
 62
     1
  6
CENTER
  0
LAYER
  2
54
 70
     0
 62
     1
  6
DASHED
  0
LAYER
  2
55
 70
     0
 62
     2
  6
DASHED
  0
LAYER
  2
61
 70
    64
 62
     7
  6
CONTINUOUS
  0
LAYER
  2
62
 70
    64
 62
     1
  6
CONTINUOUS
  0
LAYER
  2
63
 70
    64
 62
     1
  6
CENTER
  0
LAYER
  2
64
 70
     0
 62
     1
  6
DASHED
  0
LAYER
  2
65
 70
     0
 62
     2
  6
DASHED
  0
ENDTAB
  0
TABLE
  2
STYLE
 70
     4
  0
STYLE
  2
STANDARD
 70
     0
 40
0.0
 41
1.0
 50
0.0
 71
     0
 42
3.5
  3
CAEISO
  4

  0
STYLE
  2
SIMPLEX
 70
     0
 40
0.0
 41
1.0
 50
0.0
 71
     0
 42
20.0
  3
SIMPLEX.SHX
  4

  0
STYLE
  2
COMPLEX
 70
     0
 40
5.0
 41
1.0
 50
0.0
 71
     0
 42
5.0
  3
COMPLEX
  4

  0
STYLE
  2
CAEISO
 70
     0
 40
0.0
 41
1.0
 50
0.0
 71
     0
 42
1.0
  3
CAEISO
  4

  0
ENDTAB
  0
TABLE
  2
VIEW
 70
     0
  0
ENDTAB
  0
TABLE
  2
UCS
 70
     0
  0
ENDTAB
  0
TABLE
  2
APPID
 70
     1
  0
APPID
  2
ACAD
 70
    64
  0
ENDTAB
  0
TABLE
  2
DIMSTYLE
 70
     6
  0
DIMSTYLE
  2
ACADUS
 70
     0
  3

  4

  5

  6

  7

 40
1.0
 41
0.18
 42
0.0625
 43
0.38
 44
0.18
 45
0.0
 46
0.0
 47
0.0
 48
0.0
140
0.18
141
0.09
142
0.0
143
25.4
144
1.0
145
0.0
146
1.0
147
0.09
 71
     0
 72
     0
 73
     1
 74
     1
 75
     0
 76
     0
 77
     0
 78
     0
170
     0
171
     2
172
     0
173
     0
174
     0
175
     0
176
     0
177
     0
178
     0
  0
DIMSTYLE
  2
NORDIC
 70
     0
  3

  4

  5

  6

  7

 40
1.0
 41
3.5
 42
1.0
 43
10.0
 44
2.0
 45
0.0
 46
0.0
 47
0.0
 48
0.0
140
3.5
141
2.5
142
0.0
143
25.4
144
1.0
145
0.0
146
1.0
147
2.0
 71
     0
 72
     0
 73
     0
 74
     0
 75
     0
 76
     0
 77
     1
 78
     8
170
     0
171
     2
172
     1
173
     0
174
     0
175
     0
176
     0
177
     0
178
     0
  0
DIMSTYLE
  2
RADIAL
 70
     0
  3

  4

  5

  6

  7

 40
1.0
 41
3.5
 42
1.0
 43
10.0
 44
2.0
 45
0.0
 46
0.0
 47
0.0
 48
0.0
140
3.5
141
2.5
142
0.0
143
25.4
144
1.0
145
0.0
146
1.0
147
2.0
 71
     0
 72
     0
 73
     0
 74
     1
 75
     0
 76
     0
 77
     1
 78
     8
170
     0
171
     2
172
     0
173
     0
174
     0
175
     0
176
     0
177
     0
178
     0
  0
DIMSTYLE
  2
NORTOL
 70
     0
  3

  4

  5

  6

  7

 40
1.0
 41
3.5
 42
1.0
 43
10.0
 44
2.0
 45
0.0
 46
0.0
 47
0.2
 48
0.1
140
3.5
141
2.5
142
0.0
143
25.4
144
1.0
145
0.7
146
0.71
147
2.0
 71
     1
 72
     0
 73
     0
 74
     0
 75
     0
 76
     0
 77
     0
 78
     8
170
     0
171
     2
172
     1
173
     0
174
     0
175
     0
176
     0
177
     0
178
     0
  0
DIMSTYLE
  2
RADTOL
 70
     0
  3

  4

  5

  6

  7

 40
1.0
 41
3.5
 42
1.0
 43
10.0
 44
2.0
 45
0.0
 46
0.0
 47
0.2
 48
0.1
140
3.5
141
2.5
142
0.0
143
25.4
144
1.0
145
0.7
146
0.7
147
2.0
 71
     1
 72
     0
 73
     0
 74
     1
 75
     0
 76
     0
 77
     0
 78
     8
170
     0
171
     2
172
     0
173
     0
174
     0
175
     0
176
     0
177
     0
178
     0
  0
DIMSTYLE
  2
HANSU
 70
     0
  3

  4

  5

  6

  7

 40
1.0
 41
3.5
 42
0.0
 43
10.0
 44
2.0
 45
0.0
 46
0.0
 47
0.0
 48
0.0
140
3.5
141
2.5
142
0.0
143
25.4
144
0.8
145
0.0
146
1.0
147
2.0
 71
     0
 72
     0
 73
     0
 74
     0
 75
     0
 76
     0
 77
     1
 78
     8
170
     0
171
     2
172
     1
173
     0
174
     0
175
     0
176
   256
177
   256
178
     3
  0
ENDTAB
  0
ENDSEC
  0
SECTION
  2
BLOCKS
  0
BLOCK
  8
0
  5
2329
  2
AME_NIL
 70
     0
 10
0.0
 20
0.0
 30
0.0
  1
AME_NIL
  3
AME_NIL
  0
ENDBLK
  8
0
  5
232A
  0
BLOCK
  8
0
  5
232C
  2
AME_SOL
 70
     0
 10
0.0
 20
0.0
 30
0.0
  1
AME_SOL
  3
AME_SOL
  0
ENDBLK
  8
0
  5
232D
  0
BLOCK
  8
0
  5
233F
  2
SOLAXES
 70
     0
 10
0.0
 20
0.0
 30
0.0
  1
SOLAXES
  3
SOLAXES
  0
LINE
  8
0
 62
     0
  5
2340
 10
0.0
 20
0.0
 30
0.0
 11
63.851158
 21
0.0
 31
0.0
  0
LINE
  8
0
 62
     0
  5
2341
 10
0.0
 20
0.0
 30
0.0
 11
0.0
 21
63.851158
 31
0.0
  0
LINE
  8
0
 62
     0
  5
2342
 10
0.0
 20
0.0
 30
0.0
 11
0.0
 21
0.0
 31
63.851158
  0
CIRCLE
  8
0
 62
     0
  5
2343
 10
0.0
 20
0.0
 30
57.466042
 40
3.192558
210
1.0
220
0.0
230
0.0
  0
LINE
  8
0
 62
     0
  5
2344
 10
57.466042
 20
3.192558
 30
0.0
 11
63.851158
 21
0.0
 31
0.0
  0
LINE
  8
0
 62
     0
  5
2345
 10
57.466042
 20
0.0
 30
3.192558
 11
63.851158
 21
0.0
 31
0.0
  0
LINE
  8
0
 62
     0
  5
2346
 10
57.466042
 20
-3.192558
 30
0.0
 11
63.851158
 21
0.0
 31
0.0
  0
LINE
  8
0
 62
     0
  5
2347
 10
57.466042
 20
0.0
 30
-3.192558
 11
63.851158
 21
0.0
 31
0.0
  0
CIRCLE
  8
0
 62
     0
  5
2348
 10
0.0
 20
0.0
 30
57.466042
 40
3.192558
210
0.0
220
1.0
230
0.0
  0
LINE
  8
0
 62
     0
  5
2349
 10
3.192558
 20
57.466042
 30
0.0
 11
0.0
 21
63.851158
 31
0.0
  0
LINE
  8
0
 62
     0
  5
234A
 10
0.0
 20
57.466042
 30
3.192558
 11
0.0
 21
63.851158
 31
0.0
  0
LINE
  8
0
 62
     0
  5
234B
 10
-3.192558
 20
57.466042
 30
0.0
 11
0.0
 21
63.851158
 31
0.0
  0
LINE
  8
0
 62
     0
  5
234C
 10
0.0
 20
57.466042
 30
-3.192558
 11
0.0
 21
63.851158
 31
0.0
  0
CIRCLE
  8
0
 62
     0
  5
234D
 10
0.0
 20
0.0
 30
51.080927
 40
3.192558
210
0.0
220
1.0
230
0.0
  0
LINE
  8
0
 62
     0
  5
234E
 10
3.192558
 20
51.080927
 30
0.0
 11
0.0
 21
57.466042
 31
0.0
  0
LINE
  8
0
 62
     0
  5
234F
 10
0.0
 20
51.080927
 30
3.192558
 11
0.0
 21
57.466042
 31
0.0
  0
LINE
  8
0
 62
     0
  5
2350
 10
-3.192558
 20
51.080927
 30
0.0
 11
0.0
 21
57.466042
 31
0.0
  0
LINE
  8
0
 62
     0
  5
2351
 10
0.0
 20
51.080927
 30
-3.192558
 11
0.0
 21
57.466042
 31
0.0
  0
CIRCLE
  8
0
 62
     0
  5
2352
 10
0.0
 20
0.0
 30
57.466042
 40
3.192558
  0
LINE
  8
0
 62
     0
  5
2353
 10
3.192558
 20
0.0
 30
57.466042
 11
0.0
 21
0.0
 31
63.851158
  0
LINE
  8
0
 62
     0
  5
2354
 10
0.0
 20
3.192558
 30
57.466042
 11
0.0
 21
0.0
 31
63.851158
  0
LINE
  8
0
 62
     0
  5
2355
 10
-3.192558
 20
0.0
 30
57.466042
 11
0.0
 21
0.0
 31
63.851158
  0
LINE
  8
0
 62
     0
  5
2356
 10
0.0
 20
-3.192558
 30
57.466042
 11
0.0
 21
0.0
 31
63.851158
  0
CIRCLE
  8
0
 62
     0
  5
2357
 10
0.0
 20
0.0
 30
51.080927
 40
3.192558
  0
LINE
  8
0
 62
     0
  5
2358
 10
3.192558
 20
0.0
 30
51.080927
 11
0.0
 21
0.0
 31
57.466042
  0
LINE
  8
0
 62
     0
  5
2359
 10
0.0
 20
3.192558
 30
51.080927
 11
0.0
 21
0.0
 31
57.466042
  0
LINE
  8
0
 62
     0
  5
235A
 10
-3.192558
 20
0.0
 30
51.080927
 11
0.0
 21
0.0
 31
57.466042
  0
LINE
  8
0
 62
     0
  5
235B
 10
0.0
 20
-3.192558
 30
51.080927
 11
0.0
 21
0.0
 31
57.466042
  0
CIRCLE
  8
0
 62
     0
  5
235C
 10
0.0
 20
0.0
 30
44.695811
 40
3.192558
  0
LINE
  8
0
 62
     0
  5
235D
 10
3.192558
 20
0.0
 30
44.695811
 11
0.0
 21
0.0
 31
51.080927
  0
LINE
  8
0
 62
     0
  5
235E
 10
0.0
 20
3.192558
 30
44.695811
 11
0.0
 21
0.0
 31
51.080927
  0
LINE
  8
0
 62
     0
  5
235F
 10
-3.192558
 20
0.0
 30
44.695811
 11
0.0
 21
0.0
 31
51.080927
  0
LINE
  8
0
 62
     0
  5
2360
 10
0.0
 20
-3.192558
 30
44.695811
 11
0.0
 21
0.0
 31
51.080927
  0
ENDBLK
  8
0
  5
2361
  0
BLOCK
  8
0
  5
2460
  2
AME_MAT
 70
     0
 10
0.0
 20
0.0
 30
0.0
  1
AME_MAT
  3
AME_MAT
  0
ENDBLK
  8
0
  5
2461
  0
BLOCK
  8
0
  5
2465
  2
PICM75B
 70
    64
 10
0.0
 20
0.0
 30
0.0
  3
PICM75B
  0
LINE
  8
21
  5
4BB4
 10
63.0
 20
260.449905
 30
0.0
 11
75.0
 21
260.449905
 31
0.0
  0
LINE
  8
21
  5
4BB5
 10
75.0
 20
260.449905
 30
0.0
 11
75.340192
 21
261.81952
 31
0.0
  0
LINE
  8
21
  5
4BB6
 10
63.0
 20
260.449905
 30
0.0
 11
62.372156
 21
262.893051
 31
0.0
  0
LINE
  8
63
  6
DASHDOT
  5
4C01
 10
175.0
 20
72.0
 30
0.0
 11
175.0
 21
143.0
 31
0.0
  0
LINE
  8
63
  6
DASHDOT
  5
4C02
 10
175.0
 20
143.0
 30
0.0
 11
58.0
 21
143.0
 31
0.0
  0
LINE
  8
63
  6
DASHDOT
  5
4C4E
 10
175.0
 20
214.0
 30
0.0
 11
175.0
 21
143.0
 31
0.0
  0
LINE
  8
63
  6
DASHDOT
  5
4C4F
 10
175.0
 20
143.0
 30
0.0
 11
292.0
 21
143.0
 31
0.0
  0
LINE
  8
53
  6
DASHDOT
  5
4C5F
 10
-250.0
 20
143.0
 30
0.0
 11
-130.0
 21
143.0
 31
0.0
  0
LINE
  8
53
  6
DASHDOT
  5
4C68
 10
-250.0
 20
214.0
 30
0.0
 11
-250.0
 21
143.0
 31
0.0
  0
LINE
  8
53
  6
DASHDOT
  5
4C7E
 10
-250.0
 20
143.0
 30
0.0
 11
-367.0
 21
143.0
 31
0.0
  0
LINE
  8
51
  5
4C82
 10
-365.0
 20
143.0
 30
0.0
 11
-365.0
 21
82.0
 31
0.0
  0
LINE
  8
51
  5
4CAF
 10
-356.0
 20
73.0
 30
0.0
 11
-250.0
 21
73.0
 31
0.0
  0
LINE
  8
51
  5
4CB4
 10
-347.0
 20
73.0
 30
0.0
 11
-347.0
 21
73.0
 31
0.0
  0
LINE
  8
51
  5
4CB7
 10
-153.0
 20
73.0
 30
0.0
 11
-153.0
 21
73.0
 31
0.0
  0
CIRCLE
  8
51
  5
4CB8
 10
-356.0
 20
82.0
 30
0.0
 40
2.2
  0
CIRCLE
  8
51
  5
4CB9
 10
-356.0
 20
82.0
 30
0.0
 40
4.0
  0
CIRCLE
  8
51
  5
4CBA
 10
-356.0
 20
82.0
 30
0.0
 40
6.0
  0
LINE
  8
21
  5
4D26
 10
84.6
 20
260.849905
 30
0.0
 11
80.1
 21
260.849905
 31
0.0
  0
LINE
  8
21
  5
4D2D
 10
75.6
 20
260.849905
 30
0.0
 11
80.1
 21
260.849905
 31
0.0
  0
LINE
  8
21
  5
4D2E
 10
75.6
 20
260.849905
 30
0.0
 11
75.332051
 21
261.849905
 31
0.0
  0
LINE
  8
21
  5
4D3A
 10
84.6
 20
260.849905
 30
0.0
 11
84.867949
 21
261.849905
 31
0.0
  0
LINE
  8
23
  6
DASHDOT
  5
4D49
 10
175.0
 20
340.849905
 30
0.0
 11
175.0
 21
258.849905
 31
0.0
  0
LINE
  8
21
  5
4D4A
 10
64.128411
 20
261.849905
 30
0.0
 11
167.479867
 21
261.849905
 31
0.0
  0
LINE
  8
24
  5
4D4E
 10
78.241444
 20
264.849905
 30
0.0
 11
167.0
 21
264.849905
 31
0.0
  0
ARC
  8
24
  5
4D4F
 10
175.0
 20
239.690413
 30
0.0
 40
26.400758
 50
90.0
 51
107.639179
  0
ARC
  8
24
  5
4D50
 10
175.0
 20
239.690413
 30
0.0
 40
23.400758
 50
90.0
 51
108.745362
  0
LINE
  8
21
  5
4DF7
 10
63.002607
 20
338.849905
 30
0.0
 11
77.1
 21
338.849905
 31
0.0
  0
LINE
  8
21
  5
4E1E
 10
170.5
 20
260.849905
 30
0.0
 11
175.0
 21
260.849905
 31
0.0
  0
LINE
  8
21
  5
4E20
 10
170.5
 20
260.849905
 30
0.0
 11
170.232051
 21
261.849905
 31
0.0
  0
LINE
  8
21
  5
4E27
 10
179.5
 20
260.849905
 30
0.0
 11
175.0
 21
260.849905
 31
0.0
  0
LINE
  8
21
  5
4E2A
 10
179.5
 20
260.849905
 30
0.0
 11
179.767949
 21
261.849905
 31
0.0
  0
ARC
  8
61
  5
4E74
 10
80.0
 20
143.0
 30
0.0
 40
4.0
 50
284.477512
 51
75.522488
  0
CIRCLE
  8
61
  5
4E75
 10
80.0
 20
143.0
 30
0.0
 40
2.0
  0
CIRCLE
  8
61
  5
4E76
 10
80.0
 20
143.0
 30
0.0
 40
1.5
  0
LINE
  8
61
  5
4E78
 10
81.0
 20
153.0
 30
0.0
 11
79.0
 21
153.0
 31
0.0
  0
LINE
  8
61
  5
4E79
 10
79.0
 20
153.0
 30
0.0
 11
79.0
 21
146.872983
 31
0.0
  0
LINE
  8
61
  5
4E7B
 10
79.0
 20
133.0
 30
0.0
 11
81.0
 21
133.0
 31
0.0
  0
LINE
  8
61
  5
4E7C
 10
81.0
 20
133.0
 30
0.0
 11
81.0
 21
139.127017
 31
0.0
  0
ARC
  8
61
  5
4E7D
 10
80.0
 20
143.0
 30
0.0
 40
4.0
 50
104.477512
 51
255.522488
  0
LINE
  8
61
  5
4E7F
 10
81.0
 20
146.872983
 30
0.0
 11
81.0
 21
153.0
 31
0.0
  0
LINE
  8
61
  5
4E81
 10
79.0
 20
139.127017
 30
0.0
 11
79.0
 21
133.0
 31
0.0
  0
LINE
  8
61
  5
4EFF
 10
271.0
 20
153.0
 30
0.0
 11
271.0
 21
146.872983
 31
0.0
  0
LINE
  8
61
  5
4F00
 10
269.0
 20
146.872983
 30
0.0
 11
269.0
 21
153.0
 31
0.0
  0
LINE
  8
61
  5
4F01
 10
271.0
 20
139.127017
 30
0.0
 11
271.0
 21
133.0
 31
0.0
  0
LINE
  8
61
  5
4F02
 10
269.0
 20
133.0
 30
0.0
 11
269.0
 21
139.127017
 31
0.0
  0
LINE
  8
61
  5
4F03
 10
271.0
 20
133.0
 30
0.0
 11
269.0
 21
133.0
 31
0.0
  0
CIRCLE
  8
61
  5
4F04
 10
270.0
 20
143.0
 30
0.0
 40
1.5
  0
CIRCLE
  8
61
  5
4F05
 10
270.0
 20
143.0
 30
0.0
 40
2.0
  0
ARC
  8
61
  5
4F06
 10
270.0
 20
143.0
 30
0.0
 40
4.0
 50
284.477512
 51
75.522488
  0
ARC
  8
61
  5
4F07
 10
270.0
 20
143.0
 30
0.0
 40
4.0
 50
104.477512
 51
255.522488
  0
LINE
  8
61
  5
4F08
 10
269.0
 20
153.0
 30
0.0
 11
271.0
 21
153.0
 31
0.0
  0
LINE
  8
21
  5
5065
 10
167.479867
 20
261.849905
 30
0.0
 11
175.0
 21
261.849905
 31
0.0
  0
LINE
  8
53
  6
DASHDOT
  5
1343B
 10
-250.0
 20
70.0
 30
0.0
 11
-250.0
 21
143.0
 31
0.0
  0
ARC
  8
51
  5
27415
 10
-356.0
 20
82.0
 30
0.0
 40
9.0
 50
180.0
 51
270.0
  0
LINE
  8
51
  5
27416
 10
-356.0
 20
74.4
 30
0.0
 11
-250.0
 21
74.4
 31
0.0
  0
ARC
  8
51
  5
27417
 10
-356.0
 20
82.0
 30
0.0
 40
7.6
 50
180.0
 51
270.0
  0
LINE
  8
51
  5
27418
 10
-363.6
 20
143.0
 30
0.0
 11
-363.6
 21
82.0
 31
0.0
  0
LINE
  8
51
  5
27419
 10
-144.0
 20
74.4
 30
0.0
 11
-250.0
 21
74.4
 31
0.0
  0
LINE
  8
51
  5
2741A
 10
-144.0
 20
73.0
 30
0.0
 11
-250.0
 21
73.0
 31
0.0
  0
LINE
  8
51
  5
2741B
 10
-136.4
 20
143.0
 30
0.0
 11
-136.4
 21
82.0
 31
0.0
  0
LINE
  8
51
  5
2741C
 10
-135.0
 20
143.0
 30
0.0
 11
-135.0
 21
82.0
 31
0.0
  0
ARC
  8
51
  5
2741D
 10
-144.0
 20
82.0
 30
0.0
 40
9.0
 50
270.0
 51
0.0
  0
ARC
  8
51
  5
2741E
 10
-144.0
 20
82.0
 30
0.0
 40
7.6
 50
270.0
 51
0.0
  0
CIRCLE
  8
51
  5
2741F
 10
-144.0
 20
82.0
 30
0.0
 40
6.0
  0
CIRCLE
  8
51
  5
27422
 10
-144.0
 20
82.0
 30
0.0
 40
2.2
  0
CIRCLE
  8
51
  5
27423
 10
-144.0
 20
82.0
 30
0.0
 40
4.0
  0
LINE
  8
51
  5
27424
 10
-153.0
 20
73.0
 30
0.0
 11
-153.0
 21
73.0
 31
0.0
  0
LINE
  8
51
  5
27425
 10
-356.0
 20
211.6
 30
0.0
 11
-250.0
 21
211.6
 31
0.0
  0
LINE
  8
51
  5
27426
 10
-356.0
 20
213.0
 30
0.0
 11
-250.0
 21
213.0
 31
0.0
  0
LINE
  8
51
  5
27427
 10
-363.6
 20
143.0
 30
0.0
 11
-363.6
 21
204.0
 31
0.0
  0
LINE
  8
51
  5
27428
 10
-365.0
 20
143.0
 30
0.0
 11
-365.0
 21
204.0
 31
0.0
  0
ARC
  8
51
  5
27429
 10
-356.0
 20
204.0
 30
0.0
 40
9.0
 50
90.0
 51
180.0
  0
ARC
  8
51
  5
2742A
 10
-356.0
 20
204.0
 30
0.0
 40
7.6
 50
90.0
 51
180.0
  0
CIRCLE
  8
51
  5
2742B
 10
-356.0
 20
204.0
 30
0.0
 40
6.0
  0
CIRCLE
  8
51
  5
2742E
 10
-356.0
 20
204.0
 30
0.0
 40
2.2
  0
CIRCLE
  8
51
  5
2742F
 10
-356.0
 20
204.0
 30
0.0
 40
4.0
  0
LINE
  8
51
  5
27430
 10
-347.0
 20
213.0
 30
0.0
 11
-347.0
 21
213.0
 31
0.0
  0
LINE
  8
51
  5
27431
 10
-135.0
 20
143.0
 30
0.0
 11
-135.0
 21
204.0
 31
0.0
  0
LINE
  8
51
  5
27432
 10
-136.4
 20
143.0
 30
0.0
 11
-136.4
 21
204.0
 31
0.0
  0
LINE
  8
51
  5
27433
 10
-144.0
 20
213.0
 30
0.0
 11
-250.0
 21
213.0
 31
0.0
  0
LINE
  8
51
  5
27434
 10
-144.0
 20
211.6
 30
0.0
 11
-250.0
 21
211.6
 31
0.0
  0
ARC
  8
51
  5
27435
 10
-144.0
 20
204.0
 30
0.0
 40
9.0
 50
0.0
 51
90.0
  0
ARC
  8
51
  5
27437
 10
-144.0
 20
204.0
 30
0.0
 40
7.6
 50
0.0
 51
90.0
  0
CIRCLE
  8
51
  5
27438
 10
-144.0
 20
204.0
 30
0.0
 40
4.0
  0
CIRCLE
  8
51
  5
27439
 10
-144.0
 20
204.0
 30
0.0
 40
2.2
  0
CIRCLE
  8
51
  5
2743B
 10
-144.0
 20
204.0
 30
0.0
 40
6.0
  0
LINE
  8
51
  5
2743C
 10
-153.0
 20
213.0
 30
0.0
 11
-153.0
 21
213.0
 31
0.0
  0
LINE
  8
51
  5
2743D
 10
-153.0
 20
213.0
 30
0.0
 11
-153.0
 21
213.0
 31
0.0
  0
LINE
  8
61
  5
27F4F
 10
63.2
 20
143.0
 30
0.0
 11
63.2
 21
92.0
 31
0.0
  0
LINE
  8
62
  5
27F50
 10
62.1
 20
143.0
 30
0.0
 11
62.1
 21
92.0
 31
0.0
  0
LINE
  8
61
  5
27F51
 10
64.4
 20
143.0
 30
0.0
 11
64.4
 21
90.16697
 31
0.0
  0
LINE
  8
61
  5
27F52
 10
60.0
 20
143.0
 30
0.0
 11
60.0
 21
82.0
 31
0.0
  0
ARC
  8
61
  5
27F53
 10
69.0
 20
82.0
 30
0.0
 40
9.0
 50
180.0
 51
270.0
  0
ARC
  8
61
  5
27F54
 10
79.0
 20
78.2
 30
0.0
 40
2.0
 50
180.0
 51
270.0
  0
ARC
  8
62
  5
27F55
 10
79.0
 20
78.2
 30
0.0
 40
3.1
 50
180.0
 51
270.0
  0
CIRCLE
  8
62
  5
27F56
 10
69.0
 20
82.0
 30
0.0
 40
6.0
  0
LINE
  8
61
  5
27F58
 10
69.0
 20
73.0
 30
0.0
 11
175.0
 21
73.0
 31
0.0
  0
LINE
  8
61
  5
27F59
 10
79.0
 20
76.2
 30
0.0
 11
175.0
 21
76.2
 31
0.0
  0
LINE
  8
62
  5
27F5A
 10
79.0
 20
75.1
 30
0.0
 11
175.0
 21
75.1
 31
0.0
  0
LINE
  8
61
  5
27F5B
 10
78.0
 20
73.0
 30
0.0
 11
78.0
 21
73.0
 31
0.0
  0
ARC
  8
61
  5
27F5C
 10
69.0
 20
82.0
 30
0.0
 40
8.0
 50
0.0
 51
90.0
  0
ARC
  8
62
  5
27F5D
 10
69.0
 20
82.0
 30
0.0
 40
6.9
 50
0.0
 51
90.0
  0
ARC
  8
62
  5
27F5E
 10
65.2
 20
92.0
 30
0.0
 40
3.1
 50
180.0
 51
270.0
  0
CIRCLE
  8
62
  5
27F60
 10
69.0
 20
82.0
 30
0.0
 40
4.188125
  0
LINE
  8
62
  5
27F62
 10
75.9
 20
82.0
 30
0.0
 11
75.9
 21
78.2
 31
0.0
  0
LINE
  8
61
  5
27F63
 10
69.0
 20
90.0
 30
0.0
 11
65.2
 21
90.0
 31
0.0
  0
LINE
  8
62
  5
27F64
 10
69.0
 20
88.9
 30
0.0
 11
65.2
 21
88.9
 31
0.0
  0
ARC
  8
61
  5
27F65
 10
65.2
 20
92.0
 30
0.0
 40
2.0
 50
180.0
 51
270.0
  0
LINE
  8
61
  5
27F66
 10
77.16697
 20
77.4
 30
0.0
 11
175.0
 21
77.4
 31
0.0
  0
LINE
  8
61
  5
27F67
 10
77.0
 20
82.0
 30
0.0
 11
77.0
 21
78.2
 31
0.0
  0
LINE
  8
61
  5
27F68
 10
271.0
 20
76.2
 30
0.0
 11
175.0
 21
76.2
 31
0.0
  0
LINE
  8
62
  5
27F69
 10
271.0
 20
75.1
 30
0.0
 11
175.0
 21
75.1
 31
0.0
  0
LINE
  8
61
  5
27F6A
 10
281.0
 20
73.0
 30
0.0
 11
175.0
 21
73.0
 31
0.0
  0
LINE
  8
61
  5
27F6B
 10
272.83303
 20
77.4
 30
0.0
 11
175.0
 21
77.4
 31
0.0
  0
ARC
  8
61
  5
27F6C
 10
281.0
 20
82.0
 30
0.0
 40
9.0
 50
270.0
 51
0.0
  0
CIRCLE
  8
62
  5
27F6D
 10
281.0
 20
82.0
 30
0.0
 40
6.0
  0
LINE
  8
61
  5
27F6E
 10
273.0
 20
82.0
 30
0.0
 11
273.0
 21
78.2
 31
0.0
  0
LINE
  8
62
  5
27F6F
 10
274.1
 20
82.0
 30
0.0
 11
274.1
 21
78.2
 31
0.0
  0
CIRCLE
  8
62
  5
27F72
 10
281.0
 20
82.0
 30
0.0
 40
4.188125
  0
ARC
  8
62
  5
27F73
 10
271.0
 20
78.2
 30
0.0
 40
3.1
 50
270.0
 51
0.0
  0
ARC
  8
61
  5
27F74
 10
271.0
 20
78.2
 30
0.0
 40
2.0
 50
270.0
 51
0.0
  0
LINE
  8
61
  5
27F75
 10
272.0
 20
73.0
 30
0.0
 11
272.0
 21
73.0
 31
0.0
  0
ARC
  8
61
  5
27F76
 10
284.8
 20
92.0
 30
0.0
 40
2.0
 50
270.0
 51
0.0
  0
ARC
  8
62
  5
27F77
 10
284.8
 20
92.0
 30
0.0
 40
3.1
 50
270.0
 51
0.0
  0
ARC
  8
61
  5
27F78
 10
281.0
 20
82.0
 30
0.0
 40
8.0
 50
90.0
 51
180.0
  0
ARC
  8
62
  5
27F7A
 10
281.0
 20
82.0
 30
0.0
 40
6.9
 50
90.0
 51
180.0
  0
LINE
  8
62
  5
27F7B
 10
281.0
 20
88.9
 30
0.0
 11
284.8
 21
88.9
 31
0.0
  0
LINE
  8
61
  5
27F7C
 10
281.0
 20
90.0
 30
0.0
 11
284.8
 21
90.0
 31
0.0
  0
LINE
  8
61
  5
27F7D
 10
286.8
 20
143.0
 30
0.0
 11
286.8
 21
92.0
 31
0.0
  0
LINE
  8
62
  5
27F7E
 10
287.9
 20
143.0
 30
0.0
 11
287.9
 21
92.0
 31
0.0
  0
LINE
  8
61
  5
27F7F
 10
285.6
 20
143.0
 30
0.0
 11
285.6
 21
90.16697
 31
0.0
  0
LINE
  8
61
  5
27F80
 10
290.0
 20
143.0
 30
0.0
 11
290.0
 21
82.0
 31
0.0
  0
LINE
  8
61
  5
27F81
 10
79.0
 20
209.8
 30
0.0
 11
175.0
 21
209.8
 31
0.0
  0
LINE
  8
62
  5
27F82
 10
79.0
 20
210.9
 30
0.0
 11
175.0
 21
210.9
 31
0.0
  0
LINE
  8
61
  5
27F83
 10
69.0
 20
213.0
 30
0.0
 11
175.0
 21
213.0
 31
0.0
  0
LINE
  8
61
  5
27F84
 10
77.16697
 20
208.6
 30
0.0
 11
175.0
 21
208.6
 31
0.0
  0
ARC
  8
61
  5
27F85
 10
69.0
 20
204.0
 30
0.0
 40
9.0
 50
90.0
 51
180.0
  0
CIRCLE
  8
62
  5
27F86
 10
69.0
 20
204.0
 30
0.0
 40
6.0
  0
LINE
  8
61
  5
27F87
 10
77.0
 20
204.0
 30
0.0
 11
77.0
 21
207.8
 31
0.0
  0
LINE
  8
62
  5
27F88
 10
75.9
 20
204.0
 30
0.0
 11
75.9
 21
207.8
 31
0.0
  0
CIRCLE
  8
62
  5
27F8B
 10
69.0
 20
204.0
 30
0.0
 40
4.188125
  0
ARC
  8
62
  5
27F8C
 10
79.0
 20
207.8
 30
0.0
 40
3.1
 50
90.0
 51
180.0
  0
ARC
  8
61
  5
27F8D
 10
79.0
 20
207.8
 30
0.0
 40
2.0
 50
90.0
 51
180.0
  0
LINE
  8
61
  5
27F8E
 10
78.0
 20
213.0
 30
0.0
 11
78.0
 21
213.0
 31
0.0
  0
ARC
  8
61
  5
27F8F
 10
65.2
 20
194.0
 30
0.0
 40
2.0
 50
90.0
 51
180.0
  0
ARC
  8
62
  5
27F90
 10
65.2
 20
194.0
 30
0.0
 40
3.1
 50
90.0
 51
180.0
  0
ARC
  8
61
  5
27F91
 10
69.0
 20
204.0
 30
0.0
 40
8.0
 50
270.0
 51
0.0
  0
ARC
  8
62
  5
27F93
 10
69.0
 20
204.0
 30
0.0
 40
6.9
 50
270.0
 51
0.0
  0
LINE
  8
62
  5
27F94
 10
69.0
 20
197.1
 30
0.0
 11
65.2
 21
197.1
 31
0.0
  0
LINE
  8
61
  5
27F95
 10
69.0
 20
196.0
 30
0.0
 11
65.2
 21
196.0
 31
0.0
  0
LINE
  8
61
  5
27F96
 10
63.2
 20
143.0
 30
0.0
 11
63.2
 21
194.0
 31
0.0
  0
LINE
  8
62
  5
27F97
 10
62.1
 20
143.0
 30
0.0
 11
62.1
 21
194.0
 31
0.0
  0
LINE
  8
61
  5
27F98
 10
64.4
 20
143.0
 30
0.0
 11
64.4
 21
195.83303
 31
0.0
  0
LINE
  8
61
  5
27F99
 10
60.0
 20
143.0
 30
0.0
 11
60.0
 21
204.0
 31
0.0
  0
LINE
  8
61
  5
27F9A
 10
290.0
 20
143.0
 30
0.0
 11
290.0
 21
204.0
 31
0.0
  0
LINE
  8
61
  5
27F9B
 10
285.6
 20
143.0
 30
0.0
 11
285.6
 21
195.83303
 31
0.0
  0
LINE
  8
62
  5
27F9C
 10
287.9
 20
143.0
 30
0.0
 11
287.9
 21
194.0
 31
0.0
  0
LINE
  8
61
  5
27F9D
 10
286.8
 20
143.0
 30
0.0
 11
286.8
 21
194.0
 31
0.0
  0
LINE
  8
61
  5
27F9E
 10
272.83303
 20
208.6
 30
0.0
 11
175.0
 21
208.6
 31
0.0
  0
LINE
  8
61
  5
27F9F
 10
281.0
 20
213.0
 30
0.0
 11
175.0
 21
213.0
 31
0.0
  0
LINE
  8
62
  5
27FA0
 10
271.0
 20
210.9
 30
0.0
 11
175.0
 21
210.9
 31
0.0
  0
LINE
  8
61
  5
27FA1
 10
271.0
 20
209.8
 30
0.0
 11
175.0
 21
209.8
 31
0.0
  0
ARC
  8
61
  5
27FA2
 10
281.0
 20
204.0
 30
0.0
 40
8.0
 50
180.0
 51
270.0
  0
ARC
  8
62
  5
27FA3
 10
284.8
 20
194.0
 30
0.0
 40
3.1
 50
0.0
 51
90.0
  0
ARC
  8
61
  5
27FA4
 10
284.8
 20
194.0
 30
0.0
 40
2.0
 50
0.0
 51
90.0
  0
ARC
  8
61
  5
27FA6
 10
281.0
 20
204.0
 30
0.0
 40
9.0
 50
0.0
 51
90.0
  0
CIRCLE
  8
62
  5
27FA7
 10
281.0
 20
204.0
 30
0.0
 40
4.188125
  0
LINE
  8
62
  5
27FAA
 10
274.1
 20
204.0
 30
0.0
 11
274.1
 21
207.8
 31
0.0
  0
LINE
  8
61
  5
27FAB
 10
273.0
 20
204.0
 30
0.0
 11
273.0
 21
207.8
 31
0.0
  0
CIRCLE
  8
62
  5
27FAC
 10
281.0
 20
204.0
 30
0.0
 40
6.0
  0
LINE
  8
61
  5
27FAD
 10
272.0
 20
213.0
 30
0.0
 11
272.0
 21
213.0
 31
0.0
  0
ARC
  8
61
  5
27FAE
 10
271.0
 20
207.8
 30
0.0
 40
2.0
 50
0.0
 51
90.0
  0
ARC
  8
62
  5
27FAF
 10
271.0
 20
207.8
 30
0.0
 40
3.1
 50
0.0
 51
90.0
  0
ARC
  8
62
  5
27FB0
 10
281.0
 20
204.0
 30
0.0
 40
6.9
 50
180.0
 51
270.0
  0
LINE
  8
61
  5
27FB1
 10
281.0
 20
196.0
 30
0.0
 11
284.8
 21
196.0
 31
0.0
  0
LINE
  8
62
  5
27FB2
 10
281.0
 20
197.1
 30
0.0
 11
284.8
 21
197.1
 31
0.0
  0
ARC
  8
62
  5
281B3
 10
69.0
 20
82.0
 30
0.0
 40
7.3
 50
200.0
 51
250.0
  0
LINE
  8
62
  5
281B4
 10
63.361844
 20
79.947879
 30
0.0
 11
62.140244
 21
79.503253
 31
0.0
  0
LINE
  8
62
  5
281B5
 10
66.947879
 20
76.361844
 30
0.0
 11
66.503253
 21
75.140244
 31
0.0
  0
LINE
  8
62
  5
286CB
 10
286.795555
 20
205.552914
 30
0.0
 11
288.534221
 21
206.018789
 31
0.0
  0
LINE
  8
62
  5
286CD
 10
282.552914
 20
209.795555
 30
0.0
 11
283.018789
 21
211.534221
 31
0.0
  0
ARC
  8
62
  5
286CE
 10
281.0
 20
204.0
 30
0.0
 40
7.8
 50
15.0
 51
75.0
  0
LINE
  8
61
  5
296DD
 10
185.0
 20
194.0
 30
0.0
 11
185.0
 21
192.0
 31
0.0
  0
CIRCLE
  8
61
  5
296DE
 10
175.0
 20
193.0
 30
0.0
 40
2.0
  0
CIRCLE
  8
61
  5
296DF
 10
175.0
 20
193.0
 30
0.0
 40
1.5
  0
LINE
  8
61
  5
296E0
 10
165.0
 20
192.0
 30
0.0
 11
165.0
 21
194.0
 31
0.0
  0
LINE
  8
61
  5
296E1
 10
165.0
 20
194.0
 30
0.0
 11
171.127017
 21
194.0
 31
0.0
  0
LINE
  8
61
  5
296E3
 10
178.872983
 20
194.0
 30
0.0
 11
185.0
 21
194.0
 31
0.0
  0
ARC
  8
61
  5
296E4
 10
175.0
 20
193.0
 30
0.0
 40
4.0
 50
14.477512
 51
165.522488
  0
LINE
  8
61
  5
296E5
 10
171.127017
 20
192.0
 30
0.0
 11
165.0
 21
192.0
 31
0.0
  0
LINE
  8
61
  5
296E6
 10
185.0
 20
192.0
 30
0.0
 11
178.872983
 21
192.0
 31
0.0
  0
ARC
  8
61
  5
296E7
 10
175.0
 20
193.0
 30
0.0
 40
4.0
 50
194.477512
 51
345.522488
  0
CIRCLE
  8
61
  5
296E8
 10
175.0
 20
93.0
 30
0.0
 40
1.5
  0
CIRCLE
  8
61
  5
296E9
 10
175.0
 20
93.0
 30
0.0
 40
2.0
  0
ARC
  8
61
  5
296EA
 10
175.0
 20
93.0
 30
0.0
 40
4.0
 50
14.477512
 51
165.522488
  0
ARC
  8
61
  5
296EC
 10
175.0
 20
93.0
 30
0.0
 40
4.0
 50
194.477512
 51
345.522488
  0
LINE
  8
61
  5
296ED
 10
165.0
 20
94.0
 30
0.0
 11
171.127017
 21
94.0
 31
0.0
  0
LINE
  8
61
  5
296EE
 10
171.127017
 20
92.0
 30
0.0
 11
165.0
 21
92.0
 31
0.0
  0
LINE
  8
61
  5
296EF
 10
165.0
 20
92.0
 30
0.0
 11
165.0
 21
94.0
 31
0.0
  0
LINE
  8
61
  5
296F0
 10
178.872983
 20
94.0
 30
0.0
 11
185.0
 21
94.0
 31
0.0
  0
LINE
  8
61
  5
296F1
 10
185.0
 20
92.0
 30
0.0
 11
178.872983
 21
92.0
 31
0.0
  0
LINE
  8
61
  5
296F2
 10
185.0
 20
94.0
 30
0.0
 11
185.0
 21
92.0
 31
0.0
  0
CIRCLE
  8
61
  5
296F3
 10
87.5
 20
113.0
 30
0.0
 40
4.0
  0
CIRCLE
  8
61
  5
296F4
 10
87.5
 20
113.0
 30
0.0
 40
2.0
  0
CIRCLE
  8
61
  5
296F5
 10
87.5
 20
113.0
 30
0.0
 40
1.5
  0
CIRCLE
  8
61
  5
296FB
 10
87.5
 20
173.0
 30
0.0
 40
4.0
  0
CIRCLE
  8
61
  5
296FC
 10
87.5
 20
173.0
 30
0.0
 40
1.5
  0
CIRCLE
  8
61
  5
296FD
 10
87.5
 20
173.0
 30
0.0
 40
2.0
  0
CIRCLE
  8
61
  5
29700
 10
262.5
 20
113.0
 30
0.0
 40
4.0
  0
CIRCLE
  8
61
  5
29701
 10
262.5
 20
113.0
 30
0.0
 40
1.5
  0
CIRCLE
  8
61
  5
29702
 10
262.5
 20
113.0
 30
0.0
 40
2.0
  0
CIRCLE
  8
61
  5
29705
 10
262.5
 20
173.0
 30
0.0
 40
4.0
  0
CIRCLE
  8
61
  5
29706
 10
262.5
 20
173.0
 30
0.0
 40
1.5
  0
CIRCLE
  8
61
  5
29707
 10
262.5
 20
173.0
 30
0.0
 40
2.0
  0
CIRCLE
  8
51
  5
29DC9
 10
-345.0
 20
143.0
 30
0.0
 40
4.5
  0
CIRCLE
  8
51
  5
29DCA
 10
-155.0
 20
143.0
 30
0.0
 40
4.5
  0
CIRCLE
  8
51
  5
29EC8
 10
-250.0
 20
193.0
 30
0.0
 40
4.5
  0
CIRCLE
  8
51
  5
29EC9
 10
-300.0
 20
93.0
 30
0.0
 40
4.5
  0
CIRCLE
  8
51
  5
29ECA
 10
-337.5
 20
113.0
 30
0.0
 40
4.5
  0
CIRCLE
  8
51
  5
29ECB
 10
-337.5
 20
173.0
 30
0.0
 40
4.5
  0
CIRCLE
  8
51
  5
29ECC
 10
-162.5
 20
113.0
 30
0.0
 40
4.5
  0
CIRCLE
  8
51
  5
29ECD
 10
-162.5
 20
173.0
 30
0.0
 40
4.5
  0
LINE
  8
21
  5
2A064
 10
77.1
 20
338.849905
 30
0.0
 11
175.0
 21
338.849905
 31
0.0
  0
LINE
  8
24
  5
2A065
 10
77.1
 20
338.849905
 30
0.0
 11
77.741463
 21
265.345541
 31
0.0
  0
LINE
  8
21
  5
2A181
 10
60.1
 20
336.849905
 30
0.0
 11
60.130944
 21
332.346469
 31
0.0
  0
ARC
  8
21
  5
2A182
 10
61.039252
 20
331.349905
 30
0.0
 40
0.5
 50
0.5
 51
90.0
  0
ARC
  8
21
  5
2A183
 10
60.630932
 20
332.349905
 30
0.0
 40
0.5
 50
180.39368
 51
270.0
  0
LINE
  8
21
  5
2A184
 10
60.630932
 20
331.849905
 30
0.0
 11
175.0
 21
331.849905
 31
0.0
  0
LINE
  8
21
  5
2A187
 10
62.489707
 20
338.849905
 30
0.0
 11
63.002607
 21
338.849905
 31
0.0
  0
LINE
  8
21
  5
2A188
 10
62.189889
 20
338.560375
 30
0.0
 11
62.130158
 21
336.849905
 31
0.0
  0
LINE
  8
21
  5
2A189
 10
60.1
 20
336.849905
 30
0.0
 11
175.0
 21
336.849905
 31
0.0
  0
ARC
  8
21
  5
2A18A
 10
62.489707
 20
338.549905
 30
0.0
 40
0.3
 50
90.0
 51
178.0
  0
LINE
  8
21
  5
2A487
 10
61.539233
 20
331.354268
 30
0.0
 11
62.128487
 21
263.832452
 31
0.0
  0
ARC
  8
21
  5
2A54D
 10
64.128411
 20
263.849905
 30
0.0
 40
2.0
 50
180.5
 51
270.0
  0
LINE
  8
21
  5
2A95C
 10
84.6
 20
260.849905
 30
0.0
 11
87.6
 21
260.849905
 31
0.0
  0
LINE
  8
21
  5
2A95D
 10
92.1
 20
260.849905
 30
0.0
 11
87.6
 21
260.849905
 31
0.0
  0
LINE
  8
21
  5
2A95E
 10
92.1
 20
260.849905
 30
0.0
 11
92.367949
 21
261.849905
 31
0.0
  0
LINE
  8
21
  5
2AC20
 10
285.871589
 20
261.849905
 30
0.0
 11
182.520133
 21
261.849905
 31
0.0
  0
LINE
  8
24
  5
2AC21
 10
271.758556
 20
264.849905
 30
0.0
 11
183.0
 21
264.849905
 31
0.0
  0
ARC
  8
24
  5
2AC22
 10
175.0
 20
239.690413
 30
0.0
 40
26.400758
 50
72.360821
 51
90.0
  0
ARC
  8
24
  5
2AC23
 10
175.0
 20
239.690413
 30
0.0
 40
23.400758
 50
71.254638
 51
90.0
  0
LINE
  8
21
  5
2AC24
 10
182.520133
 20
261.849905
 30
0.0
 11
175.0
 21
261.849905
 31
0.0
  0
LINE
  8
21
  5
2AC25
 10
288.460767
 20
331.354268
 30
0.0
 11
287.871513
 21
263.832452
 31
0.0
  0
LINE
  8
24
  5
2AC27
 10
272.9
 20
338.849905
 30
0.0
 11
272.258537
 21
265.345541
 31
0.0
  0
LINE
  8
21
  5
2AC2B
 10
274.4
 20
260.849905
 30
0.0
 11
269.9
 21
260.849905
 31
0.0
  0
ARC
  8
21
  5
2AC2D
 10
285.871589
 20
263.849905
 30
0.0
 40
2.0
 50
270.0
 51
359.5
  0
LINE
  8
21
  5
2AC2E
 10
287.0
 20
260.449905
 30
0.0
 11
275.0
 21
260.449905
 31
0.0
  0
LINE
  8
21
  5
2AC2F
 10
287.0
 20
260.449905
 30
0.0
 11
287.627844
 21
262.893051
 31
0.0
  0
LINE
  8
21
  5
2AC35
 10
275.0
 20
260.449905
 30
0.0
 11
274.659808
 21
261.81952
 31
0.0
  0
LINE
  8
21
  5
2AC39
 10
274.4
 20
260.849905
 30
0.0
 11
274.667949
 21
261.849905
 31
0.0
  0
LINE
  8
21
  5
2AC40
 10
257.9
 20
260.849905
 30
0.0
 11
262.4
 21
260.849905
 31
0.0
  0
LINE
  8
21
  5
2AC41
 10
265.4
 20
260.849905
 30
0.0
 11
262.4
 21
260.849905
 31
0.0
  0
LINE
  8
21
  5
2AC45
 10
265.4
 20
260.849905
 30
0.0
 11
265.132051
 21
261.849905
 31
0.0
  0
LINE
  8
21
  5
2AC46
 10
265.4
 20
260.849905
 30
0.0
 11
269.9
 21
260.849905
 31
0.0
  0
LINE
  8
21
  5
2AC49
 10
257.9
 20
260.849905
 30
0.0
 11
257.632051
 21
261.849905
 31
0.0
  0
LINE
  8
21
  5
2AC50
 10
272.9
 20
338.849905
 30
0.0
 11
175.0
 21
338.849905
 31
0.0
  0
LINE
  8
21
  5
2AC52
 10
286.997393
 20
338.849905
 30
0.0
 11
272.9
 21
338.849905
 31
0.0
  0
ARC
  8
21
  5
2AC55
 10
287.510293
 20
338.549905
 30
0.0
 40
0.3
 50
2.0
 51
90.0
  0
LINE
  8
21
  5
2AC56
 10
287.810111
 20
338.560375
 30
0.0
 11
287.869842
 21
336.849905
 31
0.0
  0
LINE
  8
21
  5
2AC57
 10
287.510293
 20
338.849905
 30
0.0
 11
286.997393
 21
338.849905
 31
0.0
  0
LINE
  8
21
  5
2AC58
 10
289.9
 20
336.849905
 30
0.0
 11
289.869056
 21
332.346469
 31
0.0
  0
LINE
  8
21
  5
2AC59
 10
289.9
 20
336.849905
 30
0.0
 11
175.0
 21
336.849905
 31
0.0
  0
LINE
  8
21
  5
2AC5B
 10
289.369068
 20
331.849905
 30
0.0
 11
175.0
 21
331.849905
 31
0.0
  0
ARC
  8
21
  5
2AC5C
 10
288.960748
 20
331.349905
 30
0.0
 40
0.5
 50
90.0
 51
179.5
  0
ARC
  8
21
  5
2AC5D
 10
289.369068
 20
332.349905
 30
0.0
 40
0.5
 50
270.0
 51
359.60632
  0
LINE
  8
31
  5
2AEC6
 10
426.509118
 20
74.539233
 30
0.0
 11
358.987302
 21
75.128487
 31
0.0
  0
LINE
  8
31
  5
2AEC7
 10
426.509118
 20
211.460767
 30
0.0
 11
358.987302
 21
210.871513
 31
0.0
  0
LINE
  8
33
  6
DASHDOT
  5
2AECA
 10
436.004755
 20
143.0
 30
0.0
 11
354.004755
 21
143.0
 31
0.0
  0
LINE
  8
31
  5
2AED0
 10
356.004755
 20
197.4
 30
0.0
 11
356.004755
 21
192.9
 31
0.0
  0
ARC
  8
31
  5
2AED2
 10
359.004755
 20
208.871589
 30
0.0
 40
2.0
 50
90.5
 51
180.0
  0
LINE
  8
31
  5
2AED3
 10
355.604755
 20
210.0
 30
0.0
 11
355.604755
 21
198.0
 31
0.0
  0
LINE
  8
31
  5
2AED4
 10
355.604755
 20
210.0
 30
0.0
 11
358.047901
 21
210.627844
 31
0.0
  0
LINE
  8
31
  5
2AED7
 10
357.004755
 20
208.871589
 30
0.0
 11
357.004755
 21
143.0
 31
0.0
  0
LINE
  8
31
  5
2AEDB
 10
355.604755
 20
198.0
 30
0.0
 11
356.97437
 21
197.659808
 31
0.0
  0
LINE
  8
31
  5
2AEDE
 10
356.004755
 20
197.4
 30
0.0
 11
357.004755
 21
197.667949
 31
0.0
  0
LINE
  8
31
  5
2AEE5
 10
356.004755
 20
180.9
 30
0.0
 11
356.004755
 21
185.4
 31
0.0
  0
LINE
  8
31
  5
2AEE7
 10
356.004755
 20
188.4
 30
0.0
 11
356.004755
 21
185.4
 31
0.0
  0
LINE
  8
31
  5
2AEEA
 10
356.004755
 20
188.4
 30
0.0
 11
357.004755
 21
188.132051
 31
0.0
  0
LINE
  8
31
  5
2AEEB
 10
356.004755
 20
188.4
 30
0.0
 11
356.004755
 21
192.9
 31
0.0
  0
LINE
  8
31
  5
2AEEE
 10
356.004755
 20
180.9
 30
0.0
 11
357.004755
 21
180.632051
 31
0.0
  0
LINE
  8
31
  5
2AEFA
 10
356.004755
 20
138.5
 30
0.0
 11
356.004755
 21
143.0
 31
0.0
  0
LINE
  8
31
  5
2AF00
 10
356.004755
 20
147.5
 30
0.0
 11
356.004755
 21
143.0
 31
0.0
  0
LINE
  8
31
  5
2AF01
 10
356.004755
 20
147.5
 30
0.0
 11
357.004755
 21
147.767949
 31
0.0
  0
LINE
  8
31
  5
2AF08
 10
356.004755
 20
138.5
 30
0.0
 11
357.004755
 21
138.232051
 31
0.0
  0
LINE
  8
31
  5
2AF0D
 10
356.004755
 20
88.6
 30
0.0
 11
356.004755
 21
93.1
 31
0.0
  0
LINE
  8
31
  5
2AF14
 10
356.004755
 20
97.6
 30
0.0
 11
356.004755
 21
100.6
 31
0.0
  0
LINE
  8
31
  5
2AF15
 10
356.004755
 20
105.1
 30
0.0
 11
357.004755
 21
105.367949
 31
0.0
  0
LINE
  8
31
  5
2AF17
 10
356.004755
 20
105.1
 30
0.0
 11
356.004755
 21
100.6
 31
0.0
  0
LINE
  8
31
  5
2AF1A
 10
356.004755
 20
97.6
 30
0.0
 11
356.004755
 21
93.1
 31
0.0
  0
LINE
  8
31
  5
2AF1B
 10
356.004755
 20
97.6
 30
0.0
 11
357.004755
 21
97.867949
 31
0.0
  0
LINE
  8
31
  5
2AF24
 10
355.604755
 20
76.0
 30
0.0
 11
358.047901
 21
75.372156
 31
0.0
  0
ARC
  8
31
  5
2AF25
 10
359.004755
 20
77.128411
 30
0.0
 40
2.0
 50
180.0
 51
269.5
  0
LINE
  8
31
  5
2AF29
 10
357.004755
 20
77.128411
 30
0.0
 11
357.004755
 21
143.0
 31
0.0
  0
LINE
  8
31
  5
2AF2A
 10
355.604755
 20
76.0
 30
0.0
 11
355.604755
 21
88.0
 31
0.0
  0
LINE
  8
31
  5
2AF2D
 10
356.004755
 20
88.6
 30
0.0
 11
357.004755
 21
88.332051
 31
0.0
  0
LINE
  8
31
  5
2AF30
 10
355.604755
 20
88.0
 30
0.0
 11
356.97437
 21
88.340192
 31
0.0
  0
LINE
  8
31
  5
2AF33
 10
434.004755
 20
195.9
 30
0.0
 11
434.004755
 21
143.0
 31
0.0
  0
LINE
  8
31
  5
2AF36
 10
434.004755
 20
209.997393
 30
0.0
 11
434.004755
 21
195.9
 31
0.0
  0
ARC
  8
31
  5
2AF39
 10
433.704755
 20
210.510293
 30
0.0
 40
0.3
 50
0.0
 51
88.0
  0
LINE
  8
31
  5
2AF3A
 10
433.715225
 20
210.810111
 30
0.0
 11
432.004755
 21
210.869842
 31
0.0
  0
LINE
  8
31
  5
2AF3B
 10
434.004755
 20
210.510293
 30
0.0
 11
434.004755
 21
209.997393
 31
0.0
  0
LINE
  8
31
  5
2AF3C
 10
427.004755
 20
73.630932
 30
0.0
 11
427.004755
 21
143.0
 31
0.0
  0
ARC
  8
31
  5
2AF3D
 10
426.504755
 20
211.960748
 30
0.0
 40
0.5
 50
270.5
 51
0.0
  0
LINE
  8
31
  5
2AF3E
 10
432.004755
 20
212.9
 30
0.0
 11
427.501319
 21
212.869056
 31
0.0
  0
ARC
  8
31
  5
2AF3F
 10
427.504755
 20
212.369068
 30
0.0
 40
0.5
 50
90.39368
 51
180.0
  0
LINE
  8
31
  5
2AF40
 10
432.004755
 20
73.1
 30
0.0
 11
432.004755
 21
143.0
 31
0.0
  0
LINE
  8
31
  5
2AF45
 10
434.004755
 20
90.1
 30
0.0
 11
434.004755
 21
143.0
 31
0.0
  0
LINE
  8
31
  5
2AF46
 10
434.004755
 20
75.489707
 30
0.0
 11
434.004755
 21
76.002607
 31
0.0
  0
LINE
  8
31
  5
2AF47
 10
434.004755
 20
76.002607
 30
0.0
 11
434.004755
 21
90.1
 31
0.0
  0
ARC
  8
31
  5
2AF4C
 10
427.504755
 20
73.630932
 30
0.0
 40
0.5
 50
180.0
 51
269.60632
  0
ARC
  8
31
  5
2AF4D
 10
426.504755
 20
74.039252
 30
0.0
 40
0.5
 50
0.0
 51
89.5
  0
LINE
  8
31
  5
2AF4E
 10
427.004755
 20
73.630932
 30
0.0
 11
427.004755
 21
74.039252
 31
0.0
  0
LINE
  8
31
  5
2AF4F
 10
432.004755
 20
73.1
 30
0.0
 11
432.004755
 21
75.130158
 31
0.0
  0
LINE
  8
31
  5
2AF50
 10
432.004755
 20
73.1
 30
0.0
 11
427.501319
 21
73.130944
 31
0.0
  0
LINE
  8
31
  5
2AF51
 10
433.715225
 20
75.189889
 30
0.0
 11
432.004755
 21
75.130158
 31
0.0
  0
ARC
  8
31
  5
2AF52
 10
433.704755
 20
75.489707
 30
0.0
 40
0.3
 50
272.0
 51
0.0
  0
LINE
  8
31
  5
2AF53
 10
427.004755
 20
212.369068
 30
0.0
 11
427.004755
 21
143.0
 31
0.0
  0
LINE
  8
31
  5
2AF54
 10
432.004755
 20
212.9
 30
0.0
 11
432.004755
 21
143.0
 31
0.0
  0
ARC
  8
61
  5
2BDB9
 10
125.0
 20
93.0
 30
0.0
 40
4.0
 50
194.477512
 51
345.522488
  0
ARC
  8
61
  5
2BDBB
 10
125.0
 20
93.0
 30
0.0
 40
4.0
 50
14.477512
 51
165.522488
  0
CIRCLE
  8
61
  5
2BDBC
 10
125.0
 20
93.0
 30
0.0
 40
2.0
  0
CIRCLE
  8
61
  5
2BDBD
 10
125.0
 20
93.0
 30
0.0
 40
1.5
  0
LINE
  8
61
  5
2BDBE
 10
121.127017
 20
92.0
 30
0.0
 11
115.0
 21
92.0
 31
0.0
  0
LINE
  8
61
  5
2BDBF
 10
115.0
 20
94.0
 30
0.0
 11
121.127017
 21
94.0
 31
0.0
  0
LINE
  8
61
  5
2BDC0
 10
115.0
 20
92.0
 30
0.0
 11
115.0
 21
94.0
 31
0.0
  0
LINE
  8
61
  5
2BDC1
 10
135.0
 20
92.0
 30
0.0
 11
128.872983
 21
92.0
 31
0.0
  0
LINE
  8
61
  5
2BDC2
 10
128.872983
 20
94.0
 30
0.0
 11
135.0
 21
94.0
 31
0.0
  0
LINE
  8
61
  5
2BDC3
 10
135.0
 20
94.0
 30
0.0
 11
135.0
 21
92.0
 31
0.0
  0
ARC
  8
61
  5
2BDC6
 10
125.0
 20
193.0
 30
0.0
 40
4.0
 50
194.477512
 51
345.522488
  0
CIRCLE
  8
61
  5
2BDC7
 10
125.0
 20
193.0
 30
0.0
 40
1.5
  0
CIRCLE
  8
61
  5
2BDC8
 10
125.0
 20
193.0
 30
0.0
 40
2.0
  0
ARC
  8
61
  5
2BDC9
 10
125.0
 20
193.0
 30
0.0
 40
4.0
 50
14.477512
 51
165.522488
  0
LINE
  8
61
  5
2BDCB
 10
115.0
 20
194.0
 30
0.0
 11
121.127017
 21
194.0
 31
0.0
  0
LINE
  8
61
  5
2BDCC
 10
121.127017
 20
192.0
 30
0.0
 11
115.0
 21
192.0
 31
0.0
  0
LINE
  8
61
  5
2BDCD
 10
115.0
 20
192.0
 30
0.0
 11
115.0
 21
194.0
 31
0.0
  0
LINE
  8
61
  5
2BDCE
 10
128.872983
 20
194.0
 30
0.0
 11
135.0
 21
194.0
 31
0.0
  0
LINE
  8
61
  5
2BDCF
 10
135.0
 20
192.0
 30
0.0
 11
128.872983
 21
192.0
 31
0.0
  0
LINE
  8
61
  5
2BDD0
 10
135.0
 20
194.0
 30
0.0
 11
135.0
 21
192.0
 31
0.0
  0
ARC
  8
61
  5
2BDD2
 10
225.0
 20
93.0
 30
0.0
 40
4.0
 50
194.477512
 51
345.522488
  0
CIRCLE
  8
61
  5
2BDD3
 10
225.0
 20
93.0
 30
0.0
 40
1.5
  0
CIRCLE
  8
61
  5
2BDD4
 10
225.0
 20
93.0
 30
0.0
 40
2.0
  0
ARC
  8
61
  5
2BDD5
 10
225.0
 20
93.0
 30
0.0
 40
4.0
 50
14.477512
 51
165.522488
  0
LINE
  8
61
  5
2BDD7
 10
215.0
 20
94.0
 30
0.0
 11
221.127017
 21
94.0
 31
0.0
  0
LINE
  8
61
  5
2BDD8
 10
221.127017
 20
92.0
 30
0.0
 11
215.0
 21
92.0
 31
0.0
  0
LINE
  8
61
  5
2BDD9
 10
215.0
 20
92.0
 30
0.0
 11
215.0
 21
94.0
 31
0.0
  0
LINE
  8
61
  5
2BDDA
 10
228.872983
 20
94.0
 30
0.0
 11
235.0
 21
94.0
 31
0.0
  0
LINE
  8
61
  5
2BDDB
 10
235.0
 20
92.0
 30
0.0
 11
228.872983
 21
92.0
 31
0.0
  0
LINE
  8
61
  5
2BDDC
 10
235.0
 20
94.0
 30
0.0
 11
235.0
 21
92.0
 31
0.0
  0
ARC
  8
61
  5
2BDDE
 10
225.0
 20
193.0
 30
0.0
 40
4.0
 50
194.477512
 51
345.522488
  0
CIRCLE
  8
61
  5
2BDDF
 10
225.0
 20
193.0
 30
0.0
 40
1.5
  0
CIRCLE
  8
61
  5
2BDE0
 10
225.0
 20
193.0
 30
0.0
 40
2.0
  0
ARC
  8
61
  5
2BDE1
 10
225.0
 20
193.0
 30
0.0
 40
4.0
 50
14.477512
 51
165.522488
  0
LINE
  8
61
  5
2BDE3
 10
215.0
 20
194.0
 30
0.0
 11
221.127017
 21
194.0
 31
0.0
  0
LINE
  8
61
  5
2BDE4
 10
221.127017
 20
192.0
 30
0.0
 11
215.0
 21
192.0
 31
0.0
  0
LINE
  8
61
  5
2BDE5
 10
215.0
 20
192.0
 30
0.0
 11
215.0
 21
194.0
 31
0.0
  0
LINE
  8
61
  5
2BDE6
 10
228.872983
 20
194.0
 30
0.0
 11
235.0
 21
194.0
 31
0.0
  0
LINE
  8
61
  5
2BDE7
 10
235.0
 20
192.0
 30
0.0
 11
228.872983
 21
192.0
 31
0.0
  0
LINE
  8
61
  5
2BDE8
 10
235.0
 20
194.0
 30
0.0
 11
235.0
 21
192.0
 31
0.0
  0
LINE
  8
24
  5
2BFB2
 10
121.0
 20
271.849905
 30
0.0
 11
120.387579
 21
264.849905
 31
0.0
  0
LINE
  8
24
  5
2BFB3
 10
121.0
 20
271.849905
 30
0.0
 11
115.0
 21
271.849905
 31
0.0
  0
LINE
  8
24
  5
2BFB4
 10
125.0
 20
271.849905
 30
0.0
 11
121.0
 21
271.849905
 31
0.0
  0
LINE
  8
24
  5
2BFB5
 10
115.0
 20
271.849905
 30
0.0
 11
114.427511
 21
265.306327
 31
0.0
  0
ARC
  8
24
  5
2BFB6
 10
113.929414
 20
265.349905
 30
0.0
 40
0.5
 50
270.0
 51
355.0
  0
LINE
  8
24
  5
2BFB7
 10
125.0
 20
271.849905
 30
0.0
 11
129.0
 21
271.849905
 31
0.0
  0
LINE
  8
24
  5
2BFB8
 10
129.0
 20
271.849905
 30
0.0
 11
135.0
 21
271.849905
 31
0.0
  0
LINE
  8
24
  5
2BFB9
 10
129.0
 20
271.849905
 30
0.0
 11
129.612421
 21
264.849905
 31
0.0
  0
LINE
  8
24
  5
2BFBA
 10
135.0
 20
271.849905
 30
0.0
 11
135.572489
 21
265.306327
 31
0.0
  0
ARC
  8
24
  5
2BFBB
 10
136.070586
 20
265.349905
 30
0.0
 40
0.5
 50
185.0
 51
270.0
  0
LINE
  8
21
  5
2BFBC
 10
129.5
 20
260.849905
 30
0.0
 11
129.767949
 21
261.849905
 31
0.0
  0
LINE
  8
21
  5
2BFBD
 10
129.5
 20
260.849905
 30
0.0
 11
125.0
 21
260.849905
 31
0.0
  0
LINE
  8
21
  5
2BFBE
 10
120.5
 20
260.849905
 30
0.0
 11
125.0
 21
260.849905
 31
0.0
  0
LINE
  8
21
  5
2BFBF
 10
120.5
 20
260.849905
 30
0.0
 11
120.232051
 21
261.849905
 31
0.0
  0
LINE
  8
21
  5
2BFCA
 10
229.5
 20
260.849905
 30
0.0
 11
229.767949
 21
261.849905
 31
0.0
  0
LINE
  8
21
  5
2BFCB
 10
229.5
 20
260.849905
 30
0.0
 11
225.0
 21
260.849905
 31
0.0
  0
LINE
  8
21
  5
2BFCC
 10
220.5
 20
260.849905
 30
0.0
 11
225.0
 21
260.849905
 31
0.0
  0
LINE
  8
21
  5
2BFCD
 10
220.5
 20
260.849905
 30
0.0
 11
220.232051
 21
261.849905
 31
0.0
  0
CIRCLE
  8
51
  5
2BFCE
 10
-250.0
 20
93.0
 30
0.0
 40
4.5
  0
CIRCLE
  8
51
  5
2BFCF
 10
-300.0
 20
193.0
 30
0.0
 40
4.5
  0
CIRCLE
  8
51
  5
2BFD0
 10
-200.0
 20
93.0
 30
0.0
 40
4.5
  0
CIRCLE
  8
51
  5
2BFD1
 10
-200.0
 20
193.0
 30
0.0
 40
4.5
  0
LINE
  8
34
  5
2C168
 10
367.004755
 20
147.0
 30
0.0
 11
367.004755
 21
153.0
 31
0.0
  0
ARC
  8
34
  5
2C169
 10
360.504755
 20
154.070586
 30
0.0
 40
0.5
 50
180.0
 51
265.0
  0
LINE
  8
34
  5
2C16A
 10
367.004755
 20
153.0
 30
0.0
 11
360.461177
 21
153.572489
 31
0.0
  0
LINE
  8
34
  5
2C16B
 10
367.004755
 20
139.0
 30
0.0
 11
360.004755
 21
138.387579
 31
0.0
  0
LINE
  8
34
  5
2C16C
 10
367.004755
 20
139.0
 30
0.0
 11
367.004755
 21
133.0
 31
0.0
  0
LINE
  8
34
  5
2C16D
 10
367.004755
 20
147.0
 30
0.0
 11
360.004755
 21
147.612421
 31
0.0
  0
LINE
  8
34
  5
2C16E
 10
367.004755
 20
143.0
 30
0.0
 11
367.004755
 21
147.0
 31
0.0
  0
LINE
  8
34
  5
2C16F
 10
367.004755
 20
143.0
 30
0.0
 11
367.004755
 21
139.0
 31
0.0
  0
ARC
  8
34
  5
2C170
 10
360.504755
 20
131.929414
 30
0.0
 40
0.5
 50
95.0
 51
180.0
  0
LINE
  8
34
  5
2C171
 10
367.004755
 20
133.0
 30
0.0
 11
360.461177
 21
132.427511
 31
0.0
  0
LINE
  8
34
  5
2C178
 10
360.004755
 20
194.758556
 30
0.0
 11
360.004755
 21
143.0
 31
0.0
  0
LINE
  8
34
  5
2C179
 10
434.004755
 20
195.9
 30
0.0
 11
360.500392
 21
195.258537
 31
0.0
  0
LINE
  8
34
  5
2C17A
 10
360.004755
 20
91.241444
 30
0.0
 11
360.004755
 21
143.0
 31
0.0
  0
LINE
  8
34
  5
2C17B
 10
434.004755
 20
90.1
 30
0.0
 11
360.500392
 21
90.741463
 31
0.0
  0
TEXT
  8
L20
  5
2C22F
 10
-317.034786
 20
287.618516
 30
0.0
 40
12.8
  1
FIBOX PICCOLO M 230x140x75 BASE
  0
ARC
  8
24
  5
2C230
 10
271.758556
 20
265.349905
 30
0.0
 40
0.5
 50
270.0
 51
359.5
  0
ARC
  8
24
  5
2C231
 10
78.241444
 20
265.349905
 30
0.0
 40
0.5
 50
180.5
 51
270.0
  0
ARC
  8
34
  5
2C232
 10
360.504755
 20
91.241444
 30
0.0
 40
0.5
 50
180.0
 51
269.5
  0
ARC
  8
34
  5
2C233
 10
360.504755
 20
194.758556
 30
0.0
 40
0.5
 50
90.5
 51
180.0
  0
CIRCLE
  8
62
  5
2C234
 10
175.0
 20
143.0
 30
0.0
 40
8.0
  0
LINE
  8
11
  5
2C235
 10
64.128411
 20
24.150095
 30
0.0
 11
167.479867
 21
24.150095
 31
0.0
  0
LINE
  8
11
  5
2C236
 10
60.630932
 20
-45.849905
 30
0.0
 11
175.0
 21
-45.849905
 31
0.0
  0
LINE
  8
11
  5
2C237
 10
60.1
 20
-50.849905
 30
0.0
 11
175.0
 21
-50.849905
 31
0.0
  0
LINE
  8
11
  5
2C238
 10
63.002607
 20
-52.849905
 30
0.0
 11
77.1
 21
-52.849905
 31
0.0
  0
LINE
  8
11
  5
2C239
 10
63.0
 20
25.550095
 30
0.0
 11
75.0
 21
25.550095
 31
0.0
  0
LINE
  8
14
  5
2C23A
 10
272.9
 20
-52.849905
 30
0.0
 11
272.258537
 21
20.654459
 31
0.0
  0
LINE
  8
14
  5
2C23B
 10
77.1
 20
-52.849905
 30
0.0
 11
77.741463
 21
20.654459
 31
0.0
  0
LINE
  8
14
  5
2C23C
 10
215.0
 20
14.150095
 30
0.0
 11
214.427511
 21
20.693673
 31
0.0
  0
LINE
  8
14
  5
2C23D
 10
221.0
 20
14.150095
 30
0.0
 11
220.387579
 21
21.150095
 31
0.0
  0
LINE
  8
14
  5
2C23E
 10
235.0
 20
14.150095
 30
0.0
 11
235.572489
 21
20.693673
 31
0.0
  0
LINE
  8
14
  5
2C23F
 10
229.0
 20
14.150095
 30
0.0
 11
229.612421
 21
21.150095
 31
0.0
  0
LINE
  8
11
  5
2C240
 10
288.460767
 20
-45.354268
 30
0.0
 11
287.871513
 21
22.167548
 31
0.0
  0
LINE
  8
13
  6
DASHDOT
  5
2C241
 10
175.0
 20
-54.849905
 30
0.0
 11
175.0
 21
27.150095
 31
0.0
  0
LINE
  8
14
  5
2C242
 10
271.758556
 20
21.150095
 30
0.0
 11
183.0
 21
21.150095
 31
0.0
  0
LINE
  8
11
  5
2C243
 10
285.871589
 20
24.150095
 30
0.0
 11
182.520133
 21
24.150095
 31
0.0
  0
LINE
  8
11
  5
2C244
 10
287.0
 20
25.550095
 30
0.0
 11
275.0
 21
25.550095
 31
0.0
  0
ARC
  8
11
  5
2C245
 10
285.871589
 20
22.150095
 30
0.0
 40
2.0
 50
0.5
 51
90.0
  0
LINE
  8
11
  5
2C246
 10
287.0
 20
25.550095
 30
0.0
 11
287.627844
 21
23.106949
 31
0.0
  0
LINE
  8
11
  5
2C247
 10
265.4
 20
25.150095
 30
0.0
 11
269.9
 21
25.150095
 31
0.0
  0
ARC
  8
14
  5
2C248
 10
271.758556
 20
20.650095
 30
0.0
 40
0.5
 50
0.5
 51
90.0
  0
LINE
  8
11
  5
2C249
 10
274.4
 20
25.150095
 30
0.0
 11
274.667949
 21
24.150095
 31
0.0
  0
LINE
  8
11
  5
2C24A
 10
274.4
 20
25.150095
 30
0.0
 11
269.9
 21
25.150095
 31
0.0
  0
LINE
  8
11
  5
2C24B
 10
275.0
 20
25.550095
 30
0.0
 11
274.659808
 21
24.18048
 31
0.0
  0
LINE
  8
11
  5
2C24C
 10
257.9
 20
25.150095
 30
0.0
 11
262.4
 21
25.150095
 31
0.0
  0
LINE
  8
11
  5
2C24D
 10
265.4
 20
25.150095
 30
0.0
 11
262.4
 21
25.150095
 31
0.0
  0
LINE
  8
11
  5
2C24E
 10
265.4
 20
25.150095
 30
0.0
 11
265.132051
 21
24.150095
 31
0.0
  0
LINE
  8
11
  5
2C24F
 10
257.9
 20
25.150095
 30
0.0
 11
257.632051
 21
24.150095
 31
0.0
  0
LINE
  8
11
  5
2C250
 10
220.5
 20
25.150095
 30
0.0
 11
225.0
 21
25.150095
 31
0.0
  0
LINE
  8
11
  5
2C251
 10
229.5
 20
25.150095
 30
0.0
 11
225.0
 21
25.150095
 31
0.0
  0
LINE
  8
11
  5
2C252
 10
229.5
 20
25.150095
 30
0.0
 11
229.767949
 21
24.150095
 31
0.0
  0
ARC
  8
14
  5
2C253
 10
236.070586
 20
20.650095
 30
0.0
 40
0.5
 50
90.0
 51
175.0
  0
LINE
  8
11
  5
2C254
 10
220.5
 20
25.150095
 30
0.0
 11
220.232051
 21
24.150095
 31
0.0
  0
ARC
  8
14
  5
2C255
 10
213.929414
 20
20.650095
 30
0.0
 40
0.5
 50
5.0
 51
90.0
  0
LINE
  8
14
  5
2C256
 10
78.241444
 20
21.150095
 30
0.0
 11
167.0
 21
21.150095
 31
0.0
  0
LINE
  8
11
  5
2C257
 10
129.5
 20
25.150095
 30
0.0
 11
125.0
 21
25.150095
 31
0.0
  0
LINE
  8
11
  5
2C258
 10
167.479867
 20
24.150095
 30
0.0
 11
175.0
 21
24.150095
 31
0.0
  0
ARC
  8
14
  5
2C259
 10
175.0
 20
46.309587
 30
0.0
 40
23.400758
 50
251.254638
 51
270.0
  0
ARC
  8
14
  5
2C25A
 10
175.0
 20
46.309587
 30
0.0
 40
26.400758
 50
252.360821
 51
270.0
  0
LINE
  8
11
  5
2C25B
 10
170.5
 20
25.150095
 30
0.0
 11
175.0
 21
25.150095
 31
0.0
  0
LINE
  8
11
  5
2C25C
 10
182.520133
 20
24.150095
 30
0.0
 11
175.0
 21
24.150095
 31
0.0
  0
ARC
  8
14
  5
2C25D
 10
175.0
 20
46.309587
 30
0.0
 40
23.400758
 50
270.0
 51
288.745362
  0
ARC
  8
14
  5
2C25E
 10
175.0
 20
46.309587
 30
0.0
 40
26.400758
 50
270.0
 51
287.639179
  0
LINE
  8
11
  5
2C25F
 10
179.5
 20
25.150095
 30
0.0
 11
179.767949
 21
24.150095
 31
0.0
  0
LINE
  8
11
  5
2C260
 10
179.5
 20
25.150095
 30
0.0
 11
175.0
 21
25.150095
 31
0.0
  0
LINE
  8
11
  5
2C261
 10
170.5
 20
25.150095
 30
0.0
 11
170.232051
 21
24.150095
 31
0.0
  0
LINE
  8
11
  5
2C262
 10
129.5
 20
25.150095
 30
0.0
 11
129.767949
 21
24.150095
 31
0.0
  0
LINE
  8
11
  5
2C263
 10
120.5
 20
25.150095
 30
0.0
 11
125.0
 21
25.150095
 31
0.0
  0
LINE
  8
11
  5
2C264
 10
120.5
 20
25.150095
 30
0.0
 11
120.232051
 21
24.150095
 31
0.0
  0
LINE
  8
11
  5
2C265
 10
84.6
 20
25.150095
 30
0.0
 11
80.1
 21
25.150095
 31
0.0
  0
LINE
  8
11
  5
2C266
 10
92.1
 20
25.150095
 30
0.0
 11
87.6
 21
25.150095
 31
0.0
  0
LINE
  8
11
  5
2C267
 10
92.1
 20
25.150095
 30
0.0
 11
92.367949
 21
24.150095
 31
0.0
  0
LINE
  8
11
  5
2C268
 10
84.6
 20
25.150095
 30
0.0
 11
84.867949
 21
24.150095
 31
0.0
  0
LINE
  8
11
  5
2C269
 10
84.6
 20
25.150095
 30
0.0
 11
87.6
 21
25.150095
 31
0.0
  0
ARC
  8
14
  5
2C26A
 10
78.241444
 20
20.650095
 30
0.0
 40
0.5
 50
90.0
 51
179.5
  0
LINE
  8
11
  5
2C26B
 10
75.6
 20
25.150095
 30
0.0
 11
75.332051
 21
24.150095
 31
0.0
  0
LINE
  8
11
  5
2C26C
 10
75.0
 20
25.550095
 30
0.0
 11
75.340192
 21
24.18048
 31
0.0
  0
LINE
  8
11
  5
2C26D
 10
75.6
 20
25.150095
 30
0.0
 11
80.1
 21
25.150095
 31
0.0
  0
LINE
  8
11
  5
2C26E
 10
289.9
 20
-50.849905
 30
0.0
 11
175.0
 21
-50.849905
 31
0.0
  0
LINE
  8
11
  5
2C26F
 10
289.369068
 20
-45.849905
 30
0.0
 11
175.0
 21
-45.849905
 31
0.0
  0
LINE
  8
11
  5
2C270
 10
272.9
 20
-52.849905
 30
0.0
 11
175.0
 21
-52.849905
 31
0.0
  0
LINE
  8
14
  5
2C271
 10
225.0
 20
14.150095
 30
0.0
 11
221.0
 21
14.150095
 31
0.0
  0
LINE
  8
14
  5
2C272
 10
229.0
 20
14.150095
 30
0.0
 11
235.0
 21
14.150095
 31
0.0
  0
LINE
  8
14
  5
2C273
 10
225.0
 20
14.150095
 30
0.0
 11
229.0
 21
14.150095
 31
0.0
  0
LINE
  8
14
  5
2C274
 10
221.0
 20
14.150095
 30
0.0
 11
215.0
 21
14.150095
 31
0.0
  0
LINE
  8
11
  5
2C275
 10
286.997393
 20
-52.849905
 30
0.0
 11
272.9
 21
-52.849905
 31
0.0
  0
LINE
  8
11
  5
2C276
 10
289.9
 20
-50.849905
 30
0.0
 11
289.869056
 21
-46.346469
 31
0.0
  0
ARC
  8
11
  5
2C277
 10
289.369068
 20
-46.349905
 30
0.0
 40
0.5
 50
0.39368
 51
90.0
  0
ARC
  8
11
  5
2C278
 10
288.960748
 20
-45.349905
 30
0.0
 40
0.5
 50
180.5
 51
270.0
  0
ARC
  8
11
  5
2C279
 10
287.510293
 20
-52.549905
 30
0.0
 40
0.3
 50
270.0
 51
358.0
  0
LINE
  8
11
  5
2C27A
 10
287.810111
 20
-52.560375
 30
0.0
 11
287.869842
 21
-50.849905
 31
0.0
  0
LINE
  8
11
  5
2C27B
 10
287.510293
 20
-52.849905
 30
0.0
 11
286.997393
 21
-52.849905
 31
0.0
  0
LINE
  8
11
  5
2C27C
 10
77.1
 20
-52.849905
 30
0.0
 11
175.0
 21
-52.849905
 31
0.0
  0
LINE
  8
11
  5
2C27D
 10
61.539233
 20
-45.354268
 30
0.0
 11
62.128487
 21
22.167548
 31
0.0
  0
LINE
  8
11
  5
2C27E
 10
63.0
 20
25.550095
 30
0.0
 11
62.372156
 21
23.106949
 31
0.0
  0
ARC
  8
11
  5
2C27F
 10
64.128411
 20
22.150095
 30
0.0
 40
2.0
 50
90.0
 51
179.5
  0
LINE
  8
11
  5
2C280
 10
60.1
 20
-50.849905
 30
0.0
 11
60.130944
 21
-46.346469
 31
0.0
  0
ARC
  8
11
  5
2C281
 10
60.630932
 20
-46.349905
 30
0.0
 40
0.5
 50
90.0
 51
179.60632
  0
ARC
  8
11
  5
2C282
 10
61.039252
 20
-45.349905
 30
0.0
 40
0.5
 50
270.0
 51
359.5
  0
LINE
  8
11
  5
2C283
 10
62.489707
 20
-52.849905
 30
0.0
 11
63.002607
 21
-52.849905
 31
0.0
  0
LINE
  8
11
  5
2C284
 10
62.189889
 20
-52.560375
 30
0.0
 11
62.130158
 21
-50.849905
 31
0.0
  0
ARC
  8
11
  5
2C285
 10
62.489707
 20
-52.549905
 30
0.0
 40
0.3
 50
182.0
 51
270.0
  0
LINE
  8
44
  5
2C286
 10
-10.004755
 20
91.241444
 30
0.0
 11
-10.004755
 21
143.0
 31
0.0
  0
LINE
  8
44
  5
2C287
 10
-17.004755
 20
143.0
 30
0.0
 11
-17.004755
 21
139.0
 31
0.0
  0
LINE
  8
41
  5
2C288
 10
-82.004755
 20
73.1
 30
0.0
 11
-82.004755
 21
143.0
 31
0.0
  0
LINE
  8
41
  5
2C289
 10
-77.004755
 20
73.630932
 30
0.0
 11
-77.004755
 21
143.0
 31
0.0
  0
LINE
  8
41
  5
2C28A
 10
-84.004755
 20
90.1
 30
0.0
 11
-84.004755
 21
143.0
 31
0.0
  0
LINE
  8
41
  5
2C28B
 10
-6.004755
 20
138.5
 30
0.0
 11
-6.004755
 21
143.0
 31
0.0
  0
LINE
  8
41
  5
2C28C
 10
-7.004755
 20
77.128411
 30
0.0
 11
-7.004755
 21
143.0
 31
0.0
  0
LINE
  8
44
  5
2C28D
 10
-84.004755
 20
195.9
 30
0.0
 11
-10.500392
 21
195.258537
 31
0.0
  0
LINE
  8
43
  6
DASHDOT
  5
2C28E
 10
-86.004755
 20
143.0
 30
0.0
 11
-4.004755
 21
143.0
 31
0.0
  0
LINE
  8
41
  5
2C28F
 10
-76.509118
 20
211.460767
 30
0.0
 11
-8.987302
 21
210.871513
 31
0.0
  0
LINE
  8
41
  5
2C290
 10
-5.604755
 20
210.0
 30
0.0
 11
-5.604755
 21
198.0
 31
0.0
  0
LINE
  8
41
  5
2C291
 10
-7.004755
 20
208.871589
 30
0.0
 11
-7.004755
 21
143.0
 31
0.0
  0
LINE
  8
41
  5
2C292
 10
-5.604755
 20
210.0
 30
0.0
 11
-8.047901
 21
210.627844
 31
0.0
  0
ARC
  8
41
  5
2C293
 10
-9.004755
 20
208.871589
 30
0.0
 40
2.0
 50
0.0
 51
89.5
  0
LINE
  8
44
  5
2C294
 10
-10.004755
 20
194.758556
 30
0.0
 11
-10.004755
 21
143.0
 31
0.0
  0
LINE
  8
41
  5
2C295
 10
-6.004755
 20
188.4
 30
0.0
 11
-6.004755
 21
192.9
 31
0.0
  0
LINE
  8
41
  5
2C296
 10
-6.004755
 20
197.4
 30
0.0
 11
-6.004755
 21
192.9
 31
0.0
  0
LINE
  8
41
  5
2C297
 10
-5.604755
 20
198.0
 30
0.0
 11
-6.97437
 21
197.659808
 31
0.0
  0
LINE
  8
41
  5
2C298
 10
-6.004755
 20
197.4
 30
0.0
 11
-7.004755
 21
197.667949
 31
0.0
  0
ARC
  8
44
  5
2C299
 10
-10.504755
 20
194.758556
 30
0.0
 40
0.5
 50
0.0
 51
89.5
  0
LINE
  8
41
  5
2C29A
 10
-6.004755
 20
180.9
 30
0.0
 11
-6.004755
 21
185.4
 31
0.0
  0
LINE
  8
41
  5
2C29B
 10
-6.004755
 20
188.4
 30
0.0
 11
-7.004755
 21
188.132051
 31
0.0
  0
LINE
  8
41
  5
2C29C
 10
-6.004755
 20
188.4
 30
0.0
 11
-6.004755
 21
185.4
 31
0.0
  0
LINE
  8
41
  5
2C29D
 10
-6.004755
 20
180.9
 30
0.0
 11
-7.004755
 21
180.632051
 31
0.0
  0
LINE
  8
44
  5
2C29E
 10
-17.004755
 20
153.0
 30
0.0
 11
-10.461177
 21
153.572489
 31
0.0
  0
LINE
  8
44
  5
2C29F
 10
-17.004755
 20
147.0
 30
0.0
 11
-10.004755
 21
147.612421
 31
0.0
  0
ARC
  8
44
  5
2C2A0
 10
-10.504755
 20
154.070586
 30
0.0
 40
0.5
 50
275.0
 51
0.0
  0
LINE
  8
41
  5
2C2A1
 10
-6.004755
 20
147.5
 30
0.0
 11
-7.004755
 21
147.767949
 31
0.0
  0
LINE
  8
41
  5
2C2A2
 10
-6.004755
 20
147.5
 30
0.0
 11
-6.004755
 21
143.0
 31
0.0
  0
LINE
  8
44
  5
2C2A3
 10
-17.004755
 20
147.0
 30
0.0
 11
-17.004755
 21
153.0
 31
0.0
  0
LINE
  8
44
  5
2C2A4
 10
-17.004755
 20
143.0
 30
0.0
 11
-17.004755
 21
147.0
 31
0.0
  0
LINE
  8
41
  5
2C2A5
 10
-84.004755
 20
209.997393
 30
0.0
 11
-84.004755
 21
195.9
 31
0.0
  0
LINE
  8
41
  5
2C2A6
 10
-82.004755
 20
212.9
 30
0.0
 11
-82.004755
 21
143.0
 31
0.0
  0
LINE
  8
41
  5
2C2A7
 10
-77.004755
 20
212.369068
 30
0.0
 11
-77.004755
 21
143.0
 31
0.0
  0
ARC
  8
41
  5
2C2A8
 10
-76.504755
 20
211.960748
 30
0.0
 40
0.5
 50
180.0
 51
269.5
  0
LINE
  8
41
  5
2C2A9
 10
-82.004755
 20
212.9
 30
0.0
 11
-82.004755
 21
210.869842
 31
0.0
  0
ARC
  8
41
  5
2C2AA
 10
-77.504755
 20
212.369068
 30
0.0
 40
0.5
 50
0.0
 51
89.60632
  0
LINE
  8
41
  5
2C2AB
 10
-82.004755
 20
212.9
 30
0.0
 11
-77.501319
 21
212.869056
 31
0.0
  0
ARC
  8
41
  5
2C2AC
 10
-83.704755
 20
210.510293
 30
0.0
 40
0.3
 50
92.0
 51
180.0
  0
LINE
  8
41
  5
2C2AD
 10
-83.715225
 20
210.810111
 30
0.0
 11
-82.004755
 21
210.869842
 31
0.0
  0
LINE
  8
41
  5
2C2AE
 10
-77.004755
 20
212.369068
 30
0.0
 11
-77.004755
 21
211.960748
 31
0.0
  0
LINE
  8
41
  5
2C2AF
 10
-84.004755
 20
210.510293
 30
0.0
 11
-84.004755
 21
209.997393
 31
0.0
  0
LINE
  8
41
  5
2C2B0
 10
-84.004755
 20
195.9
 30
0.0
 11
-84.004755
 21
143.0
 31
0.0
  0
LINE
  8
44
  5
2C2B1
 10
-84.004755
 20
90.1
 30
0.0
 11
-10.500392
 21
90.741463
 31
0.0
  0
LINE
  8
41
  5
2C2B2
 10
-76.509118
 20
74.539233
 30
0.0
 11
-8.987302
 21
75.128487
 31
0.0
  0
LINE
  8
41
  5
2C2B3
 10
-5.604755
 20
76.0
 30
0.0
 11
-5.604755
 21
88.0
 31
0.0
  0
LINE
  8
44
  5
2C2B4
 10
-17.004755
 20
139.0
 30
0.0
 11
-10.004755
 21
138.387579
 31
0.0
  0
LINE
  8
44
  5
2C2B5
 10
-17.004755
 20
133.0
 30
0.0
 11
-10.461177
 21
132.427511
 31
0.0
  0
LINE
  8
41
  5
2C2B6
 10
-6.004755
 20
138.5
 30
0.0
 11
-7.004755
 21
138.232051
 31
0.0
  0
ARC
  8
44
  5
2C2B7
 10
-10.504755
 20
131.929414
 30
0.0
 40
0.5
 50
0.0
 51
85.0
  0
LINE
  8
44
  5
2C2B8
 10
-17.004755
 20
139.0
 30
0.0
 11
-17.004755
 21
133.0
 31
0.0
  0
LINE
  8
41
  5
2C2B9
 10
-6.004755
 20
97.6
 30
0.0
 11
-6.004755
 21
93.1
 31
0.0
  0
LINE
  8
41
  5
2C2BA
 10
-6.004755
 20
105.1
 30
0.0
 11
-6.004755
 21
100.6
 31
0.0
  0
LINE
  8
41
  5
2C2BB
 10
-6.004755
 20
105.1
 30
0.0
 11
-7.004755
 21
105.367949
 31
0.0
  0
LINE
  8
41
  5
2C2BC
 10
-6.004755
 20
97.6
 30
0.0
 11
-7.004755
 21
97.867949
 31
0.0
  0
LINE
  8
41
  5
2C2BD
 10
-6.004755
 20
97.6
 30
0.0
 11
-6.004755
 21
100.6
 31
0.0
  0
LINE
  8
41
  5
2C2BE
 10
-6.004755
 20
88.6
 30
0.0
 11
-6.004755
 21
93.1
 31
0.0
  0
ARC
  8
44
  5
2C2BF
 10
-10.504755
 20
91.241444
 30
0.0
 40
0.5
 50
270.5
 51
0.0
  0
LINE
  8
41
  5
2C2C0
 10
-6.004755
 20
88.6
 30
0.0
 11
-7.004755
 21
88.332051
 31
0.0
  0
LINE
  8
41
  5
2C2C1
 10
-5.604755
 20
88.0
 30
0.0
 11
-6.97437
 21
88.340192
 31
0.0
  0
LINE
  8
41
  5
2C2C2
 10
-5.604755
 20
76.0
 30
0.0
 11
-8.047901
 21
75.372156
 31
0.0
  0
ARC
  8
41
  5
2C2C3
 10
-9.004755
 20
77.128411
 30
0.0
 40
2.0
 50
270.5
 51
0.0
  0
LINE
  8
41
  5
2C2C4
 10
-84.004755
 20
76.002607
 30
0.0
 11
-84.004755
 21
90.1
 31
0.0
  0
ARC
  8
41
  5
2C2C5
 10
-76.504755
 20
74.039252
 30
0.0
 40
0.5
 50
90.5
 51
180.0
  0
ARC
  8
41
  5
2C2C6
 10
-77.504755
 20
73.630932
 30
0.0
 40
0.5
 50
270.39368
 51
0.0
  0
LINE
  8
41
  5
2C2C7
 10
-84.004755
 20
75.489707
 30
0.0
 11
-84.004755
 21
76.002607
 31
0.0
  0
LINE
  8
41
  5
2C2C8
 10
-83.715225
 20
75.189889
 30
0.0
 11
-82.004755
 21
75.130158
 31
0.0
  0
ARC
  8
41
  5
2C2C9
 10
-83.704755
 20
75.489707
 30
0.0
 40
0.3
 50
180.0
 51
268.0
  0
LINE
  8
41
  5
2C2CA
 10
-82.004755
 20
73.1
 30
0.0
 11
-77.501319
 21
73.130944
 31
0.0
  0
ENDBLK
  8
0
  5
2C2D2
  0
ENDSEC
  0
SECTION
  2
ENTITIES
  0
VIEWPORT
  8
0
  5
1
 67
     1
 68
     1
 10
210.0
 20
152.094241
 30
0.0
 40
420.0
 41
304.188482
 69
     1
1001
ACAD
1000
MVIEW
1002
{
1070
    16
1010
0.0
1020
0.0
1030
0.0
1010
0.0
1020
0.0
1030
1.0
1040
0.0
1040
304.188482
1040
210.0
1040
152.094241
1040
50.0
1040
0.0
1040
0.0
1070
     0
1070
   100
1070
     1
1070
     1
1070
     1
1070
     0
1070
     0
1070
     0
1040
0.0
1040
0.0
1040
0.0
1040
1.0
1040
1.0
1040
0.0
1040
0.0
1070
     0
1002
{
1002
}
1002
}
  0
INSERT
  8
L1
  5
2C2D3
  2
PICM75B
 10
0.0
 20
0.0
 30
0.0
  0
ENDSEC
  0
EOF
