  0
SECTION
  2
HEADER
  9
$ACADVER
  1
AC1009
  9
$INSBASE
 10
0.0
 20
0.0
 30
0.0
  9
$EXTMIN
 10
-273.336673
 20
20.102576
 30
0.0
  9
$EXTMAX
 10
341.755305
 20
267.259043
 30
0.0
  9
$LIMMIN
 10
0.0
 20
0.0
  9
$LIMMAX
 10
420.0
 20
297.0
  9
$ORTHOMODE
 70
     0
  9
$REGENMODE
 70
     1
  9
$FILLMODE
 70
     1
  9
$QTEXTMODE
 70
     0
  9
$MIRRTEXT
 70
     1
  9
$DRAGMODE
 70
     2
  9
$LTSCALE
 40
7.0
  9
$OSMODE
 70
     0
  9
$ATTMODE
 70
     1
  9
$TEXTSIZE
 40
3.5
  9
$TRACEWID
 40
0.05
  9
$TEXTSTYLE
  7
STANDARD
  9
$CLAYER
  8
L1
  9
$CELTYPE
  6
BYLAYER
  9
$CECOLOR
 62
   256
  9
$DIMSCALE
 40
1.0
  9
$DIMASZ
 40
3.5
  9
$DIMEXO
 40
0.0
  9
$DIMDLI
 40
10.0
  9
$DIMRND
 40
0.0
  9
$DIMDLE
 40
0.0
  9
$DIMEXE
 40
2.0
  9
$DIMTP
 40
0.0
  9
$DIMTM
 40
0.0
  9
$DIMTXT
 40
3.5
  9
$DIMCEN
 40
2.5
  9
$DIMTSZ
 40
0.0
  9
$DIMTOL
 70
     0
  9
$DIMLIM
 70
     0
  9
$DIMTIH
 70
     0
  9
$DIMTOH
 70
     0
  9
$DIMSE1
 70
     0
  9
$DIMSE2
 70
     0
  9
$DIMTAD
 70
     1
  9
$DIMZIN
 70
     8
  9
$DIMBLK
  1

  9
$DIMASO
 70
     1
  9
$DIMSHO
 70
     1
  9
$DIMPOST
  1

  9
$DIMAPOST
  1

  9
$DIMALT
 70
     0
  9
$DIMALTD
 70
     2
  9
$DIMALTF
 40
25.4
  9
$DIMLFAC
 40
1.0
  9
$DIMTOFL
 70
     1
  9
$DIMTVP
 40
0.0
  9
$DIMTIX
 70
     0
  9
$DIMSOXD
 70
     0
  9
$DIMSAH
 70
     0
  9
$DIMBLK1
  1

  9
$DIMBLK2
  1

  9
$DIMSTYLE
  2
*UNNAMED
  9
$DIMCLRD
 70
   256
  9
$DIMCLRE
 70
   256
  9
$DIMCLRT
 70
     3
  9
$DIMTFAC
 40
1.0
  9
$DIMGAP
 40
2.0
  9
$LUNITS
 70
     2
  9
$LUPREC
 70
     2
  9
$SKETCHINC
 40
1.0
  9
$FILLETRAD
 40
0.0
  9
$AUNITS
 70
     0
  9
$AUPREC
 70
     2
  9
$MENU
  1
CAESAR
  9
$ELEVATION
 40
0.0
  9
$PELEVATION
 40
0.0
  9
$THICKNESS
 40
0.0
  9
$LIMCHECK
 70
     0
  9
$BLIPMODE
 70
     1
  9
$CHAMFERA
 40
5.0
  9
$CHAMFERB
 40
5.0
  9
$SKPOLY
 70
     0
  9
$TDCREATE
 40
2449682.499152546
  9
$TDUPDATE
 40
2449682.499152546
  9
$TDINDWG
 40
0.0000000000
  9
$TDUSRTIMER
 40
0.0000000000
  9
$USRTIMER
 70
     1
  9
$ANGBASE
 50
0.0
  9
$ANGDIR
 70
     0
  9
$PDMODE
 70
     0
  9
$PDSIZE
 40
0.0
  9
$PLINEWID
 40
0.0
  9
$COORDS
 70
     2
  9
$SPLFRAME
 70
     0
  9
$SPLINETYPE
 70
     6
  9
$SPLINESEGS
 70
     8
  9
$ATTDIA
 70
     0
  9
$ATTREQ
 70
     1
  9
$HANDLING
 70
     1
  9
$HANDSEED
  5
23186
  9
$SURFTAB1
 70
     6
  9
$SURFTAB2
 70
     6
  9
$SURFTYPE
 70
     6
  9
$SURFU
 70
     6
  9
$SURFV
 70
     6
  9
$UCSNAME
  2

  9
$UCSORG
 10
0.0
 20
0.0
 30
0.0
  9
$UCSXDIR
 10
1.0
 20
0.0
 30
0.0
  9
$UCSYDIR
 10
0.0
 20
1.0
 30
0.0
  9
$PUCSNAME
  2

  9
$PUCSORG
 10
0.0
 20
0.0
 30
0.0
  9
$PUCSXDIR
 10
1.0
 20
0.0
 30
0.0
  9
$PUCSYDIR
 10
0.0
 20
1.0
 30
0.0
  9
$USERI1
 70
     0
  9
$USERI2
 70
     0
  9
$USERI3
 70
     0
  9
$USERI4
 70
     0
  9
$USERI5
 70
     0
  9
$USERR1
 40
1.0
  9
$USERR2
 40
0.0
  9
$USERR3
 40
3.5
  9
$USERR4
 40
0.0
  9
$USERR5
 40
0.0
  9
$WORLDVIEW
 70
     1
  9
$SHADEDGE
 70
     3
  9
$SHADEDIF
 70
    70
  9
$TILEMODE
 70
     1
  9
$MAXACTVP
 70
    16
  9
$PINSBASE
 10
0.0
 20
0.0
 30
0.0
  9
$PLIMCHECK
 70
     0
  9
$PEXTMIN
 10
1.000000E+20
 20
1.000000E+20
 30
1.000000E+20
  9
$PEXTMAX
 10
-1.000000E+20
 20
-1.000000E+20
 30
-1.000000E+20
  9
$PLIMMIN
 10
0.0
 20
0.0
  9
$PLIMMAX
 10
420.0
 20
297.0
  9
$UNITMODE
 70
     0
  9
$VISRETAIN
 70
     0
  9
$PLINEGEN
 70
     0
  9
$PSLTSCALE
 70
     0
  9
$TREEDEPTH
 70
  3020
  9
$DWGCODEPAGE
  3
dos850
  0
ENDSEC
  0
SECTION
  2
TABLES
  0
TABLE
  2
VPORT
 70
     2
  0
VPORT
  2
*ACTIVE
 70
     0
 10
0.0
 20
0.0
 11
1.0
 21
1.0
 12
287.564723
 22
225.231556
 13
0.0
 23
0.0
 14
1.0
 24
1.0
 15
10.0
 25
10.0
 16
0.0
 26
0.0
 36
1.0
 17
0.0
 27
0.0
 37
0.0
 40
456.463112
 41
1.273114
 42
50.0
 43
0.0
 44
0.0
 50
0.0
 51
0.0
 71
     0
 72
  1000
 73
     1
 74
     1
 75
     1
 76
     0
 77
     0
 78
     0
  0
ENDTAB
  0
TABLE
  2
LTYPE
 70
    10
  0
LTYPE
  2
CONTINUOUS
 70
    64
  3
Solid line
 72
    65
 73
     0
 40
0.0
  0
LTYPE
  2
BORDER
 70
     0
  3
__ __ . __ __ . __ __ . __ __ . __ __ . __ __ .
 72
    65
 73
     6
 40
1.75
 49
0.5
 49
-0.25
 49
0.5
 49
-0.25
 49
0.0
 49
-0.25
  0
LTYPE
  2
CENTER
 70
    64
  3
____ _ ____ _ ____ _ ____ _ ____ _ ____ _ ____ 
 72
    65
 73
     4
 40
2.0
 49
1.25
 49
-0.25
 49
0.25
 49
-0.25
  0
LTYPE
  2
DASHDOT
 70
     0
  3
__ . __ . __ . __ . __ . __ . __ . __ . __ . __
 72
    65
 73
     4
 40
1.0
 49
0.5
 49
-0.25
 49
0.0
 49
-0.25
  0
LTYPE
  2
DASHED
 70
    64
  3
__ __ __ __ __ __ __ __ __ __ __ __ __ __ __ __
 72
    65
 73
     2
 40
0.75
 49
0.5
 49
-0.25
  0
LTYPE
  2
DIVIDE
 70
     0
  3
____ . . ____ . . ____ . . ____ . . ____ . . __
 72
    65
 73
     6
 40
1.25
 49
0.5
 49
-0.25
 49
0.0
 49
-0.25
 49
0.0
 49
-0.25
  0
LTYPE
  2
DOT
 70
     0
  3
. . . . . . . . . . . . . . . . . . . . . . . .
 72
    65
 73
     2
 40
0.25
 49
0.0
 49
-0.25
  0
LTYPE
  2
HIDDEN
 70
    64
  3
__ __ __ __ __ __ __ __ __ __ __ __ __ __ __ __
 72
    65
 73
     2
 40
0.375
 49
0.25
 49
-0.125
  0
LTYPE
  2
PHANTOM
 70
    64
  3
______  __  __  ______  __  __  ______  __  __ 
 72
    65
 73
     6
 40
2.5
 49
1.25
 49
-0.25
 49
0.25
 49
-0.25
 49
0.25
 49
-0.25
  0
LTYPE
  2
DOTX2
 70
    64
  3
.  .  .  .  .  .  .  .  .  .  .  .  .  .  .  . 
 72
    65
 73
     2
 40
0.5
 49
0.0
 49
-0.5
  0
ENDTAB
  0
TABLE
  2
LAYER
 70
    74
  0
LAYER
  2
0
 70
    64
 62
     7
  6
CONTINUOUS
  0
LAYER
  2
L1
 70
     0
 62
     3
  6
CONTINUOUS
  0
LAYER
  2
L2
 70
     0
 62
     1
  6
CONTINUOUS
  0
LAYER
  2
L3
 70
     0
 62
     7
  6
DASHED
  0
LAYER
  2
L4
 70
     0
 62
     1
  6
DASHED
  0
LAYER
  2
L5
 70
     0
 62
     6
  6
CENTER
  0
LAYER
  2
L6
 70
     0
 62
     1
  6
CENTER
  0
LAYER
  2
L7
 70
     0
 62
     1
  6
PHANTOM
  0
LAYER
  2
VPORT
 70
     0
 62
     7
  6
CONTINUOUS
  0
LAYER
  2
L8
 70
     0
 62
     1
  6
CONTINUOUS
  0
LAYER
  2
L20
 70
     0
 62
     3
  6
CONTINUOUS
  0
LAYER
  2
L21
 70
     0
 62
     1
  6
CONTINUOUS
  0
LAYER
  2
L22
 70
     0
 62
     1
  6
CONTINUOUS
  0
LAYER
  2
L23
 70
     0
 62
     1
  6
CONTINUOUS
  0
LAYER
  2
L30
 70
     0
 62
     3
  6
CONTINUOUS
  0
LAYER
  2
L31
 70
     0
 62
     1
  6
CONTINUOUS
  0
LAYER
  2
L32
 70
     0
 62
     3
  6
CONTINUOUS
  0
LAYER
  2
L33
 70
     0
 62
     1
  6
CONTINUOUS
  0
LAYER
  2
L34
 70
     0
 62
     3
  6
CONTINUOUS
  0
LAYER
  2
L35
 70
     0
 62
     1
  6
CONTINUOUS
  0
LAYER
  2
L40
 70
     0
 62
     7
  6
CONTINUOUS
  0
LAYER
  2
L41
 70
     0
 62
     1
  6
CONTINUOUS
  0
LAYER
  2
L42
 70
     0
 62
     1
  6
CONTINUOUS
  0
LAYER
  2
L43
 70
     0
 62
     7
  6
CONTINUOUS
  0
LAYER
  2
L44
 70
     0
 62
     1
  6
CONTINUOUS
  0
LAYER
  2
L45
 70
     0
 62
     1
  6
CONTINUOUS
  0
LAYER
  2
L46
 70
     0
 62
     3
  6
CONTINUOUS
  0
LAYER
  2
L50
 70
     0
 62
     7
  6
CONTINUOUS
  0
LAYER
  2
L51
 70
     0
 62
     1
  6
CONTINUOUS
  0
LAYER
  2
L52
 70
     0
 62
     7
  6
CONTINUOUS
  0
LAYER
  2
L53
 70
     0
 62
     1
  6
CONTINUOUS
  0
LAYER
  2
L54
 70
     0
 62
     3
  6
CONTINUOUS
  0
LAYER
  2
L55
 70
     0
 62
     3
  6
CONTINUOUS
  0
LAYER
  2
L56
 70
     0
 62
     3
  6
CONTINUOUS
  0
LAYER
  2
L57
 70
     0
 62
     1
  6
CONTINUOUS
  0
LAYER
  2
L9
 70
     0
 62
     7
  6
HIDDEN
  0
LAYER
  2
L15
 70
     0
 62
     2
  6
CONTINUOUS
  0
LAYER
  2
L16
 70
     0
 62
     5
  6
DOTX2
  0
LAYER
  2
L24
 70
     0
 62
     1
  6
CONTINUOUS
  0
LAYER
  2
A1
 70
     0
 62
     7
  6
CONTINUOUS
  0
LAYER
  2
RA1
 70
     0
 62
     1
  6
CONTINUOUS
  0
LAYER
  2
TITEL
 70
     0
 62
     7
  6
CONTINUOUS
  0
LAYER
  2
DEFPOINTS
 70
     0
 62
     7
  6
CONTINUOUS
  0
LAYER
  2
1
 70
     0
 62
     7
  6
CONTINUOUS
  0
LAYER
  2
11
 70
    64
 62
     7
  6
CONTINUOUS
  0
LAYER
  2
12
 70
     0
 62
     1
  6
CONTINUOUS
  0
LAYER
  2
13
 70
    64
 62
     1
  6
CENTER
  0
LAYER
  2
14
 70
    64
 62
     1
  6
DASHED
  0
LAYER
  2
15
 70
     0
 62
     2
  6
DASHED
  0
LAYER
  2
21
 70
    64
 62
     7
  6
CONTINUOUS
  0
LAYER
  2
22
 70
     0
 62
     1
  6
CONTINUOUS
  0
LAYER
  2
23
 70
    64
 62
     1
  6
CENTER
  0
LAYER
  2
24
 70
    64
 62
     1
  6
DASHED
  0
LAYER
  2
25
 70
     0
 62
     2
  6
DASHED
  0
LAYER
  2
31
 70
    64
 62
     7
  6
CONTINUOUS
  0
LAYER
  2
32
 70
     0
 62
     1
  6
CONTINUOUS
  0
LAYER
  2
33
 70
    64
 62
     1
  6
CENTER
  0
LAYER
  2
34
 70
    64
 62
     1
  6
DASHED
  0
LAYER
  2
35
 70
     0
 62
     2
  6
DASHED
  0
LAYER
  2
41
 70
    64
 62
     7
  6
CONTINUOUS
  0
LAYER
  2
42
 70
     0
 62
     1
  6
CONTINUOUS
  0
LAYER
  2
43
 70
    64
 62
     1
  6
CENTER
  0
LAYER
  2
44
 70
    64
 62
     1
  6
DASHED
  0
LAYER
  2
45
 70
     0
 62
     2
  6
DASHED
  0
LAYER
  2
51
 70
    64
 62
     7
  6
CONTINUOUS
  0
LAYER
  2
52
 70
    64
 62
     1
  6
CONTINUOUS
  0
LAYER
  2
53
 70
    64
 62
     1
  6
CENTER
  0
LAYER
  2
54
 70
     0
 62
     1
  6
DASHED
  0
LAYER
  2
55
 70
     0
 62
     2
  6
DASHED
  0
LAYER
  2
61
 70
    64
 62
     7
  6
CONTINUOUS
  0
LAYER
  2
62
 70
     0
 62
     1
  6
CONTINUOUS
  0
LAYER
  2
63
 70
    64
 62
     1
  6
CENTER
  0
LAYER
  2
64
 70
     0
 62
     1
  6
DASHED
  0
LAYER
  2
65
 70
     0
 62
     2
  6
DASHED
  0
ENDTAB
  0
TABLE
  2
STYLE
 70
     4
  0
STYLE
  2
STANDARD
 70
     0
 40
0.0
 41
1.0
 50
0.0
 71
     0
 42
3.5
  3
CAEISO
  4

  0
STYLE
  2
SIMPLEX
 70
    64
 40
0.0
 41
1.0
 50
0.0
 71
     0
 42
20.0
  3
SIMPLEX.SHX
  4

  0
STYLE
  2
COMPLEX
 70
    64
 40
5.0
 41
1.0
 50
0.0
 71
     0
 42
5.0
  3
COMPLEX
  4

  0
STYLE
  2
CAEISO
 70
     0
 40
0.0
 41
1.0
 50
0.0
 71
     0
 42
1.0
  3
CAEISO
  4

  0
ENDTAB
  0
TABLE
  2
VIEW
 70
     0
  0
ENDTAB
  0
TABLE
  2
UCS
 70
     0
  0
ENDTAB
  0
TABLE
  2
APPID
 70
     1
  0
APPID
  2
ACAD
 70
    64
  0
ENDTAB
  0
TABLE
  2
DIMSTYLE
 70
     6
  0
DIMSTYLE
  2
ACADUS
 70
     0
  3

  4

  5

  6

  7

 40
1.0
 41
0.18
 42
0.0625
 43
0.38
 44
0.18
 45
0.0
 46
0.0
 47
0.0
 48
0.0
140
0.18
141
0.09
142
0.0
143
25.4
144
1.0
145
0.0
146
1.0
147
0.09
 71
     0
 72
     0
 73
     1
 74
     1
 75
     0
 76
     0
 77
     0
 78
     0
170
     0
171
     2
172
     0
173
     0
174
     0
175
     0
176
     0
177
     0
178
     0
  0
DIMSTYLE
  2
NORDIC
 70
     0
  3

  4

  5

  6

  7

 40
1.0
 41
3.5
 42
1.0
 43
10.0
 44
2.0
 45
0.0
 46
0.0
 47
0.0
 48
0.0
140
3.5
141
2.5
142
0.0
143
25.4
144
1.0
145
0.0
146
1.0
147
2.0
 71
     0
 72
     0
 73
     0
 74
     0
 75
     0
 76
     0
 77
     1
 78
     8
170
     0
171
     2
172
     1
173
     0
174
     0
175
     0
176
     0
177
     0
178
     0
  0
DIMSTYLE
  2
RADIAL
 70
     0
  3

  4

  5

  6

  7

 40
1.0
 41
3.5
 42
1.0
 43
10.0
 44
2.0
 45
0.0
 46
0.0
 47
0.0
 48
0.0
140
3.5
141
2.5
142
0.0
143
25.4
144
1.0
145
0.0
146
1.0
147
2.0
 71
     0
 72
     0
 73
     0
 74
     1
 75
     0
 76
     0
 77
     1
 78
     8
170
     0
171
     2
172
     0
173
     0
174
     0
175
     0
176
     0
177
     0
178
     0
  0
DIMSTYLE
  2
NORTOL
 70
     0
  3

  4

  5

  6

  7

 40
1.0
 41
3.5
 42
1.0
 43
10.0
 44
2.0
 45
0.0
 46
0.0
 47
0.2
 48
0.1
140
3.5
141
2.5
142
0.0
143
25.4
144
1.0
145
0.7
146
0.71
147
2.0
 71
     1
 72
     0
 73
     0
 74
     0
 75
     0
 76
     0
 77
     0
 78
     8
170
     0
171
     2
172
     1
173
     0
174
     0
175
     0
176
     0
177
     0
178
     0
  0
DIMSTYLE
  2
RADTOL
 70
     0
  3

  4

  5

  6

  7

 40
1.0
 41
3.5
 42
1.0
 43
10.0
 44
2.0
 45
0.0
 46
0.0
 47
0.2
 48
0.1
140
3.5
141
2.5
142
0.0
143
25.4
144
1.0
145
0.7
146
0.7
147
2.0
 71
     1
 72
     0
 73
     0
 74
     1
 75
     0
 76
     0
 77
     0
 78
     8
170
     0
171
     2
172
     0
173
     0
174
     0
175
     0
176
     0
177
     0
178
     0
  0
DIMSTYLE
  2
HANSU
 70
     0
  3

  4

  5

  6

  7

 40
1.0
 41
3.5
 42
0.0
 43
10.0
 44
2.0
 45
0.0
 46
0.0
 47
0.0
 48
0.0
140
3.5
141
2.5
142
0.0
143
25.4
144
0.8
145
0.0
146
1.0
147
2.0
 71
     0
 72
     0
 73
     0
 74
     0
 75
     0
 76
     0
 77
     1
 78
     8
170
     0
171
     2
172
     1
173
     0
174
     0
175
     0
176
   256
177
   256
178
     3
  0
ENDTAB
  0
ENDSEC
  0
SECTION
  2
BLOCKS
  0
BLOCK
  8
0
  5
2329
  2
AME_NIL
 70
     0
 10
0.0
 20
0.0
 30
0.0
  1
AME_NIL
  3
AME_NIL
  0
ENDBLK
  8
0
  5
232A
  0
BLOCK
  8
0
  5
232C
  2
AME_SOL
 70
     0
 10
0.0
 20
0.0
 30
0.0
  1
AME_SOL
  3
AME_SOL
  0
ENDBLK
  8
0
  5
232D
  0
BLOCK
  8
0
  5
233F
  2
SOLAXES
 70
     0
 10
0.0
 20
0.0
 30
0.0
  1
SOLAXES
  3
SOLAXES
  0
LINE
  8
0
 62
     0
  5
2340
 10
0.0
 20
0.0
 30
0.0
 11
63.851158
 21
0.0
 31
0.0
  0
LINE
  8
0
 62
     0
  5
2341
 10
0.0
 20
0.0
 30
0.0
 11
0.0
 21
63.851158
 31
0.0
  0
LINE
  8
0
 62
     0
  5
2342
 10
0.0
 20
0.0
 30
0.0
 11
0.0
 21
0.0
 31
63.851158
  0
CIRCLE
  8
0
 62
     0
  5
2343
 10
0.0
 20
0.0
 30
57.466042
 40
3.192558
210
1.0
220
0.0
230
0.0
  0
LINE
  8
0
 62
     0
  5
2344
 10
57.466042
 20
3.192558
 30
0.0
 11
63.851158
 21
0.0
 31
0.0
  0
LINE
  8
0
 62
     0
  5
2345
 10
57.466042
 20
0.0
 30
3.192558
 11
63.851158
 21
0.0
 31
0.0
  0
LINE
  8
0
 62
     0
  5
2346
 10
57.466042
 20
-3.192558
 30
0.0
 11
63.851158
 21
0.0
 31
0.0
  0
LINE
  8
0
 62
     0
  5
2347
 10
57.466042
 20
0.0
 30
-3.192558
 11
63.851158
 21
0.0
 31
0.0
  0
CIRCLE
  8
0
 62
     0
  5
2348
 10
0.0
 20
0.0
 30
57.466042
 40
3.192558
210
0.0
220
1.0
230
0.0
  0
LINE
  8
0
 62
     0
  5
2349
 10
3.192558
 20
57.466042
 30
0.0
 11
0.0
 21
63.851158
 31
0.0
  0
LINE
  8
0
 62
     0
  5
234A
 10
0.0
 20
57.466042
 30
3.192558
 11
0.0
 21
63.851158
 31
0.0
  0
LINE
  8
0
 62
     0
  5
234B
 10
-3.192558
 20
57.466042
 30
0.0
 11
0.0
 21
63.851158
 31
0.0
  0
LINE
  8
0
 62
     0
  5
234C
 10
0.0
 20
57.466042
 30
-3.192558
 11
0.0
 21
63.851158
 31
0.0
  0
CIRCLE
  8
0
 62
     0
  5
234D
 10
0.0
 20
0.0
 30
51.080927
 40
3.192558
210
0.0
220
1.0
230
0.0
  0
LINE
  8
0
 62
     0
  5
234E
 10
3.192558
 20
51.080927
 30
0.0
 11
0.0
 21
57.466042
 31
0.0
  0
LINE
  8
0
 62
     0
  5
234F
 10
0.0
 20
51.080927
 30
3.192558
 11
0.0
 21
57.466042
 31
0.0
  0
LINE
  8
0
 62
     0
  5
2350
 10
-3.192558
 20
51.080927
 30
0.0
 11
0.0
 21
57.466042
 31
0.0
  0
LINE
  8
0
 62
     0
  5
2351
 10
0.0
 20
51.080927
 30
-3.192558
 11
0.0
 21
57.466042
 31
0.0
  0
CIRCLE
  8
0
 62
     0
  5
2352
 10
0.0
 20
0.0
 30
57.466042
 40
3.192558
  0
LINE
  8
0
 62
     0
  5
2353
 10
3.192558
 20
0.0
 30
57.466042
 11
0.0
 21
0.0
 31
63.851158
  0
LINE
  8
0
 62
     0
  5
2354
 10
0.0
 20
3.192558
 30
57.466042
 11
0.0
 21
0.0
 31
63.851158
  0
LINE
  8
0
 62
     0
  5
2355
 10
-3.192558
 20
0.0
 30
57.466042
 11
0.0
 21
0.0
 31
63.851158
  0
LINE
  8
0
 62
     0
  5
2356
 10
0.0
 20
-3.192558
 30
57.466042
 11
0.0
 21
0.0
 31
63.851158
  0
CIRCLE
  8
0
 62
     0
  5
2357
 10
0.0
 20
0.0
 30
51.080927
 40
3.192558
  0
LINE
  8
0
 62
     0
  5
2358
 10
3.192558
 20
0.0
 30
51.080927
 11
0.0
 21
0.0
 31
57.466042
  0
LINE
  8
0
 62
     0
  5
2359
 10
0.0
 20
3.192558
 30
51.080927
 11
0.0
 21
0.0
 31
57.466042
  0
LINE
  8
0
 62
     0
  5
235A
 10
-3.192558
 20
0.0
 30
51.080927
 11
0.0
 21
0.0
 31
57.466042
  0
LINE
  8
0
 62
     0
  5
235B
 10
0.0
 20
-3.192558
 30
51.080927
 11
0.0
 21
0.0
 31
57.466042
  0
CIRCLE
  8
0
 62
     0
  5
235C
 10
0.0
 20
0.0
 30
44.695811
 40
3.192558
  0
LINE
  8
0
 62
     0
  5
235D
 10
3.192558
 20
0.0
 30
44.695811
 11
0.0
 21
0.0
 31
51.080927
  0
LINE
  8
0
 62
     0
  5
235E
 10
0.0
 20
3.192558
 30
44.695811
 11
0.0
 21
0.0
 31
51.080927
  0
LINE
  8
0
 62
     0
  5
235F
 10
-3.192558
 20
0.0
 30
44.695811
 11
0.0
 21
0.0
 31
51.080927
  0
LINE
  8
0
 62
     0
  5
2360
 10
0.0
 20
-3.192558
 30
44.695811
 11
0.0
 21
0.0
 31
51.080927
  0
ENDBLK
  8
0
  5
2361
  0
BLOCK
  8
0
  5
2460
  2
AME_MAT
 70
     0
 10
0.0
 20
0.0
 30
0.0
  1
AME_MAT
  3
AME_MAT
  0
ENDBLK
  8
0
  5
2461
  0
BLOCK
  8
0
  5
2465
  2
PICM20C
 70
    64
 10
0.0
 20
0.0
 30
0.0
  3
PICM20C
  0
LINE
  8
52
  5
4C10
 10
-250.936673
 20
74.880809
 30
0.0
 11
-155.336673
 21
74.880809
 31
0.0
  0
LINE
  8
52
  5
4C11
 10
-250.936673
 20
77.680809
 30
0.0
 11
-155.336673
 21
77.680809
 31
0.0
  0
LINE
  8
51
  5
4C12
 10
-252.436673
 20
79.180809
 30
0.0
 11
-155.336673
 21
79.180809
 31
0.0
  0
LINE
  8
51
  5
4C13
 10
-261.336673
 20
73.680809
 30
0.0
 11
-155.336673
 21
73.680809
 31
0.0
  0
LINE
  8
52
  5
4C14
 10
-269.136673
 20
93.080809
 30
0.0
 11
-269.136673
 21
143.680809
 31
0.0
  0
LINE
  8
52
  5
4C15
 10
-266.336673
 20
93.080809
 30
0.0
 11
-266.336673
 21
143.680809
 31
0.0
  0
LINE
  8
51
  5
4C16
 10
-264.836673
 20
91.580809
 30
0.0
 11
-264.836673
 21
143.680809
 31
0.0
  0
LINE
  8
51
  5
4C17
 10
-270.336673
 20
82.680809
 30
0.0
 11
-270.336673
 21
143.680809
 31
0.0
  0
ARC
  8
51
  5
4C19
 10
-261.336673
 20
82.680809
 30
0.0
 40
9.0
 50
180.0
 51
270.0
  0
ARC
  8
51
  5
4C1A
 10
-261.336673
 20
82.680809
 30
0.0
 40
9.8
 50
0.0
 51
90.0
  0
ARC
  8
52
  5
4C1B
 10
-261.336673
 20
82.680809
 30
0.0
 40
8.9
 50
0.0
 51
90.0
  0
ARC
  8
52
  5
4C1C
 10
-261.336673
 20
82.680809
 30
0.0
 40
6.1
 50
0.0
 51
90.0
  0
ARC
  8
52
  5
4C1D
 10
-261.336673
 20
82.680809
 30
0.0
 40
5.15
 50
314.867683
 51
45.132317
  0
ARC
  8
52
  5
4C1E
 10
-261.336673
 20
82.680809
 30
0.0
 40
5.15
 50
134.867683
 51
225.132317
  0
LINE
  8
52
  5
4C1F
 10
-266.736673
 20
82.680809
 30
0.0
 11
-266.736673
 21
87.580809
 31
0.0
  0
ARC
  8
52
  5
4C20
 10
-261.336673
 20
82.680809
 30
0.0
 40
5.4
 50
0.0
 51
90.0
  0
LINE
  8
52
  5
4C22
 10
-257.703493
 20
79.030809
 30
0.0
 11
-264.969854
 21
79.030809
 31
0.0
  0
LINE
  8
52
  5
4C23
 10
-256.436673
 20
77.280809
 30
0.0
 11
-261.336673
 21
77.280809
 31
0.0
  0
ARC
  8
52
  5
4C24
 10
-250.936673
 20
79.180809
 30
0.0
 40
4.3
 50
180.0
 51
270.0
  0
LINE
  8
52
  5
4C25
 10
-255.236673
 20
82.680809
 30
0.0
 11
-255.236673
 21
79.180809
 31
0.0
  0
ARC
  8
52
  5
4C26
 10
-250.936673
 20
79.180809
 30
0.0
 40
1.5
 50
180.0
 51
270.0
  0
LINE
  8
52
  5
4C27
 10
-252.436673
 20
82.680809
 30
0.0
 11
-252.436673
 21
79.180809
 31
0.0
  0
LINE
  8
51
  5
4C29
 10
-251.536673
 20
82.680809
 30
0.0
 11
-251.536673
 21
79.680809
 31
0.0
  0
ARC
  8
52
  5
4C2A
 10
-256.436673
 20
77.780809
 30
0.0
 40
0.5
 50
270.0
 51
0.0
  0
LINE
  8
52
  5
4C2B
 10
-255.936673
 20
77.780809
 30
0.0
 11
-255.936673
 21
82.680809
 31
0.0
  0
ARC
  8
52
  5
4C2C
 10
-261.336673
 20
82.680809
 30
0.0
 40
5.4
 50
180.0
 51
270.0
  0
LINE
  8
52
  5
4C2D
 10
-257.703493
 20
86.330809
 30
0.0
 11
-264.969854
 21
86.330809
 31
0.0
  0
ARC
  8
52
  5
4C2E
 10
-264.836673
 20
93.080809
 30
0.0
 40
4.3
 50
180.0
 51
270.0
  0
ARC
  8
52
  5
4C2F
 10
-264.836673
 20
93.080809
 30
0.0
 40
1.5
 50
180.0
 51
270.0
  0
LINE
  8
52
  5
4C30
 10
-261.336673
 20
88.780809
 30
0.0
 11
-264.836673
 21
88.780809
 31
0.0
  0
LINE
  8
52
  5
4C31
 10
-261.336673
 20
91.580809
 30
0.0
 11
-264.836673
 21
91.580809
 31
0.0
  0
ARC
  8
52
  5
4C32
 10
-266.236673
 20
87.580809
 30
0.0
 40
0.5
 50
90.0
 51
180.0
  0
LINE
  8
52
  5
4C33
 10
-261.336673
 20
88.080809
 30
0.0
 11
-266.236673
 21
88.080809
 31
0.0
  0
LINE
  8
51
  5
4C35
 10
-261.336673
 20
92.480809
 30
0.0
 11
-264.336673
 21
92.480809
 31
0.0
  0
LINE
  8
53
  6
DASHDOT
  5
4C36
 10
-155.336673
 20
69.680809
 30
0.0
 11
-155.336673
 21
143.680809
 31
0.0
  0
LINE
  8
53
  6
DASHDOT
  5
4C37
 10
-155.336673
 20
143.680809
 30
0.0
 11
-37.336673
 21
143.680809
 31
0.0
  0
LINE
  8
52
  5
4C38
 10
-41.536673
 20
93.080809
 30
0.0
 11
-41.536673
 21
143.680809
 31
0.0
  0
LINE
  8
52
  5
4C39
 10
-44.336673
 20
93.080809
 30
0.0
 11
-44.336673
 21
143.680809
 31
0.0
  0
LINE
  8
51
  5
4C3A
 10
-45.836673
 20
91.580809
 30
0.0
 11
-45.836673
 21
143.680809
 31
0.0
  0
LINE
  8
51
  5
4C3B
 10
-40.336673
 20
82.680809
 30
0.0
 11
-40.336673
 21
143.680809
 31
0.0
  0
LINE
  8
51
  5
4C3C
 10
-49.336673
 20
73.680809
 30
0.0
 11
-155.336673
 21
73.680809
 31
0.0
  0
LINE
  8
52
  5
4C3D
 10
-52.969854
 20
86.330809
 30
0.0
 11
-45.703493
 21
86.330809
 31
0.0
  0
LINE
  8
52
  5
4C3E
 10
-54.236673
 20
77.280809
 30
0.0
 11
-49.336673
 21
77.280809
 31
0.0
  0
LINE
  8
52
  5
4C3F
 10
-52.969854
 20
79.030809
 30
0.0
 11
-45.703493
 21
79.030809
 31
0.0
  0
ARC
  8
52
  5
4C40
 10
-49.336673
 20
82.680809
 30
0.0
 40
5.4
 50
90.0
 51
180.0
  0
ARC
  8
52
  5
4C41
 10
-49.336673
 20
82.680809
 30
0.0
 40
6.1
 50
90.0
 51
180.0
  0
ARC
  8
52
  5
4C42
 10
-49.336673
 20
82.680809
 30
0.0
 40
8.9
 50
90.0
 51
180.0
  0
ARC
  8
51
  5
4C43
 10
-49.336673
 20
82.680809
 30
0.0
 40
9.8
 50
90.0
 51
180.0
  0
LINE
  8
52
  5
4C45
 10
-59.736673
 20
74.880809
 30
0.0
 11
-155.336673
 21
74.880809
 31
0.0
  0
LINE
  8
52
  5
4C46
 10
-59.736673
 20
77.680809
 30
0.0
 11
-155.336673
 21
77.680809
 31
0.0
  0
LINE
  8
51
  5
4C47
 10
-58.236673
 20
79.180809
 30
0.0
 11
-155.336673
 21
79.180809
 31
0.0
  0
ARC
  8
52
  5
4C48
 10
-49.336673
 20
82.680809
 30
0.0
 40
5.15
 50
134.867683
 51
225.132317
  0
ARC
  8
52
  5
4C49
 10
-59.736673
 20
79.180809
 30
0.0
 40
4.3
 50
270.0
 51
0.0
  0
LINE
  8
52
  5
4C4A
 10
-54.736673
 20
77.780809
 30
0.0
 11
-54.736673
 21
82.680809
 31
0.0
  0
ARC
  8
52
  5
4C4B
 10
-54.236673
 20
77.780809
 30
0.0
 40
0.5
 50
180.0
 51
270.0
  0
LINE
  8
51
  5
4C4C
 10
-59.136673
 20
82.680809
 30
0.0
 11
-59.136673
 21
79.680809
 31
0.0
  0
LINE
  8
52
  5
4C4E
 10
-58.236673
 20
82.680809
 30
0.0
 11
-58.236673
 21
79.180809
 31
0.0
  0
ARC
  8
52
  5
4C4F
 10
-59.736673
 20
79.180809
 30
0.0
 40
1.5
 50
270.0
 51
0.0
  0
LINE
  8
52
  5
4C50
 10
-55.436673
 20
82.680809
 30
0.0
 11
-55.436673
 21
79.180809
 31
0.0
  0
LINE
  8
52
  5
4C52
 10
-43.936673
 20
82.680809
 30
0.0
 11
-43.936673
 21
87.580809
 31
0.0
  0
ARC
  8
52
  5
4C53
 10
-49.336673
 20
82.680809
 30
0.0
 40
5.15
 50
314.867683
 51
45.132317
  0
ARC
  8
51
  5
4C54
 10
-49.336673
 20
82.680809
 30
0.0
 40
9.0
 50
270.0
 51
0.0
  0
ARC
  8
52
  5
4C55
 10
-49.336673
 20
82.680809
 30
0.0
 40
5.4
 50
270.0
 51
0.0
  0
ARC
  8
52
  5
4C56
 10
-45.836673
 20
93.080809
 30
0.0
 40
1.5
 50
270.0
 51
0.0
  0
ARC
  8
52
  5
4C57
 10
-45.836673
 20
93.080809
 30
0.0
 40
4.3
 50
270.0
 51
0.0
  0
LINE
  8
52
  5
4C58
 10
-49.336673
 20
88.080809
 30
0.0
 11
-44.436673
 21
88.080809
 31
0.0
  0
ARC
  8
52
  5
4C59
 10
-44.436673
 20
87.580809
 30
0.0
 40
0.5
 50
360.0
 51
90.0
  0
LINE
  8
52
  5
4C5A
 10
-49.336673
 20
88.780809
 30
0.0
 11
-45.836673
 21
88.780809
 31
0.0
  0
LINE
  8
51
  5
4C5B
 10
-49.336673
 20
92.480809
 30
0.0
 11
-46.336673
 21
92.480809
 31
0.0
  0
LINE
  8
52
  5
4C5D
 10
-49.336673
 20
91.580809
 30
0.0
 11
-45.836673
 21
91.580809
 31
0.0
  0
LINE
  8
53
  6
DASHDOT
  5
4C5E
 10
-155.336673
 20
143.680809
 30
0.0
 11
-273.336673
 21
143.680809
 31
0.0
  0
LINE
  8
51
  5
4C5F
 10
-40.336673
 20
204.680809
 30
0.0
 11
-40.336673
 21
143.680809
 31
0.0
  0
LINE
  8
51
  5
4C60
 10
-45.836673
 20
195.780809
 30
0.0
 11
-45.836673
 21
143.680809
 31
0.0
  0
LINE
  8
52
  5
4C61
 10
-44.336673
 20
194.280809
 30
0.0
 11
-44.336673
 21
143.680809
 31
0.0
  0
LINE
  8
52
  5
4C62
 10
-41.536673
 20
194.280809
 30
0.0
 11
-41.536673
 21
143.680809
 31
0.0
  0
LINE
  8
52
  5
4C63
 10
-269.136673
 20
194.280809
 30
0.0
 11
-269.136673
 21
143.680809
 31
0.0
  0
LINE
  8
52
  5
4C64
 10
-266.336673
 20
194.280809
 30
0.0
 11
-266.336673
 21
143.680809
 31
0.0
  0
LINE
  8
51
  5
4C65
 10
-264.836673
 20
195.780809
 30
0.0
 11
-264.836673
 21
143.680809
 31
0.0
  0
LINE
  8
51
  5
4C66
 10
-270.336673
 20
204.680809
 30
0.0
 11
-270.336673
 21
143.680809
 31
0.0
  0
LINE
  8
53
  6
DASHDOT
  5
4C67
 10
-155.336673
 20
217.680809
 30
0.0
 11
-155.336673
 21
143.680809
 31
0.0
  0
LINE
  8
51
  5
4C68
 10
-261.336673
 20
213.680809
 30
0.0
 11
-155.336673
 21
213.680809
 31
0.0
  0
LINE
  8
52
  5
4C69
 10
-257.703493
 20
201.030809
 30
0.0
 11
-264.969854
 21
201.030809
 31
0.0
  0
LINE
  8
52
  5
4C6A
 10
-256.436673
 20
210.080809
 30
0.0
 11
-261.336673
 21
210.080809
 31
0.0
  0
LINE
  8
52
  5
4C6B
 10
-257.703493
 20
208.330809
 30
0.0
 11
-264.969854
 21
208.330809
 31
0.0
  0
ARC
  8
52
  5
4C6C
 10
-261.336673
 20
204.680809
 30
0.0
 40
5.4
 50
270.0
 51
0.0
  0
ARC
  8
52
  5
4C6D
 10
-261.336673
 20
204.680809
 30
0.0
 40
6.1
 50
270.0
 51
0.0
  0
ARC
  8
52
  5
4C6E
 10
-261.336673
 20
204.680809
 30
0.0
 40
8.9
 50
270.0
 51
0.0
  0
ARC
  8
51
  5
4C6F
 10
-261.336673
 20
204.680809
 30
0.0
 40
9.8
 50
270.0
 51
0.0
  0
LINE
  8
51
  5
4C71
 10
-58.236673
 20
208.180809
 30
0.0
 11
-155.336673
 21
208.180809
 31
0.0
  0
LINE
  8
52
  5
4C72
 10
-59.736673
 20
209.680809
 30
0.0
 11
-155.336673
 21
209.680809
 31
0.0
  0
LINE
  8
52
  5
4C73
 10
-59.736673
 20
212.480809
 30
0.0
 11
-155.336673
 21
212.480809
 31
0.0
  0
LINE
  8
51
  5
4C74
 10
-49.336673
 20
213.680809
 30
0.0
 11
-155.336673
 21
213.680809
 31
0.0
  0
ARC
  8
51
  5
4C76
 10
-49.336673
 20
204.680809
 30
0.0
 40
9.8
 50
180.0
 51
270.0
  0
ARC
  8
52
  5
4C77
 10
-49.336673
 20
204.680809
 30
0.0
 40
8.9
 50
180.0
 51
270.0
  0
ARC
  8
52
  5
4C78
 10
-49.336673
 20
204.680809
 30
0.0
 40
6.1
 50
180.0
 51
270.0
  0
ARC
  8
52
  5
4C79
 10
-49.336673
 20
204.680809
 30
0.0
 40
5.4
 50
180.0
 51
270.0
  0
LINE
  8
52
  5
4C7A
 10
-52.969854
 20
208.330809
 30
0.0
 11
-45.703493
 21
208.330809
 31
0.0
  0
LINE
  8
52
  5
4C7B
 10
-54.236673
 20
210.080809
 30
0.0
 11
-49.336673
 21
210.080809
 31
0.0
  0
LINE
  8
52
  5
4C7C
 10
-52.969854
 20
201.030809
 30
0.0
 11
-45.703493
 21
201.030809
 31
0.0
  0
ARC
  8
52
  5
4C7D
 10
-49.336673
 20
204.680809
 30
0.0
 40
5.15
 50
314.867683
 51
45.132317
  0
LINE
  8
52
  5
4C7E
 10
-43.936673
 20
204.680809
 30
0.0
 11
-43.936673
 21
199.780809
 31
0.0
  0
ARC
  8
51
  5
4C80
 10
-49.336673
 20
204.680809
 30
0.0
 40
9.0
 50
0.0
 51
90.0
  0
ARC
  8
52
  5
4C81
 10
-49.336673
 20
204.680809
 30
0.0
 40
5.4
 50
0.0
 51
90.0
  0
ARC
  8
52
  5
4C82
 10
-45.836673
 20
194.280809
 30
0.0
 40
4.3
 50
0.0
 51
90.0
  0
ARC
  8
52
  5
4C83
 10
-45.836673
 20
194.280809
 30
0.0
 40
1.5
 50
0.0
 51
90.0
  0
LINE
  8
52
  5
4C84
 10
-49.336673
 20
198.580809
 30
0.0
 11
-45.836673
 21
198.580809
 31
0.0
  0
ARC
  8
52
  5
4C85
 10
-44.436673
 20
199.780809
 30
0.0
 40
0.5
 50
270.0
 51
0.0
  0
LINE
  8
52
  5
4C86
 10
-49.336673
 20
199.280809
 30
0.0
 11
-44.436673
 21
199.280809
 31
0.0
  0
LINE
  8
52
  5
4C87
 10
-49.336673
 20
195.780809
 30
0.0
 11
-45.836673
 21
195.780809
 31
0.0
  0
LINE
  8
51
  5
4C89
 10
-49.336673
 20
194.880809
 30
0.0
 11
-46.336673
 21
194.880809
 31
0.0
  0
ARC
  8
52
  5
4C8A
 10
-49.336673
 20
204.680809
 30
0.0
 40
5.15
 50
134.867683
 51
225.132317
  0
ARC
  8
52
  5
4C8B
 10
-59.736673
 20
208.180809
 30
0.0
 40
4.3
 50
0.0
 51
90.0
  0
LINE
  8
52
  5
4C8C
 10
-55.436673
 20
204.680809
 30
0.0
 11
-55.436673
 21
208.180809
 31
0.0
  0
ARC
  8
52
  5
4C8D
 10
-59.736673
 20
208.180809
 30
0.0
 40
1.5
 50
0.0
 51
90.0
  0
LINE
  8
52
  5
4C8E
 10
-58.236673
 20
204.680809
 30
0.0
 11
-58.236673
 21
208.180809
 31
0.0
  0
LINE
  8
51
  5
4C90
 10
-59.136673
 20
204.680809
 30
0.0
 11
-59.136673
 21
207.680809
 31
0.0
  0
ARC
  8
52
  5
4C91
 10
-54.236673
 20
209.580809
 30
0.0
 40
0.5
 50
90.0
 51
180.0
  0
LINE
  8
52
  5
4C92
 10
-54.736673
 20
209.580809
 30
0.0
 11
-54.736673
 21
204.680809
 31
0.0
  0
LINE
  8
52
  5
4C93
 10
-250.936673
 20
212.480809
 30
0.0
 11
-155.336673
 21
212.480809
 31
0.0
  0
LINE
  8
52
  5
4C94
 10
-250.936673
 20
209.680809
 30
0.0
 11
-155.336673
 21
209.680809
 31
0.0
  0
LINE
  8
51
  5
4C95
 10
-252.436673
 20
208.180809
 30
0.0
 11
-155.336673
 21
208.180809
 31
0.0
  0
ARC
  8
52
  5
4C96
 10
-261.336673
 20
204.680809
 30
0.0
 40
5.15
 50
314.867683
 51
45.132317
  0
ARC
  8
52
  5
4C97
 10
-250.936673
 20
208.180809
 30
0.0
 40
4.3
 50
90.0
 51
180.0
  0
LINE
  8
52
  5
4C98
 10
-255.936673
 20
209.580809
 30
0.0
 11
-255.936673
 21
204.680809
 31
0.0
  0
ARC
  8
52
  5
4C99
 10
-256.436673
 20
209.580809
 30
0.0
 40
0.5
 50
360.0
 51
90.0
  0
LINE
  8
51
  5
4C9A
 10
-251.536673
 20
204.680809
 30
0.0
 11
-251.536673
 21
207.680809
 31
0.0
  0
LINE
  8
52
  5
4C9C
 10
-252.436673
 20
204.680809
 30
0.0
 11
-252.436673
 21
208.180809
 31
0.0
  0
ARC
  8
52
  5
4C9D
 10
-250.936673
 20
208.180809
 30
0.0
 40
1.5
 50
90.0
 51
180.0
  0
LINE
  8
52
  5
4C9E
 10
-255.236673
 20
204.680809
 30
0.0
 11
-255.236673
 21
208.180809
 31
0.0
  0
LINE
  8
52
  5
4CA0
 10
-266.736673
 20
204.680809
 30
0.0
 11
-266.736673
 21
199.780809
 31
0.0
  0
ARC
  8
52
  5
4CA1
 10
-261.336673
 20
204.680809
 30
0.0
 40
5.15
 50
134.867683
 51
225.132317
  0
ARC
  8
51
  5
4CA2
 10
-261.336673
 20
204.680809
 30
0.0
 40
9.0
 50
90.0
 51
180.0
  0
ARC
  8
52
  5
4CA3
 10
-261.336673
 20
204.680809
 30
0.0
 40
5.4
 50
90.0
 51
180.0
  0
ARC
  8
52
  5
4CA4
 10
-264.836673
 20
194.280809
 30
0.0
 40
1.5
 50
90.0
 51
180.0
  0
ARC
  8
52
  5
4CA5
 10
-264.836673
 20
194.280809
 30
0.0
 40
4.3
 50
90.0
 51
180.0
  0
LINE
  8
52
  5
4CA6
 10
-261.336673
 20
199.280809
 30
0.0
 11
-266.236673
 21
199.280809
 31
0.0
  0
ARC
  8
52
  5
4CA7
 10
-266.236673
 20
199.780809
 30
0.0
 40
0.5
 50
180.0
 51
270.0
  0
LINE
  8
52
  5
4CA8
 10
-261.336673
 20
198.580809
 30
0.0
 11
-264.836673
 21
198.580809
 31
0.0
  0
LINE
  8
51
  5
4CA9
 10
-261.336673
 20
194.880809
 30
0.0
 11
-264.336673
 21
194.880809
 31
0.0
  0
LINE
  8
52
  5
4CAB
 10
-261.336673
 20
195.780809
 30
0.0
 11
-264.836673
 21
195.780809
 31
0.0
  0
LINE
  8
61
  5
4E14
 10
53.860182
 20
82.680809
 30
0.0
 11
53.860182
 21
143.680809
 31
0.0
  0
LINE
  8
63
  6
DASHDOT
  5
4E15
 10
168.860182
 20
69.680809
 30
0.0
 11
168.860182
 21
143.680809
 31
0.0
  0
LINE
  8
61
  5
4E16
 10
62.860182
 20
73.680809
 30
0.0
 11
168.860182
 21
73.680809
 31
0.0
  0
LINE
  8
61
  5
4E17
 10
66.493363
 20
86.330809
 30
0.0
 11
59.227002
 21
86.330809
 31
0.0
  0
LINE
  8
61
  5
4E19
 10
66.493363
 20
79.030809
 30
0.0
 11
59.227002
 21
79.030809
 31
0.0
  0
ARC
  8
61
  5
4E44
 10
62.860182
 20
82.680809
 30
0.0
 40
5.15
 50
314.867683
 51
45.132317
  0
ARC
  8
61
  5
4E47
 10
67.760182
 20
77.780809
 30
0.0
 40
0.5
 50
270.0
 51
0.0
  0
ARC
  8
61
  5
4E4F
 10
62.860182
 20
82.680809
 30
0.0
 40
5.15
 50
134.867683
 51
225.132317
  0
ARC
  8
61
  5
4E50
 10
62.860182
 20
82.680809
 30
0.0
 40
9.0
 50
180.0
 51
270.0
  0
ARC
  8
61
  5
4E55
 10
57.960182
 20
87.580809
 30
0.0
 40
0.5
 50
90.0
 51
180.0
  0
LINE
  8
63
  6
DASHDOT
  5
4E63
 10
168.860182
 20
143.680809
 30
0.0
 11
50.860182
 21
143.680809
 31
0.0
  0
LINE
  8
61
  5
5135
 10
55.403862
 20
82.680809
 30
0.0
 11
55.403862
 21
143.680809
 31
0.0
  0
ARC
  8
61
  5
51ED
 10
62.860182
 20
82.680809
 30
0.0
 40
7.45632
 50
180.0
 51
270.0
  0
LINE
  8
61
  5
51EE
 10
62.860182
 20
75.224489
 30
0.0
 11
168.860182
 21
75.224489
 31
0.0
  0
CIRCLE
  8
61
  5
51F0
 10
62.860182
 20
82.680809
 30
0.0
 40
5.5
  0
LINE
  8
61
  5
51F6
 10
274.860182
 20
75.224489
 30
0.0
 11
168.860182
 21
75.224489
 31
0.0
  0
LINE
  8
61
  5
51F7
 10
274.860182
 20
73.680809
 30
0.0
 11
168.860182
 21
73.680809
 31
0.0
  0
LINE
  8
61
  5
51F9
 10
282.316502
 20
82.680809
 30
0.0
 11
282.316502
 21
143.680809
 31
0.0
  0
LINE
  8
61
  5
51FA
 10
283.860182
 20
82.680809
 30
0.0
 11
283.860182
 21
143.680809
 31
0.0
  0
CIRCLE
  8
61
  5
51FC
 10
274.860182
 20
82.680809
 30
0.0
 40
5.5
  0
LINE
  8
61
  5
51FE
 10
271.227002
 20
79.030809
 30
0.0
 11
278.493363
 21
79.030809
 31
0.0
  0
LINE
  8
61
  5
51FF
 10
271.227002
 20
86.330809
 30
0.0
 11
278.493363
 21
86.330809
 31
0.0
  0
ARC
  8
61
  5
5201
 10
274.860182
 20
82.680809
 30
0.0
 40
7.45632
 50
270.0
 51
0.0
  0
ARC
  8
61
  5
5202
 10
274.860182
 20
82.680809
 30
0.0
 40
9.0
 50
270.0
 51
0.0
  0
ARC
  8
61
  5
5203
 10
274.860182
 20
82.680809
 30
0.0
 40
5.15
 50
314.867683
 51
45.132317
  0
ARC
  8
61
  5
5204
 10
279.760182
 20
87.580809
 30
0.0
 40
0.5
 50
360.0
 51
90.0
  0
ARC
  8
61
  5
5205
 10
269.960182
 20
77.780809
 30
0.0
 40
0.5
 50
180.0
 51
270.0
  0
ARC
  8
61
  5
5206
 10
274.860182
 20
82.680809
 30
0.0
 40
5.15
 50
134.867683
 51
225.132317
  0
LINE
  8
63
  6
DASHDOT
  5
5207
 10
168.860182
 20
143.680809
 30
0.0
 11
286.860182
 21
143.680809
 31
0.0
  0
LINE
  8
61
  5
5209
 10
62.860182
 20
212.13713
 30
0.0
 11
168.860182
 21
212.13713
 31
0.0
  0
LINE
  8
61
  5
520A
 10
62.860182
 20
213.680809
 30
0.0
 11
168.860182
 21
213.680809
 31
0.0
  0
LINE
  8
61
  5
520C
 10
55.403862
 20
204.680809
 30
0.0
 11
55.403862
 21
143.680809
 31
0.0
  0
LINE
  8
61
  5
520D
 10
53.860182
 20
204.680809
 30
0.0
 11
53.860182
 21
143.680809
 31
0.0
  0
CIRCLE
  8
61
  5
520F
 10
62.860182
 20
204.680809
 30
0.0
 40
5.5
  0
LINE
  8
61
  5
5211
 10
66.493363
 20
208.330809
 30
0.0
 11
59.227002
 21
208.330809
 31
0.0
  0
LINE
  8
61
  5
5212
 10
66.493363
 20
201.030809
 30
0.0
 11
59.227002
 21
201.030809
 31
0.0
  0
ARC
  8
61
  5
5214
 10
62.860182
 20
204.680809
 30
0.0
 40
7.45632
 50
90.0
 51
180.0
  0
ARC
  8
61
  5
5215
 10
62.860182
 20
204.680809
 30
0.0
 40
9.0
 50
90.0
 51
180.0
  0
ARC
  8
61
  5
5216
 10
62.860182
 20
204.680809
 30
0.0
 40
5.15
 50
134.867683
 51
225.132317
  0
ARC
  8
61
  5
5217
 10
57.960182
 20
199.780809
 30
0.0
 40
0.5
 50
180.0
 51
270.0
  0
ARC
  8
61
  5
5218
 10
67.760182
 20
209.580809
 30
0.0
 40
0.5
 50
360.0
 51
90.0
  0
ARC
  8
61
  5
5219
 10
62.860182
 20
204.680809
 30
0.0
 40
5.15
 50
314.867683
 51
45.132317
  0
LINE
  8
61
  5
521A
 10
283.860182
 20
204.680809
 30
0.0
 11
283.860182
 21
143.680809
 31
0.0
  0
LINE
  8
61
  5
521B
 10
282.316502
 20
204.680809
 30
0.0
 11
282.316502
 21
143.680809
 31
0.0
  0
LINE
  8
63
  6
DASHDOT
  5
521D
 10
168.860182
 20
217.680809
 30
0.0
 11
168.860182
 21
143.680809
 31
0.0
  0
LINE
  8
61
  5
521E
 10
274.860182
 20
213.680809
 30
0.0
 11
168.860182
 21
213.680809
 31
0.0
  0
LINE
  8
61
  5
521F
 10
274.860182
 20
212.13713
 30
0.0
 11
168.860182
 21
212.13713
 31
0.0
  0
ARC
  8
61
  5
5221
 10
274.860182
 20
204.680809
 30
0.0
 40
5.15
 50
134.867683
 51
225.132317
  0
CIRCLE
  8
61
  5
5223
 10
274.860182
 20
204.680809
 30
0.0
 40
5.5
  0
ARC
  8
61
  5
5224
 10
269.960182
 20
209.580809
 30
0.0
 40
0.5
 50
90.0
 51
180.0
  0
ARC
  8
61
  5
5226
 10
274.860182
 20
204.680809
 30
0.0
 40
9.0
 50
0.0
 51
90.0
  0
ARC
  8
61
  5
5227
 10
274.860182
 20
204.680809
 30
0.0
 40
7.45632
 50
0.0
 51
90.0
  0
ARC
  8
61
  5
5229
 10
274.860182
 20
204.680809
 30
0.0
 40
5.15
 50
314.867683
 51
45.132317
  0
LINE
  8
61
  5
522A
 10
271.227002
 20
201.030809
 30
0.0
 11
278.493363
 21
201.030809
 31
0.0
  0
LINE
  8
61
  5
522B
 10
271.227002
 20
208.330809
 30
0.0
 11
278.493363
 21
208.330809
 31
0.0
  0
ARC
  8
61
  5
522C
 10
279.760182
 20
199.780809
 30
0.0
 40
0.5
 50
270.0
 51
0.0
  0
LINE
  8
34
  5
522E
 10
336.053004
 20
194.880809
 30
0.0
 11
336.053004
 21
143.630809
 31
0.0
  0
LINE
  8
34
  5
5233
 10
318.053004
 20
194.880809
 30
0.0
 11
336.053004
 21
194.880809
 31
0.0
  0
LINE
  8
31
  5
5243
 10
339.053004
 20
77.552842
 30
0.0
 11
339.053004
 21
143.680809
 31
0.0
  0
LINE
  8
31
  5
5247
 10
324.539916
 20
75.224489
 30
0.0
 11
337.105358
 21
75.553527
 31
0.0
  0
LINE
  8
31
  5
524B
 10
324.053004
 20
74.298817
 30
0.0
 11
324.053004
 21
74.724661
 31
0.0
  0
LINE
  8
31
  5
524C
 10
319.053004
 20
73.680809
 30
0.0
 11
323.566093
 21
73.798989
 31
0.0
  0
ARC
  8
31
  5
524D
 10
323.553004
 20
74.298817
 30
0.0
 40
0.5
 50
271.5
 51
0.0
  0
LINE
  8
31
  5
524E
 10
319.053004
 20
73.680809
 30
0.0
 11
319.053004
 21
143.680809
 31
0.0
  0
ARC
  8
31
  5
5250
 10
324.553004
 20
74.724661
 30
0.0
 40
0.5
 50
91.5
 51
180.0
  0
ARC
  8
31
  5
5251
 10
337.053004
 20
77.552842
 30
0.0
 40
2.0
 50
271.5
 51
0.0
  0
LINE
  8
33
  6
DASHDOT
  5
5254
 10
313.053004
 20
143.680809
 30
0.0
 11
341.755305
 21
143.680809
 31
0.0
  0
LINE
  8
31
  5
C85E
 10
324.053004
 20
74.298817
 30
0.0
 11
324.053004
 21
143.680809
 31
0.0
  0
ARC
  8
52
  5
F356
 10
-261.336673
 20
204.680809
 30
0.0
 40
7.8
 50
105.0
 51
165.0
  0
LINE
  8
52
  5
F357
 10
-266.552673
 20
206.078432
 30
0.0
 11
-268.870895
 21
206.699598
 31
0.0
  0
LINE
  8
52
  5
F358
 10
-262.734296
 20
209.896809
 30
0.0
 11
-263.355462
 21
212.215031
 31
0.0
  0
ARC
  8
52
  5
F359
 10
-49.336673
 20
82.680809
 30
0.0
 40
7.3
 50
290.0
 51
340.0
  0
LINE
  8
52
  5
F35A
 10
-44.262333
 20
80.833901
 30
0.0
 11
-42.476917
 21
80.184062
 31
0.0
  0
LINE
  8
52
  5
F35B
 10
-47.489764
 20
77.606469
 30
0.0
 11
-46.839926
 21
75.821053
 31
0.0
  0
LINE
  8
31
  5
201C4
 10
318.053004
 20
79.16572
 30
0.0
 11
318.053004
 21
92.430809
 31
0.0
  0
LINE
  8
31
  5
201C5
 10
318.053004
 20
92.480809
 30
0.0
 11
319.053004
 21
92.480809
 31
0.0
  0
LINE
  8
31
  5
201C6
 10
318.053004
 20
79.16572
 30
0.0
 11
319.053004
 21
79.16572
 31
0.0
  0
LINE
  8
24
  5
20C59
 10
72.660182
 20
260.056742
 30
0.0
 11
168.860182
 21
260.056742
 31
0.0
  0
LINE
  8
21
  5
20C5A
 10
53.860182
 20
243.556742
 30
0.0
 11
168.860182
 21
243.556742
 31
0.0
  0
LINE
  8
21
  5
20C60
 10
57.732214
 20
263.556742
 30
0.0
 11
168.860182
 21
263.556742
 31
0.0
  0
LINE
  8
21
  5
20C63
 10
59.312547
 20
242.556742
 30
0.0
 11
72.660182
 21
242.556742
 31
0.0
  0
LINE
  8
21
  5
20C68
 10
55.403862
 20
249.043654
 30
0.0
 11
55.7329
 21
261.609096
 31
0.0
  0
LINE
  8
21
  5
20C6D
 10
54.47819
 20
248.556742
 30
0.0
 11
54.904033
 21
248.556742
 31
0.0
  0
LINE
  8
21
  5
20C6E
 10
53.860182
 20
243.556742
 30
0.0
 11
53.978361
 21
248.069831
 31
0.0
  0
ARC
  8
21
  5
20C6F
 10
54.47819
 20
248.056742
 30
0.0
 40
0.5
 50
90.0
 51
178.5
  0
ARC
  8
21
  5
20C72
 10
54.904033
 20
249.056742
 30
0.0
 40
0.5
 50
270.0
 51
358.5
  0
LINE
  8
21
  5
20C73
 10
57.807817
 20
243.556742
 30
0.0
 11
59.312547
 21
243.556742
 31
0.0
  0
LINE
  8
21
  5
20C74
 10
59.312547
 20
243.556742
 30
0.0
 11
59.312547
 21
242.556742
 31
0.0
  0
ARC
  8
21
  5
20C7D
 10
57.732214
 20
261.556742
 30
0.0
 40
2.0
 50
90.0
 51
178.5
  0
LINE
  8
21
  5
20C81
 10
72.660182
 20
242.556742
 30
0.0
 11
72.660182
 21
243.556742
 31
0.0
  0
LINE
  8
21
  5
20C8A
 10
283.860182
 20
243.556742
 30
0.0
 11
282.660182
 21
243.556742
 31
0.0
  0
LINE
  8
21
  5
20C8B
 10
279.98815
 20
263.556742
 30
0.0
 11
168.860182
 21
263.556742
 31
0.0
  0
LINE
  8
23
  6
DASHDOT
  5
20C8D
 10
168.860182
 20
237.556742
 30
0.0
 11
168.860182
 21
267.259043
 31
0.0
  0
LINE
  8
21
  5
20C95
 10
282.316502
 20
249.043654
 30
0.0
 11
281.987465
 21
261.609096
 31
0.0
  0
LINE
  8
21
  5
20C96
 10
278.357817
 20
242.556742
 30
0.0
 11
265.010182
 21
242.556742
 31
0.0
  0
LINE
  8
21
  5
20C97
 10
265.060182
 20
242.556742
 30
0.0
 11
265.060182
 21
243.556742
 31
0.0
  0
LINE
  8
21
  5
20C98
 10
278.357817
 20
242.556742
 30
0.0
 11
278.357817
 21
243.556742
 31
0.0
  0
ARC
  8
21
  5
20C99
 10
282.816331
 20
249.056742
 30
0.0
 40
0.5
 50
181.5
 51
270.0
  0
ARC
  8
21
  5
20C9A
 10
283.242174
 20
248.056742
 30
0.0
 40
0.5
 50
1.5
 51
90.0
  0
LINE
  8
21
  5
20C9B
 10
283.860182
 20
243.556742
 30
0.0
 11
283.742003
 21
248.069831
 31
0.0
  0
LINE
  8
21
  5
20C9C
 10
283.242174
 20
248.556742
 30
0.0
 11
282.816331
 21
248.556742
 31
0.0
  0
ARC
  8
21
  5
20C9D
 10
279.98815
 20
261.556742
 30
0.0
 40
2.0
 50
1.5
 51
90.0
  0
LINE
  8
24
  5
2122D
 10
265.060182
 20
260.056742
 30
0.0
 11
168.810182
 21
260.056742
 31
0.0
  0
LINE
  8
21
  5
2122E
 10
265.060182
 20
242.556742
 30
0.0
 11
265.060182
 21
243.556742
 31
0.0
  0
LINE
  8
21
  5
21234
 10
278.357817
 20
243.556742
 30
0.0
 11
265.060182
 21
243.556742
 31
0.0
  0
LINE
  8
21
  5
21235
 10
279.862547
 20
243.556742
 30
0.0
 11
278.357817
 21
243.556742
 31
0.0
  0
LINE
  8
21
  5
21236
 10
282.660182
 20
243.556742
 30
0.0
 11
279.912547
 21
243.556742
 31
0.0
  0
ARC
  8
51
  5
2228F
 10
-59.636673
 20
207.680809
 30
0.0
 40
0.5
 50
0.0
 51
90.0
  0
ARC
  8
51
  5
22290
 10
-46.336673
 20
194.380809
 30
0.0
 40
0.5
 50
360.0
 51
90.0
  0
ARC
  8
51
  5
22291
 10
-59.636673
 20
79.680809
 30
0.0
 40
0.5
 50
270.0
 51
360.0
  0
ARC
  8
51
  5
22292
 10
-46.336673
 20
92.980809
 30
0.0
 40
0.5
 50
270.0
 51
0.0
  0
ARC
  8
51
  5
22293
 10
-251.036673
 20
79.680809
 30
0.0
 40
0.5
 50
180.0
 51
270.0
  0
ARC
  8
51
  5
22294
 10
-264.336673
 20
92.980809
 30
0.0
 40
0.5
 50
180.0
 51
270.0
  0
ARC
  8
51
  5
22295
 10
-264.336673
 20
194.380809
 30
0.0
 40
0.5
 50
90.0
 51
180.0
  0
ARC
  8
51
  5
22296
 10
-251.036673
 20
207.680809
 30
0.0
 40
0.5
 50
90.0
 51
180.0
  0
LINE
  8
31
  5
2312B
 10
324.053004
 20
213.062801
 30
0.0
 11
324.053004
 21
143.680809
 31
0.0
  0
LINE
  8
31
  5
2312C
 10
319.053004
 20
213.680809
 30
0.0
 11
319.053004
 21
143.680809
 31
0.0
  0
LINE
  8
31
  5
2312D
 10
339.053004
 20
209.808777
 30
0.0
 11
339.053004
 21
143.680809
 31
0.0
  0
LINE
  8
31
  5
2312E
 10
324.539916
 20
212.13713
 30
0.0
 11
337.105358
 21
211.808092
 31
0.0
  0
LINE
  8
31
  5
2312F
 10
318.053004
 20
208.195899
 30
0.0
 11
318.053004
 21
194.930809
 31
0.0
  0
LINE
  8
31
  5
23130
 10
318.053004
 20
194.880809
 30
0.0
 11
319.053004
 21
194.880809
 31
0.0
  0
LINE
  8
31
  5
23131
 10
318.053004
 20
208.195899
 30
0.0
 11
319.053004
 21
208.195899
 31
0.0
  0
ARC
  8
31
  5
23132
 10
324.553004
 20
212.636958
 30
0.0
 40
0.5
 50
180.0
 51
268.5
  0
ARC
  8
31
  5
23133
 10
323.553004
 20
213.062801
 30
0.0
 40
0.5
 50
0.0
 51
88.5
  0
LINE
  8
31
  5
23134
 10
319.053004
 20
213.680809
 30
0.0
 11
323.566093
 21
213.56263
 31
0.0
  0
LINE
  8
31
  5
23135
 10
324.053004
 20
213.062801
 30
0.0
 11
324.053004
 21
212.636958
 31
0.0
  0
ARC
  8
31
  5
23136
 10
337.053004
 20
209.808777
 30
0.0
 40
2.0
 50
0.0
 51
88.5
  0
LINE
  8
34
  5
23137
 10
336.053004
 20
92.480809
 30
0.0
 11
336.053004
 21
143.730809
 31
0.0
  0
LINE
  8
34
  5
23138
 10
318.053004
 20
92.480809
 30
0.0
 11
336.053004
 21
92.480809
 31
0.0
  0
LINE
  8
24
  5
23139
 10
72.660182
 20
243.556742
 30
0.0
 11
72.660182
 21
260.056742
 31
0.0
  0
LINE
  8
21
  5
2313A
 10
265.060182
 20
243.556742
 30
0.0
 11
168.810182
 21
243.556742
 31
0.0
  0
LINE
  8
24
  5
2313B
 10
265.060182
 20
243.556742
 30
0.0
 11
265.060182
 21
260.056742
 31
0.0
  0
LINE
  8
44
  5
2313C
 10
1.66736
 20
92.480809
 30
0.0
 11
1.66736
 21
143.730809
 31
0.0
  0
LINE
  8
41
  5
2313D
 10
13.66736
 20
74.298817
 30
0.0
 11
13.66736
 21
143.680809
 31
0.0
  0
LINE
  8
41
  5
2313E
 10
18.66736
 20
73.680809
 30
0.0
 11
18.66736
 21
143.680809
 31
0.0
  0
LINE
  8
41
  5
2313F
 10
-1.33264
 20
77.552842
 30
0.0
 11
-1.33264
 21
143.680809
 31
0.0
  0
LINE
  8
44
  5
23140
 10
19.66736
 20
92.480809
 30
0.0
 11
1.66736
 21
92.480809
 31
0.0
  0
LINE
  8
41
  5
23141
 10
13.180448
 20
75.224489
 30
0.0
 11
0.615006
 21
75.553527
 31
0.0
  0
LINE
  8
41
  5
23142
 10
19.66736
 20
79.16572
 30
0.0
 11
19.66736
 21
92.430809
 31
0.0
  0
LINE
  8
41
  5
23143
 10
18.66736
 20
73.680809
 30
0.0
 11
14.154271
 21
73.798989
 31
0.0
  0
LINE
  8
41
  5
23144
 10
19.66736
 20
79.16572
 30
0.0
 11
18.66736
 21
79.16572
 31
0.0
  0
ARC
  8
41
  5
23145
 10
13.16736
 20
74.724661
 30
0.0
 40
0.5
 50
0.0
 51
88.5
  0
ARC
  8
41
  5
23146
 10
14.16736
 20
74.298817
 30
0.0
 40
0.5
 50
180.0
 51
268.5
  0
LINE
  8
41
  5
23147
 10
13.66736
 20
74.298817
 30
0.0
 11
13.66736
 21
74.724661
 31
0.0
  0
LINE
  8
41
  5
23148
 10
19.66736
 20
92.480809
 30
0.0
 11
18.66736
 21
92.480809
 31
0.0
  0
ARC
  8
41
  5
23149
 10
0.66736
 20
77.552842
 30
0.0
 40
2.0
 50
180.0
 51
268.5
  0
LINE
  8
41
  5
2314A
 10
-1.33264
 20
209.808777
 30
0.0
 11
-1.33264
 21
143.680809
 31
0.0
  0
LINE
  8
41
  5
2314B
 10
18.66736
 20
213.680809
 30
0.0
 11
18.66736
 21
143.680809
 31
0.0
  0
LINE
  8
41
  5
2314C
 10
13.66736
 20
213.062801
 30
0.0
 11
13.66736
 21
143.680809
 31
0.0
  0
LINE
  8
44
  5
2314D
 10
1.66736
 20
194.880809
 30
0.0
 11
1.66736
 21
143.630809
 31
0.0
  0
LINE
  8
43
  6
DASHDOT
  5
2314E
 10
24.66736
 20
143.680809
 30
0.0
 11
-4.034941
 21
143.680809
 31
0.0
  0
LINE
  8
41
  5
2314F
 10
13.180448
 20
212.13713
 30
0.0
 11
0.615006
 21
211.808092
 31
0.0
  0
LINE
  8
44
  5
23150
 10
19.66736
 20
194.880809
 30
0.0
 11
1.66736
 21
194.880809
 31
0.0
  0
LINE
  8
41
  5
23151
 10
19.66736
 20
208.195899
 30
0.0
 11
19.66736
 21
194.930809
 31
0.0
  0
LINE
  8
41
  5
23152
 10
19.66736
 20
194.880809
 30
0.0
 11
18.66736
 21
194.880809
 31
0.0
  0
LINE
  8
41
  5
23153
 10
18.66736
 20
213.680809
 30
0.0
 11
14.154271
 21
213.56263
 31
0.0
  0
LINE
  8
41
  5
23154
 10
19.66736
 20
208.195899
 30
0.0
 11
18.66736
 21
208.195899
 31
0.0
  0
LINE
  8
41
  5
23155
 10
13.66736
 20
213.062801
 30
0.0
 11
13.66736
 21
212.636958
 31
0.0
  0
ARC
  8
41
  5
23156
 10
14.16736
 20
213.062801
 30
0.0
 40
0.5
 50
91.5
 51
180.0
  0
ARC
  8
41
  5
23157
 10
13.16736
 20
212.636958
 30
0.0
 40
0.5
 50
271.5
 51
0.0
  0
ARC
  8
41
  5
23158
 10
0.66736
 20
209.808777
 30
0.0
 40
2.0
 50
91.5
 51
180.0
  0
LINE
  8
11
  5
23159
 10
279.98815
 20
23.804877
 30
0.0
 11
168.860182
 21
23.804877
 31
0.0
  0
LINE
  8
11
  5
2315A
 10
283.860182
 20
43.804877
 30
0.0
 11
168.860182
 21
43.804877
 31
0.0
  0
LINE
  8
14
  5
2315B
 10
265.060182
 20
27.304877
 30
0.0
 11
168.860182
 21
27.304877
 31
0.0
  0
LINE
  8
11
  5
2315C
 10
282.316502
 20
38.317965
 30
0.0
 11
281.987465
 21
25.752523
 31
0.0
  0
LINE
  8
14
  5
2315D
 10
265.060182
 20
43.804877
 30
0.0
 11
265.060182
 21
27.304877
 31
0.0
  0
LINE
  8
11
  5
2315E
 10
278.407817
 20
44.804877
 30
0.0
 11
265.060182
 21
44.804877
 31
0.0
  0
LINE
  8
11
  5
2315F
 10
283.860182
 20
43.804877
 30
0.0
 11
283.742003
 21
39.291788
 31
0.0
  0
LINE
  8
11
  5
23160
 10
279.912547
 20
43.804877
 30
0.0
 11
278.407817
 21
43.804877
 31
0.0
  0
LINE
  8
11
  5
23161
 10
278.407817
 20
43.804877
 30
0.0
 11
278.407817
 21
44.804877
 31
0.0
  0
LINE
  8
11
  5
23162
 10
283.242174
 20
38.804877
 30
0.0
 11
282.816331
 21
38.804877
 31
0.0
  0
ARC
  8
11
  5
23163
 10
283.242174
 20
39.304877
 30
0.0
 40
0.5
 50
270.0
 51
358.5
  0
ARC
  8
11
  5
23164
 10
282.816331
 20
38.304877
 30
0.0
 40
0.5
 50
90.0
 51
178.5
  0
LINE
  8
11
  5
23165
 10
265.060182
 20
44.804877
 30
0.0
 11
265.060182
 21
43.804877
 31
0.0
  0
ARC
  8
11
  5
23166
 10
279.98815
 20
25.804877
 30
0.0
 40
2.0
 50
270.0
 51
358.5
  0
LINE
  8
11
  5
23167
 10
57.732214
 20
23.804877
 30
0.0
 11
168.860182
 21
23.804877
 31
0.0
  0
LINE
  8
11
  5
23168
 10
59.362547
 20
44.804877
 30
0.0
 11
72.710182
 21
44.804877
 31
0.0
  0
LINE
  8
11
  5
23169
 10
59.362547
 20
43.804877
 30
0.0
 11
72.660182
 21
43.804877
 31
0.0
  0
LINE
  8
11
  5
2316A
 10
72.660182
 20
43.804877
 30
0.0
 11
168.910182
 21
43.804877
 31
0.0
  0
LINE
  8
14
  5
2316B
 10
72.660182
 20
27.304877
 30
0.0
 11
168.910182
 21
27.304877
 31
0.0
  0
LINE
  8
13
  6
DASHDOT
  5
2316C
 10
168.860182
 20
49.804877
 30
0.0
 11
168.860182
 21
20.102576
 31
0.0
  0
LINE
  8
14
  5
2316D
 10
72.660182
 20
43.804877
 30
0.0
 11
72.660182
 21
27.304877
 31
0.0
  0
LINE
  8
11
  5
2316E
 10
72.660182
 20
44.804877
 30
0.0
 11
72.660182
 21
43.804877
 31
0.0
  0
LINE
  8
11
  5
2316F
 10
72.660182
 20
44.804877
 30
0.0
 11
72.660182
 21
43.804877
 31
0.0
  0
LINE
  8
11
  5
23170
 10
55.403862
 20
38.317965
 30
0.0
 11
55.7329
 21
25.752523
 31
0.0
  0
LINE
  8
11
  5
23171
 10
53.860182
 20
43.804877
 30
0.0
 11
53.978361
 21
39.291788
 31
0.0
  0
LINE
  8
11
  5
23172
 10
55.060182
 20
43.804877
 30
0.0
 11
57.807817
 21
43.804877
 31
0.0
  0
LINE
  8
11
  5
23173
 10
59.362547
 20
44.804877
 30
0.0
 11
59.362547
 21
43.804877
 31
0.0
  0
LINE
  8
11
  5
23174
 10
57.857817
 20
43.804877
 30
0.0
 11
59.362547
 21
43.804877
 31
0.0
  0
LINE
  8
11
  5
23175
 10
53.860182
 20
43.804877
 30
0.0
 11
55.060182
 21
43.804877
 31
0.0
  0
ARC
  8
11
  5
23176
 10
54.904033
 20
38.304877
 30
0.0
 40
0.5
 50
1.5
 51
90.0
  0
ARC
  8
11
  5
23177
 10
54.47819
 20
39.304877
 30
0.0
 40
0.5
 50
181.5
 51
270.0
  0
LINE
  8
11
  5
23178
 10
54.47819
 20
38.804877
 30
0.0
 11
54.904033
 21
38.804877
 31
0.0
  0
ARC
  8
11
  5
23179
 10
57.732214
 20
25.804877
 30
0.0
 40
2.0
 50
181.5
 51
270.0
  0
TEXT
  8
L20
  5
2317A
 10
-242.992635
 20
247.066978
 30
0.0
 40
9.0
  1
FIBOX PICCOLO M 230x140x20 COVER
  0
LINE
  8
21
  5
2317B
 10
282.816331
 20
248.556742
 30
0.0
 11
54.904033
 21
248.556742
 31
0.0
  0
LINE
  8
11
  5
2317C
 10
282.816331
 20
38.804877
 30
0.0
 11
54.904033
 21
38.804877
 31
0.0
  0
ENDBLK
  8
0
  5
23184
  0
ENDSEC
  0
SECTION
  2
ENTITIES
  0
VIEWPORT
  8
0
  5
1
 67
     1
 68
     1
 10
210.0
 20
152.094241
 30
0.0
 40
420.0
 41
304.188482
 69
     1
1001
ACAD
1000
MVIEW
1002
{
1070
    16
1010
0.0
1020
0.0
1030
0.0
1010
0.0
1020
0.0
1030
1.0
1040
0.0
1040
304.188482
1040
210.0
1040
152.094241
1040
50.0
1040
0.0
1040
0.0
1070
     0
1070
   100
1070
     1
1070
     1
1070
     1
1070
     0
1070
     0
1070
     0
1040
0.0
1040
0.0
1040
0.0
1040
1.0
1040
1.0
1040
0.0
1040
0.0
1070
     0
1002
{
1002
}
1002
}
  0
INSERT
  8
L1
  5
23185
  2
PICM20C
 10
0.0
 20
0.0
 30
0.0
  0
ENDSEC
  0
EOF
