  0
SECTION
  2
HEADER
  9
$ACADVER
  1
AC1009
  9
$INSBASE
 10
0.0
 20
0.0
 30
0.0
  9
$EXTMIN
 10
-34.027713130094519
 20
867.27646458803974
 30
-0.0015258207003583
  9
$EXTMAX
 10
788.32433949940685
 20
1314.206588504836
 30
0.0000000349246037
  9
$LIMMIN
 10
0.0
 20
0.0
  9
$LIMMAX
 10
0.0
 20
0.0
  9
$ORTHOMODE
 70
     1
  9
$REGENMODE
 70
     1
  9
$FILLMODE
 70
     1
  9
$QTEXTMODE
 70
     0
  9
$MIRRTEXT
 70
     1
  9
$DRAGMODE
 70
     2
  9
$LTSCALE
 40
10.0
  9
$OSMODE
 70
    37
  9
$ATTMODE
 70
     1
  9
$TEXTSIZE
 40
0.2
  9
$TRACEWID
 40
0.05
  9
$TEXTSTYLE
  7
STANDARD
  9
$CLAYER
  8
0
  9
$CELTYPE
  6
CONTINUOUS
  9
$CECOLOR
 62
   256
  9
$DIMSCALE
 40
1.0
  9
$DIMASZ
 40
0.0
  9
$DIMEXO
 40
0.0
  9
$DIMDLI
 40
0.38
  9
$DIMRND
 40
0.0
  9
$DIMDLE
 40
0.0
  9
$DIMEXE
 40
0.18
  9
$DIMTP
 40
0.0
  9
$DIMTM
 40
0.0
  9
$DIMTXT
 40
6.3499999999999988
  9
$DIMCEN
 40
0.09
  9
$DIMTSZ
 40
0.0
  9
$DIMTOL
 70
     0
  9
$DIMLIM
 70
     0
  9
$DIMTIH
 70
     1
  9
$DIMTOH
 70
     1
  9
$DIMSE1
 70
     0
  9
$DIMSE2
 70
     0
  9
$DIMTAD
 70
     0
  9
$DIMZIN
 70
     0
  9
$DIMBLK
  1

  9
$DIMASO
 70
     1
  9
$DIMSHO
 70
     1
  9
$DIMPOST
  1

  9
$DIMAPOST
  1

  9
$DIMALT
 70
     0
  9
$DIMALTD
 70
     2
  9
$DIMALTF
 40
0.0394
  9
$DIMLFAC
 40
1.0
  9
$DIMTOFL
 70
     0
  9
$DIMTVP
 40
0.0
  9
$DIMTIX
 70
     0
  9
$DIMSOXD
 70
     0
  9
$DIMSAH
 70
     0
  9
$DIMBLK1
  1

  9
$DIMBLK2
  1

  9
$DIMSTYLE
  2
STANDARD
  9
$DIMCLRD
 70
     0
  9
$DIMCLRE
 70
     0
  9
$DIMCLRT
 70
     0
  9
$DIMTFAC
 40
1.0
  9
$DIMGAP
 40
0.0
  9
$LUNITS
 70
     2
  9
$LUPREC
 70
     2
  9
$SKETCHINC
 40
0.1
  9
$FILLETRAD
 40
2.0
  9
$AUNITS
 70
     0
  9
$AUPREC
 70
     2
  9
$MENU
  1
acad
  9
$ELEVATION
 40
0.0
  9
$PELEVATION
 40
0.0
  9
$THICKNESS
 40
0.0
  9
$LIMCHECK
 70
     0
  9
$BLIPMODE
 70
     0
  9
$CHAMFERA
 40
0.0
  9
$CHAMFERB
 40
0.0
  9
$SKPOLY
 70
     0
  9
$TDCREATE
 40
2444972.125
  9
$TDUPDATE
 40
2453615.650366771
  9
$TDINDWG
 40
0.0387879745
  9
$TDUSRTIMER
 40
0.0387764005
  9
$USRTIMER
 70
     1
  9
$ANGBASE
 50
0.0
  9
$ANGDIR
 70
     0
  9
$PDMODE
 70
     0
  9
$PDSIZE
 40
-1.0
  9
$PLINEWID
 40
0.0
  9
$COORDS
 70
     2
  9
$SPLFRAME
 70
     0
  9
$SPLINETYPE
 70
     6
  9
$SPLINESEGS
 70
     8
  9
$ATTDIA
 70
     0
  9
$ATTREQ
 70
     1
  9
$HANDLING
 70
-16383
  9
$HANDSEED
  5
1FDB
  9
$SURFTAB1
 70
     6
  9
$SURFTAB2
 70
     6
  9
$SURFTYPE
 70
     6
  9
$SURFU
 70
     6
  9
$SURFV
 70
     6
  9
$UCSNAME
  2

  9
$UCSORG
 10
0.0
 20
0.0
 30
0.0
  9
$UCSXDIR
 10
1.0
 20
0.0
 30
0.0
  9
$UCSYDIR
 10
0.0
 20
1.0
 30
0.0
  9
$PUCSNAME
  2

  9
$PUCSORG
 10
0.0
 20
0.0
 30
0.0
  9
$PUCSXDIR
 10
1.0
 20
0.0
 30
0.0
  9
$PUCSYDIR
 10
0.0
 20
1.0
 30
0.0
  9
$USERI1
 70
     0
  9
$USERI2
 70
     0
  9
$USERI3
 70
     0
  9
$USERI4
 70
     0
  9
$USERI5
 70
     0
  9
$USERR1
 40
0.0
  9
$USERR2
 40
0.0
  9
$USERR3
 40
0.0
  9
$USERR4
 40
0.0
  9
$USERR5
 40
0.0
  9
$WORLDVIEW
 70
     1
  9
$SHADEDGE
 70
     3
  9
$SHADEDIF
 70
    70
  9
$TILEMODE
 70
     1
  9
$MAXACTVP
 70
    16
  9
$PLIMCHECK
 70
     0
  9
$PEXTMIN
 10
1.0000000000000000E+020
 20
1.0000000000000000E+020
 30
1.0000000000000000E+020
  9
$PEXTMAX
 10
-1.0000000000000000E+020
 20
-1.0000000000000000E+020
 30
-1.0000000000000000E+020
  9
$PLIMMIN
 10
0.0
 20
0.0
  9
$PLIMMAX
 10
12.0
 20
9.0
  9
$UNITMODE
 70
     0
  9
$VISRETAIN
 70
     0
  9
$PLINEGEN
 70
     1
  9
$PSLTSCALE
 70
     1
  0
ENDSEC
  0
SECTION
  2
TABLES
  0
TABLE
  2
VPORT
 70
     4
  0
VPORT
  2
*ACTIVE
 70
     0
 10
0.0
 20
0.0
 11
1.0
 21
1.0
 12
377.14831318465622
 22
1090.7415265464381
 13
0.0
 23
0.0
 14
1.0
 24
1.0
 15
0.0
 25
0.0
 16
0.0
 26
0.0
 36
1.0
 17
0.0
 27
0.0
 37
0.0
 40
530.81476706401406
 41
1.5552208835341359
 42
50.0
 43
0.0
 44
0.0
 50
0.0
 51
0.0
 71
     0
 72
  2000
 73
     1
 74
     1
 75
     0
 76
     0
 77
     0
 78
     0
  0
ENDTAB
  0
TABLE
  2
LTYPE
 70
     8
  0
LTYPE
  2
CONTINUOUS
 70
     0
  3
Solid line
 72
    65
 73
     0
 40
0.0
  0
LTYPE
  2
CENTER
 70
     0
  3
Center ____ _ ____ _ ____ _ ____ _ ____ _ ____
 72
    65
 73
     4
 40
10.159999999999989
 49
6.3499999999999988
 49
-1.27
 49
1.27
 49
-1.27
  0
LTYPE
  2
DASHDOT
 70
     0
  3
__ . __ . __ . __ . __ . __ . __ . __ . __ . __
 72
    65
 73
     4
 40
1.0
 49
0.5
 49
-0.25
 49
0.0
 49
-0.25
  0
LTYPE
  2
DASHED
 70
     0
  3
__ __ __ __ __ __ __ __ __ __ __ __ __ __ __ __
 72
    65
 73
     2
 40
0.75
 49
0.5
 49
-0.25
  0
ENDTAB
  0
TABLE
  2
LAYER
 70
    21
  0
LAYER
  2
0
 70
     0
 62
     7
  6
CONTINUOUS
  0
LAYER
  2
DEFPOINTS
 70
     0
 62
     7
  6
CONTINUOUS
  0
LAYER
  2
L20
 70
     0
 62
     3
  6
CONTINUOUS
  0
LAYER
  2
21
 70
     0
 62
     7
  6
CONTINUOUS
  0
LAYER
  2
23
 70
     0
 62
     1
  6
CENTER
  0
LAYER
  2
24
 70
     0
 62
     1
  6
DASHED
  0
LAYER
  2
31
 70
     0
 62
     7
  6
CONTINUOUS
  0
LAYER
  2
33
 70
     0
 62
     1
  6
CENTER
  0
LAYER
  2
34
 70
     0
 62
     1
  6
DASHED
  0
LAYER
  2
51
 70
     0
 62
     7
  6
CONTINUOUS
  0
LAYER
  2
53
 70
     0
 62
     1
  6
CENTER
  0
LAYER
  2
61
 70
     0
 62
     7
  6
CONTINUOUS
  0
LAYER
  2
62
 70
     0
 62
     1
  6
CONTINUOUS
  0
LAYER
  2
63
 70
     0
 62
     1
  6
CENTER
  0
ENDTAB
  0
TABLE
  2
STYLE
 70
     2
  0
STYLE
  2
STANDARD
 70
     0
 40
0.0
 41
1.0
 50
0.0
 71
     0
 42
0.2
  3
TXT
  4

  0
ENDTAB
  0
TABLE
  2
VIEW
 70
     0
  0
ENDTAB
  0
TABLE
  2
UCS
 70
     0
  0
ENDTAB
  0
TABLE
  2
APPID
 70
     2
  0
APPID
  2
ACAD
 70
     0
  0
APPID
  2
DCO15
 70
     0
  0
ENDTAB
  0
TABLE
  2
DIMSTYLE
 70
     2
  0
DIMSTYLE
  2
STANDARD
 70
     0
  3

  4

  5

  6

  7

 40
1.0
 41
0.18
 42
0.0625
 43
0.38
 44
0.18
 45
0.0
 46
0.0
 47
0.0
 48
0.0
140
0.18
141
0.09
142
0.0
143
25.399999999999999
144
1.0
145
0.0
146
1.0
147
0.09
 71
     0
 72
     0
 73
     1
 74
     1
 75
     0
 76
     0
 77
     0
 78
     0
170
     0
171
     2
172
     0
173
     0
174
     0
175
     0
176
     0
177
     0
178
     0
  0
ENDTAB
  0
ENDSEC
  0
SECTION
  2
BLOCKS
  0
BLOCK
  8
0
  2
$MODEL_SPACE
 70
     0
 10
0.0
 20
0.0
 30
0.0
  3
$MODEL_SPACE
  1

  0
ENDBLK
  5
E
  8
0
  0
BLOCK
 67
     1
  8
0
  2
$PAPER_SPACE
 70
     0
 10
0.0
 20
0.0
 30
0.0
  3
$PAPER_SPACE
  1

  0
ENDBLK
  5
10
 67
     1
  8
0
  0
BLOCK
  8
0
 62
     0
  2
NOTE75
 70
     0
 10
0.0
 20
0.0
 30
0.0
  3
NOTE75
  1

  0
ENDBLK
  5
DB
  8
0
  0
BLOCK
  8
0
 62
     0
  2
NOTE76
 70
     0
 10
0.0
 20
0.0
 30
0.0
  3
NOTE76
  1

  0
ENDBLK
  5
DF
  8
0
  0
BLOCK
  8
0
 62
     0
  2
NOTE78
 70
     0
 10
0.0
 20
0.0
 30
0.0
  3
NOTE78
  1

  0
ENDBLK
  5
E4
  8
0
  0
BLOCK
  8
0
 62
     0
  2
NOTE79
 70
     0
 10
0.0
 20
0.0
 30
0.0
  3
NOTE79
  1

  0
ENDBLK
  5
E8
  8
0
  0
BLOCK
  8
0
 62
     0
  2
NOTE80
 70
     0
 10
0.0
 20
0.0
 30
0.0
  3
NOTE80
  1

  0
ENDBLK
  5
EC
  8
0
  0
BLOCK
  8
0
 62
     0
  2
NOTE81
 70
     0
 10
0.0
 20
0.0
 30
0.0
  3
NOTE81
  1

  0
ENDBLK
  5
F0
  8
0
  0
BLOCK
  8
0
 62
     0
  2
NOTE82
 70
     0
 10
0.0
 20
0.0
 30
0.0
  3
NOTE82
  1

  0
ENDBLK
  5
F4
  8
0
  0
BLOCK
  8
0
 62
     0
  2
NOTE83
 70
     0
 10
0.0
 20
0.0
 30
0.0
  3
NOTE83
  1

  0
ENDBLK
  5
F8
  8
0
  0
BLOCK
  8
0
 62
     0
  2
NOTE84
 70
     0
 10
0.0
 20
0.0
 30
0.0
  3
NOTE84
  1

  0
ENDBLK
  5
FC
  8
0
  0
BLOCK
  8
0
 62
     0
  2
NOTE85
 70
     0
 10
0.0
 20
0.0
 30
0.0
  3
NOTE85
  1

  0
ENDBLK
  5
100
  8
0
  0
BLOCK
  8
0
 62
     0
  2
NOTE86
 70
     0
 10
0.0
 20
0.0
 30
0.0
  3
NOTE86
  1

  0
ENDBLK
  5
104
  8
0
  0
BLOCK
  8
0
 62
     0
  2
NOTE87
 70
     0
 10
0.0
 20
0.0
 30
0.0
  3
NOTE87
  1

  0
ENDBLK
  5
108
  8
0
  0
BLOCK
  8
0
 62
     0
  2
NOTE88
 70
     0
 10
0.0
 20
0.0
 30
0.0
  3
NOTE88
  1

  0
ENDBLK
  5
10C
  8
0
  0
BLOCK
  8
0
 62
     0
  2
NOTE90
 70
     0
 10
0.0
 20
0.0
 30
0.0
  3
NOTE90
  1

  0
ENDBLK
  5
111
  8
0
  0
BLOCK
  8
0
 62
     0
  2
NOTE91
 70
     0
 10
0.0
 20
0.0
 30
0.0
  3
NOTE91
  1

  0
ENDBLK
  5
115
  8
0
  0
ENDSEC
  0
SECTION
  2
ENTITIES
  0
INSERT
  5
DC
  8
0
  2
NOTE75
 10
0.0
 20
0.0
 30
0.0
  0
INSERT
  5
E0
  8
0
  2
NOTE76
 10
0.0
 20
0.0
 30
0.0
  0
INSERT
  5
E5
  8
0
  2
NOTE78
 10
0.0
 20
0.0
 30
0.0
  0
INSERT
  5
E9
  8
0
  2
NOTE79
 10
0.0
 20
0.0
 30
0.0
  0
INSERT
  5
ED
  8
0
  2
NOTE80
 10
0.0
 20
0.0
 30
0.0
  0
INSERT
  5
F1
  8
0
  2
NOTE81
 10
0.0
 20
0.0
 30
0.0
  0
INSERT
  5
F5
  8
0
  2
NOTE82
 10
0.0
 20
0.0
 30
0.0
  0
INSERT
  5
F9
  8
0
  2
NOTE83
 10
0.0
 20
0.0
 30
0.0
  0
INSERT
  5
FD
  8
0
  2
NOTE84
 10
0.0
 20
0.0
 30
0.0
  0
INSERT
  5
101
  8
0
  2
NOTE85
 10
0.0
 20
0.0
 30
0.0
  0
INSERT
  5
105
  8
0
  2
NOTE86
 10
0.0
 20
0.0
 30
0.0
  0
INSERT
  5
109
  8
0
  2
NOTE87
 10
0.0
 20
0.0
 30
0.0
  0
INSERT
  5
10D
  8
0
  2
NOTE88
 10
0.0
 20
0.0
 30
0.0
  0
INSERT
  5
112
  8
0
  2
NOTE90
 10
0.0
 20
0.0
 30
0.0
  0
INSERT
  5
116
  8
0
  2
NOTE91
 10
0.0
 20
0.0
 30
0.0
  0
LINE
  5
1C3D
  8
63
  6
DASHDOT
 10
527.29507705078856
 20
1019.7560198643069
 30
0.0
 11
527.29507705078856
 21
1090.7560198643071
 31
0.0
  0
LINE
  5
1C3E
  8
63
  6
DASHDOT
 10
527.29507705078856
 20
1090.7560198643071
 30
0.0
 11
410.29507705078862
 21
1090.7560198643071
 31
0.0
  0
LINE
  5
1C3F
  8
63
  6
DASHDOT
 10
527.29507705078856
 20
1161.7560198643071
 30
0.0
 11
527.29507705078856
 21
1090.7560198643071
 31
0.0
  0
LINE
  5
1C40
  8
63
  6
DASHDOT
 10
527.29507705078856
 20
1090.7560198643071
 30
0.0
 11
644.29507705078856
 21
1090.7560198643071
 31
0.0
  0
LINE
  5
1C41
  8
53
  6
DASHDOT
 10
102.29507705078861
 20
1090.7560198643071
 30
0.0
 11
222.29507705078859
 21
1090.7560198643071
 31
0.0
  0
LINE
  5
1C42
  8
53
  6
DASHDOT
 10
102.29507705078861
 20
1161.7560198643071
 30
0.0
 11
102.29507705078861
 21
1090.7560198643071
 31
0.0
  0
LINE
  5
1C43
  8
53
  6
DASHDOT
 10
102.29507705078861
 20
1090.7560198643071
 30
0.0
 11
-14.704922949211319
 21
1090.7560198643071
 31
0.0
  0
LINE
  5
1C44
  8
51
 10
-12.704922949211319
 20
1090.7560198643071
 30
0.0
 11
-12.704922949211319
 21
1029.7560198643071
 31
0.0
  0
LINE
  5
1C45
  8
51
 10
-3.7049229492113218
 20
1020.7560198643069
 30
0.0
 11
102.29507705078861
 21
1020.7560198643069
 31
0.0
  0
LINE
  5
1C46
  8
51
 10
5.2950770507886773
 20
1020.7560198643069
 30
0.0
 11
5.2950770507886773
 21
1020.7560198643069
 31
0.0
  0
LINE
  5
1C47
  8
51
 10
199.29507705078859
 20
1020.7560198643069
 30
0.0
 11
199.29507705078859
 21
1020.7560198643069
 31
0.0
  0
CIRCLE
  5
1C48
  8
51
 10
-3.7049229492113218
 20
1029.7560198643071
 30
0.0
 40
2.2000000000000002
  0
CIRCLE
  5
1C49
  8
51
 10
-3.7049229492113218
 20
1029.7560198643071
 30
0.0
 40
4.0
  0
CIRCLE
  5
1C4A
  8
51
 10
-3.7049229492113218
 20
1029.7560198643071
 30
0.0
 40
6.0
  0
ARC
  5
1C59
  8
61
 10
432.29507705078862
 20
1090.7560198643071
 30
0.0
 40
4.0
 50
284.47751218592941
 51
75.522487814070544
  0
CIRCLE
  5
1C5A
  8
61
 10
432.29507705078862
 20
1090.7560198643071
 30
0.0
 40
2.0
  0
CIRCLE
  5
1C5B
  8
61
 10
432.29507705078862
 20
1090.7560198643071
 30
0.0
 40
1.5
  0
LINE
  5
1C5C
  8
61
 10
433.29507705078868
 20
1100.7560198643071
 30
0.0
 11
431.29507705078862
 21
1100.7560198643071
 31
0.0
  0
LINE
  5
1C5D
  8
61
 10
431.29507705078862
 20
1100.7560198643071
 30
0.0
 11
431.29507705078862
 21
1094.6290032105151
 31
0.0
  0
LINE
  5
1C5E
  8
61
 10
431.29507705078862
 20
1080.7560198643071
 30
0.0
 11
433.29507705078868
 21
1080.7560198643071
 31
0.0
  0
LINE
  5
1C5F
  8
61
 10
433.29507705078868
 20
1080.7560198643071
 30
0.0
 11
433.29507705078868
 21
1086.8830365181
 31
0.0
  0
ARC
  5
1C60
  8
61
 10
432.29507705078862
 20
1090.7560198643071
 30
0.0
 40
4.0
 50
104.4775121859294
 51
255.5224878140705
  0
LINE
  5
1C61
  8
61
 10
433.29507705078868
 20
1094.6290032105151
 30
0.0
 11
433.29507705078868
 21
1100.7560198643071
 31
0.0
  0
LINE
  5
1C62
  8
61
 10
431.29507705078862
 20
1086.8830365181
 30
0.0
 11
431.29507705078862
 21
1080.7560198643071
 31
0.0
  0
LINE
  5
1C63
  8
61
 10
623.29507705078856
 20
1100.7560198643071
 30
0.0
 11
623.29507705078856
 21
1094.6290032105151
 31
0.0
  0
LINE
  5
1C64
  8
61
 10
621.29507705078868
 20
1094.6290032105151
 30
0.0
 11
621.29507705078868
 21
1100.7560198643071
 31
0.0
  0
LINE
  5
1C65
  8
61
 10
623.29507705078856
 20
1086.8830365181
 30
0.0
 11
623.29507705078856
 21
1080.7560198643071
 31
0.0
  0
LINE
  5
1C66
  8
61
 10
621.29507705078868
 20
1080.7560198643071
 30
0.0
 11
621.29507705078868
 21
1086.8830365181
 31
0.0
  0
LINE
  5
1C67
  8
61
 10
623.29507705078856
 20
1080.7560198643071
 30
0.0
 11
621.29507705078868
 21
1080.7560198643071
 31
0.0
  0
CIRCLE
  5
1C68
  8
61
 10
622.29507705078856
 20
1090.7560198643071
 30
0.0
 40
1.5
  0
CIRCLE
  5
1C69
  8
61
 10
622.29507705078856
 20
1090.7560198643071
 30
0.0
 40
2.0
  0
ARC
  5
1C6A
  8
61
 10
622.29507705078856
 20
1090.7560198643071
 30
0.0
 40
4.0
 50
284.47751218592941
 51
75.522487814070544
  0
ARC
  5
1C6B
  8
61
 10
622.29507705078856
 20
1090.7560198643071
 30
0.0
 40
4.0
 50
104.4775121859294
 51
255.5224878140705
  0
LINE
  5
1C6C
  8
61
 10
621.29507705078868
 20
1100.7560198643071
 30
0.0
 11
623.29507705078856
 21
1100.7560198643071
 31
0.0
  0
LINE
  5
1C6E
  8
53
  6
DASHDOT
 10
102.29507705078861
 20
1017.7560198643069
 30
0.0
 11
102.29507705078861
 21
1090.7560198643071
 31
0.0
  0
ARC
  5
1C6F
  8
51
 10
-3.7049229492113218
 20
1029.7560198643071
 30
0.0
 40
9.0
 50
180.0
 51
270.0
  0
LINE
  5
1C70
  8
51
 10
-3.7049229492113218
 20
1022.156019864307
 30
0.0
 11
102.29507705078861
 21
1022.156019864307
 31
0.0
  0
ARC
  5
1C71
  8
51
 10
-3.7049229492113218
 20
1029.7560198643071
 30
0.0
 40
7.5999999999999988
 50
180.0
 51
270.0
  0
LINE
  5
1C72
  8
51
 10
-11.30492294921134
 20
1090.7560198643071
 30
0.0
 11
-11.30492294921134
 21
1029.7560198643071
 31
0.0
  0
LINE
  5
1C73
  8
51
 10
208.29507705078859
 20
1022.156019864307
 30
0.0
 11
102.29507705078861
 21
1022.156019864307
 31
0.0
  0
LINE
  5
1C74
  8
51
 10
208.29507705078859
 20
1020.7560198643069
 30
0.0
 11
102.29507705078861
 21
1020.7560198643069
 31
0.0
  0
LINE
  5
1C75
  8
51
 10
215.8950770507887
 20
1090.7560198643071
 30
0.0
 11
215.8950770507887
 21
1029.7560198643071
 31
0.0
  0
LINE
  5
1C76
  8
51
 10
217.29507705078859
 20
1090.7560198643071
 30
0.0
 11
217.29507705078859
 21
1029.7560198643071
 31
0.0
  0
ARC
  5
1C77
  8
51
 10
208.29507705078859
 20
1029.7560198643071
 30
0.0
 40
9.0
 50
270.0
 51
0.0
  0
ARC
  5
1C78
  8
51
 10
208.29507705078859
 20
1029.7560198643071
 30
0.0
 40
7.5999999999999988
 50
270.0
 51
0.0
  0
CIRCLE
  5
1C79
  8
51
 10
208.29507705078859
 20
1029.7560198643071
 30
0.0
 40
6.0
  0
CIRCLE
  5
1C7A
  8
51
 10
208.29507705078859
 20
1029.7560198643071
 30
0.0
 40
2.2000000000000002
  0
CIRCLE
  5
1C7B
  8
51
 10
208.29507705078859
 20
1029.7560198643071
 30
0.0
 40
4.0
  0
LINE
  5
1C7C
  8
51
 10
199.29507705078859
 20
1020.7560198643069
 30
0.0
 11
199.29507705078859
 21
1020.7560198643069
 31
0.0
  0
LINE
  5
1C7D
  8
51
 10
-3.7049229492113218
 20
1159.356019864307
 30
0.0
 11
102.29507705078861
 21
1159.356019864307
 31
0.0
  0
LINE
  5
1C7E
  8
51
 10
-3.7049229492113218
 20
1160.7560198643071
 30
0.0
 11
102.29507705078861
 21
1160.7560198643071
 31
0.0
  0
LINE
  5
1C7F
  8
51
 10
-11.30492294921134
 20
1090.7560198643071
 30
0.0
 11
-11.30492294921134
 21
1151.7560198643071
 31
0.0
  0
LINE
  5
1C80
  8
51
 10
-12.704922949211319
 20
1090.7560198643071
 30
0.0
 11
-12.704922949211319
 21
1151.7560198643071
 31
0.0
  0
ARC
  5
1C81
  8
51
 10
-3.7049229492113218
 20
1151.7560198643071
 30
0.0
 40
9.0
 50
90.0
 51
180.0
  0
ARC
  5
1C82
  8
51
 10
-3.7049229492113218
 20
1151.7560198643071
 30
0.0
 40
7.5999999999999988
 50
90.0
 51
180.0
  0
CIRCLE
  5
1C83
  8
51
 10
-3.7049229492113218
 20
1151.7560198643071
 30
0.0
 40
6.0
  0
CIRCLE
  5
1C84
  8
51
 10
-3.7049229492113218
 20
1151.7560198643071
 30
0.0
 40
2.2000000000000002
  0
CIRCLE
  5
1C85
  8
51
 10
-3.7049229492113218
 20
1151.7560198643071
 30
0.0
 40
4.0
  0
LINE
  5
1C86
  8
51
 10
5.2950770507886773
 20
1160.7560198643071
 30
0.0
 11
5.2950770507886773
 21
1160.7560198643071
 31
0.0
  0
LINE
  5
1C87
  8
51
 10
217.29507705078859
 20
1090.7560198643071
 30
0.0
 11
217.29507705078859
 21
1151.7560198643071
 31
0.0
  0
LINE
  5
1C88
  8
51
 10
215.8950770507887
 20
1090.7560198643071
 30
0.0
 11
215.8950770507887
 21
1151.7560198643071
 31
0.0
  0
LINE
  5
1C89
  8
51
 10
208.29507705078859
 20
1160.7560198643071
 30
0.0
 11
102.29507705078861
 21
1160.7560198643071
 31
0.0
  0
LINE
  5
1C8A
  8
51
 10
208.29507705078859
 20
1159.356019864307
 30
0.0
 11
102.29507705078861
 21
1159.356019864307
 31
0.0
  0
ARC
  5
1C8B
  8
51
 10
208.29507705078859
 20
1151.7560198643071
 30
0.0
 40
9.0
 50
0.0
 51
90.0
  0
ARC
  5
1C8C
  8
51
 10
208.29507705078859
 20
1151.7560198643071
 30
0.0
 40
7.5999999999999988
 50
0.0
 51
90.0
  0
CIRCLE
  5
1C8D
  8
51
 10
208.29507705078859
 20
1151.7560198643071
 30
0.0
 40
4.0
  0
CIRCLE
  5
1C8E
  8
51
 10
208.29507705078859
 20
1151.7560198643071
 30
0.0
 40
2.2000000000000002
  0
CIRCLE
  5
1C8F
  8
51
 10
208.29507705078859
 20
1151.7560198643071
 30
0.0
 40
6.0
  0
LINE
  5
1C90
  8
51
 10
199.29507705078859
 20
1160.7560198643071
 30
0.0
 11
199.29507705078859
 21
1160.7560198643071
 31
0.0
  0
LINE
  5
1C91
  8
51
 10
199.29507705078859
 20
1160.7560198643071
 30
0.0
 11
199.29507705078859
 21
1160.7560198643071
 31
0.0
  0
LINE
  5
1C92
  8
61
 10
415.49507705078872
 20
1090.7560198643071
 30
0.0
 11
415.49507705078872
 21
1039.7560198643071
 31
0.0
  0
LINE
  5
1C93
  8
62
 10
414.3950770507887
 20
1090.7560198643071
 30
0.0
 11
414.3950770507887
 21
1039.7560198643071
 31
0.0
  0
LINE
  5
1C94
  8
61
 10
416.6950770507886
 20
1090.7560198643071
 30
0.0
 11
416.6950770507886
 21
1037.922989586325
 31
0.0
  0
LINE
  5
1C95
  8
61
 10
412.29507705078868
 20
1090.7560198643071
 30
0.0
 11
412.29507705078868
 21
1029.7560198643071
 31
0.0
  0
ARC
  5
1C96
  8
61
 10
421.29507705078868
 20
1029.7560198643071
 30
0.0
 40
9.0
 50
180.0
 51
270.0
  0
ARC
  5
1C97
  8
61
 10
431.29507705078862
 20
1025.9560198643071
 30
0.0
 40
2.0
 50
180.0
 51
270.0
  0
ARC
  5
1C98
  8
62
 10
431.29507705078862
 20
1025.9560198643071
 30
0.0
 40
3.1000000000000001
 50
180.0
 51
270.0
  0
CIRCLE
  5
1C99
  8
62
 10
421.29507705078868
 20
1029.7560198643071
 30
0.0
 40
6.0
  0
LINE
  5
1C9A
  8
61
 10
421.29507705078868
 20
1020.7560198643069
 30
0.0
 11
527.29507705078856
 21
1020.7560198643069
 31
0.0
  0
LINE
  5
1C9B
  8
61
 10
431.29507705078862
 20
1023.956019864307
 30
0.0
 11
527.29507705078856
 21
1023.956019864307
 31
0.0
  0
LINE
  5
1C9C
  8
62
 10
431.29507705078862
 20
1022.856019864307
 30
0.0
 11
527.29507705078856
 21
1022.856019864307
 31
0.0
  0
LINE
  5
1C9D
  8
61
 10
430.29507705078862
 20
1020.7560198643069
 30
0.0
 11
430.29507705078862
 21
1020.7560198643069
 31
0.0
  0
ARC
  5
1C9E
  8
61
 10
421.29507705078868
 20
1029.7560198643071
 30
0.0
 40
8.0
 50
0.0
 51
90.0
  0
ARC
  5
1C9F
  8
62
 10
421.29507705078868
 20
1029.7560198643071
 30
0.0
 40
6.9000000000000004
 50
0.0
 51
90.0
  0
ARC
  5
1CA0
  8
62
 10
417.49507705078872
 20
1039.7560198643071
 30
0.0
 40
3.1000000000000001
 50
180.0
 51
270.0
  0
CIRCLE
  5
1CA1
  8
62
 10
421.29507705078868
 20
1029.7560198643071
 30
0.0
 40
4.1881250000000003
  0
LINE
  5
1CA2
  8
62
 10
428.1950770507886
 20
1029.7560198643071
 30
0.0
 11
428.1950770507886
 21
1025.9560198643071
 31
0.0
  0
LINE
  5
1CA3
  8
61
 10
421.29507705078868
 20
1037.7560198643071
 30
0.0
 11
417.49507705078872
 21
1037.7560198643071
 31
0.0
  0
LINE
  5
1CA4
  8
62
 10
421.29507705078868
 20
1036.6560198643069
 30
0.0
 11
417.49507705078872
 21
1036.6560198643069
 31
0.0
  0
ARC
  5
1CA5
  8
61
 10
417.49507705078872
 20
1039.7560198643071
 30
0.0
 40
2.0
 50
180.0
 51
270.0
  0
LINE
  5
1CA6
  8
61
 10
429.46204677280627
 20
1025.1560198643069
 30
0.0
 11
527.29507705078856
 21
1025.1560198643069
 31
0.0
  0
LINE
  5
1CA7
  8
61
 10
429.29507705078868
 20
1029.7560198643071
 30
0.0
 11
429.29507705078868
 21
1025.9560198643071
 31
0.0
  0
LINE
  5
1CA8
  8
61
 10
623.29507705078856
 20
1023.956019864307
 30
0.0
 11
527.29507705078856
 21
1023.956019864307
 31
0.0
  0
LINE
  5
1CA9
  8
62
 10
623.29507705078856
 20
1022.856019864307
 30
0.0
 11
527.29507705078856
 21
1022.856019864307
 31
0.0
  0
LINE
  5
1CAA
  8
61
 10
633.29507705078868
 20
1020.7560198643069
 30
0.0
 11
527.29507705078856
 21
1020.7560198643069
 31
0.0
  0
LINE
  5
1CAB
  8
61
 10
625.12810732877085
 20
1025.1560198643069
 30
0.0
 11
527.29507705078856
 21
1025.1560198643069
 31
0.0
  0
ARC
  5
1CAC
  8
61
 10
633.29507705078868
 20
1029.7560198643071
 30
0.0
 40
9.0
 50
270.0
 51
0.0
  0
CIRCLE
  5
1CAD
  8
62
 10
633.29507705078868
 20
1029.7560198643071
 30
0.0
 40
6.0
  0
LINE
  5
1CAE
  8
61
 10
625.29507705078868
 20
1029.7560198643071
 30
0.0
 11
625.29507705078868
 21
1025.9560198643071
 31
0.0
  0
LINE
  5
1CAF
  8
62
 10
626.3950770507887
 20
1029.7560198643071
 30
0.0
 11
626.3950770507887
 21
1025.9560198643071
 31
0.0
  0
CIRCLE
  5
1CB0
  8
62
 10
633.29507705078868
 20
1029.7560198643071
 30
0.0
 40
4.1881250000000003
  0
ARC
  5
1CB1
  8
62
 10
623.29507705078856
 20
1025.9560198643071
 30
0.0
 40
3.1000000000000001
 50
270.0
 51
0.0
  0
ARC
  5
1CB2
  8
61
 10
623.29507705078856
 20
1025.9560198643071
 30
0.0
 40
2.0
 50
270.0
 51
0.0
  0
LINE
  5
1CB3
  8
61
 10
624.29507705078868
 20
1020.7560198643069
 30
0.0
 11
624.29507705078868
 21
1020.7560198643069
 31
0.0
  0
ARC
  5
1CB4
  8
61
 10
637.09507705078863
 20
1039.7560198643071
 30
0.0
 40
2.0
 50
270.0
 51
0.0
  0
ARC
  5
1CB5
  8
62
 10
637.09507705078863
 20
1039.7560198643071
 30
0.0
 40
3.1000000000000001
 50
270.0
 51
0.0
  0
ARC
  5
1CB6
  8
61
 10
633.29507705078868
 20
1029.7560198643071
 30
0.0
 40
8.0
 50
90.0
 51
180.0
  0
ARC
  5
1CB7
  8
62
 10
633.29507705078868
 20
1029.7560198643071
 30
0.0
 40
6.9000000000000004
 50
90.0
 51
180.0
  0
LINE
  5
1CB8
  8
62
 10
633.29507705078868
 20
1036.6560198643069
 30
0.0
 11
637.09507705078863
 21
1036.6560198643069
 31
0.0
  0
LINE
  5
1CB9
  8
61
 10
633.29507705078868
 20
1037.7560198643071
 30
0.0
 11
637.09507705078863
 21
1037.7560198643071
 31
0.0
  0
LINE
  5
1CBA
  8
61
 10
639.09507705078863
 20
1090.7560198643071
 30
0.0
 11
639.09507705078863
 21
1039.7560198643071
 31
0.0
  0
LINE
  5
1CBB
  8
62
 10
640.19507705078865
 20
1090.7560198643071
 30
0.0
 11
640.19507705078865
 21
1039.7560198643071
 31
0.0
  0
LINE
  5
1CBC
  8
61
 10
637.8950770507887
 20
1090.7560198643071
 30
0.0
 11
637.8950770507887
 21
1037.922989586325
 31
0.0
  0
LINE
  5
1CBD
  8
61
 10
642.29507705078856
 20
1090.7560198643071
 30
0.0
 11
642.29507705078856
 21
1029.7560198643071
 31
0.0
  0
LINE
  5
1CBE
  8
61
 10
431.29507705078862
 20
1157.556019864307
 30
0.0
 11
527.29507705078856
 21
1157.556019864307
 31
0.0
  0
LINE
  5
1CBF
  8
62
 10
431.29507705078862
 20
1158.6560198643069
 30
0.0
 11
527.29507705078856
 21
1158.6560198643069
 31
0.0
  0
LINE
  5
1CC0
  8
61
 10
421.29507705078868
 20
1160.7560198643071
 30
0.0
 11
527.29507705078856
 21
1160.7560198643071
 31
0.0
  0
LINE
  5
1CC1
  8
61
 10
429.46204677280627
 20
1156.356019864307
 30
0.0
 11
527.29507705078856
 21
1156.356019864307
 31
0.0
  0
ARC
  5
1CC2
  8
61
 10
421.29507705078868
 20
1151.7560198643071
 30
0.0
 40
9.0
 50
90.0
 51
180.0
  0
CIRCLE
  5
1CC3
  8
62
 10
421.29507705078868
 20
1151.7560198643071
 30
0.0
 40
6.0
  0
LINE
  5
1CC4
  8
61
 10
429.29507705078868
 20
1151.7560198643071
 30
0.0
 11
429.29507705078868
 21
1155.556019864307
 31
0.0
  0
LINE
  5
1CC5
  8
62
 10
428.1950770507886
 20
1151.7560198643071
 30
0.0
 11
428.1950770507886
 21
1155.556019864307
 31
0.0
  0
CIRCLE
  5
1CC6
  8
62
 10
421.29507705078868
 20
1151.7560198643071
 30
0.0
 40
4.1881250000000003
  0
ARC
  5
1CC7
  8
62
 10
431.29507705078862
 20
1155.556019864307
 30
0.0
 40
3.1000000000000001
 50
90.0
 51
180.0
  0
ARC
  5
1CC8
  8
61
 10
431.29507705078862
 20
1155.556019864307
 30
0.0
 40
2.0
 50
90.0
 51
180.0
  0
LINE
  5
1CC9
  8
61
 10
430.29507705078862
 20
1160.7560198643071
 30
0.0
 11
430.29507705078862
 21
1160.7560198643071
 31
0.0
  0
ARC
  5
1CCA
  8
61
 10
417.49507705078872
 20
1141.7560198643071
 30
0.0
 40
2.0
 50
90.0
 51
180.0
  0
ARC
  5
1CCB
  8
62
 10
417.49507705078872
 20
1141.7560198643071
 30
0.0
 40
3.1000000000000001
 50
90.0
 51
180.0
  0
ARC
  5
1CCC
  8
61
 10
421.29507705078868
 20
1151.7560198643071
 30
0.0
 40
8.0
 50
270.0
 51
0.0
  0
ARC
  5
1CCD
  8
62
 10
421.29507705078868
 20
1151.7560198643071
 30
0.0
 40
6.9000000000000004
 50
270.0
 51
0.0
  0
LINE
  5
1CCE
  8
62
 10
421.29507705078868
 20
1144.856019864307
 30
0.0
 11
417.49507705078872
 21
1144.856019864307
 31
0.0
  0
LINE
  5
1CCF
  8
61
 10
421.29507705078868
 20
1143.7560198643071
 30
0.0
 11
417.49507705078872
 21
1143.7560198643071
 31
0.0
  0
LINE
  5
1CD0
  8
61
 10
415.49507705078872
 20
1090.7560198643071
 30
0.0
 11
415.49507705078872
 21
1141.7560198643071
 31
0.0
  0
LINE
  5
1CD1
  8
62
 10
414.3950770507887
 20
1090.7560198643071
 30
0.0
 11
414.3950770507887
 21
1141.7560198643071
 31
0.0
  0
LINE
  5
1CD2
  8
61
 10
416.6950770507886
 20
1090.7560198643071
 30
0.0
 11
416.6950770507886
 21
1143.58905014229
 31
0.0
  0
LINE
  5
1CD3
  8
61
 10
412.29507705078868
 20
1090.7560198643071
 30
0.0
 11
412.29507705078868
 21
1151.7560198643071
 31
0.0
  0
LINE
  5
1CD4
  8
61
 10
642.29507705078856
 20
1090.7560198643071
 30
0.0
 11
642.29507705078856
 21
1151.7560198643071
 31
0.0
  0
LINE
  5
1CD5
  8
61
 10
637.8950770507887
 20
1090.7560198643071
 30
0.0
 11
637.8950770507887
 21
1143.58905014229
 31
0.0
  0
LINE
  5
1CD6
  8
62
 10
640.19507705078865
 20
1090.7560198643071
 30
0.0
 11
640.19507705078865
 21
1141.7560198643071
 31
0.0
  0
LINE
  5
1CD7
  8
61
 10
639.09507705078863
 20
1090.7560198643071
 30
0.0
 11
639.09507705078863
 21
1141.7560198643071
 31
0.0
  0
LINE
  5
1CD8
  8
61
 10
625.12810732877085
 20
1156.356019864307
 30
0.0
 11
527.29507705078856
 21
1156.356019864307
 31
0.0
  0
LINE
  5
1CD9
  8
61
 10
633.29507705078868
 20
1160.7560198643071
 30
0.0
 11
527.29507705078856
 21
1160.7560198643071
 31
0.0
  0
LINE
  5
1CDA
  8
62
 10
623.29507705078856
 20
1158.6560198643069
 30
0.0
 11
527.29507705078856
 21
1158.6560198643069
 31
0.0
  0
LINE
  5
1CDB
  8
61
 10
623.29507705078856
 20
1157.556019864307
 30
0.0
 11
527.29507705078856
 21
1157.556019864307
 31
0.0
  0
ARC
  5
1CDC
  8
61
 10
633.29507705078868
 20
1151.7560198643071
 30
0.0
 40
8.0
 50
180.0
 51
270.0
  0
ARC
  5
1CDD
  8
62
 10
637.09507705078863
 20
1141.7560198643071
 30
0.0
 40
3.1000000000000001
 50
0.0
 51
90.0
  0
ARC
  5
1CDE
  8
61
 10
637.09507705078863
 20
1141.7560198643071
 30
0.0
 40
2.0
 50
0.0
 51
90.0
  0
ARC
  5
1CDF
  8
61
 10
633.29507705078868
 20
1151.7560198643071
 30
0.0
 40
9.0
 50
0.0
 51
90.0
  0
CIRCLE
  5
1CE0
  8
62
 10
633.29507705078868
 20
1151.7560198643071
 30
0.0
 40
4.1881250000000003
  0
LINE
  5
1CE1
  8
62
 10
626.3950770507887
 20
1151.7560198643071
 30
0.0
 11
626.3950770507887
 21
1155.556019864307
 31
0.0
  0
LINE
  5
1CE2
  8
61
 10
625.29507705078868
 20
1151.7560198643071
 30
0.0
 11
625.29507705078868
 21
1155.556019864307
 31
0.0
  0
CIRCLE
  5
1CE3
  8
62
 10
633.29507705078868
 20
1151.7560198643071
 30
0.0
 40
6.0
  0
LINE
  5
1CE4
  8
61
 10
624.29507705078868
 20
1160.7560198643071
 30
0.0
 11
624.29507705078868
 21
1160.7560198643071
 31
0.0
  0
ARC
  5
1CE5
  8
61
 10
623.29507705078856
 20
1155.556019864307
 30
0.0
 40
2.0
 50
0.0
 51
90.0
  0
ARC
  5
1CE6
  8
62
 10
623.29507705078856
 20
1155.556019864307
 30
0.0
 40
3.1000000000000001
 50
0.0
 51
90.0
  0
ARC
  5
1CE7
  8
62
 10
633.29507705078868
 20
1151.7560198643071
 30
0.0
 40
6.9000000000000004
 50
180.0
 51
270.0
  0
LINE
  5
1CE8
  8
61
 10
633.29507705078868
 20
1143.7560198643071
 30
0.0
 11
637.09507705078863
 21
1143.7560198643071
 31
0.0
  0
LINE
  5
1CE9
  8
62
 10
633.29507705078868
 20
1144.856019864307
 30
0.0
 11
637.09507705078863
 21
1144.856019864307
 31
0.0
  0
ARC
  5
1CEA
  8
62
 10
421.29507705078868
 20
1029.7560198643071
 30
0.0
 40
7.2999999999999989
 50
200.0000000000025
 51
249.99999999999929
  0
LINE
  5
1CEB
  8
62
 10
415.65692132607319
 20
1027.7038990043529
 30
0.0
 11
414.43532091905149
 21
1027.25927281803
 31
0.0
  0
LINE
  5
1CEC
  8
62
 10
419.2429561908346
 20
1024.117864139592
 30
0.0
 11
418.79833000451129
 21
1022.89626373257
 31
0.0
  0
LINE
  5
1CED
  8
62
 10
639.09063200852302
 20
1153.3089341349221
 30
0.0
 11
640.82929849584343
 21
1153.7748084161069
 31
0.0
  0
LINE
  5
1CEE
  8
62
 10
634.8479913214037
 20
1157.5515748220421
 30
0.0
 11
635.31386560258818
 21
1159.290241309362
 31
0.0
  0
ARC
  5
1CEF
  8
62
 10
633.29507705078868
 20
1151.7560198643071
 30
0.0
 40
7.7999999999999989
 50
15.000000000000741
 51
74.999999999999261
  0
LINE
  5
1CF0
  8
61
 10
537.29507705078868
 20
1141.7560198643071
 30
0.0
 11
537.29507705078868
 21
1139.7560198643071
 31
0.0
  0
CIRCLE
  5
1CF1
  8
61
 10
527.29507705078856
 20
1140.7560198643071
 30
0.0
 40
2.0
  0
CIRCLE
  5
1CF2
  8
61
 10
527.29507705078856
 20
1140.7560198643071
 30
0.0
 40
1.5
  0
LINE
  5
1CF3
  8
61
 10
517.29507705078856
 20
1139.7560198643071
 30
0.0
 11
517.29507705078856
 21
1141.7560198643071
 31
0.0
  0
LINE
  5
1CF4
  8
61
 10
517.29507705078856
 20
1141.7560198643071
 30
0.0
 11
523.42209370458124
 21
1141.7560198643071
 31
0.0
  0
LINE
  5
1CF5
  8
61
 10
531.16806039699611
 20
1141.7560198643071
 30
0.0
 11
537.29507705078868
 21
1141.7560198643071
 31
0.0
  0
ARC
  5
1CF6
  8
61
 10
527.29507705078856
 20
1140.7560198643071
 30
0.0
 40
4.0
 50
14.477512185930269
 51
165.52248781406971
  0
LINE
  5
1CF7
  8
61
 10
523.42209370458124
 20
1139.7560198643071
 30
0.0
 11
517.29507705078856
 21
1139.7560198643071
 31
0.0
  0
LINE
  5
1CF8
  8
61
 10
537.29507705078868
 20
1139.7560198643071
 30
0.0
 11
531.16806039699611
 21
1139.7560198643071
 31
0.0
  0
ARC
  5
1CF9
  8
61
 10
527.29507705078856
 20
1140.7560198643071
 30
0.0
 40
4.0
 50
194.47751218593021
 51
345.52248781406968
  0
CIRCLE
  5
1CFA
  8
61
 10
527.29507705078856
 20
1040.7560198643071
 30
0.0
 40
1.5
  0
CIRCLE
  5
1CFB
  8
61
 10
527.29507705078856
 20
1040.7560198643071
 30
0.0
 40
2.0
  0
ARC
  5
1CFC
  8
61
 10
527.29507705078856
 20
1040.7560198643071
 30
0.0
 40
4.0
 50
14.477512185930269
 51
165.52248781406971
  0
ARC
  5
1CFD
  8
61
 10
527.29507705078856
 20
1040.7560198643071
 30
0.0
 40
4.0
 50
194.47751218593021
 51
345.52248781406968
  0
LINE
  5
1CFE
  8
61
 10
517.29507705078856
 20
1041.7560198643071
 30
0.0
 11
523.42209370458124
 21
1041.7560198643071
 31
0.0
  0
LINE
  5
1CFF
  8
61
 10
523.42209370458124
 20
1039.7560198643071
 30
0.0
 11
517.29507705078856
 21
1039.7560198643071
 31
0.0
  0
LINE
  5
1D00
  8
61
 10
517.29507705078856
 20
1039.7560198643071
 30
0.0
 11
517.29507705078856
 21
1041.7560198643071
 31
0.0
  0
LINE
  5
1D01
  8
61
 10
531.16806039699611
 20
1041.7560198643071
 30
0.0
 11
537.29507705078868
 21
1041.7560198643071
 31
0.0
  0
LINE
  5
1D02
  8
61
 10
537.29507705078868
 20
1039.7560198643071
 30
0.0
 11
531.16806039699611
 21
1039.7560198643071
 31
0.0
  0
LINE
  5
1D03
  8
61
 10
537.29507705078868
 20
1041.7560198643071
 30
0.0
 11
537.29507705078868
 21
1039.7560198643071
 31
0.0
  0
CIRCLE
  5
1D04
  8
61
 10
439.79507705078862
 20
1060.7560198643071
 30
0.0
 40
4.0
  0
CIRCLE
  5
1D05
  8
61
 10
439.79507705078862
 20
1060.7560198643071
 30
0.0
 40
2.0
  0
CIRCLE
  5
1D06
  8
61
 10
439.79507705078862
 20
1060.7560198643071
 30
0.0
 40
1.5
  0
CIRCLE
  5
1D07
  8
61
 10
439.79507705078862
 20
1120.7560198643071
 30
0.0
 40
4.0
  0
CIRCLE
  5
1D08
  8
61
 10
439.79507705078862
 20
1120.7560198643071
 30
0.0
 40
1.5
  0
CIRCLE
  5
1D09
  8
61
 10
439.79507705078862
 20
1120.7560198643071
 30
0.0
 40
2.0
  0
CIRCLE
  5
1D0A
  8
61
 10
614.79507705078856
 20
1060.7560198643071
 30
0.0
 40
4.0
  0
CIRCLE
  5
1D0B
  8
61
 10
614.79507705078856
 20
1060.7560198643071
 30
0.0
 40
1.5
  0
CIRCLE
  5
1D0C
  8
61
 10
614.79507705078856
 20
1060.7560198643071
 30
0.0
 40
2.0
  0
CIRCLE
  5
1D0D
  8
61
 10
614.79507705078856
 20
1120.7560198643071
 30
0.0
 40
4.0
  0
CIRCLE
  5
1D0E
  8
61
 10
614.79507705078856
 20
1120.7560198643071
 30
0.0
 40
1.5
  0
CIRCLE
  5
1D0F
  8
61
 10
614.79507705078856
 20
1120.7560198643071
 30
0.0
 40
2.0
  0
CIRCLE
  5
1D10
  8
51
 10
7.2950770507886773
 20
1090.7560198643071
 30
0.0
 40
4.5
  0
CIRCLE
  5
1D11
  8
51
 10
197.29507705078859
 20
1090.7560198643071
 30
0.0
 40
4.5
  0
CIRCLE
  5
1D12
  8
51
 10
102.29507705078861
 20
1140.7560198643071
 30
0.0
 40
4.5
  0
CIRCLE
  5
1D13
  8
51
 10
52.295077050788677
 20
1040.7560198643071
 30
0.0
 40
4.5
  0
CIRCLE
  5
1D14
  8
51
 10
14.79507705078867
 20
1060.7560198643071
 30
0.0
 40
4.5
  0
CIRCLE
  5
1D15
  8
51
 10
14.79507705078867
 20
1120.7560198643071
 30
0.0
 40
4.5
  0
CIRCLE
  5
1D16
  8
51
 10
189.79507705078859
 20
1060.7560198643071
 30
0.0
 40
4.5
  0
CIRCLE
  5
1D17
  8
51
 10
189.79507705078859
 20
1120.7560198643071
 30
0.0
 40
4.5
  0
LINE
  5
1D43
  8
31
 10
778.80419513714639
 20
1022.2952526917049
 30
0.0
 11
681.28237879840037
 21
1023.146312689608
 31
0.0
  0
LINE
  5
1D44
  8
31
 10
778.80419513714639
 20
1159.2167870369101
 30
0.0
 11
681.28237879840037
 21
1158.365727039007
 31
0.0
  0
LINE
  5
1D45
  8
33
  6
DASHDOT
 10
788.29983186939717
 20
1090.7560198643071
 30
0.0
 11
664.34087380887922
 21
1090.7560198643071
 31
0.0
  0
LINE
  5
1D46
  8
31
 10
678.29983186939705
 20
1145.1560198643069
 30
0.0
 11
678.29983186939705
 21
1140.6560198643069
 31
0.0
  0
LINE
  5
1D48
  8
31
 10
677.89983186939719
 20
1157.7560198643071
 30
0.0
 11
677.89983186939719
 21
1145.7560198643071
 31
0.0
  0
LINE
  5
1D49
  8
31
 10
677.89983186939719
 20
1157.7560198643071
 30
0.0
 11
680.29035962597425
 21
1158.0923505538731
 31
0.0
  0
LINE
  5
1D4A
  8
31
 10
679.29983186939705
 20
1156.365803192878
 30
0.0
 11
679.29983186939705
 21
1090.7560198643071
 31
0.0
  0
LINE
  5
1D4B
  8
31
 10
677.89983186939719
 20
1145.7560198643071
 30
0.0
 11
679.26944711166755
 21
1145.4158274854431
 31
0.0
  0
LINE
  5
1D4C
  8
31
 10
678.29983186939705
 20
1145.1560198643069
 30
0.0
 11
679.29983186939705
 21
1145.4239690567381
 31
0.0
  0
LINE
  5
1D4D
  8
31
 10
678.29983186939705
 20
1128.6560198643069
 30
0.0
 11
678.29983186939705
 21
1133.1560198643069
 31
0.0
  0
LINE
  5
1D4E
  8
31
 10
678.29983186939705
 20
1136.1560198643069
 30
0.0
 11
678.29983186939705
 21
1133.1560198643069
 31
0.0
  0
LINE
  5
1D4F
  8
31
 10
678.29983186939705
 20
1136.1560198643069
 30
0.0
 11
679.29983186939705
 21
1135.888070671876
 31
0.0
  0
LINE
  5
1D50
  8
31
 10
678.29983186939705
 20
1136.1560198643069
 30
0.0
 11
678.29983186939705
 21
1140.6560198643069
 31
0.0
  0
LINE
  5
1D51
  8
31
 10
678.29983186939705
 20
1128.6560198643069
 30
0.0
 11
679.29983186939705
 21
1128.388070671876
 31
0.0
  0
LINE
  5
1D52
  8
31
 10
678.29983186939705
 20
1086.2560198643071
 30
0.0
 11
678.29983186939705
 21
1090.7560198643071
 31
0.0
  0
LINE
  5
1D53
  8
31
 10
678.29983186939705
 20
1095.2560198643071
 30
0.0
 11
678.29983186939705
 21
1090.7560198643071
 31
0.0
  0
LINE
  5
1D54
  8
31
 10
678.29983186939705
 20
1095.2560198643071
 30
0.0
 11
679.29983186939705
 21
1095.523969056738
 31
0.0
  0
LINE
  5
1D55
  8
31
 10
678.29983186939705
 20
1086.2560198643071
 30
0.0
 11
679.29983186939705
 21
1085.9880706718759
 31
0.0
  0
LINE
  5
1D56
  8
31
 10
678.29983186939705
 20
1036.356019864307
 30
0.0
 11
678.29983186939705
 21
1040.856019864307
 31
0.0
  0
LINE
  5
1D57
  8
31
 10
678.29983186939705
 20
1045.356019864307
 30
0.0
 11
678.29983186939705
 21
1048.356019864307
 31
0.0
  0
LINE
  5
1D58
  8
31
 10
678.29983186939705
 20
1052.856019864307
 30
0.0
 11
679.29983186939705
 21
1053.123969056739
 31
0.0
  0
LINE
  5
1D59
  8
31
 10
678.29983186939705
 20
1052.856019864307
 30
0.0
 11
678.29983186939705
 21
1048.356019864307
 31
0.0
  0
LINE
  5
1D5A
  8
31
 10
678.29983186939705
 20
1045.356019864307
 30
0.0
 11
678.29983186939705
 21
1040.856019864307
 31
0.0
  0
LINE
  5
1D5B
  8
31
 10
678.29983186939705
 20
1045.356019864307
 30
0.0
 11
679.29983186939705
 21
1045.623969056739
 31
0.0
  0
LINE
  5
1D5E
  8
31
 10
679.29983186939705
 20
1025.1462365357361
 30
0.0
 11
679.29983186939705
 21
1090.7560198643071
 31
0.0
  0
LINE
  5
1D5F
  8
31
 10
677.89983186939719
 20
1023.7560198643069
 30
0.0
 11
677.89983186939719
 21
1035.7560198643071
 31
0.0
  0
LINE
  5
1D60
  8
31
 10
678.29983186939705
 20
1036.356019864307
 30
0.0
 11
679.29983186939705
 21
1036.088070671876
 31
0.0
  0
LINE
  5
1D61
  8
31
 10
677.89983186939719
 20
1035.7560198643071
 30
0.0
 11
679.26944711166755
 21
1036.096212243172
 31
0.0
  0
LINE
  5
1D62
  8
31
 10
786.29983186939705
 20
1143.6560198643069
 30
0.0
 11
786.29983186939705
 21
1090.7560198643071
 31
0.0
  0
LINE
  5
1D63
  8
31
 10
786.29983186939705
 20
1157.7534132274859
 30
0.0
 11
786.29983186939705
 21
1143.6560198643069
 31
0.0
  0
ARC
  5
1D64
  8
31
 10
785.99983186939721
 20
1158.2663132318651
 30
0.0
 40
0.3
 50
0.0
 51
87.999999999999517
  0
LINE
  5
1D65
  8
31
 10
786.01030171840785
 20
1158.566130479971
 30
0.0
 11
784.29983186939717
 21
1158.6258614032911
 31
0.0
  0
LINE
  5
1D66
  8
31
 10
786.29983186939705
 20
1158.2663132318651
 30
0.0
 11
786.29983186939705
 21
1157.7534132274859
 31
0.0
  0
LINE
  5
1D67
  8
31
 10
779.29983186939785
 20
1021.386951712125
 30
0.0
 11
779.29983186939705
 21
1090.7560198643071
 31
0.0
  0
ARC
  5
1D68
  8
31
 10
778.79983186939705
 20
1159.716767998442
 30
0.0
 40
0.5
 50
270.50000000000131
 51
0.0
  0
LINE
  5
1D69
  8
31
 10
784.29983186939717
 20
1160.6560198643069
 30
0.0
 11
779.79639638995229
 21
1160.6250762138311
 31
0.0
  0
ARC
  5
1D6A
  8
31
 10
779.79983186939705
 20
1160.1250880164901
 30
0.0
 40
0.5
 50
90.393680043232962
 51
180.0
  0
LINE
  5
1D6B
  8
31
 10
784.29983186939785
 20
1020.856019864307
 30
0.0
 11
784.29983186939717
 21
1090.7560198643071
 31
0.0
  0
LINE
  5
1D6C
  8
31
 10
786.29983186939705
 20
1037.856019864307
 30
0.0
 11
786.29983186939705
 21
1090.7560198643071
 31
0.0
  0
LINE
  5
1D6D
  8
31
 10
786.29983186939705
 20
1023.24572649675
 30
0.0
 11
786.29983186939705
 21
1023.758626501129
 31
0.0
  0
LINE
  5
1D6E
  8
31
 10
786.29983186939705
 20
1023.758626501129
 30
0.0
 11
786.29983186939705
 21
1037.856019864307
 31
0.0
  0
ARC
  5
1D6F
  8
31
 10
779.79983186939705
 20
1021.386951712125
 30
0.0
 40
0.5
 50
180.0
 51
269.60631995676698
  0
ARC
  5
1D70
  8
31
 10
778.79983186939705
 20
1021.795271730173
 30
0.0
 40
0.5
 50
0.0
 51
89.499999999998664
  0
LINE
  5
1D71
  8
31
 10
779.29983186939705
 20
1021.386951712125
 30
0.0
 11
779.29983186939705
 21
1021.795271730173
 31
0.0
  0
LINE
  5
1D72
  8
31
 10
784.29983186939717
 20
1020.856019864307
 30
0.0
 11
784.29983186939717
 21
1022.886178325324
 31
0.0
  0
LINE
  5
1D73
  8
31
 10
784.29983186939717
 20
1020.856019864307
 30
0.0
 11
779.79639638995229
 21
1020.886963514783
 31
0.0
  0
LINE
  5
1D74
  8
31
 10
786.01030171840785
 20
1022.9459092486441
 30
0.0
 11
784.29983186939717
 21
1022.886178325324
 31
0.0
  0
ARC
  5
1D75
  8
31
 10
785.99983186939721
 20
1023.24572649675
 30
0.0
 40
0.3
 50
272.00000000000051
 51
0.0
  0
LINE
  5
1D76
  8
31
 10
779.29983186939705
 20
1160.1250880164901
 30
0.0
 11
779.29983186939705
 21
1090.7560198643071
 31
0.0
  0
LINE
  5
1D77
  8
31
 10
784.29983186939717
 20
1160.6560198643069
 30
0.0
 11
784.29983186939717
 21
1090.7560198643071
 31
0.0
  0
ARC
  5
1D78
  8
61
 10
477.29507705078862
 20
1040.7560198643071
 30
0.0
 40
4.0
 50
194.47751218593021
 51
345.52248781406968
  0
ARC
  5
1D79
  8
61
 10
477.29507705078862
 20
1040.7560198643071
 30
0.0
 40
4.0
 50
14.477512185930269
 51
165.52248781406971
  0
CIRCLE
  5
1D7A
  8
61
 10
477.29507705078862
 20
1040.7560198643071
 30
0.0
 40
2.0
  0
CIRCLE
  5
1D7B
  8
61
 10
477.29507705078862
 20
1040.7560198643071
 30
0.0
 40
1.5
  0
LINE
  5
1D7C
  8
61
 10
473.42209370458119
 20
1039.7560198643071
 30
0.0
 11
467.29507705078862
 21
1039.7560198643071
 31
0.0
  0
LINE
  5
1D7D
  8
61
 10
467.29507705078862
 20
1041.7560198643071
 30
0.0
 11
473.42209370458119
 21
1041.7560198643071
 31
0.0
  0
LINE
  5
1D7E
  8
61
 10
467.29507705078862
 20
1039.7560198643071
 30
0.0
 11
467.29507705078862
 21
1041.7560198643071
 31
0.0
  0
LINE
  5
1D7F
  8
61
 10
487.29507705078868
 20
1039.7560198643071
 30
0.0
 11
481.16806039699611
 21
1039.7560198643071
 31
0.0
  0
LINE
  5
1D80
  8
61
 10
481.16806039699611
 20
1041.7560198643071
 30
0.0
 11
487.29507705078868
 21
1041.7560198643071
 31
0.0
  0
LINE
  5
1D81
  8
61
 10
487.29507705078868
 20
1041.7560198643071
 30
0.0
 11
487.29507705078868
 21
1039.7560198643071
 31
0.0
  0
ARC
  5
1D82
  8
61
 10
477.29507705078862
 20
1140.7560198643071
 30
0.0
 40
4.0
 50
194.47751218593021
 51
345.52248781406968
  0
CIRCLE
  5
1D83
  8
61
 10
477.29507705078862
 20
1140.7560198643071
 30
0.0
 40
1.5
  0
CIRCLE
  5
1D84
  8
61
 10
477.29507705078862
 20
1140.7560198643071
 30
0.0
 40
2.0
  0
ARC
  5
1D85
  8
61
 10
477.29507705078862
 20
1140.7560198643071
 30
0.0
 40
4.0
 50
14.477512185930269
 51
165.52248781406971
  0
LINE
  5
1D86
  8
61
 10
467.29507705078862
 20
1141.7560198643071
 30
0.0
 11
473.42209370458119
 21
1141.7560198643071
 31
0.0
  0
LINE
  5
1D87
  8
61
 10
473.42209370458119
 20
1139.7560198643071
 30
0.0
 11
467.29507705078862
 21
1139.7560198643071
 31
0.0
  0
LINE
  5
1D88
  8
61
 10
467.29507705078862
 20
1139.7560198643071
 30
0.0
 11
467.29507705078862
 21
1141.7560198643071
 31
0.0
  0
LINE
  5
1D89
  8
61
 10
481.16806039699611
 20
1141.7560198643071
 30
0.0
 11
487.29507705078868
 21
1141.7560198643071
 31
0.0
  0
LINE
  5
1D8A
  8
61
 10
487.29507705078868
 20
1139.7560198643071
 30
0.0
 11
481.16806039699611
 21
1139.7560198643071
 31
0.0
  0
LINE
  5
1D8B
  8
61
 10
487.29507705078868
 20
1141.7560198643071
 30
0.0
 11
487.29507705078868
 21
1139.7560198643071
 31
0.0
  0
ARC
  5
1D8C
  8
61
 10
577.29507705078856
 20
1040.7560198643071
 30
0.0
 40
4.0
 50
194.47751218593021
 51
345.52248781406968
  0
CIRCLE
  5
1D8D
  8
61
 10
577.29507705078856
 20
1040.7560198643071
 30
0.0
 40
1.5
  0
CIRCLE
  5
1D8E
  8
61
 10
577.29507705078856
 20
1040.7560198643071
 30
0.0
 40
2.0
  0
ARC
  5
1D8F
  8
61
 10
577.29507705078856
 20
1040.7560198643071
 30
0.0
 40
4.0
 50
14.477512185930269
 51
165.52248781406971
  0
LINE
  5
1D90
  8
61
 10
567.29507705078856
 20
1041.7560198643071
 30
0.0
 11
573.42209370458124
 21
1041.7560198643071
 31
0.0
  0
LINE
  5
1D91
  8
61
 10
573.42209370458124
 20
1039.7560198643071
 30
0.0
 11
567.29507705078856
 21
1039.7560198643071
 31
0.0
  0
LINE
  5
1D92
  8
61
 10
567.29507705078856
 20
1039.7560198643071
 30
0.0
 11
567.29507705078856
 21
1041.7560198643071
 31
0.0
  0
LINE
  5
1D93
  8
61
 10
581.16806039699611
 20
1041.7560198643071
 30
0.0
 11
587.29507705078868
 21
1041.7560198643071
 31
0.0
  0
LINE
  5
1D94
  8
61
 10
587.29507705078868
 20
1039.7560198643071
 30
0.0
 11
581.16806039699611
 21
1039.7560198643071
 31
0.0
  0
LINE
  5
1D95
  8
61
 10
587.29507705078868
 20
1041.7560198643071
 30
0.0
 11
587.29507705078868
 21
1039.7560198643071
 31
0.0
  0
ARC
  5
1D96
  8
61
 10
577.29507705078856
 20
1140.7560198643071
 30
0.0
 40
4.0
 50
194.47751218593021
 51
345.52248781406968
  0
CIRCLE
  5
1D97
  8
61
 10
577.29507705078856
 20
1140.7560198643071
 30
0.0
 40
1.5
  0
CIRCLE
  5
1D98
  8
61
 10
577.29507705078856
 20
1140.7560198643071
 30
0.0
 40
2.0
  0
ARC
  5
1D99
  8
61
 10
577.29507705078856
 20
1140.7560198643071
 30
0.0
 40
4.0
 50
14.477512185930269
 51
165.52248781406971
  0
LINE
  5
1D9A
  8
61
 10
567.29507705078856
 20
1141.7560198643071
 30
0.0
 11
573.42209370458124
 21
1141.7560198643071
 31
0.0
  0
LINE
  5
1D9B
  8
61
 10
573.42209370458124
 20
1139.7560198643071
 30
0.0
 11
567.29507705078856
 21
1139.7560198643071
 31
0.0
  0
LINE
  5
1D9C
  8
61
 10
567.29507705078856
 20
1139.7560198643071
 30
0.0
 11
567.29507705078856
 21
1141.7560198643071
 31
0.0
  0
LINE
  5
1D9D
  8
61
 10
581.16806039699611
 20
1141.7560198643071
 30
0.0
 11
587.29507705078868
 21
1141.7560198643071
 31
0.0
  0
LINE
  5
1D9E
  8
61
 10
587.29507705078868
 20
1139.7560198643071
 30
0.0
 11
581.16806039699611
 21
1139.7560198643071
 31
0.0
  0
LINE
  5
1D9F
  8
61
 10
587.29507705078868
 20
1141.7560198643071
 30
0.0
 11
587.29507705078868
 21
1139.7560198643071
 31
0.0
  0
CIRCLE
  5
1DB2
  8
51
 10
102.29507705078861
 20
1040.7560198643071
 30
0.0
 40
4.5
  0
CIRCLE
  5
1DB3
  8
51
 10
52.295077050788677
 20
1140.7560198643071
 30
0.0
 40
4.5
  0
CIRCLE
  5
1DB4
  8
51
 10
152.29507705078859
 20
1040.7560198643071
 30
0.0
 40
4.5
  0
CIRCLE
  5
1DB5
  8
51
 10
152.29507705078859
 20
1140.7560198643071
 30
0.0
 40
4.5
  0
LINE
  5
1DB6
  8
34
 10
689.29983186939717
 20
1094.7560198643071
 30
0.0
 11
689.29983186939717
 21
1100.7560198643071
 31
0.0
  0
ARC
  5
1DB7
  8
34
 10
682.79983186939705
 20
1101.8266060959979
 30
0.0
 40
0.5
 50
180.0
 51
265.0
  0
LINE
  5
1DB8
  8
34
 10
689.29983186939717
 20
1100.7560198643071
 30
0.0
 11
682.75625399802334
 21
1101.3285087469519
 31
0.0
  0
LINE
  5
1DB9
  8
34
 10
689.29983186939717
 20
1086.7560198643071
 30
0.0
 11
682.29983186939705
 21
1086.1435992196259
 31
0.0
  0
LINE
  5
1DBA
  8
34
 10
689.29983186939717
 20
1086.7560198643071
 30
0.0
 11
689.29983186939717
 21
1080.7560198643071
 31
0.0
  0
LINE
  5
1DBB
  8
34
 10
689.29983186939717
 20
1094.7560198643071
 30
0.0
 11
682.29983186939705
 21
1095.3684405089889
 31
0.0
  0
LINE
  5
1DBC
  8
34
 10
689.29983186939717
 20
1090.7560198643071
 30
0.0
 11
689.29983186939717
 21
1094.7560198643071
 31
0.0
  0
LINE
  5
1DBD
  8
34
 10
689.29983186939717
 20
1090.7560198643071
 30
0.0
 11
689.29983186939717
 21
1086.7560198643071
 31
0.0
  0
ARC
  5
1DBE
  8
34
 10
682.79983186939705
 20
1079.6854336326171
 30
0.0
 40
0.5
 50
95.000000000000014
 51
180.0
  0
LINE
  5
1DBF
  8
34
 10
689.29983186939717
 20
1080.7560198643071
 30
0.0
 11
682.75625399802334
 21
1080.1835309816629
 31
0.0
  0
LINE
  5
1DC0
  8
34
 10
682.29983186939705
 20
1142.5145760424939
 30
0.0
 11
682.29983186939705
 21
1090.7560198643071
 31
0.0
  0
LINE
  5
1DC1
  8
34
 10
786.29983186939705
 20
1143.6560198643069
 30
0.0
 11
682.79546860164794
 21
1143.0145570040261
 31
0.0
  0
LINE
  5
1DC2
  8
34
 10
682.29983186939705
 20
1038.9974636861209
 30
0.0
 11
682.29983186939705
 21
1090.7560198643071
 31
0.0
  0
LINE
  5
1DC3
  8
34
 10
786.29983186939705
 20
1037.856019864307
 30
0.0
 11
682.79546860164794
 21
1038.497482724589
 31
0.0
  0
TEXT
  5
1DC4
  8
L20
 10
-33.99805799841544
 20
1235.3745361385661
 30
0.0
 40
12.800000000000001
  1
FIBOX PICCOLO Mh 230x140x105 BASE
  0
ARC
  5
1DC7
  8
34
 10
682.79983186939705
 20
1038.9974636861209
 30
0.0
 40
0.5
 50
180.0
 51
269.49999999999858
  0
ARC
  5
1DC8
  8
34
 10
682.79983186939705
 20
1142.5145760424939
 30
0.0
 40
0.5
 50
90.500000000001336
 51
180.0
  0
CIRCLE
  5
1DC9
  8
62
 10
527.29507705078856
 20
1090.7560198643071
 30
0.0
 40
8.0000000000000568
  0
LINE
  5
1E6E
  8
21
 10
639.29247041396695
 20
869.35551745666237
 30
0.0
 11
625.19507705078865
 21
869.35551745666237
 31
0.0
  0
LINE
  5
1E6F
  8
21
 10
642.19507705078865
 20
871.35551745666248
 30
0.0
 11
527.29507705078856
 21
871.35551745666248
 31
0.0
  0
LINE
  5
1E70
  8
21
 10
641.66414520297099
 20
876.35551745666237
 30
0.0
 11
527.29507705078856
 21
876.35551745666237
 31
0.0
  0
LINE
  5
1E71
  8
21
 10
638.16666641308268
 20
976.35551745666237
 30
0.0
 11
534.81521016899751
 21
976.35551745666237
 31
0.0
  0
LINE
  5
1E72
  8
21
 10
639.29507705078856
 20
977.75551745666235
 30
0.0
 11
627.29507705078856
 21
977.75551745666235
 31
0.0
  0
LINE
  5
1E73
  8
21
 10
429.3950770507887
 20
869.35551745666237
 30
0.0
 11
527.29507705078856
 21
869.35551745666237
 31
0.0
  0
LINE
  5
1E74
  8
21
 10
412.9260088986062
 20
876.35551745666237
 30
0.0
 11
527.29507705078856
 21
876.35551745666237
 31
0.0
  0
LINE
  5
1E75
  8
21
 10
412.3950770507887
 20
871.35551745666248
 30
0.0
 11
527.29507705078856
 21
871.35551745666248
 31
0.0
  0
LINE
  5
1E76
  8
24
 10
430.5365208726023
 20
973.35551745666248
 30
0.0
 11
519.29507705078845
 21
973.35551745666248
 31
0.0
  0
LINE
  5
1E77
  8
21
 10
416.6852937222173
 20
976.35551745666237
 30
0.0
 11
519.77494393257984
 21
976.35551745666237
 31
0.0
  0
LINE
  5
1E78
  8
21
 10
413.83430987818622
 20
876.85115418891337
 30
0.0
 11
414.68536987608888
 21
974.37297052765905
 31
0.0
  0
LINE
  5
1E79
  8
24
 10
429.3950770507887
 20
869.35551745666237
 30
0.0
 11
430.03653991107018
 21
972.8598807244116
 31
0.0
  0
LINE
  5
1E7A
  8
21
 10
415.29507705078862
 20
977.75551745666235
 30
0.0
 11
427.29507705078862
 21
977.75551745666235
 31
0.0
  0
ARC
  5
1E7B
  8
21
 10
416.6852937222173
 20
974.35551745666237
 30
0.0
 40
2.0
 50
90.000000000000028
 51
179.5
  0
LINE
  5
1E7C
  8
21
 10
415.29507705078862
 20
977.75551745666235
 30
0.0
 11
414.8989755991912
 21
975.25499928713418
 31
0.0
  0
LINE
  5
1E7D
  8
21
 10
436.89507705078859
 20
977.35551745666237
 30
0.0
 11
432.39507705078859
 21
977.35551745666237
 31
0.0
  0
ARC
  5
1E7E
  8
24
 10
430.5365208726023
 20
972.85551745666237
 30
0.0
 40
0.5
 50
90.000000000000028
 51
179.5000000000019
  0
LINE
  5
1E7F
  8
21
 10
427.89507705078859
 20
977.35551745666237
 30
0.0
 11
427.62712785835748
 21
976.35551745666237
 31
0.0
  0
LINE
  5
1E80
  8
21
 10
427.29507705078862
 20
977.75551745666235
 30
0.0
 11
427.63526942965331
 21
976.38590221439199
 31
0.0
  0
LINE
  5
1E81
  8
21
 10
427.89507705078859
 20
977.35551745666237
 30
0.0
 11
432.39507705078859
 21
977.35551745666237
 31
0.0
  0
LINE
  5
1E82
  8
21
 10
444.39507705078859
 20
977.35551745666237
 30
0.0
 11
439.89507705078859
 21
977.35551745666237
 31
0.0
  0
LINE
  5
1E83
  8
21
 10
436.89507705078859
 20
977.35551745666237
 30
0.0
 11
437.1630262432198
 21
976.35551745666237
 31
0.0
  0
LINE
  5
1E84
  8
21
 10
436.89507705078859
 20
977.35551745666237
 30
0.0
 11
439.89507705078859
 21
977.35551745666237
 31
0.0
  0
LINE
  5
1E85
  8
21
 10
444.39507705078859
 20
977.35551745666237
 30
0.0
 11
444.6630262432198
 21
976.35551745666237
 31
0.0
  0
LINE
  5
1E86
  8
24
 10
477.29507705078862
 20
966.35551745666237
 30
0.0
 11
481.29507705078862
 21
966.35551745666237
 31
0.0
  0
LINE
  5
1E87
  8
21
 10
481.79507705078862
 20
977.35551745666237
 30
0.0
 11
477.29507705078862
 21
977.35551745666237
 31
0.0
  0
LINE
  5
1E88
  8
24
 10
473.29507705078862
 20
966.35551745666237
 30
0.0
 11
472.68265640610718
 21
973.35551745666248
 31
0.0
  0
LINE
  5
1E89
  8
21
 10
472.79507705078862
 20
977.35551745666237
 30
0.0
 11
477.29507705078862
 21
977.35551745666237
 31
0.0
  0
LINE
  5
1E8A
  8
24
 10
473.29507705078862
 20
966.35551745666237
 30
0.0
 11
467.29507705078862
 21
966.35551745666237
 31
0.0
  0
LINE
  5
1E8B
  8
21
 10
472.79507705078862
 20
977.35551745666237
 30
0.0
 11
472.52712785835752
 21
976.35551745666237
 31
0.0
  0
ARC
  5
1E8C
  8
24
 10
466.22449081909849
 20
972.85551745666237
 30
0.0
 40
0.5
 50
4.9999999999997531
 51
90.000000000000028
  0
LINE
  5
1E8D
  8
24
 10
467.29507705078862
 20
966.35551745666237
 30
0.0
 11
466.7225881681444
 21
972.8990953280362
 31
0.0
  0
LINE
  5
1E8E
  8
24
 10
477.29507705078862
 20
966.35551745666237
 30
0.0
 11
473.29507705078862
 21
966.35551745666237
 31
0.0
  0
ARC
  5
1E8F
  8
24
 10
488.36566328247881
 20
972.85551745666237
 30
0.0
 40
0.5
 50
90.000000000000028
 51
175.0000000000002
  0
LINE
  5
1E90
  8
24
 10
487.29507705078868
 20
966.35551745666237
 30
0.0
 11
487.86756593343301
 21
972.8990953280362
 31
0.0
  0
LINE
  5
1E91
  8
24
 10
481.29507705078862
 20
966.35551745666237
 30
0.0
 11
481.90749769547011
 21
973.35551745666248
 31
0.0
  0
LINE
  5
1E92
  8
21
 10
481.79507705078862
 20
977.35551745666237
 30
0.0
 11
482.06302624321978
 21
976.35551745666237
 31
0.0
  0
LINE
  5
1E93
  8
24
 10
481.29507705078862
 20
966.35551745666237
 30
0.0
 11
487.29507705078868
 21
966.35551745666237
 31
0.0
  0
LINE
  5
1E94
  8
21
 10
415.29768368761017
 20
869.35551745666237
 30
0.0
 11
429.3950770507887
 21
869.35551745666237
 31
0.0
  0
LINE
  5
1E95
  8
21
 10
414.48496643512522
 20
869.64504760765146
 30
0.0
 11
414.42523551180523
 21
871.35551745666248
 31
0.0
  0
LINE
  5
1E96
  8
21
 10
412.3950770507887
 20
871.35551745666248
 30
0.0
 11
412.42602070126452
 21
875.85895293610724
 31
0.0
  0
ARC
  5
1E97
  8
21
 10
413.3343289166541
 20
876.85551745666248
 30
0.0
 40
0.5
 50
270.0
 51
359.50000000000199
  0
ARC
  5
1E98
  8
21
 10
412.9260088986062
 20
875.85551745666248
 30
0.0
 40
0.5
 50
90.000000000000028
 51
179.60631995676371
  0
LINE
  5
1E99
  8
21
 10
414.78478368323078
 20
869.35551745666237
 30
0.0
 11
415.29768368761017
 21
869.35551745666237
 31
0.0
  0
ARC
  5
1E9A
  8
21
 10
414.78478368323078
 20
869.65551745666244
 30
0.0
 40
0.3
 50
181.99999999999699
 51
270.0
  0
LINE
  5
1E9B
  8
24
 10
625.19507705078865
 20
869.35551745666237
 30
0.0
 11
624.55361419050712
 21
972.8598807244116
 31
0.0
  0
LINE
  5
1E9C
  8
23
  6
DASHDOT
 10
527.29507705078856
 20
867.35551745666237
 30
0.0
 11
527.29507705078856
 21
982.75937266122855
 31
0.0
  0
LINE
  5
1E9D
  8
21
 10
572.79507705078856
 20
977.35551745666237
 30
0.0
 11
577.29507705078856
 21
977.35551745666237
 31
0.0
  0
LINE
  5
1E9E
  8
24
 10
624.05363322897495
 20
973.35551745666248
 30
0.0
 11
535.29507705078868
 21
973.35551745666248
 31
0.0
  0
LINE
  5
1E9F
  8
21
 10
531.79507705078856
 20
977.35551745666237
 30
0.0
 11
527.29507705078856
 21
977.35551745666237
 31
0.0
  0
LINE
  5
1EA0
  8
21
 10
534.81521016899751
 20
976.35551745666237
 30
0.0
 11
527.29507705078856
 21
976.35551745666237
 31
0.0
  0
ARC
  5
1EA1
  8
24
 10
527.29507705078856
 20
998.51500870748077
 30
0.0
 40
23.40075756488817
 50
270.0
 51
288.74536166110607
  0
ARC
  5
1EA2
  8
24
 10
527.29507705078856
 20
998.51500870748077
 30
0.0
 40
26.40075756488817
 50
270.0
 51
287.63917860419463
  0
ARC
  5
1EA3
  8
24
 10
527.29507705078856
 20
998.51500870748077
 30
0.0
 40
26.40075756488817
 50
252.36082139580529
 51
270.0
  0
LINE
  5
1EA4
  8
21
 10
519.77494393257984
 20
976.35551745666237
 30
0.0
 11
527.29507705078856
 21
976.35551745666237
 31
0.0
  0
ARC
  5
1EA5
  8
24
 10
527.29507705078856
 20
998.51500870748077
 30
0.0
 40
23.40075756488817
 50
251.25463833889381
 51
270.0
  0
LINE
  5
1EA6
  8
21
 10
522.79507705078856
 20
977.35551745666237
 30
0.0
 11
522.52712785835752
 21
976.35551745666237
 31
0.0
  0
LINE
  5
1EA7
  8
21
 10
522.79507705078856
 20
977.35551745666237
 30
0.0
 11
527.29507705078856
 21
977.35551745666237
 31
0.0
  0
LINE
  5
1EA8
  8
21
 10
531.79507705078856
 20
977.35551745666237
 30
0.0
 11
532.06302624321984
 21
976.35551745666237
 31
0.0
  0
LINE
  5
1EA9
  8
21
 10
572.79507705078856
 20
977.35551745666237
 30
0.0
 11
572.52712785835752
 21
976.35551745666237
 31
0.0
  0
LINE
  5
1EAA
  8
21
 10
581.79507705078856
 20
977.35551745666237
 30
0.0
 11
577.29507705078856
 21
977.35551745666237
 31
0.0
  0
LINE
  5
1EAB
  8
21
 10
581.79507705078856
 20
977.35551745666237
 30
0.0
 11
582.06302624321984
 21
976.35551745666237
 31
0.0
  0
LINE
  5
1EAC
  8
21
 10
617.69507705078865
 20
977.35551745666237
 30
0.0
 11
622.19507705078865
 21
977.35551745666237
 31
0.0
  0
LINE
  5
1EAD
  8
21
 10
610.19507705078865
 20
977.35551745666237
 30
0.0
 11
614.69507705078865
 21
977.35551745666237
 31
0.0
  0
LINE
  5
1EAE
  8
21
 10
610.19507705078865
 20
977.35551745666237
 30
0.0
 11
609.92712785835738
 21
976.35551745666237
 31
0.0
  0
LINE
  5
1EAF
  8
21
 10
617.69507705078865
 20
977.35551745666237
 30
0.0
 11
617.42712785835738
 21
976.35551745666237
 31
0.0
  0
LINE
  5
1EB0
  8
21
 10
617.69507705078865
 20
977.35551745666237
 30
0.0
 11
614.69507705078865
 21
977.35551745666237
 31
0.0
  0
ARC
  5
1EB1
  8
24
 10
624.05363322897495
 20
972.85551745666237
 30
0.0
 40
0.5
 50
0.4999999999980492
 51
90.000000000000028
  0
LINE
  5
1EB2
  8
21
 10
626.69507705078865
 20
977.35551745666237
 30
0.0
 11
626.96302624321982
 21
976.35551745666237
 31
0.0
  0
LINE
  5
1EB3
  8
21
 10
627.29507705078856
 20
977.75551745666235
 30
0.0
 11
626.95488467192388
 21
976.38590221439199
 31
0.0
  0
LINE
  5
1EB4
  8
21
 10
626.69507705078865
 20
977.35551745666237
 30
0.0
 11
622.19507705078865
 21
977.35551745666237
 31
0.0
  0
LINE
  5
1EB5
  8
21
 10
625.19507705078865
 20
869.35551745666237
 30
0.0
 11
527.29507705078856
 21
869.35551745666237
 31
0.0
  0
LINE
  5
1EB6
  8
21
 10
640.75584422339114
 20
876.85115418891337
 30
0.0
 11
639.90478422548836
 21
974.37297052765905
 31
0.0
  0
ARC
  5
1EB7
  8
21
 10
637.90486037936
 20
974.35551745666237
 30
0.0
 40
2.0
 50
0.499999999999932
 51
90.000000000000028
  0
LINE
  5
1EB8
  8
21
 10
639.29507705078856
 20
977.75551745666235
 30
0.0
 11
639.69117850238604
 21
975.25499928713418
 31
0.0
  0
LINE
  5
1EB9
  8
21
 10
640.10518766645214
 20
869.64504760765146
 30
0.0
 11
640.16491858977213
 21
871.35551745666248
 31
0.0
  0
LINE
  5
1EBA
  8
21
 10
642.19507705078865
 20
871.35551745666248
 30
0.0
 11
642.16413340031272
 21
875.85895293610724
 31
0.0
  0
ARC
  5
1EBB
  8
21
 10
641.25582518492308
 20
876.85551745666248
 30
0.0
 40
0.5
 50
180.49999999999801
 51
270.0
  0
ARC
  5
1EBC
  8
21
 10
641.66414520297099
 20
875.85551745666248
 30
0.0
 40
0.5
 50
0.3936800432362431
 51
90.000000000000028
  0
ARC
  5
1EBD
  8
21
 10
639.80537041834646
 20
869.65551745666244
 30
0.0
 40
0.3
 50
270.0
 51
358.00000000000279
  0
LINE
  5
1EBE
  8
21
 10
639.80537041834646
 20
869.35551745666237
 30
0.0
 11
639.29247041396695
 21
869.35551745666237
 31
0.0
  0
ARC
  5
1EBF
  8
31
 10
681.29983186939705
 20
1156.365803192878
 30
0.0
 40
2.0
 50
90.500000000000085
 51
180.0
  0
ARC
  5
1EC0
  8
31
 10
681.29983186939705
 20
1025.1462365357361
 30
0.0
 40
2.0
 50
180.0
 51
269.5
  0
LINE
  5
1EC1
  8
31
 10
677.89983186939719
 20
1023.7560198643069
 30
0.0
 11
680.29035962597425
 21
1023.4196891747411
 31
0.0
  0
LINE
  5
1EC2
  8
31
 10
375.29032223218007
 20
1025.1462365357361
 30
0.0
 11
375.29032223218007
 21
1090.7560198643071
 31
0.0
  0
LINE
  5
1EC3
  8
34
 10
372.29032223218007
 20
1038.9974636861209
 30
0.0
 11
372.29032223218007
 21
1090.7560198643071
 31
0.0
  0
LINE
  5
1EC4
  8
31
 10
376.29032223218007
 20
1045.356019864307
 30
0.0
 11
376.29032223218007
 21
1048.356019864307
 31
0.0
  0
LINE
  5
1EC5
  8
31
 10
268.29032223218007
 20
1037.856019864307
 30
0.0
 11
268.29032223218007
 21
1090.7560198643071
 31
0.0
  0
LINE
  5
1EC6
  8
31
 10
270.29032223217951
 20
1020.856019864307
 30
0.0
 11
270.29032223218007
 21
1090.7560198643071
 31
0.0
  0
LINE
  5
1EC7
  8
31
 10
275.29032223217951
 20
1021.386951712125
 30
0.0
 11
275.29032223218007
 21
1090.7560198643071
 31
0.0
  0
LINE
  5
1EC8
  8
34
 10
268.29032223218007
 20
1037.856019864307
 30
0.0
 11
371.79468549992941
 21
1038.497482724589
 31
0.0
  0
LINE
  5
1EC9
  8
31
 10
275.7859589644309
 20
1022.2952526917049
 30
0.0
 11
373.30777530317698
 21
1023.146312689608
 31
0.0
  0
LINE
  5
1ECA
  8
31
 10
376.69032223218011
 20
1023.7560198643069
 30
0.0
 11
374.29979447560311
 21
1023.4196891747411
 31
0.0
  0
ARC
  5
1ECB
  8
31
 10
373.29032223218019
 20
1025.1462365357361
 30
0.0
 40
2.0
 50
270.49999999999989
 51
0.000000000000007
  0
ARC
  5
1ECC
  8
34
 10
371.79032223218019
 20
1038.9974636861209
 30
0.0
 40
0.5
 50
270.50000000000131
 51
0.000000000000007
  0
LINE
  5
1ECD
  8
31
 10
376.69032223218011
 20
1023.7560198643069
 30
0.0
 11
376.69032223218011
 21
1035.7560198643071
 31
0.0
  0
LINE
  5
1ECE
  8
31
 10
376.29032223218007
 20
1036.356019864307
 30
0.0
 11
376.29032223218007
 21
1040.856019864307
 31
0.0
  0
LINE
  5
1ECF
  8
31
 10
376.29032223218007
 20
1045.356019864307
 30
0.0
 11
376.29032223218007
 21
1040.856019864307
 31
0.0
  0
LINE
  5
1ED0
  8
31
 10
376.69032223218011
 20
1035.7560198643071
 30
0.0
 11
375.32070698990958
 21
1036.096212243172
 31
0.0
  0
LINE
  5
1ED1
  8
31
 10
376.29032223218007
 20
1045.356019864307
 30
0.0
 11
375.29032223218007
 21
1045.623969056739
 31
0.0
  0
LINE
  5
1ED2
  8
31
 10
376.29032223218007
 20
1036.356019864307
 30
0.0
 11
375.29032223218007
 21
1036.088070671876
 31
0.0
  0
ARC
  5
1ED3
  8
31
 10
275.79032223218019
 20
1021.795271730173
 30
0.0
 40
0.5
 50
90.500000000001336
 51
180.0
  0
LINE
  5
1ED4
  8
31
 10
270.29032223218007
 20
1020.856019864307
 30
0.0
 11
270.29032223218007
 21
1022.886178325324
 31
0.0
  0
LINE
  5
1ED5
  8
31
 10
275.29032223218007
 20
1021.386951712125
 30
0.0
 11
275.29032223218007
 21
1021.795271730173
 31
0.0
  0
LINE
  5
1ED6
  8
31
 10
270.29032223218007
 20
1020.856019864307
 30
0.0
 11
274.79375771162489
 21
1020.886963514783
 31
0.0
  0
ARC
  5
1ED7
  8
31
 10
274.79032223218007
 20
1021.386951712125
 30
0.0
 40
0.5
 50
270.39368004323291
 51
0.000000000000007
  0
ARC
  5
1ED8
  8
31
 10
268.59032223218009
 20
1023.24572649675
 30
0.0
 40
0.3
 50
180.0
 51
267.99999999999937
  0
LINE
  5
1ED9
  8
31
 10
268.5798523831694
 20
1022.9459092486441
 30
0.0
 11
270.29032223218007
 21
1022.886178325324
 31
0.0
  0
LINE
  5
1EDA
  8
31
 10
268.29032223218007
 20
1023.24572649675
 30
0.0
 11
268.29032223218007
 21
1023.758626501129
 31
0.0
  0
LINE
  5
1EDB
  8
31
 10
268.29032223218007
 20
1023.758626501129
 30
0.0
 11
268.29032223218007
 21
1037.856019864307
 31
0.0
  0
LINE
  5
1EDC
  8
34
 10
268.29032223218007
 20
1143.6560198643069
 30
0.0
 11
371.79468549992941
 21
1143.0145570040261
 31
0.0
  0
LINE
  5
1EDD
  8
33
  6
DASHDOT
 10
266.29032223218007
 20
1090.7560198643071
 30
0.0
 11
390.24928029269807
 21
1090.7560198643071
 31
0.0
  0
LINE
  5
1EDE
  8
31
 10
275.7859589644309
 20
1159.2167870369101
 30
0.0
 11
373.30777530317698
 21
1158.365727039007
 31
0.0
  0
LINE
  5
1EDF
  8
31
 10
375.29032223218007
 20
1156.365803192878
 30
0.0
 11
375.29032223218007
 21
1090.7560198643071
 31
0.0
  0
LINE
  5
1EE0
  8
31
 10
376.69032223218011
 20
1157.7560198643071
 30
0.0
 11
376.69032223218011
 21
1145.7560198643071
 31
0.0
  0
LINE
  5
1EE1
  8
34
 10
372.29032223218007
 20
1142.5145760424939
 30
0.0
 11
372.29032223218007
 21
1090.7560198643071
 31
0.0
  0
LINE
  5
1EE2
  8
34
 10
365.29032223218019
 20
1094.7560198643071
 30
0.0
 11
365.29032223218019
 21
1100.7560198643071
 31
0.0
  0
LINE
  5
1EE3
  8
34
 10
365.29032223218019
 20
1086.7560198643071
 30
0.0
 11
372.29032223218007
 21
1086.1435992196259
 31
0.0
  0
LINE
  5
1EE4
  8
34
 10
365.29032223218019
 20
1094.7560198643071
 30
0.0
 11
372.29032223218007
 21
1095.3684405089889
 31
0.0
  0
LINE
  5
1EE5
  8
34
 10
365.29032223218019
 20
1080.7560198643071
 30
0.0
 11
371.83390010355402
 21
1080.1835309816629
 31
0.0
  0
LINE
  5
1EE6
  8
31
 10
376.29032223218007
 20
1052.856019864307
 30
0.0
 11
376.29032223218007
 21
1048.356019864307
 31
0.0
  0
LINE
  5
1EE7
  8
31
 10
376.29032223218007
 20
1052.856019864307
 30
0.0
 11
375.29032223218007
 21
1053.123969056739
 31
0.0
  0
ARC
  5
1EE8
  8
34
 10
371.79032223218019
 20
1079.6854336326171
 30
0.0
 40
0.5
 50
0.000000000000007
 51
84.999999999999986
  0
LINE
  5
1EE9
  8
31
 10
376.29032223218007
 20
1095.2560198643071
 30
0.0
 11
376.29032223218007
 21
1090.7560198643071
 31
0.0
  0
LINE
  5
1EEA
  8
31
 10
376.29032223218007
 20
1086.2560198643071
 30
0.0
 11
376.29032223218007
 21
1090.7560198643071
 31
0.0
  0
LINE
  5
1EEB
  8
31
 10
376.29032223218007
 20
1086.2560198643071
 30
0.0
 11
375.29032223218007
 21
1085.9880706718759
 31
0.0
  0
LINE
  5
1EEC
  8
31
 10
376.29032223218007
 20
1095.2560198643071
 30
0.0
 11
375.29032223218007
 21
1095.523969056738
 31
0.0
  0
LINE
  5
1EED
  8
34
 10
365.29032223218019
 20
1090.7560198643071
 30
0.0
 11
365.29032223218019
 21
1094.7560198643071
 31
0.0
  0
LINE
  5
1EEE
  8
34
 10
365.29032223218019
 20
1086.7560198643071
 30
0.0
 11
365.29032223218019
 21
1080.7560198643071
 31
0.0
  0
LINE
  5
1EEF
  8
34
 10
365.29032223218019
 20
1090.7560198643071
 30
0.0
 11
365.29032223218019
 21
1086.7560198643071
 31
0.0
  0
LINE
  5
1EF0
  8
34
 10
365.29032223218019
 20
1100.7560198643071
 30
0.0
 11
371.83390010355402
 21
1101.3285087469519
 31
0.0
  0
ARC
  5
1EF1
  8
34
 10
371.79032223218019
 20
1101.8266060959979
 30
0.0
 40
0.5
 50
275.0
 51
0.000000000000007
  0
ARC
  5
1EF2
  8
34
 10
371.79032223218019
 20
1142.5145760424939
 30
0.0
 40
0.5
 50
0.000000000000007
 51
89.499999999998664
  0
LINE
  5
1EF3
  8
31
 10
376.29032223218007
 20
1136.1560198643069
 30
0.0
 11
376.29032223218007
 21
1140.6560198643069
 31
0.0
  0
LINE
  5
1EF4
  8
31
 10
376.29032223218007
 20
1128.6560198643069
 30
0.0
 11
376.29032223218007
 21
1133.1560198643069
 31
0.0
  0
LINE
  5
1EF5
  8
31
 10
376.29032223218007
 20
1136.1560198643069
 30
0.0
 11
376.29032223218007
 21
1133.1560198643069
 31
0.0
  0
LINE
  5
1EF6
  8
31
 10
376.29032223218007
 20
1145.1560198643069
 30
0.0
 11
376.29032223218007
 21
1140.6560198643069
 31
0.0
  0
LINE
  5
1EF7
  8
31
 10
376.29032223218007
 20
1136.1560198643069
 30
0.0
 11
375.29032223218007
 21
1135.888070671876
 31
0.0
  0
LINE
  5
1EF8
  8
31
 10
376.29032223218007
 20
1128.6560198643069
 30
0.0
 11
375.29032223218007
 21
1128.388070671876
 31
0.0
  0
LINE
  5
1EF9
  8
31
 10
376.69032223218011
 20
1145.7560198643071
 30
0.0
 11
375.32070698990958
 21
1145.4158274854431
 31
0.0
  0
LINE
  5
1EFA
  8
31
 10
376.29032223218007
 20
1145.1560198643069
 30
0.0
 11
375.29032223218007
 21
1145.4239690567381
 31
0.0
  0
LINE
  5
1EFB
  8
31
 10
376.69032223218011
 20
1157.7560198643071
 30
0.0
 11
374.29979447560311
 21
1158.0923505538731
 31
0.0
  0
ARC
  5
1EFC
  8
31
 10
373.29032223218019
 20
1156.365803192878
 30
0.0
 40
2.0
 50
0.000000000000007
 51
89.499999999999929
  0
LINE
  5
1EFD
  8
31
 10
268.29032223218007
 20
1157.7534132274859
 30
0.0
 11
268.29032223218007
 21
1143.6560198643069
 31
0.0
  0
LINE
  5
1EFE
  8
31
 10
270.29032223218007
 20
1160.6560198643069
 30
0.0
 11
270.29032223218007
 21
1090.7560198643071
 31
0.0
  0
LINE
  5
1EFF
  8
31
 10
275.29032223218007
 20
1160.1250880164901
 30
0.0
 11
275.29032223218007
 21
1090.7560198643071
 31
0.0
  0
LINE
  5
1F00
  8
31
 10
268.29032223218007
 20
1143.6560198643069
 30
0.0
 11
268.29032223218007
 21
1090.7560198643071
 31
0.0
  0
ARC
  5
1F01
  8
31
 10
275.79032223218019
 20
1159.716767998442
 30
0.0
 40
0.5
 50
180.0
 51
269.49999999999858
  0
LINE
  5
1F02
  8
31
 10
268.29032223218007
 20
1158.2663132318651
 30
0.0
 11
268.29032223218007
 21
1157.7534132274859
 31
0.0
  0
LINE
  5
1F03
  8
31
 10
268.5798523831694
 20
1158.566130479971
 30
0.0
 11
270.29032223218007
 21
1158.6258614032911
 31
0.0
  0
ARC
  5
1F04
  8
31
 10
268.59032223218009
 20
1158.2663132318651
 30
0.0
 40
0.3
 50
92.000000000000469
 51
180.0
  0
ARC
  5
1F05
  8
31
 10
274.79032223218007
 20
1160.1250880164901
 30
0.0
 40
0.5
 50
0.000000000000007
 51
89.606319956767038
  0
LINE
  5
1F06
  8
31
 10
270.29032223218007
 20
1160.6560198643069
 30
0.0
 11
274.79375771162489
 21
1160.6250762138311
 31
0.0
  0
CIRCLE
  5
1F0F
  8
61
 10
447.8950770507887
 20
1144.856019864307
 30
0.0
 40
2.0
  0
CIRCLE
  5
1F10
  8
61
 10
447.8950770507887
 20
1144.856019864307
 30
0.0
 40
4.0
  0
CIRCLE
  5
1F11
  8
61
 10
447.8950770507887
 20
1144.856019864307
 30
0.0
 40
1.5
  0
CIRCLE
  5
1F12
  8
61
 10
606.69507705078877
 20
1144.856019864307
 30
0.0
 40
2.0
  0
CIRCLE
  5
1F13
  8
61
 10
606.69507705078877
 20
1144.856019864307
 30
0.0
 40
4.0
  0
CIRCLE
  5
1F14
  8
61
 10
606.69507705078877
 20
1144.856019864307
 30
0.0
 40
1.5
  0
CIRCLE
  5
1F15
  8
61
 10
606.69507705078877
 20
1036.6560198643069
 30
0.0
 40
2.0
  0
CIRCLE
  5
1F16
  8
61
 10
606.69507705078877
 20
1036.6560198643069
 30
0.0
 40
4.0
  0
CIRCLE
  5
1F17
  8
61
 10
606.69507705078877
 20
1036.6560198643069
 30
0.0
 40
1.5
  0
CIRCLE
  5
1F18
  8
61
 10
447.8950770507887
 20
1036.6560198643069
 30
0.0
 40
4.0
  0
CIRCLE
  5
1F19
  8
61
 10
447.8950770507887
 20
1036.6560198643069
 30
0.0
 40
2.0
  0
CIRCLE
  5
1F1A
  8
61
 10
447.8950770507887
 20
1036.6560198643069
 30
0.0
 40
1.5
  0
CIRCLE
  5
1F1B
  8
0
  6
CONTINUOUS
 62
     7
 10
22.895077050788689
 20
1144.856019864307
 30
0.0
 40
4.6904203485070184
  0
CIRCLE
  5
1F1C
  8
0
  6
CONTINUOUS
 62
     7
 10
22.895077050788689
 20
1144.856019864307
 30
0.0
 40
4.5416304590619339
  0
CIRCLE
  5
1F1D
  8
0
  6
CONTINUOUS
 62
     7
 10
181.69507705078871
 20
1144.856019864307
 30
0.0
 40
4.5416304590619339
  0
CIRCLE
  5
1F1E
  8
0
  6
CONTINUOUS
 62
     7
 10
181.69507705078871
 20
1144.856019864307
 30
0.0
 40
4.6904203485070184
  0
CIRCLE
  5
1F1F
  8
0
  6
CONTINUOUS
 62
     7
 10
22.895077050788689
 20
1036.6560198643069
 30
0.0
 40
4.6904203485070184
  0
CIRCLE
  5
1F20
  8
0
  6
CONTINUOUS
 62
     7
 10
22.895077050788689
 20
1036.6560198643069
 30
0.0
 40
4.5416304590619339
  0
CIRCLE
  5
1F21
  8
0
  6
CONTINUOUS
 62
     7
 10
181.69507705078871
 20
1036.6560198643069
 30
0.0
 40
4.5416304590619339
  0
CIRCLE
  5
1F22
  8
0
  6
CONTINUOUS
 62
     7
 10
181.69507705078871
 20
1036.6560198643069
 30
0.0
 40
4.6904203485070184
  0
LINE
  5
1F23
  8
21
 10
452.45291962624248
 20
977.35551745666237
 30
0.0
 11
444.39507705078859
 21
977.35551745666237
 31
0.0
  0
LINE
  5
1F24
  8
21
 10
452.45291962624248
 20
977.35551745666237
 30
0.0
 11
452.72086881867358
 21
976.35551745666237
 31
0.0
  0
LINE
  5
1F25
  8
21
 10
602.13723447533482
 20
977.35551745666237
 30
0.0
 11
610.19507705078865
 21
977.35551745666237
 31
0.0
  0
LINE
  5
1F26
  8
21
 10
602.13723447533482
 20
977.35551745666237
 30
0.0
 11
601.86928528290355
 21
976.35551745666237
 31
0.0
  0
LINE
  5
1F27
  8
21
 10
639.29507705078856
 20
1203.7565222719529
 30
0.0
 11
627.29507705078856
 21
1203.7565222719529
 31
0.0
  0
LINE
  5
1F28
  8
21
 10
638.16666641308268
 20
1205.156522271953
 30
0.0
 11
534.81521016899751
 21
1205.156522271953
 31
0.0
  0
LINE
  5
1F29
  8
21
 10
641.66414520297099
 20
1305.156522271953
 30
0.0
 11
527.29507705078856
 21
1305.156522271953
 31
0.0
  0
LINE
  5
1F2A
  8
21
 10
642.19507705078865
 20
1310.156522271953
 30
0.0
 11
527.29507705078856
 21
1310.156522271953
 31
0.0
  0
LINE
  5
1F2B
  8
21
 10
639.29247041396695
 20
1312.156522271953
 30
0.0
 11
625.19507705078865
 21
1312.156522271953
 31
0.0
  0
LINE
  5
1F2C
  8
21
 10
416.6852937222173
 20
1205.156522271953
 30
0.0
 11
519.77494393257984
 21
1205.156522271953
 31
0.0
  0
LINE
  5
1F2D
  8
24
 10
430.5365208726023
 20
1208.156522271953
 30
0.0
 11
519.29507705078845
 21
1208.156522271953
 31
0.0
  0
LINE
  5
1F2E
  8
21
 10
412.3950770507887
 20
1310.156522271953
 30
0.0
 11
527.29507705078856
 21
1310.156522271953
 31
0.0
  0
LINE
  5
1F2F
  8
21
 10
412.9260088986062
 20
1305.156522271953
 30
0.0
 11
527.29507705078856
 21
1305.156522271953
 31
0.0
  0
LINE
  5
1F30
  8
21
 10
429.3950770507887
 20
1312.156522271953
 30
0.0
 11
527.29507705078856
 21
1312.156522271953
 31
0.0
  0
LINE
  5
1F31
  8
21
 10
452.45291962624248
 20
1204.156522271953
 30
0.0
 11
444.39507705078859
 21
1204.156522271953
 31
0.0
  0
LINE
  5
1F32
  8
24
 10
429.3950770507887
 20
1312.156522271953
 30
0.0
 11
430.03653991107018
 21
1208.6521590042039
 31
0.0
  0
LINE
  5
1F33
  8
21
 10
413.83430987818622
 20
1304.6608855397019
 30
0.0
 11
414.68536987608888
 21
1207.1390692009561
 31
0.0
  0
LINE
  5
1F34
  8
21
 10
415.29768368761017
 20
1312.156522271953
 30
0.0
 11
429.3950770507887
 21
1312.156522271953
 31
0.0
  0
LINE
  5
1F35
  8
21
 10
414.48496643512522
 20
1311.8669921209639
 30
0.0
 11
414.42523551180523
 21
1310.156522271953
 31
0.0
  0
ARC
  5
1F36
  8
21
 10
414.78478368323078
 20
1311.8565222719531
 30
0.0
 40
0.3
 50
90.000000000000028
 51
178.0000000000029
  0
LINE
  5
1F37
  8
21
 10
414.78478368323078
 20
1312.156522271953
 30
0.0
 11
415.29768368761017
 21
1312.156522271953
 31
0.0
  0
ARC
  5
1F38
  8
21
 10
412.9260088986062
 20
1305.656522271953
 30
0.0
 40
0.5
 50
180.3936800432362
 51
270.0
  0
ARC
  5
1F39
  8
21
 10
413.3343289166541
 20
1304.656522271953
 30
0.0
 40
0.5
 50
0.4999999999980492
 51
90.000000000000028
  0
LINE
  5
1F3A
  8
21
 10
412.3950770507887
 20
1310.156522271953
 30
0.0
 11
412.42602070126452
 21
1305.653086792508
 31
0.0
  0
LINE
  5
1F3B
  8
21
 10
415.29507705078862
 20
1203.7565222719529
 30
0.0
 11
427.29507705078862
 21
1203.7565222719529
 31
0.0
  0
LINE
  5
1F3C
  8
21
 10
415.29507705078862
 20
1203.7565222719529
 30
0.0
 11
414.8989755991912
 21
1206.257040441481
 31
0.0
  0
ARC
  5
1F3D
  8
21
 10
416.6852937222173
 20
1207.156522271953
 30
0.0
 40
2.0
 50
180.49999999999989
 51
270.0
  0
LINE
  5
1F3E
  8
21
 10
436.89507705078859
 20
1204.156522271953
 30
0.0
 11
432.39507705078859
 21
1204.156522271953
 31
0.0
  0
LINE
  5
1F3F
  8
21
 10
427.89507705078859
 20
1204.156522271953
 30
0.0
 11
432.39507705078859
 21
1204.156522271953
 31
0.0
  0
LINE
  5
1F40
  8
21
 10
427.29507705078862
 20
1203.7565222719529
 30
0.0
 11
427.63526942965331
 21
1205.126137514223
 31
0.0
  0
LINE
  5
1F41
  8
21
 10
427.89507705078859
 20
1204.156522271953
 30
0.0
 11
427.62712785835748
 21
1205.156522271953
 31
0.0
  0
ARC
  5
1F42
  8
24
 10
430.5365208726023
 20
1208.656522271953
 30
0.0
 40
0.5
 50
180.4999999999981
 51
270.0
  0
LINE
  5
1F43
  8
21
 10
444.39507705078859
 20
1204.156522271953
 30
0.0
 11
439.89507705078859
 21
1204.156522271953
 31
0.0
  0
LINE
  5
1F44
  8
21
 10
436.89507705078859
 20
1204.156522271953
 30
0.0
 11
439.89507705078859
 21
1204.156522271953
 31
0.0
  0
LINE
  5
1F45
  8
21
 10
436.89507705078859
 20
1204.156522271953
 30
0.0
 11
437.1630262432198
 21
1205.156522271953
 31
0.0
  0
LINE
  5
1F46
  8
21
 10
444.39507705078859
 20
1204.156522271953
 30
0.0
 11
444.6630262432198
 21
1205.156522271953
 31
0.0
  0
LINE
  5
1F47
  8
21
 10
481.79507705078862
 20
1204.156522271953
 30
0.0
 11
477.29507705078862
 21
1204.156522271953
 31
0.0
  0
LINE
  5
1F48
  8
24
 10
477.29507705078862
 20
1215.156522271953
 30
0.0
 11
481.29507705078862
 21
1215.156522271953
 31
0.0
  0
LINE
  5
1F49
  8
21
 10
452.45291962624248
 20
1204.156522271953
 30
0.0
 11
452.72086881867358
 21
1205.156522271953
 31
0.0
  0
LINE
  5
1F4A
  8
24
 10
467.29507705078862
 20
1215.156522271953
 30
0.0
 11
466.7225881681444
 21
1208.612944400579
 31
0.0
  0
LINE
  5
1F4B
  8
24
 10
473.29507705078862
 20
1215.156522271953
 30
0.0
 11
472.68265640610718
 21
1208.156522271953
 31
0.0
  0
LINE
  5
1F4C
  8
24
 10
473.29507705078862
 20
1215.156522271953
 30
0.0
 11
467.29507705078862
 21
1215.156522271953
 31
0.0
  0
LINE
  5
1F4D
  8
24
 10
477.29507705078862
 20
1215.156522271953
 30
0.0
 11
473.29507705078862
 21
1215.156522271953
 31
0.0
  0
LINE
  5
1F4E
  8
21
 10
472.79507705078862
 20
1204.156522271953
 30
0.0
 11
477.29507705078862
 21
1204.156522271953
 31
0.0
  0
ARC
  5
1F4F
  8
24
 10
466.22449081909849
 20
1208.656522271953
 30
0.0
 40
0.5
 50
270.0
 51
355.00000000000023
  0
LINE
  5
1F50
  8
21
 10
472.79507705078862
 20
1204.156522271953
 30
0.0
 11
472.52712785835752
 21
1205.156522271953
 31
0.0
  0
LINE
  5
1F51
  8
24
 10
481.29507705078862
 20
1215.156522271953
 30
0.0
 11
481.90749769547011
 21
1208.156522271953
 31
0.0
  0
LINE
  5
1F52
  8
24
 10
487.29507705078868
 20
1215.156522271953
 30
0.0
 11
487.86756593343301
 21
1208.612944400579
 31
0.0
  0
LINE
  5
1F53
  8
24
 10
481.29507705078862
 20
1215.156522271953
 30
0.0
 11
487.29507705078868
 21
1215.156522271953
 31
0.0
  0
LINE
  5
1F54
  8
21
 10
481.79507705078862
 20
1204.156522271953
 30
0.0
 11
482.06302624321978
 21
1205.156522271953
 31
0.0
  0
ARC
  5
1F55
  8
24
 10
488.36566328247881
 20
1208.656522271953
 30
0.0
 40
0.5
 50
184.99999999999969
 51
270.0
  0
LINE
  5
1F56
  8
21
 10
625.19507705078865
 20
1312.156522271953
 30
0.0
 11
527.29507705078856
 21
1312.156522271953
 31
0.0
  0
LINE
  5
1F57
  8
24
 10
624.05363322897495
 20
1208.156522271953
 30
0.0
 11
535.29507705078868
 21
1208.156522271953
 31
0.0
  0
LINE
  5
1F58
  8
21
 10
572.79507705078856
 20
1204.156522271953
 30
0.0
 11
577.29507705078856
 21
1204.156522271953
 31
0.0
  0
LINE
  5
1F59
  8
23
  6
DASHDOT
 10
527.29507705078856
 20
1314.156522271953
 30
0.0
 11
527.29507705078856
 21
1198.752667067386
 31
0.0
  0
ARC
  5
1F5A
  8
24
 10
527.29507705078856
 20
1182.997031021134
 30
0.0
 40
26.40075756488817
 50
72.360821395805374
 51
90.000000000000028
  0
ARC
  5
1F5B
  8
24
 10
527.29507705078856
 20
1182.997031021134
 30
0.0
 40
23.40075756488817
 50
71.254638338893884
 51
90.000000000000028
  0
LINE
  5
1F5C
  8
21
 10
534.81521016899751
 20
1205.156522271953
 30
0.0
 11
527.29507705078856
 21
1205.156522271953
 31
0.0
  0
LINE
  5
1F5D
  8
21
 10
531.79507705078856
 20
1204.156522271953
 30
0.0
 11
527.29507705078856
 21
1204.156522271953
 31
0.0
  0
ARC
  5
1F5E
  8
24
 10
527.29507705078856
 20
1182.997031021134
 30
0.0
 40
23.40075756488817
 50
90.000000000000028
 51
108.7453616611061
  0
LINE
  5
1F5F
  8
21
 10
519.77494393257984
 20
1205.156522271953
 30
0.0
 11
527.29507705078856
 21
1205.156522271953
 31
0.0
  0
ARC
  5
1F60
  8
24
 10
527.29507705078856
 20
1182.997031021134
 30
0.0
 40
26.40075756488817
 50
90.000000000000028
 51
107.6391786041946
  0
LINE
  5
1F61
  8
21
 10
522.79507705078856
 20
1204.156522271953
 30
0.0
 11
527.29507705078856
 21
1204.156522271953
 31
0.0
  0
LINE
  5
1F62
  8
21
 10
522.79507705078856
 20
1204.156522271953
 30
0.0
 11
522.52712785835752
 21
1205.156522271953
 31
0.0
  0
LINE
  5
1F63
  8
21
 10
531.79507705078856
 20
1204.156522271953
 30
0.0
 11
532.06302624321984
 21
1205.156522271953
 31
0.0
  0
LINE
  5
1F64
  8
21
 10
572.79507705078856
 20
1204.156522271953
 30
0.0
 11
572.52712785835752
 21
1205.156522271953
 31
0.0
  0
LINE
  5
1F65
  8
24
 10
625.19507705078865
 20
1312.156522271953
 30
0.0
 11
624.55361419050712
 21
1208.6521590042039
 31
0.0
  0
LINE
  5
1F66
  8
21
 10
602.13723447533482
 20
1204.156522271953
 30
0.0
 11
610.19507705078865
 21
1204.156522271953
 31
0.0
  0
LINE
  5
1F67
  8
21
 10
581.79507705078856
 20
1204.156522271953
 30
0.0
 11
582.06302624321984
 21
1205.156522271953
 31
0.0
  0
LINE
  5
1F68
  8
21
 10
581.79507705078856
 20
1204.156522271953
 30
0.0
 11
577.29507705078856
 21
1204.156522271953
 31
0.0
  0
LINE
  5
1F69
  8
21
 10
602.13723447533482
 20
1204.156522271953
 30
0.0
 11
601.86928528290355
 21
1205.156522271953
 31
0.0
  0
LINE
  5
1F6A
  8
21
 10
617.69507705078865
 20
1204.156522271953
 30
0.0
 11
622.19507705078865
 21
1204.156522271953
 31
0.0
  0
LINE
  5
1F6B
  8
21
 10
610.19507705078865
 20
1204.156522271953
 30
0.0
 11
614.69507705078865
 21
1204.156522271953
 31
0.0
  0
LINE
  5
1F6C
  8
21
 10
610.19507705078865
 20
1204.156522271953
 30
0.0
 11
609.92712785835738
 21
1205.156522271953
 31
0.0
  0
LINE
  5
1F6D
  8
21
 10
617.69507705078865
 20
1204.156522271953
 30
0.0
 11
614.69507705078865
 21
1204.156522271953
 31
0.0
  0
LINE
  5
1F6E
  8
21
 10
617.69507705078865
 20
1204.156522271953
 30
0.0
 11
617.42712785835738
 21
1205.156522271953
 31
0.0
  0
LINE
  5
1F6F
  8
21
 10
626.69507705078865
 20
1204.156522271953
 30
0.0
 11
622.19507705078865
 21
1204.156522271953
 31
0.0
  0
LINE
  5
1F70
  8
21
 10
627.29507705078856
 20
1203.7565222719529
 30
0.0
 11
626.95488467192388
 21
1205.126137514223
 31
0.0
  0
LINE
  5
1F71
  8
21
 10
626.69507705078865
 20
1204.156522271953
 30
0.0
 11
626.96302624321982
 21
1205.156522271953
 31
0.0
  0
ARC
  5
1F72
  8
24
 10
624.05363322897495
 20
1208.656522271953
 30
0.0
 40
0.5
 50
270.0
 51
359.50000000000199
  0
LINE
  5
1F73
  8
21
 10
640.75584422339114
 20
1304.6608855397019
 30
0.0
 11
639.90478422548836
 21
1207.1390692009561
 31
0.0
  0
LINE
  5
1F74
  8
21
 10
640.10518766645214
 20
1311.8669921209639
 30
0.0
 11
640.16491858977213
 21
1310.156522271953
 31
0.0
  0
LINE
  5
1F75
  8
21
 10
639.80537041834646
 20
1312.156522271953
 30
0.0
 11
639.29247041396695
 21
1312.156522271953
 31
0.0
  0
ARC
  5
1F76
  8
21
 10
639.80537041834646
 20
1311.8565222719531
 30
0.0
 40
0.3
 50
1.999999999997141
 51
90.000000000000028
  0
ARC
  5
1F77
  8
21
 10
641.66414520297099
 20
1305.656522271953
 30
0.0
 40
0.5
 50
270.0
 51
359.60631995676368
  0
ARC
  5
1F78
  8
21
 10
641.25582518492308
 20
1304.656522271953
 30
0.0
 40
0.5
 50
90.000000000000028
 51
179.5000000000019
  0
LINE
  5
1F79
  8
21
 10
642.19507705078865
 20
1310.156522271953
 30
0.0
 11
642.16413340031272
 21
1305.653086792508
 31
0.0
  0
LINE
  5
1F7A
  8
21
 10
639.29507705078856
 20
1203.7565222719529
 30
0.0
 11
639.69117850238604
 21
1206.257040441481
 31
0.0
  0
ARC
  5
1F7B
  8
21
 10
637.90486037936
 20
1207.156522271953
 30
0.0
 40
2.0
 50
270.0
 51
359.5
  0
ENDSEC
  0
EOF
