  0
SECTION
  2
HEADER
  9
$ACADVER
  1
AC1009
  9
$INSBASE
 10
0.0
 20
0.0
 30
0.0
  9
$EXTMIN
 10
-272.0
 20
-55.0
 30
0.0
  9
$EXTMAX
 10
406.468718
 20
341.0
 30
0.0
  9
$LIMMIN
 10
0.0
 20
0.0
  9
$LIMMAX
 10
420.0
 20
297.0
  9
$ORTHOMODE
 70
     0
  9
$REGENMODE
 70
     1
  9
$FILLMODE
 70
     1
  9
$QTEXTMODE
 70
     0
  9
$MIRRTEXT
 70
     1
  9
$DRAGMODE
 70
     2
  9
$LTSCALE
 40
7.0
  9
$OSMODE
 70
     0
  9
$ATTMODE
 70
     1
  9
$TEXTSIZE
 40
3.5
  9
$TRACEWID
 40
0.05
  9
$TEXTSTYLE
  7
STANDARD
  9
$CLAYER
  8
L1
  9
$CELTYPE
  6
BYLAYER
  9
$CECOLOR
 62
   256
  9
$DIMSCALE
 40
1.0
  9
$DIMASZ
 40
3.5
  9
$DIMEXO
 40
0.0
  9
$DIMDLI
 40
10.0
  9
$DIMRND
 40
0.0
  9
$DIMDLE
 40
0.0
  9
$DIMEXE
 40
2.0
  9
$DIMTP
 40
0.0
  9
$DIMTM
 40
0.0
  9
$DIMTXT
 40
3.5
  9
$DIMCEN
 40
2.5
  9
$DIMTSZ
 40
0.0
  9
$DIMTOL
 70
     0
  9
$DIMLIM
 70
     0
  9
$DIMTIH
 70
     0
  9
$DIMTOH
 70
     0
  9
$DIMSE1
 70
     0
  9
$DIMSE2
 70
     0
  9
$DIMTAD
 70
     1
  9
$DIMZIN
 70
     8
  9
$DIMBLK
  1

  9
$DIMASO
 70
     1
  9
$DIMSHO
 70
     1
  9
$DIMPOST
  1

  9
$DIMAPOST
  1

  9
$DIMALT
 70
     0
  9
$DIMALTD
 70
     2
  9
$DIMALTF
 40
25.4
  9
$DIMLFAC
 40
1.0
  9
$DIMTOFL
 70
     1
  9
$DIMTVP
 40
0.0
  9
$DIMTIX
 70
     0
  9
$DIMSOXD
 70
     0
  9
$DIMSAH
 70
     0
  9
$DIMBLK1
  1

  9
$DIMBLK2
  1

  9
$DIMSTYLE
  2
*UNNAMED
  9
$DIMCLRD
 70
   256
  9
$DIMCLRE
 70
   256
  9
$DIMCLRT
 70
     3
  9
$DIMTFAC
 40
1.0
  9
$DIMGAP
 40
2.0
  9
$LUNITS
 70
     2
  9
$LUPREC
 70
     2
  9
$SKETCHINC
 40
1.0
  9
$FILLETRAD
 40
0.0
  9
$AUNITS
 70
     0
  9
$AUPREC
 70
     2
  9
$MENU
  1
CAESAR
  9
$ELEVATION
 40
0.0
  9
$PELEVATION
 40
0.0
  9
$THICKNESS
 40
0.0
  9
$LIMCHECK
 70
     0
  9
$BLIPMODE
 70
     1
  9
$CHAMFERA
 40
5.0
  9
$CHAMFERB
 40
5.0
  9
$SKPOLY
 70
     0
  9
$TDCREATE
 40
2449682.499072453
  9
$TDUPDATE
 40
2449682.499072453
  9
$TDINDWG
 40
0.0000000000
  9
$TDUSRTIMER
 40
0.0000000000
  9
$USRTIMER
 70
     1
  9
$ANGBASE
 50
0.0
  9
$ANGDIR
 70
     0
  9
$PDMODE
 70
     0
  9
$PDSIZE
 40
0.0
  9
$PLINEWID
 40
0.0
  9
$COORDS
 70
     2
  9
$SPLFRAME
 70
     0
  9
$SPLINETYPE
 70
     6
  9
$SPLINESEGS
 70
     8
  9
$ATTDIA
 70
     0
  9
$ATTREQ
 70
     1
  9
$HANDLING
 70
     1
  9
$HANDSEED
  5
2BC20
  9
$SURFTAB1
 70
     6
  9
$SURFTAB2
 70
     6
  9
$SURFTYPE
 70
     6
  9
$SURFU
 70
     6
  9
$SURFV
 70
     6
  9
$UCSNAME
  2

  9
$UCSORG
 10
0.0
 20
0.0
 30
0.0
  9
$UCSXDIR
 10
1.0
 20
0.0
 30
0.0
  9
$UCSYDIR
 10
0.0
 20
1.0
 30
0.0
  9
$PUCSNAME
  2

  9
$PUCSORG
 10
0.0
 20
0.0
 30
0.0
  9
$PUCSXDIR
 10
1.0
 20
0.0
 30
0.0
  9
$PUCSYDIR
 10
0.0
 20
1.0
 30
0.0
  9
$USERI1
 70
     0
  9
$USERI2
 70
     0
  9
$USERI3
 70
     0
  9
$USERI4
 70
     0
  9
$USERI5
 70
     0
  9
$USERR1
 40
1.0
  9
$USERR2
 40
0.0
  9
$USERR3
 40
3.5
  9
$USERR4
 40
0.0
  9
$USERR5
 40
0.0
  9
$WORLDVIEW
 70
     1
  9
$SHADEDGE
 70
     3
  9
$SHADEDIF
 70
    70
  9
$TILEMODE
 70
     1
  9
$MAXACTVP
 70
    16
  9
$PINSBASE
 10
0.0
 20
0.0
 30
0.0
  9
$PLIMCHECK
 70
     0
  9
$PEXTMIN
 10
1.000000E+20
 20
1.000000E+20
 30
1.000000E+20
  9
$PEXTMAX
 10
-1.000000E+20
 20
-1.000000E+20
 30
-1.000000E+20
  9
$PLIMMIN
 10
0.0
 20
0.0
  9
$PLIMMAX
 10
420.0
 20
297.0
  9
$UNITMODE
 70
     0
  9
$VISRETAIN
 70
     0
  9
$PLINEGEN
 70
     0
  9
$PSLTSCALE
 70
     0
  9
$TREEDEPTH
 70
  3020
  9
$DWGCODEPAGE
  3
dos850
  0
ENDSEC
  0
SECTION
  2
TABLES
  0
TABLE
  2
VPORT
 70
     2
  0
VPORT
  2
*ACTIVE
 70
     0
 10
0.0
 20
0.0
 11
1.0
 21
1.0
 12
287.564723
 22
225.231556
 13
0.0
 23
0.0
 14
1.0
 24
1.0
 15
10.0
 25
10.0
 16
0.0
 26
0.0
 36
1.0
 17
0.0
 27
0.0
 37
0.0
 40
456.463112
 41
1.273114
 42
50.0
 43
0.0
 44
0.0
 50
0.0
 51
0.0
 71
     0
 72
  1000
 73
     1
 74
     1
 75
     1
 76
     0
 77
     0
 78
     0
  0
ENDTAB
  0
TABLE
  2
LTYPE
 70
    10
  0
LTYPE
  2
CONTINUOUS
 70
    64
  3
Solid line
 72
    65
 73
     0
 40
0.0
  0
LTYPE
  2
BORDER
 70
     0
  3
__ __ . __ __ . __ __ . __ __ . __ __ . __ __ .
 72
    65
 73
     6
 40
1.75
 49
0.5
 49
-0.25
 49
0.5
 49
-0.25
 49
0.0
 49
-0.25
  0
LTYPE
  2
CENTER
 70
    64
  3
____ _ ____ _ ____ _ ____ _ ____ _ ____ _ ____ 
 72
    65
 73
     4
 40
2.0
 49
1.25
 49
-0.25
 49
0.25
 49
-0.25
  0
LTYPE
  2
DASHDOT
 70
     0
  3
__ . __ . __ . __ . __ . __ . __ . __ . __ . __
 72
    65
 73
     4
 40
1.0
 49
0.5
 49
-0.25
 49
0.0
 49
-0.25
  0
LTYPE
  2
DASHED
 70
    64
  3
__ __ __ __ __ __ __ __ __ __ __ __ __ __ __ __
 72
    65
 73
     2
 40
0.75
 49
0.5
 49
-0.25
  0
LTYPE
  2
DIVIDE
 70
     0
  3
____ . . ____ . . ____ . . ____ . . ____ . . __
 72
    65
 73
     6
 40
1.25
 49
0.5
 49
-0.25
 49
0.0
 49
-0.25
 49
0.0
 49
-0.25
  0
LTYPE
  2
DOT
 70
     0
  3
. . . . . . . . . . . . . . . . . . . . . . . .
 72
    65
 73
     2
 40
0.25
 49
0.0
 49
-0.25
  0
LTYPE
  2
HIDDEN
 70
    64
  3
__ __ __ __ __ __ __ __ __ __ __ __ __ __ __ __
 72
    65
 73
     2
 40
0.375
 49
0.25
 49
-0.125
  0
LTYPE
  2
PHANTOM
 70
    64
  3
______  __  __  ______  __  __  ______  __  __ 
 72
    65
 73
     6
 40
2.5
 49
1.25
 49
-0.25
 49
0.25
 49
-0.25
 49
0.25
 49
-0.25
  0
LTYPE
  2
DOTX2
 70
    64
  3
.  .  .  .  .  .  .  .  .  .  .  .  .  .  .  . 
 72
    65
 73
     2
 40
0.5
 49
0.0
 49
-0.5
  0
ENDTAB
  0
TABLE
  2
LAYER
 70
    74
  0
LAYER
  2
0
 70
    64
 62
     7
  6
CONTINUOUS
  0
LAYER
  2
L1
 70
     0
 62
     3
  6
CONTINUOUS
  0
LAYER
  2
L2
 70
     0
 62
     1
  6
CONTINUOUS
  0
LAYER
  2
L3
 70
     0
 62
     7
  6
DASHED
  0
LAYER
  2
L4
 70
     0
 62
     1
  6
DASHED
  0
LAYER
  2
L5
 70
     0
 62
     6
  6
CENTER
  0
LAYER
  2
L6
 70
     0
 62
     1
  6
CENTER
  0
LAYER
  2
L7
 70
     0
 62
     1
  6
PHANTOM
  0
LAYER
  2
VPORT
 70
     0
 62
     7
  6
CONTINUOUS
  0
LAYER
  2
L8
 70
     0
 62
     1
  6
CONTINUOUS
  0
LAYER
  2
L20
 70
     0
 62
     3
  6
CONTINUOUS
  0
LAYER
  2
L21
 70
     0
 62
     1
  6
CONTINUOUS
  0
LAYER
  2
L22
 70
     0
 62
     1
  6
CONTINUOUS
  0
LAYER
  2
L23
 70
     0
 62
     1
  6
CONTINUOUS
  0
LAYER
  2
L30
 70
     0
 62
     3
  6
CONTINUOUS
  0
LAYER
  2
L31
 70
     0
 62
     1
  6
CONTINUOUS
  0
LAYER
  2
L32
 70
     0
 62
     3
  6
CONTINUOUS
  0
LAYER
  2
L33
 70
     0
 62
     1
  6
CONTINUOUS
  0
LAYER
  2
L34
 70
     0
 62
     3
  6
CONTINUOUS
  0
LAYER
  2
L35
 70
     0
 62
     1
  6
CONTINUOUS
  0
LAYER
  2
L40
 70
     0
 62
     7
  6
CONTINUOUS
  0
LAYER
  2
L41
 70
     0
 62
     1
  6
CONTINUOUS
  0
LAYER
  2
L42
 70
     0
 62
     1
  6
CONTINUOUS
  0
LAYER
  2
L43
 70
     0
 62
     7
  6
CONTINUOUS
  0
LAYER
  2
L44
 70
     0
 62
     1
  6
CONTINUOUS
  0
LAYER
  2
L45
 70
     0
 62
     1
  6
CONTINUOUS
  0
LAYER
  2
L46
 70
     0
 62
     3
  6
CONTINUOUS
  0
LAYER
  2
L50
 70
     0
 62
     7
  6
CONTINUOUS
  0
LAYER
  2
L51
 70
     0
 62
     1
  6
CONTINUOUS
  0
LAYER
  2
L52
 70
     0
 62
     7
  6
CONTINUOUS
  0
LAYER
  2
L53
 70
     0
 62
     1
  6
CONTINUOUS
  0
LAYER
  2
L54
 70
     0
 62
     3
  6
CONTINUOUS
  0
LAYER
  2
L55
 70
     0
 62
     3
  6
CONTINUOUS
  0
LAYER
  2
L56
 70
     0
 62
     3
  6
CONTINUOUS
  0
LAYER
  2
L57
 70
     0
 62
     1
  6
CONTINUOUS
  0
LAYER
  2
L9
 70
     0
 62
     7
  6
HIDDEN
  0
LAYER
  2
L15
 70
     0
 62
     2
  6
CONTINUOUS
  0
LAYER
  2
L16
 70
     0
 62
     5
  6
DOTX2
  0
LAYER
  2
L24
 70
     0
 62
     1
  6
CONTINUOUS
  0
LAYER
  2
A1
 70
     0
 62
     7
  6
CONTINUOUS
  0
LAYER
  2
RA1
 70
     0
 62
     1
  6
CONTINUOUS
  0
LAYER
  2
TITEL
 70
     0
 62
     7
  6
CONTINUOUS
  0
LAYER
  2
DEFPOINTS
 70
     0
 62
     7
  6
CONTINUOUS
  0
LAYER
  2
1
 70
     0
 62
     7
  6
CONTINUOUS
  0
LAYER
  2
11
 70
    64
 62
     7
  6
CONTINUOUS
  0
LAYER
  2
12
 70
     0
 62
     1
  6
CONTINUOUS
  0
LAYER
  2
13
 70
    64
 62
     1
  6
CENTER
  0
LAYER
  2
14
 70
    64
 62
     1
  6
DASHED
  0
LAYER
  2
15
 70
     0
 62
     2
  6
DASHED
  0
LAYER
  2
21
 70
    64
 62
     7
  6
CONTINUOUS
  0
LAYER
  2
22
 70
     0
 62
     1
  6
CONTINUOUS
  0
LAYER
  2
23
 70
    64
 62
     1
  6
CENTER
  0
LAYER
  2
24
 70
    64
 62
     1
  6
DASHED
  0
LAYER
  2
25
 70
     0
 62
     2
  6
DASHED
  0
LAYER
  2
31
 70
    64
 62
     7
  6
CONTINUOUS
  0
LAYER
  2
32
 70
     0
 62
     1
  6
CONTINUOUS
  0
LAYER
  2
33
 70
    64
 62
     1
  6
CENTER
  0
LAYER
  2
34
 70
    64
 62
     1
  6
DASHED
  0
LAYER
  2
35
 70
     0
 62
     2
  6
DASHED
  0
LAYER
  2
41
 70
    64
 62
     7
  6
CONTINUOUS
  0
LAYER
  2
42
 70
     0
 62
     1
  6
CONTINUOUS
  0
LAYER
  2
43
 70
    64
 62
     1
  6
CENTER
  0
LAYER
  2
44
 70
    64
 62
     1
  6
DASHED
  0
LAYER
  2
45
 70
     0
 62
     2
  6
DASHED
  0
LAYER
  2
51
 70
    64
 62
     7
  6
CONTINUOUS
  0
LAYER
  2
52
 70
     0
 62
     1
  6
CONTINUOUS
  0
LAYER
  2
53
 70
    64
 62
     1
  6
CENTER
  0
LAYER
  2
54
 70
     0
 62
     1
  6
DASHED
  0
LAYER
  2
55
 70
     0
 62
     2
  6
DASHED
  0
LAYER
  2
61
 70
    64
 62
     7
  6
CONTINUOUS
  0
LAYER
  2
62
 70
    64
 62
     1
  6
CONTINUOUS
  0
LAYER
  2
63
 70
    64
 62
     1
  6
CENTER
  0
LAYER
  2
64
 70
     0
 62
     1
  6
DASHED
  0
LAYER
  2
65
 70
     0
 62
     2
  6
DASHED
  0
ENDTAB
  0
TABLE
  2
STYLE
 70
     4
  0
STYLE
  2
STANDARD
 70
     0
 40
0.0
 41
1.0
 50
0.0
 71
     0
 42
3.5
  3
CAEISO
  4

  0
STYLE
  2
SIMPLEX
 70
    64
 40
0.0
 41
1.0
 50
0.0
 71
     0
 42
20.0
  3
SIMPLEX.SHX
  4

  0
STYLE
  2
COMPLEX
 70
    64
 40
5.0
 41
1.0
 50
0.0
 71
     0
 42
5.0
  3
COMPLEX
  4

  0
STYLE
  2
CAEISO
 70
     0
 40
0.0
 41
1.0
 50
0.0
 71
     0
 42
1.0
  3
CAEISO
  4

  0
ENDTAB
  0
TABLE
  2
VIEW
 70
     0
  0
ENDTAB
  0
TABLE
  2
UCS
 70
     0
  0
ENDTAB
  0
TABLE
  2
APPID
 70
     1
  0
APPID
  2
ACAD
 70
    64
  0
ENDTAB
  0
TABLE
  2
DIMSTYLE
 70
     6
  0
DIMSTYLE
  2
ACADUS
 70
     0
  3

  4

  5

  6

  7

 40
1.0
 41
0.18
 42
0.0625
 43
0.38
 44
0.18
 45
0.0
 46
0.0
 47
0.0
 48
0.0
140
0.18
141
0.09
142
0.0
143
25.4
144
1.0
145
0.0
146
1.0
147
0.09
 71
     0
 72
     0
 73
     1
 74
     1
 75
     0
 76
     0
 77
     0
 78
     0
170
     0
171
     2
172
     0
173
     0
174
     0
175
     0
176
     0
177
     0
178
     0
  0
DIMSTYLE
  2
NORDIC
 70
     0
  3

  4

  5

  6

  7

 40
1.0
 41
3.5
 42
1.0
 43
10.0
 44
2.0
 45
0.0
 46
0.0
 47
0.0
 48
0.0
140
3.5
141
2.5
142
0.0
143
25.4
144
1.0
145
0.0
146
1.0
147
2.0
 71
     0
 72
     0
 73
     0
 74
     0
 75
     0
 76
     0
 77
     1
 78
     8
170
     0
171
     2
172
     1
173
     0
174
     0
175
     0
176
     0
177
     0
178
     0
  0
DIMSTYLE
  2
RADIAL
 70
     0
  3

  4

  5

  6

  7

 40
1.0
 41
3.5
 42
1.0
 43
10.0
 44
2.0
 45
0.0
 46
0.0
 47
0.0
 48
0.0
140
3.5
141
2.5
142
0.0
143
25.4
144
1.0
145
0.0
146
1.0
147
2.0
 71
     0
 72
     0
 73
     0
 74
     1
 75
     0
 76
     0
 77
     1
 78
     8
170
     0
171
     2
172
     0
173
     0
174
     0
175
     0
176
     0
177
     0
178
     0
  0
DIMSTYLE
  2
NORTOL
 70
     0
  3

  4

  5

  6

  7

 40
1.0
 41
3.5
 42
1.0
 43
10.0
 44
2.0
 45
0.0
 46
0.0
 47
0.2
 48
0.1
140
3.5
141
2.5
142
0.0
143
25.4
144
1.0
145
0.7
146
0.71
147
2.0
 71
     1
 72
     0
 73
     0
 74
     0
 75
     0
 76
     0
 77
     0
 78
     8
170
     0
171
     2
172
     1
173
     0
174
     0
175
     0
176
     0
177
     0
178
     0
  0
DIMSTYLE
  2
RADTOL
 70
     0
  3

  4

  5

  6

  7

 40
1.0
 41
3.5
 42
1.0
 43
10.0
 44
2.0
 45
0.0
 46
0.0
 47
0.2
 48
0.1
140
3.5
141
2.5
142
0.0
143
25.4
144
1.0
145
0.7
146
0.7
147
2.0
 71
     1
 72
     0
 73
     0
 74
     1
 75
     0
 76
     0
 77
     0
 78
     8
170
     0
171
     2
172
     0
173
     0
174
     0
175
     0
176
     0
177
     0
178
     0
  0
DIMSTYLE
  2
HANSU
 70
     0
  3

  4

  5

  6

  7

 40
1.0
 41
3.5
 42
0.0
 43
10.0
 44
2.0
 45
0.0
 46
0.0
 47
0.0
 48
0.0
140
3.5
141
2.5
142
0.0
143
25.4
144
0.8
145
0.0
146
1.0
147
2.0
 71
     0
 72
     0
 73
     0
 74
     0
 75
     0
 76
     0
 77
     1
 78
     8
170
     0
171
     2
172
     1
173
     0
174
     0
175
     0
176
   256
177
   256
178
     3
  0
ENDTAB
  0
ENDSEC
  0
SECTION
  2
BLOCKS
  0
BLOCK
  8
0
  5
2329
  2
AME_NIL
 70
     0
 10
0.0
 20
0.0
 30
0.0
  1
AME_NIL
  3
AME_NIL
  0
ENDBLK
  8
0
  5
232A
  0
BLOCK
  8
0
  5
232C
  2
AME_SOL
 70
     0
 10
0.0
 20
0.0
 30
0.0
  1
AME_SOL
  3
AME_SOL
  0
ENDBLK
  8
0
  5
232D
  0
BLOCK
  8
0
  5
233F
  2
SOLAXES
 70
     0
 10
0.0
 20
0.0
 30
0.0
  1
SOLAXES
  3
SOLAXES
  0
LINE
  8
0
 62
     0
  5
2340
 10
0.0
 20
0.0
 30
0.0
 11
63.851158
 21
0.0
 31
0.0
  0
LINE
  8
0
 62
     0
  5
2341
 10
0.0
 20
0.0
 30
0.0
 11
0.0
 21
63.851158
 31
0.0
  0
LINE
  8
0
 62
     0
  5
2342
 10
0.0
 20
0.0
 30
0.0
 11
0.0
 21
0.0
 31
63.851158
  0
CIRCLE
  8
0
 62
     0
  5
2343
 10
0.0
 20
0.0
 30
57.466042
 40
3.192558
210
1.0
220
0.0
230
0.0
  0
LINE
  8
0
 62
     0
  5
2344
 10
57.466042
 20
3.192558
 30
0.0
 11
63.851158
 21
0.0
 31
0.0
  0
LINE
  8
0
 62
     0
  5
2345
 10
57.466042
 20
0.0
 30
3.192558
 11
63.851158
 21
0.0
 31
0.0
  0
LINE
  8
0
 62
     0
  5
2346
 10
57.466042
 20
-3.192558
 30
0.0
 11
63.851158
 21
0.0
 31
0.0
  0
LINE
  8
0
 62
     0
  5
2347
 10
57.466042
 20
0.0
 30
-3.192558
 11
63.851158
 21
0.0
 31
0.0
  0
CIRCLE
  8
0
 62
     0
  5
2348
 10
0.0
 20
0.0
 30
57.466042
 40
3.192558
210
0.0
220
1.0
230
0.0
  0
LINE
  8
0
 62
     0
  5
2349
 10
3.192558
 20
57.466042
 30
0.0
 11
0.0
 21
63.851158
 31
0.0
  0
LINE
  8
0
 62
     0
  5
234A
 10
0.0
 20
57.466042
 30
3.192558
 11
0.0
 21
63.851158
 31
0.0
  0
LINE
  8
0
 62
     0
  5
234B
 10
-3.192558
 20
57.466042
 30
0.0
 11
0.0
 21
63.851158
 31
0.0
  0
LINE
  8
0
 62
     0
  5
234C
 10
0.0
 20
57.466042
 30
-3.192558
 11
0.0
 21
63.851158
 31
0.0
  0
CIRCLE
  8
0
 62
     0
  5
234D
 10
0.0
 20
0.0
 30
51.080927
 40
3.192558
210
0.0
220
1.0
230
0.0
  0
LINE
  8
0
 62
     0
  5
234E
 10
3.192558
 20
51.080927
 30
0.0
 11
0.0
 21
57.466042
 31
0.0
  0
LINE
  8
0
 62
     0
  5
234F
 10
0.0
 20
51.080927
 30
3.192558
 11
0.0
 21
57.466042
 31
0.0
  0
LINE
  8
0
 62
     0
  5
2350
 10
-3.192558
 20
51.080927
 30
0.0
 11
0.0
 21
57.466042
 31
0.0
  0
LINE
  8
0
 62
     0
  5
2351
 10
0.0
 20
51.080927
 30
-3.192558
 11
0.0
 21
57.466042
 31
0.0
  0
CIRCLE
  8
0
 62
     0
  5
2352
 10
0.0
 20
0.0
 30
57.466042
 40
3.192558
  0
LINE
  8
0
 62
     0
  5
2353
 10
3.192558
 20
0.0
 30
57.466042
 11
0.0
 21
0.0
 31
63.851158
  0
LINE
  8
0
 62
     0
  5
2354
 10
0.0
 20
3.192558
 30
57.466042
 11
0.0
 21
0.0
 31
63.851158
  0
LINE
  8
0
 62
     0
  5
2355
 10
-3.192558
 20
0.0
 30
57.466042
 11
0.0
 21
0.0
 31
63.851158
  0
LINE
  8
0
 62
     0
  5
2356
 10
0.0
 20
-3.192558
 30
57.466042
 11
0.0
 21
0.0
 31
63.851158
  0
CIRCLE
  8
0
 62
     0
  5
2357
 10
0.0
 20
0.0
 30
51.080927
 40
3.192558
  0
LINE
  8
0
 62
     0
  5
2358
 10
3.192558
 20
0.0
 30
51.080927
 11
0.0
 21
0.0
 31
57.466042
  0
LINE
  8
0
 62
     0
  5
2359
 10
0.0
 20
3.192558
 30
51.080927
 11
0.0
 21
0.0
 31
57.466042
  0
LINE
  8
0
 62
     0
  5
235A
 10
-3.192558
 20
0.0
 30
51.080927
 11
0.0
 21
0.0
 31
57.466042
  0
LINE
  8
0
 62
     0
  5
235B
 10
0.0
 20
-3.192558
 30
51.080927
 11
0.0
 21
0.0
 31
57.466042
  0
CIRCLE
  8
0
 62
     0
  5
235C
 10
0.0
 20
0.0
 30
44.695811
 40
3.192558
  0
LINE
  8
0
 62
     0
  5
235D
 10
3.192558
 20
0.0
 30
44.695811
 11
0.0
 21
0.0
 31
51.080927
  0
LINE
  8
0
 62
     0
  5
235E
 10
0.0
 20
3.192558
 30
44.695811
 11
0.0
 21
0.0
 31
51.080927
  0
LINE
  8
0
 62
     0
  5
235F
 10
-3.192558
 20
0.0
 30
44.695811
 11
0.0
 21
0.0
 31
51.080927
  0
LINE
  8
0
 62
     0
  5
2360
 10
0.0
 20
-3.192558
 30
44.695811
 11
0.0
 21
0.0
 31
51.080927
  0
ENDBLK
  8
0
  5
2361
  0
BLOCK
  8
0
  5
2460
  2
AME_MAT
 70
     0
 10
0.0
 20
0.0
 30
0.0
  1
AME_MAT
  3
AME_MAT
  0
ENDBLK
  8
0
  5
2461
  0
BLOCK
  8
0
  5
2465
  2
PICH75B
 70
    64
 10
0.0
 20
0.0
 30
0.0
  3
PICH75B
  0
LINE
  8
21
  5
4BB4
 10
93.0
 20
260.6
 30
0.0
 11
105.0
 21
260.6
 31
0.0
  0
LINE
  8
21
  5
4BB5
 10
105.0
 20
260.6
 30
0.0
 11
105.340192
 21
261.969615
 31
0.0
  0
LINE
  8
21
  5
4BB6
 10
93.0
 20
260.6
 30
0.0
 11
92.372156
 21
263.043146
 31
0.0
  0
LINE
  8
63
  6
DASHDOT
  5
4C01
 10
175.0
 20
72.0
 30
0.0
 11
175.0
 21
143.0
 31
0.0
  0
LINE
  8
63
  6
DASHDOT
  5
4C02
 10
175.0
 20
143.0
 30
0.0
 11
88.0
 21
143.0
 31
0.0
  0
LINE
  8
63
  6
DASHDOT
  5
4C4E
 10
175.0
 20
214.0
 30
0.0
 11
175.0
 21
143.0
 31
0.0
  0
LINE
  8
63
  6
DASHDOT
  5
4C4F
 10
175.0
 20
143.0
 30
0.0
 11
262.0
 21
143.0
 31
0.0
  0
LINE
  8
53
  6
DASHDOT
  5
4C5F
 10
-185.0
 20
145.0
 30
0.0
 11
-95.0
 21
145.0
 31
0.0
  0
LINE
  8
53
  6
DASHDOT
  5
4C68
 10
-185.0
 20
216.0
 30
0.0
 11
-185.0
 21
145.0
 31
0.0
  0
LINE
  8
53
  6
DASHDOT
  5
4C7E
 10
-185.0
 20
145.0
 30
0.0
 11
-272.0
 21
145.0
 31
0.0
  0
LINE
  8
51
  5
4C82
 10
-270.0
 20
145.0
 30
0.0
 11
-270.0
 21
84.0
 31
0.0
  0
LINE
  8
51
  5
4CAF
 10
-261.0
 20
75.0
 30
0.0
 11
-185.0
 21
75.0
 31
0.0
  0
LINE
  8
51
  5
4CB4
 10
-252.0
 20
75.0
 30
0.0
 11
-252.0
 21
75.0
 31
0.0
  0
LINE
  8
51
  5
4CB7
 10
-118.0
 20
75.0
 30
0.0
 11
-118.0
 21
75.0
 31
0.0
  0
CIRCLE
  8
51
  5
4CB8
 10
-261.0
 20
84.0
 30
0.0
 40
2.2
  0
CIRCLE
  8
51
  5
4CB9
 10
-261.0
 20
84.0
 30
0.0
 40
4.0
  0
CIRCLE
  8
51
  5
4CBA
 10
-261.0
 20
84.0
 30
0.0
 40
6.0
  0
LINE
  8
21
  5
4D26
 10
114.6
 20
261.0
 30
0.0
 11
110.1
 21
261.0
 31
0.0
  0
LINE
  8
21
  5
4D2D
 10
105.6
 20
261.0
 30
0.0
 11
110.1
 21
261.0
 31
0.0
  0
LINE
  8
21
  5
4D2E
 10
105.6
 20
261.0
 30
0.0
 11
105.332051
 21
262.0
 31
0.0
  0
LINE
  8
21
  5
4D3A
 10
114.6
 20
261.0
 30
0.0
 11
114.867949
 21
262.0
 31
0.0
  0
LINE
  8
23
  6
DASHDOT
  5
4D49
 10
175.0
 20
341.0
 30
0.0
 11
175.0
 21
259.0
 31
0.0
  0
LINE
  8
21
  5
4D4A
 10
94.128411
 20
262.0
 30
0.0
 11
167.479867
 21
262.0
 31
0.0
  0
LINE
  8
24
  5
4D4E
 10
107.745788
 20
265.0
 30
0.0
 11
167.0
 21
265.0
 31
0.0
  0
ARC
  8
24
  5
4D4F
 10
175.0
 20
239.840509
 30
0.0
 40
26.400758
 50
90.0
 51
107.639179
  0
ARC
  8
24
  5
4D50
 10
175.0
 20
239.840509
 30
0.0
 40
23.400758
 50
90.0
 51
108.745362
  0
LINE
  8
21
  5
4DF7
 10
93.002607
 20
339.0
 30
0.0
 11
107.1
 21
339.0
 31
0.0
  0
LINE
  8
34
  5
4E1D
 10
337.468718
 20
143.1
 30
0.0
 11
337.468718
 21
147.1
 31
0.0
  0
LINE
  8
21
  5
4E1E
 10
170.5
 20
261.0
 30
0.0
 11
175.0
 21
261.0
 31
0.0
  0
LINE
  8
34
  5
4E1F
 10
337.468718
 20
147.1
 30
0.0
 11
331.317008
 21
147.638205
 31
0.0
  0
LINE
  8
21
  5
4E20
 10
170.5
 20
261.0
 30
0.0
 11
170.232051
 21
262.0
 31
0.0
  0
LINE
  8
21
  5
4E27
 10
179.5
 20
261.0
 30
0.0
 11
175.0
 21
261.0
 31
0.0
  0
LINE
  8
21
  5
4E2A
 10
179.5
 20
261.0
 30
0.0
 11
179.767949
 21
262.0
 31
0.0
  0
LINE
  8
34
  5
4E2D
 10
337.468718
 20
143.1
 30
0.0
 11
337.468718
 21
139.1
 31
0.0
  0
LINE
  8
34
  5
4E30
 10
337.468718
 20
139.1
 30
0.0
 11
337.468718
 21
133.1
 31
0.0
  0
LINE
  8
34
  5
4E31
 10
337.468718
 20
133.1
 30
0.0
 11
330.92514
 21
132.527511
 31
0.0
  0
LINE
  8
34
  5
4E32
 10
337.468718
 20
153.1
 30
0.0
 11
330.92514
 21
153.672489
 31
0.0
  0
LINE
  8
34
  5
4E33
 10
337.468718
 20
147.1
 30
0.0
 11
337.468718
 21
153.1
 31
0.0
  0
ARC
  8
34
  5
4E34
 10
330.968718
 20
154.170586
 30
0.0
 40
0.5
 50
180.0
 51
265.0
  0
ARC
  8
34
  5
4E35
 10
330.968718
 20
132.029414
 30
0.0
 40
0.5
 50
95.0
 51
180.0
  0
ARC
  8
61
  5
4E74
 10
110.0
 20
143.0
 30
0.0
 40
4.0
 50
284.477512
 51
75.522488
  0
CIRCLE
  8
61
  5
4E75
 10
110.0
 20
143.0
 30
0.0
 40
2.0
  0
CIRCLE
  8
61
  5
4E76
 10
110.0
 20
143.0
 30
0.0
 40
1.5
  0
LINE
  8
61
  5
4E78
 10
111.0
 20
153.0
 30
0.0
 11
109.0
 21
153.0
 31
0.0
  0
LINE
  8
61
  5
4E79
 10
109.0
 20
153.0
 30
0.0
 11
109.0
 21
146.872983
 31
0.0
  0
LINE
  8
61
  5
4E7B
 10
109.0
 20
133.0
 30
0.0
 11
111.0
 21
133.0
 31
0.0
  0
LINE
  8
61
  5
4E7C
 10
111.0
 20
133.0
 30
0.0
 11
111.0
 21
139.127017
 31
0.0
  0
ARC
  8
61
  5
4E7D
 10
110.0
 20
143.0
 30
0.0
 40
4.0
 50
104.477512
 51
255.522488
  0
LINE
  8
61
  5
4E7F
 10
111.0
 20
146.872983
 30
0.0
 11
111.0
 21
153.0
 31
0.0
  0
LINE
  8
61
  5
4E81
 10
109.0
 20
139.127017
 30
0.0
 11
109.0
 21
133.0
 31
0.0
  0
LINE
  8
61
  5
4EFF
 10
241.0
 20
153.0
 30
0.0
 11
241.0
 21
146.872983
 31
0.0
  0
LINE
  8
61
  5
4F00
 10
239.0
 20
146.872983
 30
0.0
 11
239.0
 21
153.0
 31
0.0
  0
LINE
  8
61
  5
4F01
 10
241.0
 20
139.127017
 30
0.0
 11
241.0
 21
133.0
 31
0.0
  0
LINE
  8
61
  5
4F02
 10
239.0
 20
133.0
 30
0.0
 11
239.0
 21
139.127017
 31
0.0
  0
LINE
  8
61
  5
4F03
 10
241.0
 20
133.0
 30
0.0
 11
239.0
 21
133.0
 31
0.0
  0
CIRCLE
  8
61
  5
4F04
 10
240.0
 20
143.0
 30
0.0
 40
1.5
  0
CIRCLE
  8
61
  5
4F05
 10
240.0
 20
143.0
 30
0.0
 40
2.0
  0
ARC
  8
61
  5
4F06
 10
240.0
 20
143.0
 30
0.0
 40
4.0
 50
284.477512
 51
75.522488
  0
ARC
  8
61
  5
4F07
 10
240.0
 20
143.0
 30
0.0
 40
4.0
 50
104.477512
 51
255.522488
  0
LINE
  8
61
  5
4F08
 10
239.0
 20
153.0
 30
0.0
 11
241.0
 21
153.0
 31
0.0
  0
LINE
  8
21
  5
5065
 10
167.479867
 20
262.0
 30
0.0
 11
175.0
 21
262.0
 31
0.0
  0
LINE
  8
53
  6
DASHDOT
  5
1343B
 10
-185.0
 20
72.0
 30
0.0
 11
-185.0
 21
145.0
 31
0.0
  0
ARC
  8
51
  5
27415
 10
-261.0
 20
84.0
 30
0.0
 40
9.0
 50
180.0
 51
270.0
  0
LINE
  8
51
  5
27416
 10
-261.0
 20
76.4
 30
0.0
 11
-185.0
 21
76.4
 31
0.0
  0
ARC
  8
51
  5
27417
 10
-261.0
 20
84.0
 30
0.0
 40
7.6
 50
180.0
 51
270.0
  0
LINE
  8
51
  5
27418
 10
-268.6
 20
145.0
 30
0.0
 11
-268.6
 21
84.0
 31
0.0
  0
LINE
  8
51
  5
27419
 10
-109.0
 20
76.4
 30
0.0
 11
-185.0
 21
76.4
 31
0.0
  0
LINE
  8
51
  5
2741A
 10
-109.0
 20
75.0
 30
0.0
 11
-185.0
 21
75.0
 31
0.0
  0
LINE
  8
51
  5
2741B
 10
-101.4
 20
145.0
 30
0.0
 11
-101.4
 21
84.0
 31
0.0
  0
LINE
  8
51
  5
2741C
 10
-100.0
 20
145.0
 30
0.0
 11
-100.0
 21
84.0
 31
0.0
  0
ARC
  8
51
  5
2741D
 10
-109.0
 20
84.0
 30
0.0
 40
9.0
 50
270.0
 51
0.0
  0
ARC
  8
51
  5
2741E
 10
-109.0
 20
84.0
 30
0.0
 40
7.6
 50
270.0
 51
0.0
  0
CIRCLE
  8
51
  5
2741F
 10
-109.0
 20
84.0
 30
0.0
 40
6.0
  0
CIRCLE
  8
51
  5
27422
 10
-109.0
 20
84.0
 30
0.0
 40
2.2
  0
CIRCLE
  8
51
  5
27423
 10
-109.0
 20
84.0
 30
0.0
 40
4.0
  0
LINE
  8
51
  5
27424
 10
-118.0
 20
75.0
 30
0.0
 11
-118.0
 21
75.0
 31
0.0
  0
LINE
  8
51
  5
27425
 10
-261.0
 20
213.6
 30
0.0
 11
-185.0
 21
213.6
 31
0.0
  0
LINE
  8
51
  5
27426
 10
-261.0
 20
215.0
 30
0.0
 11
-185.0
 21
215.0
 31
0.0
  0
LINE
  8
51
  5
27427
 10
-268.6
 20
145.0
 30
0.0
 11
-268.6
 21
206.0
 31
0.0
  0
LINE
  8
51
  5
27428
 10
-270.0
 20
145.0
 30
0.0
 11
-270.0
 21
206.0
 31
0.0
  0
ARC
  8
51
  5
27429
 10
-261.0
 20
206.0
 30
0.0
 40
9.0
 50
90.0
 51
180.0
  0
ARC
  8
51
  5
2742A
 10
-261.0
 20
206.0
 30
0.0
 40
7.6
 50
90.0
 51
180.0
  0
CIRCLE
  8
51
  5
2742B
 10
-261.0
 20
206.0
 30
0.0
 40
6.0
  0
CIRCLE
  8
51
  5
2742E
 10
-261.0
 20
206.0
 30
0.0
 40
2.2
  0
CIRCLE
  8
51
  5
2742F
 10
-261.0
 20
206.0
 30
0.0
 40
4.0
  0
LINE
  8
51
  5
27430
 10
-252.0
 20
215.0
 30
0.0
 11
-252.0
 21
215.0
 31
0.0
  0
LINE
  8
51
  5
27431
 10
-100.0
 20
145.0
 30
0.0
 11
-100.0
 21
206.0
 31
0.0
  0
LINE
  8
51
  5
27432
 10
-101.4
 20
145.0
 30
0.0
 11
-101.4
 21
206.0
 31
0.0
  0
LINE
  8
51
  5
27433
 10
-109.0
 20
215.0
 30
0.0
 11
-185.0
 21
215.0
 31
0.0
  0
LINE
  8
51
  5
27434
 10
-109.0
 20
213.6
 30
0.0
 11
-185.0
 21
213.6
 31
0.0
  0
ARC
  8
51
  5
27435
 10
-109.0
 20
206.0
 30
0.0
 40
9.0
 50
0.0
 51
90.0
  0
ARC
  8
51
  5
27437
 10
-109.0
 20
206.0
 30
0.0
 40
7.6
 50
0.0
 51
90.0
  0
CIRCLE
  8
51
  5
27438
 10
-109.0
 20
206.0
 30
0.0
 40
4.0
  0
CIRCLE
  8
51
  5
27439
 10
-109.0
 20
206.0
 30
0.0
 40
2.2
  0
CIRCLE
  8
51
  5
2743B
 10
-109.0
 20
206.0
 30
0.0
 40
6.0
  0
LINE
  8
51
  5
2743C
 10
-118.0
 20
215.0
 30
0.0
 11
-118.0
 21
215.0
 31
0.0
  0
LINE
  8
51
  5
2743D
 10
-118.0
 20
215.0
 30
0.0
 11
-118.0
 21
215.0
 31
0.0
  0
LINE
  8
61
  5
27F4F
 10
93.2
 20
143.0
 30
0.0
 11
93.2
 21
92.0
 31
0.0
  0
LINE
  8
62
  5
27F50
 10
92.1
 20
143.0
 30
0.0
 11
92.1
 21
92.0
 31
0.0
  0
LINE
  8
61
  5
27F51
 10
94.4
 20
143.0
 30
0.0
 11
94.4
 21
90.16697
 31
0.0
  0
LINE
  8
61
  5
27F52
 10
90.0
 20
143.0
 30
0.0
 11
90.0
 21
82.0
 31
0.0
  0
ARC
  8
61
  5
27F53
 10
99.0
 20
82.0
 30
0.0
 40
9.0
 50
180.0
 51
270.0
  0
ARC
  8
61
  5
27F54
 10
109.0
 20
78.2
 30
0.0
 40
2.0
 50
180.0
 51
270.0
  0
ARC
  8
62
  5
27F55
 10
109.0
 20
78.2
 30
0.0
 40
3.1
 50
180.0
 51
270.0
  0
CIRCLE
  8
62
  5
27F56
 10
99.0
 20
82.0
 30
0.0
 40
6.0
  0
LINE
  8
61
  5
27F58
 10
99.0
 20
73.0
 30
0.0
 11
175.0
 21
73.0
 31
0.0
  0
LINE
  8
61
  5
27F59
 10
109.0
 20
76.2
 30
0.0
 11
175.0
 21
76.2
 31
0.0
  0
LINE
  8
62
  5
27F5A
 10
109.0
 20
75.1
 30
0.0
 11
175.0
 21
75.1
 31
0.0
  0
LINE
  8
61
  5
27F5B
 10
108.0
 20
73.0
 30
0.0
 11
108.0
 21
73.0
 31
0.0
  0
ARC
  8
61
  5
27F5C
 10
99.0
 20
82.0
 30
0.0
 40
8.0
 50
0.0
 51
90.0
  0
ARC
  8
62
  5
27F5D
 10
99.0
 20
82.0
 30
0.0
 40
6.9
 50
0.0
 51
90.0
  0
ARC
  8
62
  5
27F5E
 10
95.2
 20
92.0
 30
0.0
 40
3.1
 50
180.0
 51
270.0
  0
CIRCLE
  8
62
  5
27F60
 10
99.0
 20
82.0
 30
0.0
 40
4.188125
  0
LINE
  8
62
  5
27F62
 10
105.9
 20
82.0
 30
0.0
 11
105.9
 21
78.2
 31
0.0
  0
LINE
  8
61
  5
27F63
 10
99.0
 20
90.0
 30
0.0
 11
95.2
 21
90.0
 31
0.0
  0
LINE
  8
62
  5
27F64
 10
99.0
 20
88.9
 30
0.0
 11
95.2
 21
88.9
 31
0.0
  0
ARC
  8
61
  5
27F65
 10
95.2
 20
92.0
 30
0.0
 40
2.0
 50
180.0
 51
270.0
  0
LINE
  8
61
  5
27F66
 10
107.16697
 20
77.4
 30
0.0
 11
175.0
 21
77.4
 31
0.0
  0
LINE
  8
61
  5
27F67
 10
107.0
 20
82.0
 30
0.0
 11
107.0
 21
78.2
 31
0.0
  0
LINE
  8
61
  5
27F68
 10
241.0
 20
76.2
 30
0.0
 11
175.0
 21
76.2
 31
0.0
  0
LINE
  8
62
  5
27F69
 10
241.0
 20
75.1
 30
0.0
 11
175.0
 21
75.1
 31
0.0
  0
LINE
  8
61
  5
27F6A
 10
251.0
 20
73.0
 30
0.0
 11
175.0
 21
73.0
 31
0.0
  0
LINE
  8
61
  5
27F6B
 10
242.83303
 20
77.4
 30
0.0
 11
175.0
 21
77.4
 31
0.0
  0
ARC
  8
61
  5
27F6C
 10
251.0
 20
82.0
 30
0.0
 40
9.0
 50
270.0
 51
0.0
  0
CIRCLE
  8
62
  5
27F6D
 10
251.0
 20
82.0
 30
0.0
 40
6.0
  0
LINE
  8
61
  5
27F6E
 10
243.0
 20
82.0
 30
0.0
 11
243.0
 21
78.2
 31
0.0
  0
LINE
  8
62
  5
27F6F
 10
244.1
 20
82.0
 30
0.0
 11
244.1
 21
78.2
 31
0.0
  0
CIRCLE
  8
62
  5
27F72
 10
251.0
 20
82.0
 30
0.0
 40
4.188125
  0
ARC
  8
62
  5
27F73
 10
241.0
 20
78.2
 30
0.0
 40
3.1
 50
270.0
 51
0.0
  0
ARC
  8
61
  5
27F74
 10
241.0
 20
78.2
 30
0.0
 40
2.0
 50
270.0
 51
0.0
  0
LINE
  8
61
  5
27F75
 10
242.0
 20
73.0
 30
0.0
 11
242.0
 21
73.0
 31
0.0
  0
ARC
  8
61
  5
27F76
 10
254.8
 20
92.0
 30
0.0
 40
2.0
 50
270.0
 51
0.0
  0
ARC
  8
62
  5
27F77
 10
254.8
 20
92.0
 30
0.0
 40
3.1
 50
270.0
 51
0.0
  0
ARC
  8
61
  5
27F78
 10
251.0
 20
82.0
 30
0.0
 40
8.0
 50
90.0
 51
180.0
  0
ARC
  8
62
  5
27F7A
 10
251.0
 20
82.0
 30
0.0
 40
6.9
 50
90.0
 51
180.0
  0
LINE
  8
62
  5
27F7B
 10
251.0
 20
88.9
 30
0.0
 11
254.8
 21
88.9
 31
0.0
  0
LINE
  8
61
  5
27F7C
 10
251.0
 20
90.0
 30
0.0
 11
254.8
 21
90.0
 31
0.0
  0
LINE
  8
61
  5
27F7D
 10
256.8
 20
143.0
 30
0.0
 11
256.8
 21
92.0
 31
0.0
  0
LINE
  8
62
  5
27F7E
 10
257.9
 20
143.0
 30
0.0
 11
257.9
 21
92.0
 31
0.0
  0
LINE
  8
61
  5
27F7F
 10
255.6
 20
143.0
 30
0.0
 11
255.6
 21
90.16697
 31
0.0
  0
LINE
  8
61
  5
27F80
 10
260.0
 20
143.0
 30
0.0
 11
260.0
 21
82.0
 31
0.0
  0
LINE
  8
61
  5
27F81
 10
109.0
 20
209.8
 30
0.0
 11
175.0
 21
209.8
 31
0.0
  0
LINE
  8
62
  5
27F82
 10
109.0
 20
210.9
 30
0.0
 11
175.0
 21
210.9
 31
0.0
  0
LINE
  8
61
  5
27F83
 10
99.0
 20
213.0
 30
0.0
 11
175.0
 21
213.0
 31
0.0
  0
LINE
  8
61
  5
27F84
 10
107.16697
 20
208.6
 30
0.0
 11
175.0
 21
208.6
 31
0.0
  0
ARC
  8
61
  5
27F85
 10
99.0
 20
204.0
 30
0.0
 40
9.0
 50
90.0
 51
180.0
  0
CIRCLE
  8
62
  5
27F86
 10
99.0
 20
204.0
 30
0.0
 40
6.0
  0
LINE
  8
61
  5
27F87
 10
107.0
 20
204.0
 30
0.0
 11
107.0
 21
207.8
 31
0.0
  0
LINE
  8
62
  5
27F88
 10
105.9
 20
204.0
 30
0.0
 11
105.9
 21
207.8
 31
0.0
  0
CIRCLE
  8
62
  5
27F8B
 10
99.0
 20
204.0
 30
0.0
 40
4.188125
  0
ARC
  8
62
  5
27F8C
 10
109.0
 20
207.8
 30
0.0
 40
3.1
 50
90.0
 51
180.0
  0
ARC
  8
61
  5
27F8D
 10
109.0
 20
207.8
 30
0.0
 40
2.0
 50
90.0
 51
180.0
  0
LINE
  8
61
  5
27F8E
 10
108.0
 20
213.0
 30
0.0
 11
108.0
 21
213.0
 31
0.0
  0
ARC
  8
61
  5
27F8F
 10
95.2
 20
194.0
 30
0.0
 40
2.0
 50
90.0
 51
180.0
  0
ARC
  8
62
  5
27F90
 10
95.2
 20
194.0
 30
0.0
 40
3.1
 50
90.0
 51
180.0
  0
ARC
  8
61
  5
27F91
 10
99.0
 20
204.0
 30
0.0
 40
8.0
 50
270.0
 51
0.0
  0
ARC
  8
62
  5
27F93
 10
99.0
 20
204.0
 30
0.0
 40
6.9
 50
270.0
 51
0.0
  0
LINE
  8
62
  5
27F94
 10
99.0
 20
197.1
 30
0.0
 11
95.2
 21
197.1
 31
0.0
  0
LINE
  8
61
  5
27F95
 10
99.0
 20
196.0
 30
0.0
 11
95.2
 21
196.0
 31
0.0
  0
LINE
  8
61
  5
27F96
 10
93.2
 20
143.0
 30
0.0
 11
93.2
 21
194.0
 31
0.0
  0
LINE
  8
62
  5
27F97
 10
92.1
 20
143.0
 30
0.0
 11
92.1
 21
194.0
 31
0.0
  0
LINE
  8
61
  5
27F98
 10
94.4
 20
143.0
 30
0.0
 11
94.4
 21
195.83303
 31
0.0
  0
LINE
  8
61
  5
27F99
 10
90.0
 20
143.0
 30
0.0
 11
90.0
 21
204.0
 31
0.0
  0
LINE
  8
61
  5
27F9A
 10
260.0
 20
143.0
 30
0.0
 11
260.0
 21
204.0
 31
0.0
  0
LINE
  8
61
  5
27F9B
 10
255.6
 20
143.0
 30
0.0
 11
255.6
 21
195.83303
 31
0.0
  0
LINE
  8
62
  5
27F9C
 10
257.9
 20
143.0
 30
0.0
 11
257.9
 21
194.0
 31
0.0
  0
LINE
  8
61
  5
27F9D
 10
256.8
 20
143.0
 30
0.0
 11
256.8
 21
194.0
 31
0.0
  0
LINE
  8
61
  5
27F9E
 10
242.83303
 20
208.6
 30
0.0
 11
175.0
 21
208.6
 31
0.0
  0
LINE
  8
61
  5
27F9F
 10
251.0
 20
213.0
 30
0.0
 11
175.0
 21
213.0
 31
0.0
  0
LINE
  8
62
  5
27FA0
 10
241.0
 20
210.9
 30
0.0
 11
175.0
 21
210.9
 31
0.0
  0
LINE
  8
61
  5
27FA1
 10
241.0
 20
209.8
 30
0.0
 11
175.0
 21
209.8
 31
0.0
  0
ARC
  8
61
  5
27FA2
 10
251.0
 20
204.0
 30
0.0
 40
8.0
 50
180.0
 51
270.0
  0
ARC
  8
62
  5
27FA3
 10
254.8
 20
194.0
 30
0.0
 40
3.1
 50
0.0
 51
90.0
  0
ARC
  8
61
  5
27FA4
 10
254.8
 20
194.0
 30
0.0
 40
2.0
 50
0.0
 51
90.0
  0
ARC
  8
61
  5
27FA6
 10
251.0
 20
204.0
 30
0.0
 40
9.0
 50
0.0
 51
90.0
  0
CIRCLE
  8
62
  5
27FA7
 10
251.0
 20
204.0
 30
0.0
 40
4.188125
  0
LINE
  8
62
  5
27FAA
 10
244.1
 20
204.0
 30
0.0
 11
244.1
 21
207.8
 31
0.0
  0
LINE
  8
61
  5
27FAB
 10
243.0
 20
204.0
 30
0.0
 11
243.0
 21
207.8
 31
0.0
  0
CIRCLE
  8
62
  5
27FAC
 10
251.0
 20
204.0
 30
0.0
 40
6.0
  0
LINE
  8
61
  5
27FAD
 10
242.0
 20
213.0
 30
0.0
 11
242.0
 21
213.0
 31
0.0
  0
ARC
  8
61
  5
27FAE
 10
241.0
 20
207.8
 30
0.0
 40
2.0
 50
0.0
 51
90.0
  0
ARC
  8
62
  5
27FAF
 10
241.0
 20
207.8
 30
0.0
 40
3.1
 50
0.0
 51
90.0
  0
ARC
  8
62
  5
27FB0
 10
251.0
 20
204.0
 30
0.0
 40
6.9
 50
180.0
 51
270.0
  0
LINE
  8
61
  5
27FB1
 10
251.0
 20
196.0
 30
0.0
 11
254.8
 21
196.0
 31
0.0
  0
LINE
  8
62
  5
27FB2
 10
251.0
 20
197.1
 30
0.0
 11
254.8
 21
197.1
 31
0.0
  0
ARC
  8
62
  5
281B3
 10
99.0
 20
82.0
 30
0.0
 40
7.3
 50
200.0
 51
250.0
  0
LINE
  8
62
  5
281B4
 10
93.361844
 20
79.947879
 30
0.0
 11
92.140244
 21
79.503253
 31
0.0
  0
LINE
  8
62
  5
281B5
 10
96.947879
 20
76.361844
 30
0.0
 11
96.503253
 21
75.140244
 31
0.0
  0
LINE
  8
62
  5
286CB
 10
256.795555
 20
205.552914
 30
0.0
 11
258.534221
 21
206.018789
 31
0.0
  0
LINE
  8
62
  5
286CD
 10
252.552914
 20
209.795555
 30
0.0
 11
253.018789
 21
211.534221
 31
0.0
  0
ARC
  8
62
  5
286CE
 10
251.0
 20
204.0
 30
0.0
 40
7.8
 50
15.0
 51
75.0
  0
LINE
  8
61
  5
296DD
 10
185.0
 20
194.0
 30
0.0
 11
185.0
 21
192.0
 31
0.0
  0
CIRCLE
  8
61
  5
296DE
 10
175.0
 20
193.0
 30
0.0
 40
2.0
  0
CIRCLE
  8
61
  5
296DF
 10
175.0
 20
193.0
 30
0.0
 40
1.5
  0
LINE
  8
61
  5
296E0
 10
165.0
 20
192.0
 30
0.0
 11
165.0
 21
194.0
 31
0.0
  0
LINE
  8
61
  5
296E1
 10
165.0
 20
194.0
 30
0.0
 11
171.127017
 21
194.0
 31
0.0
  0
LINE
  8
61
  5
296E3
 10
178.872983
 20
194.0
 30
0.0
 11
185.0
 21
194.0
 31
0.0
  0
ARC
  8
61
  5
296E4
 10
175.0
 20
193.0
 30
0.0
 40
4.0
 50
14.477512
 51
165.522488
  0
LINE
  8
61
  5
296E5
 10
171.127017
 20
192.0
 30
0.0
 11
165.0
 21
192.0
 31
0.0
  0
LINE
  8
61
  5
296E6
 10
185.0
 20
192.0
 30
0.0
 11
178.872983
 21
192.0
 31
0.0
  0
ARC
  8
61
  5
296E7
 10
175.0
 20
193.0
 30
0.0
 40
4.0
 50
194.477512
 51
345.522488
  0
CIRCLE
  8
61
  5
296E8
 10
175.0
 20
93.0
 30
0.0
 40
1.5
  0
CIRCLE
  8
61
  5
296E9
 10
175.0
 20
93.0
 30
0.0
 40
2.0
  0
ARC
  8
61
  5
296EA
 10
175.0
 20
93.0
 30
0.0
 40
4.0
 50
14.477512
 51
165.522488
  0
ARC
  8
61
  5
296EC
 10
175.0
 20
93.0
 30
0.0
 40
4.0
 50
194.477512
 51
345.522488
  0
LINE
  8
61
  5
296ED
 10
165.0
 20
94.0
 30
0.0
 11
171.127017
 21
94.0
 31
0.0
  0
LINE
  8
61
  5
296EE
 10
171.127017
 20
92.0
 30
0.0
 11
165.0
 21
92.0
 31
0.0
  0
LINE
  8
61
  5
296EF
 10
165.0
 20
92.0
 30
0.0
 11
165.0
 21
94.0
 31
0.0
  0
LINE
  8
61
  5
296F0
 10
178.872983
 20
94.0
 30
0.0
 11
185.0
 21
94.0
 31
0.0
  0
LINE
  8
61
  5
296F1
 10
185.0
 20
92.0
 30
0.0
 11
178.872983
 21
92.0
 31
0.0
  0
LINE
  8
61
  5
296F2
 10
185.0
 20
94.0
 30
0.0
 11
185.0
 21
92.0
 31
0.0
  0
CIRCLE
  8
61
  5
296F3
 10
117.5
 20
113.0
 30
0.0
 40
4.0
  0
CIRCLE
  8
61
  5
296F4
 10
117.5
 20
113.0
 30
0.0
 40
2.0
  0
CIRCLE
  8
61
  5
296F5
 10
117.5
 20
113.0
 30
0.0
 40
1.5
  0
CIRCLE
  8
61
  5
296FB
 10
117.5
 20
173.0
 30
0.0
 40
4.0
  0
CIRCLE
  8
61
  5
296FC
 10
117.5
 20
173.0
 30
0.0
 40
1.5
  0
CIRCLE
  8
61
  5
296FD
 10
117.5
 20
173.0
 30
0.0
 40
2.0
  0
CIRCLE
  8
61
  5
29700
 10
232.5
 20
113.0
 30
0.0
 40
4.0
  0
CIRCLE
  8
61
  5
29701
 10
232.5
 20
113.0
 30
0.0
 40
1.5
  0
CIRCLE
  8
61
  5
29702
 10
232.5
 20
113.0
 30
0.0
 40
2.0
  0
CIRCLE
  8
61
  5
29705
 10
232.5
 20
173.0
 30
0.0
 40
4.0
  0
CIRCLE
  8
61
  5
29706
 10
232.5
 20
173.0
 30
0.0
 40
1.5
  0
CIRCLE
  8
61
  5
29707
 10
232.5
 20
173.0
 30
0.0
 40
2.0
  0
CIRCLE
  8
51
  5
29DC9
 10
-250.0
 20
145.0
 30
0.0
 40
4.5
  0
CIRCLE
  8
51
  5
29DCA
 10
-120.0
 20
145.0
 30
0.0
 40
4.5
  0
CIRCLE
  8
51
  5
29EC8
 10
-185.0
 20
195.0
 30
0.0
 40
4.5
  0
CIRCLE
  8
51
  5
29EC9
 10
-185.0
 20
95.0
 30
0.0
 40
4.5
  0
CIRCLE
  8
51
  5
29ECA
 10
-242.5
 20
115.0
 30
0.0
 40
4.5
  0
CIRCLE
  8
51
  5
29ECB
 10
-242.5
 20
175.0
 30
0.0
 40
4.5
  0
CIRCLE
  8
51
  5
29ECC
 10
-127.5
 20
115.0
 30
0.0
 40
4.5
  0
CIRCLE
  8
51
  5
29ECD
 10
-127.5
 20
175.0
 30
0.0
 40
4.5
  0
LINE
  8
21
  5
2A064
 10
107.1
 20
339.0
 30
0.0
 11
175.0
 21
339.0
 31
0.0
  0
LINE
  8
24
  5
2A065
 10
107.1
 20
339.0
 30
0.0
 11
107.745788
 21
265.0
 31
0.0
  0
LINE
  8
21
  5
2A181
 10
90.1
 20
337.0
 30
0.0
 11
90.130944
 21
332.496565
 31
0.0
  0
ARC
  8
21
  5
2A182
 10
91.039252
 20
331.5
 30
0.0
 40
0.5
 50
0.5
 51
90.0
  0
ARC
  8
21
  5
2A183
 10
90.630932
 20
332.5
 30
0.0
 40
0.5
 50
180.39368
 51
270.0
  0
LINE
  8
21
  5
2A184
 10
90.630932
 20
332.0
 30
0.0
 11
175.0
 21
332.0
 31
0.0
  0
LINE
  8
21
  5
2A187
 10
92.489707
 20
339.0
 30
0.0
 11
93.002607
 21
339.0
 31
0.0
  0
LINE
  8
21
  5
2A188
 10
92.189889
 20
338.71047
 30
0.0
 11
92.130158
 21
337.0
 31
0.0
  0
LINE
  8
21
  5
2A189
 10
90.1
 20
337.0
 30
0.0
 11
175.0
 21
337.0
 31
0.0
  0
ARC
  8
21
  5
2A18A
 10
92.489707
 20
338.7
 30
0.0
 40
0.3
 50
90.0
 51
178.0
  0
LINE
  8
21
  5
2A487
 10
91.539233
 20
331.504363
 30
0.0
 11
92.128487
 21
263.982547
 31
0.0
  0
ARC
  8
21
  5
2A54D
 10
94.128411
 20
264.0
 30
0.0
 40
2.0
 50
180.5
 51
270.0
  0
LINE
  8
21
  5
2A95C
 10
114.6
 20
261.0
 30
0.0
 11
117.6
 21
261.0
 31
0.0
  0
LINE
  8
21
  5
2A95D
 10
122.1
 20
261.0
 30
0.0
 11
117.6
 21
261.0
 31
0.0
  0
LINE
  8
21
  5
2A95E
 10
122.1
 20
261.0
 30
0.0
 11
122.367949
 21
262.0
 31
0.0
  0
LINE
  8
34
  5
2AC1F
 10
337.468718
 20
139.1
 30
0.0
 11
331.317008
 21
138.561795
 31
0.0
  0
LINE
  8
21
  5
2AC20
 10
255.871589
 20
262.0
 30
0.0
 11
182.520133
 21
262.0
 31
0.0
  0
ARC
  8
24
  5
2AC22
 10
175.0
 20
239.840509
 30
0.0
 40
26.400758
 50
72.360821
 51
90.0
  0
ARC
  8
24
  5
2AC23
 10
175.0
 20
239.840509
 30
0.0
 40
23.400758
 50
71.254638
 51
90.0
  0
LINE
  8
21
  5
2AC24
 10
182.520133
 20
262.0
 30
0.0
 11
175.0
 21
262.0
 31
0.0
  0
LINE
  8
21
  5
2AC25
 10
258.460767
 20
331.504363
 30
0.0
 11
257.871513
 21
263.982547
 31
0.0
  0
LINE
  8
21
  5
2AC2B
 10
244.4
 20
261.0
 30
0.0
 11
239.9
 21
261.0
 31
0.0
  0
ARC
  8
21
  5
2AC2D
 10
255.871589
 20
264.0
 30
0.0
 40
2.0
 50
270.0
 51
359.5
  0
LINE
  8
21
  5
2AC2E
 10
257.0
 20
260.6
 30
0.0
 11
245.0
 21
260.6
 31
0.0
  0
LINE
  8
21
  5
2AC2F
 10
257.0
 20
260.6
 30
0.0
 11
257.627844
 21
263.043146
 31
0.0
  0
LINE
  8
21
  5
2AC35
 10
245.0
 20
260.6
 30
0.0
 11
244.659808
 21
261.969615
 31
0.0
  0
LINE
  8
21
  5
2AC39
 10
244.4
 20
261.0
 30
0.0
 11
244.667949
 21
262.0
 31
0.0
  0
LINE
  8
21
  5
2AC40
 10
227.9
 20
261.0
 30
0.0
 11
232.4
 21
261.0
 31
0.0
  0
LINE
  8
21
  5
2AC41
 10
235.4
 20
261.0
 30
0.0
 11
232.4
 21
261.0
 31
0.0
  0
LINE
  8
21
  5
2AC45
 10
235.4
 20
261.0
 30
0.0
 11
235.132051
 21
262.0
 31
0.0
  0
LINE
  8
21
  5
2AC46
 10
235.4
 20
261.0
 30
0.0
 11
239.9
 21
261.0
 31
0.0
  0
LINE
  8
21
  5
2AC49
 10
227.9
 20
261.0
 30
0.0
 11
227.632051
 21
262.0
 31
0.0
  0
LINE
  8
21
  5
2AC50
 10
242.9
 20
339.0
 30
0.0
 11
175.0
 21
339.0
 31
0.0
  0
LINE
  8
21
  5
2AC52
 10
256.997393
 20
339.0
 30
0.0
 11
242.9
 21
339.0
 31
0.0
  0
ARC
  8
21
  5
2AC55
 10
257.510293
 20
338.7
 30
0.0
 40
0.3
 50
2.0
 51
90.0
  0
LINE
  8
21
  5
2AC56
 10
257.810111
 20
338.71047
 30
0.0
 11
257.869842
 21
337.0
 31
0.0
  0
LINE
  8
21
  5
2AC57
 10
257.510293
 20
339.0
 30
0.0
 11
256.997393
 21
339.0
 31
0.0
  0
LINE
  8
21
  5
2AC58
 10
259.9
 20
337.0
 30
0.0
 11
259.869056
 21
332.496565
 31
0.0
  0
LINE
  8
21
  5
2AC59
 10
259.9
 20
337.0
 30
0.0
 11
175.0
 21
337.0
 31
0.0
  0
LINE
  8
21
  5
2AC5B
 10
259.369068
 20
332.0
 30
0.0
 11
175.0
 21
332.0
 31
0.0
  0
ARC
  8
21
  5
2AC5C
 10
258.960748
 20
331.5
 30
0.0
 40
0.5
 50
90.0
 51
179.5
  0
ARC
  8
21
  5
2AC5D
 10
259.369068
 20
332.5
 30
0.0
 40
0.5
 50
270.0
 51
359.60632
  0
LINE
  8
31
  5
2AEC6
 10
396.973081
 20
74.539233
 30
0.0
 11
329.451265
 21
75.128487
 31
0.0
  0
LINE
  8
31
  5
2AEC7
 10
396.973081
 20
211.460767
 30
0.0
 11
329.451265
 21
210.871513
 31
0.0
  0
LINE
  8
33
  6
DASHDOT
  5
2AECA
 10
406.468718
 20
143.0
 30
0.0
 11
324.468718
 21
143.0
 31
0.0
  0
LINE
  8
31
  5
2AED0
 10
326.468718
 20
197.4
 30
0.0
 11
326.468718
 21
192.9
 31
0.0
  0
ARC
  8
31
  5
2AED2
 10
329.468718
 20
208.871589
 30
0.0
 40
2.0
 50
90.5
 51
180.0
  0
LINE
  8
31
  5
2AED3
 10
326.068718
 20
210.0
 30
0.0
 11
326.068718
 21
198.0
 31
0.0
  0
LINE
  8
31
  5
2AED4
 10
326.068718
 20
210.0
 30
0.0
 11
328.511864
 21
210.627844
 31
0.0
  0
LINE
  8
31
  5
2AED7
 10
327.468718
 20
208.871589
 30
0.0
 11
327.468718
 21
143.0
 31
0.0
  0
LINE
  8
31
  5
2AEDB
 10
326.068718
 20
198.0
 30
0.0
 11
327.438333
 21
197.659808
 31
0.0
  0
LINE
  8
31
  5
2AEDE
 10
326.468718
 20
197.4
 30
0.0
 11
327.468718
 21
197.667949
 31
0.0
  0
LINE
  8
31
  5
2AEE5
 10
326.468718
 20
180.9
 30
0.0
 11
326.468718
 21
185.4
 31
0.0
  0
LINE
  8
31
  5
2AEE7
 10
326.468718
 20
188.4
 30
0.0
 11
326.468718
 21
185.4
 31
0.0
  0
LINE
  8
31
  5
2AEEA
 10
326.468718
 20
188.4
 30
0.0
 11
327.468718
 21
188.132051
 31
0.0
  0
LINE
  8
31
  5
2AEEB
 10
326.468718
 20
188.4
 30
0.0
 11
326.468718
 21
192.9
 31
0.0
  0
LINE
  8
31
  5
2AEEE
 10
326.468718
 20
180.9
 30
0.0
 11
327.468718
 21
180.632051
 31
0.0
  0
LINE
  8
31
  5
2AEFA
 10
326.468718
 20
138.5
 30
0.0
 11
326.468718
 21
143.0
 31
0.0
  0
LINE
  8
31
  5
2AF00
 10
326.468718
 20
147.5
 30
0.0
 11
326.468718
 21
143.0
 31
0.0
  0
LINE
  8
31
  5
2AF01
 10
326.468718
 20
147.5
 30
0.0
 11
327.468718
 21
147.767949
 31
0.0
  0
LINE
  8
31
  5
2AF08
 10
326.468718
 20
138.5
 30
0.0
 11
327.468718
 21
138.232051
 31
0.0
  0
LINE
  8
31
  5
2AF0D
 10
326.468718
 20
88.6
 30
0.0
 11
326.468718
 21
93.1
 31
0.0
  0
LINE
  8
31
  5
2AF14
 10
326.468718
 20
97.6
 30
0.0
 11
326.468718
 21
100.6
 31
0.0
  0
LINE
  8
31
  5
2AF15
 10
326.468718
 20
105.1
 30
0.0
 11
327.468718
 21
105.367949
 31
0.0
  0
LINE
  8
31
  5
2AF17
 10
326.468718
 20
105.1
 30
0.0
 11
326.468718
 21
100.6
 31
0.0
  0
LINE
  8
31
  5
2AF1A
 10
326.468718
 20
97.6
 30
0.0
 11
326.468718
 21
93.1
 31
0.0
  0
LINE
  8
31
  5
2AF1B
 10
326.468718
 20
97.6
 30
0.0
 11
327.468718
 21
97.867949
 31
0.0
  0
LINE
  8
31
  5
2AF24
 10
326.068718
 20
76.0
 30
0.0
 11
328.511864
 21
75.372156
 31
0.0
  0
ARC
  8
31
  5
2AF25
 10
329.468718
 20
77.128411
 30
0.0
 40
2.0
 50
180.0
 51
269.5
  0
LINE
  8
31
  5
2AF29
 10
327.468718
 20
77.128411
 30
0.0
 11
327.468718
 21
143.0
 31
0.0
  0
LINE
  8
31
  5
2AF2A
 10
326.068718
 20
76.0
 30
0.0
 11
326.068718
 21
88.0
 31
0.0
  0
LINE
  8
31
  5
2AF2D
 10
326.468718
 20
88.6
 30
0.0
 11
327.468718
 21
88.332051
 31
0.0
  0
LINE
  8
31
  5
2AF30
 10
326.068718
 20
88.0
 30
0.0
 11
327.438333
 21
88.340192
 31
0.0
  0
LINE
  8
31
  5
2AF33
 10
404.468718
 20
195.9
 30
0.0
 11
404.468718
 21
143.0
 31
0.0
  0
LINE
  8
31
  5
2AF36
 10
404.468718
 20
209.997393
 30
0.0
 11
404.468718
 21
195.9
 31
0.0
  0
ARC
  8
31
  5
2AF39
 10
404.168718
 20
210.510293
 30
0.0
 40
0.3
 50
0.0
 51
88.0
  0
LINE
  8
31
  5
2AF3A
 10
404.179188
 20
210.810111
 30
0.0
 11
402.468718
 21
210.869842
 31
0.0
  0
LINE
  8
31
  5
2AF3B
 10
404.468718
 20
210.510293
 30
0.0
 11
404.468718
 21
209.997393
 31
0.0
  0
LINE
  8
31
  5
2AF3C
 10
397.468718
 20
73.630932
 30
0.0
 11
397.468718
 21
143.0
 31
0.0
  0
ARC
  8
31
  5
2AF3D
 10
396.968718
 20
211.960748
 30
0.0
 40
0.5
 50
270.5
 51
0.0
  0
LINE
  8
31
  5
2AF3E
 10
402.468718
 20
212.9
 30
0.0
 11
397.965282
 21
212.869056
 31
0.0
  0
ARC
  8
31
  5
2AF3F
 10
397.968718
 20
212.369068
 30
0.0
 40
0.5
 50
90.39368
 51
180.0
  0
LINE
  8
31
  5
2AF40
 10
402.468718
 20
73.1
 30
0.0
 11
402.468718
 21
143.0
 31
0.0
  0
LINE
  8
31
  5
2AF45
 10
404.468718
 20
90.1
 30
0.0
 11
404.468718
 21
143.0
 31
0.0
  0
LINE
  8
31
  5
2AF46
 10
404.468718
 20
75.489707
 30
0.0
 11
404.468718
 21
76.002607
 31
0.0
  0
LINE
  8
31
  5
2AF47
 10
404.468718
 20
76.002607
 30
0.0
 11
404.468718
 21
90.1
 31
0.0
  0
ARC
  8
31
  5
2AF4C
 10
397.968718
 20
73.630932
 30
0.0
 40
0.5
 50
180.0
 51
269.60632
  0
ARC
  8
31
  5
2AF4D
 10
396.968718
 20
74.039252
 30
0.0
 40
0.5
 50
0.0
 51
89.5
  0
LINE
  8
31
  5
2AF4E
 10
397.468718
 20
73.630932
 30
0.0
 11
397.468718
 21
74.039252
 31
0.0
  0
LINE
  8
31
  5
2AF4F
 10
402.468718
 20
73.1
 30
0.0
 11
402.468718
 21
75.130158
 31
0.0
  0
LINE
  8
31
  5
2AF50
 10
402.468718
 20
73.1
 30
0.0
 11
397.965282
 21
73.130944
 31
0.0
  0
LINE
  8
31
  5
2AF51
 10
404.179188
 20
75.189889
 30
0.0
 11
402.468718
 21
75.130158
 31
0.0
  0
ARC
  8
31
  5
2AF52
 10
404.168718
 20
75.489707
 30
0.0
 40
0.3
 50
272.0
 51
0.0
  0
LINE
  8
31
  5
2AF53
 10
397.468718
 20
212.369068
 30
0.0
 11
397.468718
 21
143.0
 31
0.0
  0
LINE
  8
31
  5
2AF54
 10
402.468718
 20
212.9
 30
0.0
 11
402.468718
 21
143.0
 31
0.0
  0
ARC
  8
34
  5
2B7F5
 10
305.309226
 20
143.0
 30
0.0
 40
26.400758
 50
0.0
 51
17.639179
  0
ARC
  8
34
  5
2B7F6
 10
305.309226
 20
143.0
 30
0.0
 40
26.400758
 50
342.360821
 51
0.0
  0
ARC
  8
34
  5
2B7F7
 10
305.309226
 20
143.0
 30
0.0
 40
23.400758
 50
341.254638
 51
0.0
  0
ARC
  8
34
  5
2B7F8
 10
305.309226
 20
143.0
 30
0.0
 40
23.400758
 50
0.0
 51
18.745362
  0
TEXT
  8
L20
  5
2B8A9
 10
-232.1954
 20
288.644494
 30
0.0
 40
9.8
  1
FIBOX PICCOLO H 170x140x75 BASE
  0
LINE
  8
24
  5
2B8AB
 10
242.254212
 20
265.0
 30
0.0
 11
183.0
 21
265.0
 31
0.0
  0
LINE
  8
24
  5
2B8AD
 10
242.9
 20
339.0
 30
0.0
 11
242.254212
 21
265.0
 31
0.0
  0
LINE
  8
34
  5
2BB5C
 10
330.468718
 20
90.745788
 30
0.0
 11
330.468718
 21
135.0
 31
0.0
  0
LINE
  8
34
  5
2BB5E
 10
404.468718
 20
90.1
 30
0.0
 11
330.468718
 21
90.745788
 31
0.0
  0
LINE
  8
34
  5
2BB62
 10
404.468718
 20
195.9
 30
0.0
 11
330.468718
 21
195.254212
 31
0.0
  0
LINE
  8
34
  5
2BB63
 10
330.468718
 20
195.254212
 30
0.0
 11
330.468718
 21
151.0
 31
0.0
  0
ARC
  8
24
  5
2BB69
 10
185.970586
 20
265.5
 30
0.0
 40
0.5
 50
185.0
 51
270.0
  0
LINE
  8
24
  5
2BB6A
 10
174.9
 20
272.0
 30
0.0
 11
178.9
 21
272.0
 31
0.0
  0
LINE
  8
24
  5
2BB6B
 10
178.9
 20
272.0
 30
0.0
 11
184.9
 21
272.0
 31
0.0
  0
LINE
  8
24
  5
2BB6C
 10
184.9
 20
272.0
 30
0.0
 11
185.472489
 21
265.456422
 31
0.0
  0
LINE
  8
24
  5
2BB6D
 10
178.9
 20
272.0
 30
0.0
 11
179.438205
 21
265.84829
 31
0.0
  0
ARC
  8
24
  5
2BB6E
 10
163.829414
 20
265.5
 30
0.0
 40
0.5
 50
270.0
 51
355.0
  0
LINE
  8
24
  5
2BB6F
 10
170.9
 20
272.0
 30
0.0
 11
164.9
 21
272.0
 31
0.0
  0
LINE
  8
24
  5
2BB70
 10
164.9
 20
272.0
 30
0.0
 11
164.327511
 21
265.456422
 31
0.0
  0
LINE
  8
24
  5
2BB71
 10
170.9
 20
272.0
 30
0.0
 11
170.361795
 21
265.84829
 31
0.0
  0
LINE
  8
24
  5
2BB72
 10
174.9
 20
272.0
 30
0.0
 11
170.9
 21
272.0
 31
0.0
  0
LINE
  8
14
  5
2BB73
 10
107.1
 20
-53.0
 30
0.0
 11
107.745788
 21
21.0
 31
0.0
  0
LINE
  8
14
  5
2BB74
 10
242.9
 20
-53.0
 30
0.0
 11
242.254212
 21
21.0
 31
0.0
  0
LINE
  8
11
  5
2BB75
 10
91.539233
 20
-45.504363
 30
0.0
 11
92.128487
 21
22.017453
 31
0.0
  0
LINE
  8
11
  5
2BB76
 10
258.460767
 20
-45.504363
 30
0.0
 11
257.871513
 21
22.017453
 31
0.0
  0
LINE
  8
13
  6
DASHDOT
  5
2BB77
 10
175.0
 20
-55.0
 30
0.0
 11
175.0
 21
27.0
 31
0.0
  0
LINE
  8
14
  5
2BB78
 10
171.1
 20
14.0
 30
0.0
 11
165.1
 21
14.0
 31
0.0
  0
LINE
  8
11
  5
2BB79
 10
167.479867
 20
24.0
 30
0.0
 11
175.0
 21
24.0
 31
0.0
  0
ARC
  8
14
  5
2BB7A
 10
175.0
 20
46.159491
 30
0.0
 40
23.400758
 50
251.254638
 51
270.0
  0
ARC
  8
14
  5
2BB7B
 10
175.0
 20
46.159491
 30
0.0
 40
26.400758
 50
252.360821
 51
270.0
  0
LINE
  8
14
  5
2BB7C
 10
242.254212
 20
21.0
 30
0.0
 11
183.0
 21
21.0
 31
0.0
  0
LINE
  8
11
  5
2BB7D
 10
255.871589
 20
24.0
 30
0.0
 11
182.520133
 21
24.0
 31
0.0
  0
LINE
  8
11
  5
2BB7E
 10
257.0
 20
25.4
 30
0.0
 11
245.0
 21
25.4
 31
0.0
  0
ARC
  8
11
  5
2BB80
 10
255.871589
 20
22.0
 30
0.0
 40
2.0
 50
0.5
 51
90.0
  0
LINE
  8
11
  5
2BB81
 10
257.0
 20
25.4
 30
0.0
 11
257.627844
 21
22.956854
 31
0.0
  0
LINE
  8
11
  5
2BB82
 10
235.4
 20
25.0
 30
0.0
 11
239.9
 21
25.0
 31
0.0
  0
LINE
  8
11
  5
2BB83
 10
244.4
 20
25.0
 30
0.0
 11
239.9
 21
25.0
 31
0.0
  0
LINE
  8
11
  5
2BB84
 10
244.4
 20
25.0
 30
0.0
 11
244.667949
 21
24.0
 31
0.0
  0
LINE
  8
11
  5
2BB85
 10
245.0
 20
25.4
 30
0.0
 11
244.659808
 21
24.030385
 31
0.0
  0
LINE
  8
11
  5
2BB86
 10
227.9
 20
25.0
 30
0.0
 11
232.4
 21
25.0
 31
0.0
  0
LINE
  8
11
  5
2BB87
 10
235.4
 20
25.0
 30
0.0
 11
232.4
 21
25.0
 31
0.0
  0
LINE
  8
11
  5
2BB88
 10
235.4
 20
25.0
 30
0.0
 11
235.132051
 21
24.0
 31
0.0
  0
LINE
  8
11
  5
2BB89
 10
227.9
 20
25.0
 30
0.0
 11
227.632051
 21
24.0
 31
0.0
  0
LINE
  8
11
  5
2BB8F
 10
182.520133
 20
24.0
 30
0.0
 11
175.0
 21
24.0
 31
0.0
  0
ARC
  8
14
  5
2BB90
 10
175.0
 20
46.159491
 30
0.0
 40
23.400758
 50
270.0
 51
288.745362
  0
LINE
  8
11
  5
2BB91
 10
170.5
 20
25.0
 30
0.0
 11
175.0
 21
25.0
 31
0.0
  0
LINE
  8
11
  5
2BB92
 10
179.5
 20
25.0
 30
0.0
 11
179.767949
 21
24.0
 31
0.0
  0
LINE
  8
11
  5
2BB93
 10
179.5
 20
25.0
 30
0.0
 11
175.0
 21
25.0
 31
0.0
  0
LINE
  8
11
  5
2BB94
 10
170.5
 20
25.0
 30
0.0
 11
170.232051
 21
24.0
 31
0.0
  0
LINE
  8
14
  5
2BB95
 10
179.1
 20
14.0
 30
0.0
 11
185.1
 21
14.0
 31
0.0
  0
ARC
  8
14
  5
2BB96
 10
175.0
 20
46.159491
 30
0.0
 40
26.400758
 50
270.0
 51
287.639179
  0
LINE
  8
14
  5
2BB97
 10
185.1
 20
14.0
 30
0.0
 11
185.672489
 21
20.543578
 31
0.0
  0
ARC
  8
14
  5
2BB98
 10
186.170586
 20
20.5
 30
0.0
 40
0.5
 50
90.0
 51
175.0
  0
LINE
  8
14
  5
2BB99
 10
179.1
 20
14.0
 30
0.0
 11
179.638205
 21
20.15171
 31
0.0
  0
LINE
  8
14
  5
2BB9A
 10
171.1
 20
14.0
 30
0.0
 11
170.561795
 21
20.15171
 31
0.0
  0
LINE
  8
14
  5
2BB9B
 10
175.1
 20
14.0
 30
0.0
 11
171.1
 21
14.0
 31
0.0
  0
LINE
  8
14
  5
2BB9C
 10
175.1
 20
14.0
 30
0.0
 11
179.1
 21
14.0
 31
0.0
  0
LINE
  8
11
  5
2BB9E
 10
114.6
 20
25.0
 30
0.0
 11
110.1
 21
25.0
 31
0.0
  0
LINE
  8
11
  5
2BB9F
 10
94.128411
 20
24.0
 30
0.0
 11
167.479867
 21
24.0
 31
0.0
  0
LINE
  8
14
  5
2BBA0
 10
107.745788
 20
21.0
 30
0.0
 11
167.0
 21
21.0
 31
0.0
  0
LINE
  8
14
  5
2BBA1
 10
165.1
 20
14.0
 30
0.0
 11
164.527511
 21
20.543578
 31
0.0
  0
ARC
  8
14
  5
2BBA2
 10
164.029414
 20
20.5
 30
0.0
 40
0.5
 50
5.0
 51
90.0
  0
LINE
  8
11
  5
2BBA3
 10
122.1
 20
25.0
 30
0.0
 11
117.6
 21
25.0
 31
0.0
  0
LINE
  8
11
  5
2BBA4
 10
122.1
 20
25.0
 30
0.0
 11
122.367949
 21
24.0
 31
0.0
  0
LINE
  8
11
  5
2BBA5
 10
114.6
 20
25.0
 30
0.0
 11
114.867949
 21
24.0
 31
0.0
  0
LINE
  8
11
  5
2BBA6
 10
114.6
 20
25.0
 30
0.0
 11
117.6
 21
25.0
 31
0.0
  0
ARC
  8
11
  5
2BBA9
 10
94.128411
 20
22.0
 30
0.0
 40
2.0
 50
90.0
 51
179.5
  0
LINE
  8
11
  5
2BBAA
 10
93.0
 20
25.4
 30
0.0
 11
105.0
 21
25.4
 31
0.0
  0
LINE
  8
11
  5
2BBAB
 10
105.6
 20
25.0
 30
0.0
 11
110.1
 21
25.0
 31
0.0
  0
LINE
  8
11
  5
2BBAC
 10
105.6
 20
25.0
 30
0.0
 11
105.332051
 21
24.0
 31
0.0
  0
LINE
  8
11
  5
2BBAD
 10
105.0
 20
25.4
 30
0.0
 11
105.340192
 21
24.030385
 31
0.0
  0
LINE
  8
11
  5
2BBAE
 10
93.0
 20
25.4
 30
0.0
 11
92.372156
 21
22.956854
 31
0.0
  0
LINE
  8
11
  5
2BBB1
 10
90.630932
 20
-46.0
 30
0.0
 11
175.0
 21
-46.0
 31
0.0
  0
LINE
  8
11
  5
2BBB2
 10
90.1
 20
-51.0
 30
0.0
 11
175.0
 21
-51.0
 31
0.0
  0
LINE
  8
11
  5
2BBB3
 10
107.1
 20
-53.0
 30
0.0
 11
175.0
 21
-53.0
 31
0.0
  0
LINE
  8
11
  5
2BBB4
 10
259.9
 20
-51.0
 30
0.0
 11
175.0
 21
-51.0
 31
0.0
  0
LINE
  8
11
  5
2BBB5
 10
259.369068
 20
-46.0
 30
0.0
 11
175.0
 21
-46.0
 31
0.0
  0
LINE
  8
11
  5
2BBB6
 10
242.9
 20
-53.0
 30
0.0
 11
175.0
 21
-53.0
 31
0.0
  0
LINE
  8
11
  5
2BBB7
 10
256.997393
 20
-53.0
 30
0.0
 11
242.9
 21
-53.0
 31
0.0
  0
LINE
  8
11
  5
2BBB8
 10
257.810111
 20
-52.71047
 30
0.0
 11
257.869842
 21
-51.0
 31
0.0
  0
ARC
  8
11
  5
2BBB9
 10
259.369068
 20
-46.5
 30
0.0
 40
0.5
 50
0.39368
 51
90.0
  0
ARC
  8
11
  5
2BBBA
 10
258.960748
 20
-45.5
 30
0.0
 40
0.5
 50
180.5
 51
270.0
  0
LINE
  8
11
  5
2BBBB
 10
259.9
 20
-51.0
 30
0.0
 11
259.869056
 21
-46.496565
 31
0.0
  0
ARC
  8
11
  5
2BBBC
 10
257.510293
 20
-52.7
 30
0.0
 40
0.3
 50
270.0
 51
358.0
  0
LINE
  8
11
  5
2BBBD
 10
257.510293
 20
-53.0
 30
0.0
 11
256.997393
 21
-53.0
 31
0.0
  0
LINE
  8
11
  5
2BBBE
 10
93.002607
 20
-53.0
 30
0.0
 11
107.1
 21
-53.0
 31
0.0
  0
LINE
  8
11
  5
2BBBF
 10
92.189889
 20
-52.71047
 30
0.0
 11
92.130158
 21
-51.0
 31
0.0
  0
ARC
  8
11
  5
2BBC0
 10
90.630932
 20
-46.5
 30
0.0
 40
0.5
 50
90.0
 51
179.60632
  0
ARC
  8
11
  5
2BBC1
 10
91.039252
 20
-45.5
 30
0.0
 40
0.5
 50
270.0
 51
359.5
  0
LINE
  8
11
  5
2BBC2
 10
90.1
 20
-51.0
 30
0.0
 11
90.130944
 21
-46.496565
 31
0.0
  0
LINE
  8
11
  5
2BBC3
 10
92.489707
 20
-53.0
 30
0.0
 11
93.002607
 21
-53.0
 31
0.0
  0
ARC
  8
11
  5
2BBC4
 10
92.489707
 20
-52.7
 30
0.0
 40
0.3
 50
182.0
 51
270.0
  0
LINE
  8
44
  5
2BBC5
 10
19.531282
 20
90.745788
 30
0.0
 11
19.531282
 21
135.0
 31
0.0
  0
LINE
  8
41
  5
2BBC6
 10
-52.468718
 20
73.1
 30
0.0
 11
-52.468718
 21
143.0
 31
0.0
  0
LINE
  8
41
  5
2BBC7
 10
-47.468718
 20
73.630932
 30
0.0
 11
-47.468718
 21
143.0
 31
0.0
  0
LINE
  8
41
  5
2BBC8
 10
-54.468718
 20
90.1
 30
0.0
 11
-54.468718
 21
143.0
 31
0.0
  0
LINE
  8
41
  5
2BBC9
 10
22.531282
 20
77.128411
 30
0.0
 11
22.531282
 21
143.0
 31
0.0
  0
LINE
  8
44
  5
2BBCA
 10
-54.468718
 20
195.9
 30
0.0
 11
19.531282
 21
195.254212
 31
0.0
  0
LINE
  8
41
  5
2BBCB
 10
-52.468718
 20
212.9
 30
0.0
 11
-47.965282
 21
212.869056
 31
0.0
  0
LINE
  8
43
  6
DASHDOT
  5
2BBCC
 10
-56.468718
 20
143.0
 30
0.0
 11
25.531282
 21
143.0
 31
0.0
  0
LINE
  8
44
  5
2BBCD
 10
19.531282
 20
195.254212
 30
0.0
 11
19.531282
 21
151.0
 31
0.0
  0
LINE
  8
41
  5
2BBCE
 10
-47.468718
 20
212.369068
 30
0.0
 11
-47.468718
 21
143.0
 31
0.0
  0
LINE
  8
41
  5
2BBCF
 10
22.531282
 20
208.871589
 30
0.0
 11
22.531282
 21
143.0
 31
0.0
  0
LINE
  8
41
  5
2BBD0
 10
-46.973081
 20
211.460767
 30
0.0
 11
20.548735
 21
210.871513
 31
0.0
  0
LINE
  8
41
  5
2BBD1
 10
23.531282
 20
197.4
 30
0.0
 11
23.531282
 21
192.9
 31
0.0
  0
LINE
  8
41
  5
2BBD2
 10
23.931282
 20
210.0
 30
0.0
 11
23.931282
 21
198.0
 31
0.0
  0
ARC
  8
41
  5
2BBD3
 10
20.531282
 20
208.871589
 30
0.0
 40
2.0
 50
0.0
 51
89.5
  0
LINE
  8
41
  5
2BBD4
 10
23.931282
 20
210.0
 30
0.0
 11
21.488136
 21
210.627844
 31
0.0
  0
LINE
  8
41
  5
2BBD5
 10
23.931282
 20
198.0
 30
0.0
 11
22.561667
 21
197.659808
 31
0.0
  0
LINE
  8
41
  5
2BBD6
 10
23.531282
 20
197.4
 30
0.0
 11
22.531282
 21
197.667949
 31
0.0
  0
LINE
  8
41
  5
2BBD7
 10
23.531282
 20
180.9
 30
0.0
 11
23.531282
 21
185.4
 31
0.0
  0
LINE
  8
41
  5
2BBD9
 10
23.531282
 20
188.4
 30
0.0
 11
23.531282
 21
192.9
 31
0.0
  0
LINE
  8
41
  5
2BBDA
 10
23.531282
 20
188.4
 30
0.0
 11
22.531282
 21
188.132051
 31
0.0
  0
LINE
  8
41
  5
2BBDB
 10
23.531282
 20
188.4
 30
0.0
 11
23.531282
 21
185.4
 31
0.0
  0
LINE
  8
41
  5
2BBE0
 10
23.531282
 20
180.9
 30
0.0
 11
22.531282
 21
180.632051
 31
0.0
  0
LINE
  8
41
  5
2BBE1
 10
-47.468718
 20
212.369068
 30
0.0
 11
-47.468718
 21
211.960748
 31
0.0
  0
ARC
  8
41
  5
2BBE2
 10
-46.968718
 20
211.960748
 30
0.0
 40
0.5
 50
180.0
 51
269.5
  0
ARC
  8
41
  5
2BBE3
 10
-47.968718
 20
212.369068
 30
0.0
 40
0.5
 50
0.0
 51
89.60632
  0
LINE
  8
44
  5
2BBE4
 10
12.531282
 20
142.9
 30
0.0
 11
12.531282
 21
138.9
 31
0.0
  0
ARC
  8
44
  5
2BBE5
 10
44.690774
 20
143.0
 30
0.0
 40
23.400758
 50
180.0
 51
198.745362
  0
ARC
  8
44
  5
2BBE6
 10
44.690774
 20
143.0
 30
0.0
 40
26.400758
 50
180.0
 51
197.639179
  0
LINE
  8
41
  5
2BBE7
 10
23.531282
 20
138.5
 30
0.0
 11
23.531282
 21
143.0
 31
0.0
  0
ARC
  8
44
  5
2BBE8
 10
44.690774
 20
143.0
 30
0.0
 40
26.400758
 50
162.360821
 51
180.0
  0
ARC
  8
44
  5
2BBE9
 10
19.031282
 20
153.970586
 30
0.0
 40
0.5
 50
275.0
 51
0.0
  0
ARC
  8
44
  5
2BBEA
 10
44.690774
 20
143.0
 30
0.0
 40
23.400758
 50
161.254638
 51
180.0
  0
LINE
  8
41
  5
2BBEB
 10
23.531282
 20
147.5
 30
0.0
 11
22.531282
 21
147.767949
 31
0.0
  0
LINE
  8
41
  5
2BBEC
 10
23.531282
 20
147.5
 30
0.0
 11
23.531282
 21
143.0
 31
0.0
  0
LINE
  8
44
  5
2BBED
 10
12.531282
 20
146.9
 30
0.0
 11
12.531282
 21
152.9
 31
0.0
  0
LINE
  8
44
  5
2BBEE
 10
12.531282
 20
152.9
 30
0.0
 11
19.07486
 21
153.472489
 31
0.0
  0
LINE
  8
44
  5
2BBEF
 10
12.531282
 20
146.9
 30
0.0
 11
18.682992
 21
147.438205
 31
0.0
  0
LINE
  8
44
  5
2BBF0
 10
12.531282
 20
142.9
 30
0.0
 11
12.531282
 21
146.9
 31
0.0
  0
ARC
  8
44
  5
2BBF1
 10
19.031282
 20
131.829414
 30
0.0
 40
0.5
 50
0.0
 51
85.0
  0
LINE
  8
41
  5
2BBF2
 10
23.531282
 20
138.5
 30
0.0
 11
22.531282
 21
138.232051
 31
0.0
  0
LINE
  8
44
  5
2BBF3
 10
12.531282
 20
138.9
 30
0.0
 11
12.531282
 21
132.9
 31
0.0
  0
LINE
  8
44
  5
2BBF4
 10
12.531282
 20
138.9
 30
0.0
 11
18.682992
 21
138.361795
 31
0.0
  0
LINE
  8
44
  5
2BBF5
 10
12.531282
 20
132.9
 30
0.0
 11
19.07486
 21
132.327511
 31
0.0
  0
LINE
  8
41
  5
2BBF6
 10
-54.468718
 20
195.9
 30
0.0
 11
-54.468718
 21
143.0
 31
0.0
  0
LINE
  8
41
  5
2BBF7
 10
-52.468718
 20
212.9
 30
0.0
 11
-52.468718
 21
143.0
 31
0.0
  0
LINE
  8
41
  5
2BBF8
 10
-54.468718
 20
209.997393
 30
0.0
 11
-54.468718
 21
195.9
 31
0.0
  0
ARC
  8
41
  5
2BBF9
 10
-54.168718
 20
210.510293
 30
0.0
 40
0.3
 50
92.0
 51
180.0
  0
LINE
  8
41
  5
2BBFA
 10
-54.179188
 20
210.810111
 30
0.0
 11
-52.468718
 21
210.869842
 31
0.0
  0
LINE
  8
41
  5
2BBFB
 10
-54.468718
 20
210.510293
 30
0.0
 11
-54.468718
 21
209.997393
 31
0.0
  0
LINE
  8
41
  5
2BBFC
 10
-52.468718
 20
212.9
 30
0.0
 11
-52.468718
 21
210.869842
 31
0.0
  0
LINE
  8
44
  5
2BBFD
 10
-54.468718
 20
90.1
 30
0.0
 11
19.531282
 21
90.745788
 31
0.0
  0
LINE
  8
41
  5
2BBFE
 10
-52.468718
 20
73.1
 30
0.0
 11
-47.965282
 21
73.130944
 31
0.0
  0
LINE
  8
41
  5
2BBFF
 10
-46.973081
 20
74.539233
 30
0.0
 11
20.548735
 21
75.128487
 31
0.0
  0
LINE
  8
41
  5
2BC00
 10
23.531282
 20
88.6
 30
0.0
 11
23.531282
 21
93.1
 31
0.0
  0
LINE
  8
41
  5
2BC01
 10
23.531282
 20
105.1
 30
0.0
 11
23.531282
 21
100.6
 31
0.0
  0
LINE
  8
41
  5
2BC02
 10
23.531282
 20
105.1
 30
0.0
 11
22.531282
 21
105.367949
 31
0.0
  0
LINE
  8
41
  5
2BC04
 10
23.531282
 20
97.6
 30
0.0
 11
23.531282
 21
93.1
 31
0.0
  0
LINE
  8
41
  5
2BC05
 10
23.531282
 20
97.6
 30
0.0
 11
22.531282
 21
97.867949
 31
0.0
  0
LINE
  8
41
  5
2BC06
 10
23.531282
 20
97.6
 30
0.0
 11
23.531282
 21
100.6
 31
0.0
  0
LINE
  8
41
  5
2BC0B
 10
23.931282
 20
76.0
 30
0.0
 11
21.488136
 21
75.372156
 31
0.0
  0
ARC
  8
41
  5
2BC0C
 10
20.531282
 20
77.128411
 30
0.0
 40
2.0
 50
270.5
 51
0.0
  0
LINE
  8
41
  5
2BC0D
 10
23.931282
 20
76.0
 30
0.0
 11
23.931282
 21
88.0
 31
0.0
  0
LINE
  8
41
  5
2BC0E
 10
23.531282
 20
88.6
 30
0.0
 11
22.531282
 21
88.332051
 31
0.0
  0
LINE
  8
41
  5
2BC0F
 10
23.931282
 20
88.0
 30
0.0
 11
22.561667
 21
88.340192
 31
0.0
  0
ARC
  8
41
  5
2BC10
 10
-46.968718
 20
74.039252
 30
0.0
 40
0.5
 50
90.5
 51
180.0
  0
ARC
  8
41
  5
2BC11
 10
-47.968718
 20
73.630932
 30
0.0
 40
0.5
 50
270.39368
 51
0.0
  0
LINE
  8
41
  5
2BC12
 10
-54.468718
 20
76.002607
 30
0.0
 11
-54.468718
 21
90.1
 31
0.0
  0
LINE
  8
41
  5
2BC13
 10
-54.468718
 20
75.489707
 30
0.0
 11
-54.468718
 21
76.002607
 31
0.0
  0
LINE
  8
41
  5
2BC14
 10
-54.179188
 20
75.189889
 30
0.0
 11
-52.468718
 21
75.130158
 31
0.0
  0
ARC
  8
41
  5
2BC15
 10
-54.168718
 20
75.489707
 30
0.0
 40
0.3
 50
180.0
 51
268.0
  0
CIRCLE
  8
62
  5
2BC1C
 10
175.0
 20
143.0
 30
0.0
 40
8.0
  0
ENDBLK
  8
0
  5
2BC1E
  0
ENDSEC
  0
SECTION
  2
ENTITIES
  0
VIEWPORT
  8
0
  5
1
 67
     1
 68
     1
 10
210.0
 20
152.094241
 30
0.0
 40
420.0
 41
304.188482
 69
     1
1001
ACAD
1000
MVIEW
1002
{
1070
    16
1010
0.0
1020
0.0
1030
0.0
1010
0.0
1020
0.0
1030
1.0
1040
0.0
1040
304.188482
1040
210.0
1040
152.094241
1040
50.0
1040
0.0
1040
0.0
1070
     0
1070
   100
1070
     1
1070
     1
1070
     1
1070
     0
1070
     0
1070
     0
1040
0.0
1040
0.0
1040
0.0
1040
1.0
1040
1.0
1040
0.0
1040
0.0
1070
     0
1002
{
1002
}
1002
}
  0
INSERT
  8
L1
  5
2BC1F
  2
PICH75B
 10
0.0
 20
0.0
 30
0.0
  0
ENDSEC
  0
EOF
