  0
SECTION
  2
HEADER
  9
$ACADVER
  1
AC1009
  9
$INSBASE
 10
0.0
 20
0.0
 30
0.0
  9
$EXTMIN
 10
-172.0
 20
17.392537
 30
0.0
  9
$EXTMAX
 10
309.0
 20
269.969082
 30
0.0
  9
$LIMMIN
 10
0.0
 20
0.0
  9
$LIMMAX
 10
420.0
 20
297.0
  9
$ORTHOMODE
 70
     0
  9
$REGENMODE
 70
     1
  9
$FILLMODE
 70
     1
  9
$QTEXTMODE
 70
     0
  9
$MIRRTEXT
 70
     1
  9
$DRAGMODE
 70
     2
  9
$LTSCALE
 40
7.0
  9
$OSMODE
 70
     0
  9
$ATTMODE
 70
     1
  9
$TEXTSIZE
 40
3.5
  9
$TRACEWID
 40
0.05
  9
$TEXTSTYLE
  7
STANDARD
  9
$CLAYER
  8
L1
  9
$CELTYPE
  6
BYLAYER
  9
$CECOLOR
 62
   256
  9
$DIMSCALE
 40
1.0
  9
$DIMASZ
 40
3.5
  9
$DIMEXO
 40
0.0
  9
$DIMDLI
 40
10.0
  9
$DIMRND
 40
0.0
  9
$DIMDLE
 40
0.0
  9
$DIMEXE
 40
2.0
  9
$DIMTP
 40
0.0
  9
$DIMTM
 40
0.0
  9
$DIMTXT
 40
3.5
  9
$DIMCEN
 40
2.5
  9
$DIMTSZ
 40
0.0
  9
$DIMTOL
 70
     0
  9
$DIMLIM
 70
     0
  9
$DIMTIH
 70
     0
  9
$DIMTOH
 70
     0
  9
$DIMSE1
 70
     0
  9
$DIMSE2
 70
     0
  9
$DIMTAD
 70
     1
  9
$DIMZIN
 70
     8
  9
$DIMBLK
  1

  9
$DIMASO
 70
     1
  9
$DIMSHO
 70
     1
  9
$DIMPOST
  1

  9
$DIMAPOST
  1

  9
$DIMALT
 70
     0
  9
$DIMALTD
 70
     2
  9
$DIMALTF
 40
25.4
  9
$DIMLFAC
 40
1.0
  9
$DIMTOFL
 70
     1
  9
$DIMTVP
 40
0.0
  9
$DIMTIX
 70
     0
  9
$DIMSOXD
 70
     0
  9
$DIMSAH
 70
     0
  9
$DIMBLK1
  1

  9
$DIMBLK2
  1

  9
$DIMSTYLE
  2
*UNNAMED
  9
$DIMCLRD
 70
   256
  9
$DIMCLRE
 70
   256
  9
$DIMCLRT
 70
     3
  9
$DIMTFAC
 40
1.0
  9
$DIMGAP
 40
2.0
  9
$LUNITS
 70
     2
  9
$LUPREC
 70
     2
  9
$SKETCHINC
 40
1.0
  9
$FILLETRAD
 40
0.0
  9
$AUNITS
 70
     0
  9
$AUPREC
 70
     2
  9
$MENU
  1
CAESAR
  9
$ELEVATION
 40
0.0
  9
$PELEVATION
 40
0.0
  9
$THICKNESS
 40
0.0
  9
$LIMCHECK
 70
     0
  9
$BLIPMODE
 70
     1
  9
$CHAMFERA
 40
5.0
  9
$CHAMFERB
 40
5.0
  9
$SKPOLY
 70
     0
  9
$TDCREATE
 40
2449682.499001851
  9
$TDUPDATE
 40
2449682.499001851
  9
$TDINDWG
 40
0.0000000000
  9
$TDUSRTIMER
 40
0.0000000000
  9
$USRTIMER
 70
     1
  9
$ANGBASE
 50
0.0
  9
$ANGDIR
 70
     0
  9
$PDMODE
 70
     0
  9
$PDSIZE
 40
0.0
  9
$PLINEWID
 40
0.0
  9
$COORDS
 70
     2
  9
$SPLFRAME
 70
     0
  9
$SPLINETYPE
 70
     6
  9
$SPLINESEGS
 70
     8
  9
$ATTDIA
 70
     0
  9
$ATTREQ
 70
     1
  9
$HANDLING
 70
     1
  9
$HANDSEED
  5
1F393
  9
$SURFTAB1
 70
     6
  9
$SURFTAB2
 70
     6
  9
$SURFTYPE
 70
     6
  9
$SURFU
 70
     6
  9
$SURFV
 70
     6
  9
$UCSNAME
  2

  9
$UCSORG
 10
0.0
 20
0.0
 30
0.0
  9
$UCSXDIR
 10
1.0
 20
0.0
 30
0.0
  9
$UCSYDIR
 10
0.0
 20
1.0
 30
0.0
  9
$PUCSNAME
  2

  9
$PUCSORG
 10
0.0
 20
0.0
 30
0.0
  9
$PUCSXDIR
 10
1.0
 20
0.0
 30
0.0
  9
$PUCSYDIR
 10
0.0
 20
1.0
 30
0.0
  9
$USERI1
 70
     0
  9
$USERI2
 70
     0
  9
$USERI3
 70
     0
  9
$USERI4
 70
     0
  9
$USERI5
 70
     0
  9
$USERR1
 40
1.0
  9
$USERR2
 40
0.0
  9
$USERR3
 40
3.5
  9
$USERR4
 40
0.0
  9
$USERR5
 40
0.0
  9
$WORLDVIEW
 70
     1
  9
$SHADEDGE
 70
     3
  9
$SHADEDIF
 70
    70
  9
$TILEMODE
 70
     1
  9
$MAXACTVP
 70
    16
  9
$PINSBASE
 10
0.0
 20
0.0
 30
0.0
  9
$PLIMCHECK
 70
     0
  9
$PEXTMIN
 10
1.000000E+20
 20
1.000000E+20
 30
1.000000E+20
  9
$PEXTMAX
 10
-1.000000E+20
 20
-1.000000E+20
 30
-1.000000E+20
  9
$PLIMMIN
 10
0.0
 20
0.0
  9
$PLIMMAX
 10
420.0
 20
297.0
  9
$UNITMODE
 70
     0
  9
$VISRETAIN
 70
     0
  9
$PLINEGEN
 70
     0
  9
$PSLTSCALE
 70
     0
  9
$TREEDEPTH
 70
  3020
  9
$DWGCODEPAGE
  3
dos850
  0
ENDSEC
  0
SECTION
  2
TABLES
  0
TABLE
  2
VPORT
 70
     2
  0
VPORT
  2
*ACTIVE
 70
     0
 10
0.0
 20
0.0
 11
1.0
 21
1.0
 12
287.564723
 22
225.231556
 13
0.0
 23
0.0
 14
1.0
 24
1.0
 15
10.0
 25
10.0
 16
0.0
 26
0.0
 36
1.0
 17
0.0
 27
0.0
 37
0.0
 40
456.463112
 41
1.273114
 42
50.0
 43
0.0
 44
0.0
 50
0.0
 51
0.0
 71
     0
 72
  1000
 73
     1
 74
     1
 75
     1
 76
     0
 77
     0
 78
     0
  0
ENDTAB
  0
TABLE
  2
LTYPE
 70
    10
  0
LTYPE
  2
CONTINUOUS
 70
    64
  3
Solid line
 72
    65
 73
     0
 40
0.0
  0
LTYPE
  2
BORDER
 70
     0
  3
__ __ . __ __ . __ __ . __ __ . __ __ . __ __ .
 72
    65
 73
     6
 40
1.75
 49
0.5
 49
-0.25
 49
0.5
 49
-0.25
 49
0.0
 49
-0.25
  0
LTYPE
  2
CENTER
 70
    64
  3
____ _ ____ _ ____ _ ____ _ ____ _ ____ _ ____ 
 72
    65
 73
     4
 40
2.0
 49
1.25
 49
-0.25
 49
0.25
 49
-0.25
  0
LTYPE
  2
DASHDOT
 70
     0
  3
__ . __ . __ . __ . __ . __ . __ . __ . __ . __
 72
    65
 73
     4
 40
1.0
 49
0.5
 49
-0.25
 49
0.0
 49
-0.25
  0
LTYPE
  2
DASHED
 70
    64
  3
__ __ __ __ __ __ __ __ __ __ __ __ __ __ __ __
 72
    65
 73
     2
 40
0.75
 49
0.5
 49
-0.25
  0
LTYPE
  2
DIVIDE
 70
     0
  3
____ . . ____ . . ____ . . ____ . . ____ . . __
 72
    65
 73
     6
 40
1.25
 49
0.5
 49
-0.25
 49
0.0
 49
-0.25
 49
0.0
 49
-0.25
  0
LTYPE
  2
DOT
 70
     0
  3
. . . . . . . . . . . . . . . . . . . . . . . .
 72
    65
 73
     2
 40
0.25
 49
0.0
 49
-0.25
  0
LTYPE
  2
HIDDEN
 70
    64
  3
__ __ __ __ __ __ __ __ __ __ __ __ __ __ __ __
 72
    65
 73
     2
 40
0.375
 49
0.25
 49
-0.125
  0
LTYPE
  2
PHANTOM
 70
    64
  3
______  __  __  ______  __  __  ______  __  __ 
 72
    65
 73
     6
 40
2.5
 49
1.25
 49
-0.25
 49
0.25
 49
-0.25
 49
0.25
 49
-0.25
  0
LTYPE
  2
DOTX2
 70
    64
  3
.  .  .  .  .  .  .  .  .  .  .  .  .  .  .  . 
 72
    65
 73
     2
 40
0.5
 49
0.0
 49
-0.5
  0
ENDTAB
  0
TABLE
  2
LAYER
 70
    74
  0
LAYER
  2
0
 70
    64
 62
     7
  6
CONTINUOUS
  0
LAYER
  2
L1
 70
     0
 62
     3
  6
CONTINUOUS
  0
LAYER
  2
L2
 70
     0
 62
     1
  6
CONTINUOUS
  0
LAYER
  2
L3
 70
     0
 62
     7
  6
DASHED
  0
LAYER
  2
L4
 70
     0
 62
     1
  6
DASHED
  0
LAYER
  2
L5
 70
     0
 62
     6
  6
CENTER
  0
LAYER
  2
L6
 70
     0
 62
     1
  6
CENTER
  0
LAYER
  2
L7
 70
     0
 62
     1
  6
PHANTOM
  0
LAYER
  2
VPORT
 70
     0
 62
     7
  6
CONTINUOUS
  0
LAYER
  2
L8
 70
     0
 62
     1
  6
CONTINUOUS
  0
LAYER
  2
L20
 70
     0
 62
     3
  6
CONTINUOUS
  0
LAYER
  2
L21
 70
     0
 62
     1
  6
CONTINUOUS
  0
LAYER
  2
L22
 70
     0
 62
     1
  6
CONTINUOUS
  0
LAYER
  2
L23
 70
     0
 62
     1
  6
CONTINUOUS
  0
LAYER
  2
L30
 70
     0
 62
     3
  6
CONTINUOUS
  0
LAYER
  2
L31
 70
     0
 62
     1
  6
CONTINUOUS
  0
LAYER
  2
L32
 70
     0
 62
     3
  6
CONTINUOUS
  0
LAYER
  2
L33
 70
     0
 62
     1
  6
CONTINUOUS
  0
LAYER
  2
L34
 70
     0
 62
     3
  6
CONTINUOUS
  0
LAYER
  2
L35
 70
     0
 62
     1
  6
CONTINUOUS
  0
LAYER
  2
L40
 70
     0
 62
     7
  6
CONTINUOUS
  0
LAYER
  2
L41
 70
     0
 62
     1
  6
CONTINUOUS
  0
LAYER
  2
L42
 70
     0
 62
     1
  6
CONTINUOUS
  0
LAYER
  2
L43
 70
     0
 62
     7
  6
CONTINUOUS
  0
LAYER
  2
L44
 70
     0
 62
     1
  6
CONTINUOUS
  0
LAYER
  2
L45
 70
     0
 62
     1
  6
CONTINUOUS
  0
LAYER
  2
L46
 70
     0
 62
     3
  6
CONTINUOUS
  0
LAYER
  2
L50
 70
     0
 62
     7
  6
CONTINUOUS
  0
LAYER
  2
L51
 70
     0
 62
     1
  6
CONTINUOUS
  0
LAYER
  2
L52
 70
     0
 62
     7
  6
CONTINUOUS
  0
LAYER
  2
L53
 70
     0
 62
     1
  6
CONTINUOUS
  0
LAYER
  2
L54
 70
     0
 62
     3
  6
CONTINUOUS
  0
LAYER
  2
L55
 70
     0
 62
     3
  6
CONTINUOUS
  0
LAYER
  2
L56
 70
     0
 62
     3
  6
CONTINUOUS
  0
LAYER
  2
L57
 70
     0
 62
     1
  6
CONTINUOUS
  0
LAYER
  2
L9
 70
     0
 62
     7
  6
HIDDEN
  0
LAYER
  2
L15
 70
     0
 62
     2
  6
CONTINUOUS
  0
LAYER
  2
L16
 70
     0
 62
     5
  6
DOTX2
  0
LAYER
  2
L24
 70
     0
 62
     1
  6
CONTINUOUS
  0
LAYER
  2
A1
 70
     0
 62
     7
  6
CONTINUOUS
  0
LAYER
  2
RA1
 70
     0
 62
     1
  6
CONTINUOUS
  0
LAYER
  2
TITEL
 70
     0
 62
     7
  6
CONTINUOUS
  0
LAYER
  2
DEFPOINTS
 70
     0
 62
     7
  6
CONTINUOUS
  0
LAYER
  2
1
 70
     0
 62
     7
  6
CONTINUOUS
  0
LAYER
  2
11
 70
    64
 62
     7
  6
CONTINUOUS
  0
LAYER
  2
12
 70
     0
 62
     1
  6
CONTINUOUS
  0
LAYER
  2
13
 70
    64
 62
     1
  6
CENTER
  0
LAYER
  2
14
 70
    64
 62
     1
  6
DASHED
  0
LAYER
  2
15
 70
     0
 62
     2
  6
DASHED
  0
LAYER
  2
21
 70
    64
 62
     7
  6
CONTINUOUS
  0
LAYER
  2
22
 70
     0
 62
     1
  6
CONTINUOUS
  0
LAYER
  2
23
 70
    64
 62
     1
  6
CENTER
  0
LAYER
  2
24
 70
    64
 62
     1
  6
DASHED
  0
LAYER
  2
25
 70
     0
 62
     2
  6
DASHED
  0
LAYER
  2
31
 70
    64
 62
     7
  6
CONTINUOUS
  0
LAYER
  2
32
 70
     0
 62
     1
  6
CONTINUOUS
  0
LAYER
  2
33
 70
    64
 62
     1
  6
CENTER
  0
LAYER
  2
34
 70
    64
 62
     1
  6
DASHED
  0
LAYER
  2
35
 70
     0
 62
     2
  6
DASHED
  0
LAYER
  2
41
 70
    64
 62
     7
  6
CONTINUOUS
  0
LAYER
  2
42
 70
     0
 62
     1
  6
CONTINUOUS
  0
LAYER
  2
43
 70
    64
 62
     1
  6
CENTER
  0
LAYER
  2
44
 70
    64
 62
     1
  6
DASHED
  0
LAYER
  2
45
 70
     0
 62
     2
  6
DASHED
  0
LAYER
  2
51
 70
    64
 62
     7
  6
CONTINUOUS
  0
LAYER
  2
52
 70
    64
 62
     1
  6
CONTINUOUS
  0
LAYER
  2
53
 70
    64
 62
     1
  6
CENTER
  0
LAYER
  2
54
 70
     0
 62
     1
  6
DASHED
  0
LAYER
  2
55
 70
     0
 62
     2
  6
DASHED
  0
LAYER
  2
61
 70
    64
 62
     7
  6
CONTINUOUS
  0
LAYER
  2
62
 70
     0
 62
     1
  6
CONTINUOUS
  0
LAYER
  2
63
 70
    64
 62
     1
  6
CENTER
  0
LAYER
  2
64
 70
     0
 62
     1
  6
DASHED
  0
LAYER
  2
65
 70
     0
 62
     2
  6
DASHED
  0
ENDTAB
  0
TABLE
  2
STYLE
 70
     4
  0
STYLE
  2
STANDARD
 70
     0
 40
0.0
 41
1.0
 50
0.0
 71
     0
 42
3.5
  3
CAEISO
  4

  0
STYLE
  2
SIMPLEX
 70
     0
 40
0.0
 41
1.0
 50
0.0
 71
     0
 42
20.0
  3
SIMPLEX.SHX
  4

  0
STYLE
  2
COMPLEX
 70
     0
 40
5.0
 41
1.0
 50
0.0
 71
     0
 42
5.0
  3
COMPLEX
  4

  0
STYLE
  2
CAEISO
 70
     0
 40
0.0
 41
1.0
 50
0.0
 71
     0
 42
1.0
  3
CAEISO
  4

  0
ENDTAB
  0
TABLE
  2
VIEW
 70
     0
  0
ENDTAB
  0
TABLE
  2
UCS
 70
     0
  0
ENDTAB
  0
TABLE
  2
APPID
 70
     1
  0
APPID
  2
ACAD
 70
    64
  0
ENDTAB
  0
TABLE
  2
DIMSTYLE
 70
     6
  0
DIMSTYLE
  2
ACADUS
 70
     0
  3

  4

  5

  6

  7

 40
1.0
 41
0.18
 42
0.0625
 43
0.38
 44
0.18
 45
0.0
 46
0.0
 47
0.0
 48
0.0
140
0.18
141
0.09
142
0.0
143
25.4
144
1.0
145
0.0
146
1.0
147
0.09
 71
     0
 72
     0
 73
     1
 74
     1
 75
     0
 76
     0
 77
     0
 78
     0
170
     0
171
     2
172
     0
173
     0
174
     0
175
     0
176
     0
177
     0
178
     0
  0
DIMSTYLE
  2
NORDIC
 70
     0
  3

  4

  5

  6

  7

 40
1.0
 41
3.5
 42
1.0
 43
10.0
 44
2.0
 45
0.0
 46
0.0
 47
0.0
 48
0.0
140
3.5
141
2.5
142
0.0
143
25.4
144
1.0
145
0.0
146
1.0
147
2.0
 71
     0
 72
     0
 73
     0
 74
     0
 75
     0
 76
     0
 77
     1
 78
     8
170
     0
171
     2
172
     1
173
     0
174
     0
175
     0
176
     0
177
     0
178
     0
  0
DIMSTYLE
  2
RADIAL
 70
     0
  3

  4

  5

  6

  7

 40
1.0
 41
3.5
 42
1.0
 43
10.0
 44
2.0
 45
0.0
 46
0.0
 47
0.0
 48
0.0
140
3.5
141
2.5
142
0.0
143
25.4
144
1.0
145
0.0
146
1.0
147
2.0
 71
     0
 72
     0
 73
     0
 74
     1
 75
     0
 76
     0
 77
     1
 78
     8
170
     0
171
     2
172
     0
173
     0
174
     0
175
     0
176
     0
177
     0
178
     0
  0
DIMSTYLE
  2
NORTOL
 70
     0
  3

  4

  5

  6

  7

 40
1.0
 41
3.5
 42
1.0
 43
10.0
 44
2.0
 45
0.0
 46
0.0
 47
0.2
 48
0.1
140
3.5
141
2.5
142
0.0
143
25.4
144
1.0
145
0.7
146
0.71
147
2.0
 71
     1
 72
     0
 73
     0
 74
     0
 75
     0
 76
     0
 77
     0
 78
     8
170
     0
171
     2
172
     1
173
     0
174
     0
175
     0
176
     0
177
     0
178
     0
  0
DIMSTYLE
  2
RADTOL
 70
     0
  3

  4

  5

  6

  7

 40
1.0
 41
3.5
 42
1.0
 43
10.0
 44
2.0
 45
0.0
 46
0.0
 47
0.2
 48
0.1
140
3.5
141
2.5
142
0.0
143
25.4
144
1.0
145
0.7
146
0.7
147
2.0
 71
     1
 72
     0
 73
     0
 74
     1
 75
     0
 76
     0
 77
     0
 78
     8
170
     0
171
     2
172
     0
173
     0
174
     0
175
     0
176
     0
177
     0
178
     0
  0
DIMSTYLE
  2
HANSU
 70
     0
  3

  4

  5

  6

  7

 40
1.0
 41
3.5
 42
0.0
 43
10.0
 44
2.0
 45
0.0
 46
0.0
 47
0.0
 48
0.0
140
3.5
141
2.5
142
0.0
143
25.4
144
0.8
145
0.0
146
1.0
147
2.0
 71
     0
 72
     0
 73
     0
 74
     0
 75
     0
 76
     0
 77
     1
 78
     8
170
     0
171
     2
172
     1
173
     0
174
     0
175
     0
176
   256
177
   256
178
     3
  0
ENDTAB
  0
ENDSEC
  0
SECTION
  2
BLOCKS
  0
BLOCK
  8
0
  5
2329
  2
AME_NIL
 70
     0
 10
0.0
 20
0.0
 30
0.0
  1
AME_NIL
  3
AME_NIL
  0
ENDBLK
  8
0
  5
232A
  0
BLOCK
  8
0
  5
232C
  2
AME_SOL
 70
     0
 10
0.0
 20
0.0
 30
0.0
  1
AME_SOL
  3
AME_SOL
  0
ENDBLK
  8
0
  5
232D
  0
BLOCK
  8
0
  5
233F
  2
SOLAXES
 70
     0
 10
0.0
 20
0.0
 30
0.0
  1
SOLAXES
  3
SOLAXES
  0
LINE
  8
0
 62
     0
  5
2340
 10
0.0
 20
0.0
 30
0.0
 11
63.851158
 21
0.0
 31
0.0
  0
LINE
  8
0
 62
     0
  5
2341
 10
0.0
 20
0.0
 30
0.0
 11
0.0
 21
63.851158
 31
0.0
  0
LINE
  8
0
 62
     0
  5
2342
 10
0.0
 20
0.0
 30
0.0
 11
0.0
 21
0.0
 31
63.851158
  0
CIRCLE
  8
0
 62
     0
  5
2343
 10
0.0
 20
0.0
 30
57.466042
 40
3.192558
210
1.0
220
0.0
230
0.0
  0
LINE
  8
0
 62
     0
  5
2344
 10
57.466042
 20
3.192558
 30
0.0
 11
63.851158
 21
0.0
 31
0.0
  0
LINE
  8
0
 62
     0
  5
2345
 10
57.466042
 20
0.0
 30
3.192558
 11
63.851158
 21
0.0
 31
0.0
  0
LINE
  8
0
 62
     0
  5
2346
 10
57.466042
 20
-3.192558
 30
0.0
 11
63.851158
 21
0.0
 31
0.0
  0
LINE
  8
0
 62
     0
  5
2347
 10
57.466042
 20
0.0
 30
-3.192558
 11
63.851158
 21
0.0
 31
0.0
  0
CIRCLE
  8
0
 62
     0
  5
2348
 10
0.0
 20
0.0
 30
57.466042
 40
3.192558
210
0.0
220
1.0
230
0.0
  0
LINE
  8
0
 62
     0
  5
2349
 10
3.192558
 20
57.466042
 30
0.0
 11
0.0
 21
63.851158
 31
0.0
  0
LINE
  8
0
 62
     0
  5
234A
 10
0.0
 20
57.466042
 30
3.192558
 11
0.0
 21
63.851158
 31
0.0
  0
LINE
  8
0
 62
     0
  5
234B
 10
-3.192558
 20
57.466042
 30
0.0
 11
0.0
 21
63.851158
 31
0.0
  0
LINE
  8
0
 62
     0
  5
234C
 10
0.0
 20
57.466042
 30
-3.192558
 11
0.0
 21
63.851158
 31
0.0
  0
CIRCLE
  8
0
 62
     0
  5
234D
 10
0.0
 20
0.0
 30
51.080927
 40
3.192558
210
0.0
220
1.0
230
0.0
  0
LINE
  8
0
 62
     0
  5
234E
 10
3.192558
 20
51.080927
 30
0.0
 11
0.0
 21
57.466042
 31
0.0
  0
LINE
  8
0
 62
     0
  5
234F
 10
0.0
 20
51.080927
 30
3.192558
 11
0.0
 21
57.466042
 31
0.0
  0
LINE
  8
0
 62
     0
  5
2350
 10
-3.192558
 20
51.080927
 30
0.0
 11
0.0
 21
57.466042
 31
0.0
  0
LINE
  8
0
 62
     0
  5
2351
 10
0.0
 20
51.080927
 30
-3.192558
 11
0.0
 21
57.466042
 31
0.0
  0
CIRCLE
  8
0
 62
     0
  5
2352
 10
0.0
 20
0.0
 30
57.466042
 40
3.192558
  0
LINE
  8
0
 62
     0
  5
2353
 10
3.192558
 20
0.0
 30
57.466042
 11
0.0
 21
0.0
 31
63.851158
  0
LINE
  8
0
 62
     0
  5
2354
 10
0.0
 20
3.192558
 30
57.466042
 11
0.0
 21
0.0
 31
63.851158
  0
LINE
  8
0
 62
     0
  5
2355
 10
-3.192558
 20
0.0
 30
57.466042
 11
0.0
 21
0.0
 31
63.851158
  0
LINE
  8
0
 62
     0
  5
2356
 10
0.0
 20
-3.192558
 30
57.466042
 11
0.0
 21
0.0
 31
63.851158
  0
CIRCLE
  8
0
 62
     0
  5
2357
 10
0.0
 20
0.0
 30
51.080927
 40
3.192558
  0
LINE
  8
0
 62
     0
  5
2358
 10
3.192558
 20
0.0
 30
51.080927
 11
0.0
 21
0.0
 31
57.466042
  0
LINE
  8
0
 62
     0
  5
2359
 10
0.0
 20
3.192558
 30
51.080927
 11
0.0
 21
0.0
 31
57.466042
  0
LINE
  8
0
 62
     0
  5
235A
 10
-3.192558
 20
0.0
 30
51.080927
 11
0.0
 21
0.0
 31
57.466042
  0
LINE
  8
0
 62
     0
  5
235B
 10
0.0
 20
-3.192558
 30
51.080927
 11
0.0
 21
0.0
 31
57.466042
  0
CIRCLE
  8
0
 62
     0
  5
235C
 10
0.0
 20
0.0
 30
44.695811
 40
3.192558
  0
LINE
  8
0
 62
     0
  5
235D
 10
3.192558
 20
0.0
 30
44.695811
 11
0.0
 21
0.0
 31
51.080927
  0
LINE
  8
0
 62
     0
  5
235E
 10
0.0
 20
3.192558
 30
44.695811
 11
0.0
 21
0.0
 31
51.080927
  0
LINE
  8
0
 62
     0
  5
235F
 10
-3.192558
 20
0.0
 30
44.695811
 11
0.0
 21
0.0
 31
51.080927
  0
LINE
  8
0
 62
     0
  5
2360
 10
0.0
 20
-3.192558
 30
44.695811
 11
0.0
 21
0.0
 31
51.080927
  0
ENDBLK
  8
0
  5
2361
  0
BLOCK
  8
0
  5
2460
  2
AME_MAT
 70
     0
 10
0.0
 20
0.0
 30
0.0
  1
AME_MAT
  3
AME_MAT
  0
ENDBLK
  8
0
  5
2461
  0
BLOCK
  8
0
  5
2465
  2
PICH20C
 70
    64
 10
0.0
 20
0.0
 30
0.0
  3
PICH20C
  0
LINE
  8
52
  5
4C10
 10
-149.6
 20
74.880809
 30
0.0
 11
-84.0
 21
74.880809
 31
0.0
  0
LINE
  8
52
  5
4C11
 10
-149.6
 20
77.680809
 30
0.0
 11
-84.0
 21
77.680809
 31
0.0
  0
LINE
  8
51
  5
4C12
 10
-149.7
 20
78.680809
 30
0.0
 11
-84.0
 21
78.680809
 31
0.0
  0
LINE
  8
51
  5
4C13
 10
-160.0
 20
73.680809
 30
0.0
 11
-84.0
 21
73.680809
 31
0.0
  0
LINE
  8
52
  5
4C14
 10
-167.8
 20
93.080809
 30
0.0
 11
-167.8
 21
143.680809
 31
0.0
  0
LINE
  8
52
  5
4C15
 10
-165.0
 20
93.080809
 30
0.0
 11
-165.0
 21
143.680809
 31
0.0
  0
LINE
  8
51
  5
4C16
 10
-164.0
 20
92.980809
 30
0.0
 11
-164.0
 21
143.680809
 31
0.0
  0
LINE
  8
51
  5
4C17
 10
-169.0
 20
82.680809
 30
0.0
 11
-169.0
 21
143.680809
 31
0.0
  0
ARC
  8
51
  5
4C19
 10
-160.0
 20
82.680809
 30
0.0
 40
9.0
 50
180.0
 51
270.0
  0
ARC
  8
51
  5
4C1A
 10
-160.0
 20
82.680809
 30
0.0
 40
9.8
 50
0.0
 51
90.0
  0
ARC
  8
52
  5
4C1B
 10
-160.0
 20
82.680809
 30
0.0
 40
8.9
 50
0.0
 51
90.0
  0
ARC
  8
52
  5
4C1C
 10
-160.0
 20
82.680809
 30
0.0
 40
6.1
 50
0.0
 51
90.0
  0
ARC
  8
52
  5
4C1D
 10
-160.0
 20
82.680809
 30
0.0
 40
5.15
 50
314.867683
 51
45.132317
  0
ARC
  8
52
  5
4C1E
 10
-160.0
 20
82.680809
 30
0.0
 40
5.15
 50
134.867683
 51
225.132317
  0
LINE
  8
52
  5
4C1F
 10
-165.4
 20
82.680809
 30
0.0
 11
-165.4
 21
87.580809
 31
0.0
  0
ARC
  8
52
  5
4C20
 10
-160.0
 20
82.680809
 30
0.0
 40
5.4
 50
0.0
 51
90.0
  0
LINE
  8
52
  5
4C22
 10
-156.36682
 20
79.030809
 30
0.0
 11
-163.63318
 21
79.030809
 31
0.0
  0
LINE
  8
52
  5
4C23
 10
-155.1
 20
77.280809
 30
0.0
 11
-160.0
 21
77.280809
 31
0.0
  0
ARC
  8
52
  5
4C24
 10
-149.6
 20
79.180809
 30
0.0
 40
4.3
 50
180.0
 51
270.0
  0
LINE
  8
52
  5
4C25
 10
-153.9
 20
82.680809
 30
0.0
 11
-153.9
 21
79.180809
 31
0.0
  0
ARC
  8
52
  5
4C26
 10
-149.6
 20
79.180809
 30
0.0
 40
1.5
 50
180.0
 51
270.0
  0
LINE
  8
52
  5
4C27
 10
-151.1
 20
82.680809
 30
0.0
 11
-151.1
 21
79.180809
 31
0.0
  0
ARC
  8
51
  5
4C28
 10
-149.7
 20
79.180809
 30
0.0
 40
0.5
 50
180.0
 51
270.0
  0
LINE
  8
51
  5
4C29
 10
-150.2
 20
82.680809
 30
0.0
 11
-150.2
 21
79.180809
 31
0.0
  0
ARC
  8
52
  5
4C2A
 10
-155.1
 20
77.780809
 30
0.0
 40
0.5
 50
270.0
 51
0.0
  0
LINE
  8
52
  5
4C2B
 10
-154.6
 20
77.780809
 30
0.0
 11
-154.6
 21
82.680809
 31
0.0
  0
ARC
  8
52
  5
4C2C
 10
-160.0
 20
82.680809
 30
0.0
 40
5.4
 50
180.0
 51
270.0
  0
LINE
  8
52
  5
4C2D
 10
-156.36682
 20
86.330809
 30
0.0
 11
-163.63318
 21
86.330809
 31
0.0
  0
ARC
  8
52
  5
4C2E
 10
-163.5
 20
93.080809
 30
0.0
 40
4.3
 50
180.0
 51
270.0
  0
ARC
  8
52
  5
4C2F
 10
-163.5
 20
93.080809
 30
0.0
 40
1.5
 50
180.0
 51
270.0
  0
LINE
  8
52
  5
4C30
 10
-160.0
 20
88.780809
 30
0.0
 11
-163.5
 21
88.780809
 31
0.0
  0
LINE
  8
52
  5
4C31
 10
-160.0
 20
91.580809
 30
0.0
 11
-163.5
 21
91.580809
 31
0.0
  0
ARC
  8
52
  5
4C32
 10
-164.9
 20
87.580809
 30
0.0
 40
0.5
 50
90.0
 51
180.0
  0
LINE
  8
52
  5
4C33
 10
-160.0
 20
88.080809
 30
0.0
 11
-164.9
 21
88.080809
 31
0.0
  0
ARC
  8
51
  5
4C34
 10
-163.5
 20
92.980809
 30
0.0
 40
0.5
 50
180.0
 51
270.0
  0
LINE
  8
51
  5
4C35
 10
-160.0
 20
92.480809
 30
0.0
 11
-163.5
 21
92.480809
 31
0.0
  0
LINE
  8
53
  6
DASHDOT
  5
4C36
 10
-84.0
 20
69.680809
 30
0.0
 11
-84.0
 21
143.680809
 31
0.0
  0
LINE
  8
53
  6
DASHDOT
  5
4C37
 10
-84.0
 20
143.680809
 30
0.0
 11
4.0
 21
143.680809
 31
0.0
  0
LINE
  8
52
  5
4C38
 10
-0.2
 20
93.080809
 30
0.0
 11
-0.2
 21
143.680809
 31
0.0
  0
LINE
  8
52
  5
4C39
 10
-3.0
 20
93.080809
 30
0.0
 11
-3.0
 21
143.680809
 31
0.0
  0
LINE
  8
51
  5
4C3A
 10
-4.0
 20
92.980809
 30
0.0
 11
-4.0
 21
143.680809
 31
0.0
  0
LINE
  8
51
  5
4C3B
 10
1.0
 20
82.680809
 30
0.0
 11
1.0
 21
143.680809
 31
0.0
  0
LINE
  8
51
  5
4C3C
 10
-8.0
 20
73.680809
 30
0.0
 11
-84.0
 21
73.680809
 31
0.0
  0
LINE
  8
52
  5
4C3D
 10
-11.63318
 20
86.330809
 30
0.0
 11
-4.36682
 21
86.330809
 31
0.0
  0
LINE
  8
52
  5
4C3E
 10
-12.9
 20
77.280809
 30
0.0
 11
-8.0
 21
77.280809
 31
0.0
  0
LINE
  8
52
  5
4C3F
 10
-11.63318
 20
79.030809
 30
0.0
 11
-4.36682
 21
79.030809
 31
0.0
  0
ARC
  8
52
  5
4C40
 10
-8.0
 20
82.680809
 30
0.0
 40
5.4
 50
90.0
 51
180.0
  0
ARC
  8
52
  5
4C41
 10
-8.0
 20
82.680809
 30
0.0
 40
6.1
 50
90.0
 51
180.0
  0
ARC
  8
52
  5
4C42
 10
-8.0
 20
82.680809
 30
0.0
 40
8.9
 50
90.0
 51
180.0
  0
ARC
  8
51
  5
4C43
 10
-8.0
 20
82.680809
 30
0.0
 40
9.8
 50
90.0
 51
180.0
  0
LINE
  8
52
  5
4C45
 10
-18.4
 20
74.880809
 30
0.0
 11
-84.0
 21
74.880809
 31
0.0
  0
LINE
  8
52
  5
4C46
 10
-18.4
 20
77.680809
 30
0.0
 11
-84.0
 21
77.680809
 31
0.0
  0
LINE
  8
51
  5
4C47
 10
-18.3
 20
78.680809
 30
0.0
 11
-84.0
 21
78.680809
 31
0.0
  0
ARC
  8
52
  5
4C48
 10
-8.0
 20
82.680809
 30
0.0
 40
5.15
 50
134.867683
 51
225.132317
  0
ARC
  8
52
  5
4C49
 10
-18.4
 20
79.180809
 30
0.0
 40
4.3
 50
270.0
 51
0.0
  0
LINE
  8
52
  5
4C4A
 10
-13.4
 20
77.780809
 30
0.0
 11
-13.4
 21
82.680809
 31
0.0
  0
ARC
  8
52
  5
4C4B
 10
-12.9
 20
77.780809
 30
0.0
 40
0.5
 50
180.0
 51
270.0
  0
LINE
  8
51
  5
4C4C
 10
-17.8
 20
82.680809
 30
0.0
 11
-17.8
 21
79.180809
 31
0.0
  0
ARC
  8
51
  5
4C4D
 10
-18.3
 20
79.180809
 30
0.0
 40
0.5
 50
270.0
 51
0.0
  0
LINE
  8
52
  5
4C4E
 10
-16.9
 20
82.680809
 30
0.0
 11
-16.9
 21
79.180809
 31
0.0
  0
ARC
  8
52
  5
4C4F
 10
-18.4
 20
79.180809
 30
0.0
 40
1.5
 50
270.0
 51
0.0
  0
LINE
  8
52
  5
4C50
 10
-14.1
 20
82.680809
 30
0.0
 11
-14.1
 21
79.180809
 31
0.0
  0
LINE
  8
52
  5
4C52
 10
-2.6
 20
82.680809
 30
0.0
 11
-2.6
 21
87.580809
 31
0.0
  0
ARC
  8
52
  5
4C53
 10
-8.0
 20
82.680809
 30
0.0
 40
5.15
 50
314.867683
 51
45.132317
  0
ARC
  8
51
  5
4C54
 10
-8.0
 20
82.680809
 30
0.0
 40
9.0
 50
270.0
 51
0.0
  0
ARC
  8
52
  5
4C55
 10
-8.0
 20
82.680809
 30
0.0
 40
5.4
 50
270.0
 51
0.0
  0
ARC
  8
52
  5
4C56
 10
-4.5
 20
93.080809
 30
0.0
 40
1.5
 50
270.0
 51
0.0
  0
ARC
  8
52
  5
4C57
 10
-4.5
 20
93.080809
 30
0.0
 40
4.3
 50
270.0
 51
0.0
  0
LINE
  8
52
  5
4C58
 10
-8.0
 20
88.080809
 30
0.0
 11
-3.1
 21
88.080809
 31
0.0
  0
ARC
  8
52
  5
4C59
 10
-3.1
 20
87.580809
 30
0.0
 40
0.5
 50
360.0
 51
90.0
  0
LINE
  8
52
  5
4C5A
 10
-8.0
 20
88.780809
 30
0.0
 11
-4.5
 21
88.780809
 31
0.0
  0
LINE
  8
51
  5
4C5B
 10
-8.0
 20
92.480809
 30
0.0
 11
-4.5
 21
92.480809
 31
0.0
  0
ARC
  8
51
  5
4C5C
 10
-4.5
 20
92.980809
 30
0.0
 40
0.5
 50
270.0
 51
0.0
  0
LINE
  8
52
  5
4C5D
 10
-8.0
 20
91.580809
 30
0.0
 11
-4.5
 21
91.580809
 31
0.0
  0
LINE
  8
53
  6
DASHDOT
  5
4C5E
 10
-84.0
 20
143.680809
 30
0.0
 11
-172.0
 21
143.680809
 31
0.0
  0
LINE
  8
51
  5
4C5F
 10
1.0
 20
204.680809
 30
0.0
 11
1.0
 21
143.680809
 31
0.0
  0
LINE
  8
51
  5
4C60
 10
-4.0
 20
194.380809
 30
0.0
 11
-4.0
 21
143.680809
 31
0.0
  0
LINE
  8
52
  5
4C61
 10
-3.0
 20
194.280809
 30
0.0
 11
-3.0
 21
143.680809
 31
0.0
  0
LINE
  8
52
  5
4C62
 10
-0.2
 20
194.280809
 30
0.0
 11
-0.2
 21
143.680809
 31
0.0
  0
LINE
  8
52
  5
4C63
 10
-167.8
 20
194.280809
 30
0.0
 11
-167.8
 21
143.680809
 31
0.0
  0
LINE
  8
52
  5
4C64
 10
-165.0
 20
194.280809
 30
0.0
 11
-165.0
 21
143.680809
 31
0.0
  0
LINE
  8
51
  5
4C65
 10
-164.0
 20
194.380809
 30
0.0
 11
-164.0
 21
143.680809
 31
0.0
  0
LINE
  8
51
  5
4C66
 10
-169.0
 20
204.680809
 30
0.0
 11
-169.0
 21
143.680809
 31
0.0
  0
LINE
  8
53
  6
DASHDOT
  5
4C67
 10
-84.0
 20
217.680809
 30
0.0
 11
-84.0
 21
143.680809
 31
0.0
  0
LINE
  8
51
  5
4C68
 10
-160.0
 20
213.680809
 30
0.0
 11
-84.0
 21
213.680809
 31
0.0
  0
LINE
  8
52
  5
4C69
 10
-156.36682
 20
201.030809
 30
0.0
 11
-163.63318
 21
201.030809
 31
0.0
  0
LINE
  8
52
  5
4C6A
 10
-155.1
 20
210.080809
 30
0.0
 11
-160.0
 21
210.080809
 31
0.0
  0
LINE
  8
52
  5
4C6B
 10
-156.36682
 20
208.330809
 30
0.0
 11
-163.63318
 21
208.330809
 31
0.0
  0
ARC
  8
52
  5
4C6C
 10
-160.0
 20
204.680809
 30
0.0
 40
5.4
 50
270.0
 51
0.0
  0
ARC
  8
52
  5
4C6D
 10
-160.0
 20
204.680809
 30
0.0
 40
6.1
 50
270.0
 51
0.0
  0
ARC
  8
52
  5
4C6E
 10
-160.0
 20
204.680809
 30
0.0
 40
8.9
 50
270.0
 51
0.0
  0
ARC
  8
51
  5
4C6F
 10
-160.0
 20
204.680809
 30
0.0
 40
9.8
 50
270.0
 51
0.0
  0
LINE
  8
51
  5
4C71
 10
-18.3
 20
208.680809
 30
0.0
 11
-84.0
 21
208.680809
 31
0.0
  0
LINE
  8
52
  5
4C72
 10
-18.4
 20
209.680809
 30
0.0
 11
-84.0
 21
209.680809
 31
0.0
  0
LINE
  8
52
  5
4C73
 10
-18.4
 20
212.480809
 30
0.0
 11
-84.0
 21
212.480809
 31
0.0
  0
LINE
  8
51
  5
4C74
 10
-8.0
 20
213.680809
 30
0.0
 11
-84.0
 21
213.680809
 31
0.0
  0
ARC
  8
51
  5
4C76
 10
-8.0
 20
204.680809
 30
0.0
 40
9.8
 50
180.0
 51
270.0
  0
ARC
  8
52
  5
4C77
 10
-8.0
 20
204.680809
 30
0.0
 40
8.9
 50
180.0
 51
270.0
  0
ARC
  8
52
  5
4C78
 10
-8.0
 20
204.680809
 30
0.0
 40
6.1
 50
180.0
 51
270.0
  0
ARC
  8
52
  5
4C79
 10
-8.0
 20
204.680809
 30
0.0
 40
5.4
 50
180.0
 51
270.0
  0
LINE
  8
52
  5
4C7A
 10
-11.63318
 20
208.330809
 30
0.0
 11
-4.36682
 21
208.330809
 31
0.0
  0
LINE
  8
52
  5
4C7B
 10
-12.9
 20
210.080809
 30
0.0
 11
-8.0
 21
210.080809
 31
0.0
  0
LINE
  8
52
  5
4C7C
 10
-11.63318
 20
201.030809
 30
0.0
 11
-4.36682
 21
201.030809
 31
0.0
  0
ARC
  8
52
  5
4C7D
 10
-8.0
 20
204.680809
 30
0.0
 40
5.15
 50
314.867683
 51
45.132317
  0
LINE
  8
52
  5
4C7E
 10
-2.6
 20
204.680809
 30
0.0
 11
-2.6
 21
199.780809
 31
0.0
  0
ARC
  8
51
  5
4C80
 10
-8.0
 20
204.680809
 30
0.0
 40
9.0
 50
0.0
 51
90.0
  0
ARC
  8
52
  5
4C81
 10
-8.0
 20
204.680809
 30
0.0
 40
5.4
 50
0.0
 51
90.0
  0
ARC
  8
52
  5
4C82
 10
-4.5
 20
194.280809
 30
0.0
 40
4.3
 50
0.0
 51
90.0
  0
ARC
  8
52
  5
4C83
 10
-4.5
 20
194.280809
 30
0.0
 40
1.5
 50
0.0
 51
90.0
  0
LINE
  8
52
  5
4C84
 10
-8.0
 20
198.580809
 30
0.0
 11
-4.5
 21
198.580809
 31
0.0
  0
ARC
  8
52
  5
4C85
 10
-3.1
 20
199.780809
 30
0.0
 40
0.5
 50
270.0
 51
0.0
  0
LINE
  8
52
  5
4C86
 10
-8.0
 20
199.280809
 30
0.0
 11
-3.1
 21
199.280809
 31
0.0
  0
LINE
  8
52
  5
4C87
 10
-8.0
 20
195.780809
 30
0.0
 11
-4.5
 21
195.780809
 31
0.0
  0
ARC
  8
51
  5
4C88
 10
-4.5
 20
194.380809
 30
0.0
 40
0.5
 50
0.0
 51
90.0
  0
LINE
  8
51
  5
4C89
 10
-8.0
 20
194.880809
 30
0.0
 11
-4.5
 21
194.880809
 31
0.0
  0
ARC
  8
52
  5
4C8A
 10
-8.0
 20
204.680809
 30
0.0
 40
5.15
 50
134.867683
 51
225.132317
  0
ARC
  8
52
  5
4C8B
 10
-18.4
 20
208.180809
 30
0.0
 40
4.3
 50
0.0
 51
90.0
  0
LINE
  8
52
  5
4C8C
 10
-14.1
 20
204.680809
 30
0.0
 11
-14.1
 21
208.180809
 31
0.0
  0
ARC
  8
52
  5
4C8D
 10
-18.4
 20
208.180809
 30
0.0
 40
1.5
 50
0.0
 51
90.0
  0
LINE
  8
52
  5
4C8E
 10
-16.9
 20
204.680809
 30
0.0
 11
-16.9
 21
208.180809
 31
0.0
  0
ARC
  8
51
  5
4C8F
 10
-18.3
 20
208.180809
 30
0.0
 40
0.5
 50
0.0
 51
90.0
  0
LINE
  8
51
  5
4C90
 10
-17.8
 20
204.680809
 30
0.0
 11
-17.8
 21
208.180809
 31
0.0
  0
ARC
  8
52
  5
4C91
 10
-12.9
 20
209.580809
 30
0.0
 40
0.5
 50
90.0
 51
180.0
  0
LINE
  8
52
  5
4C92
 10
-13.4
 20
209.580809
 30
0.0
 11
-13.4
 21
204.680809
 31
0.0
  0
LINE
  8
52
  5
4C93
 10
-149.6
 20
212.480809
 30
0.0
 11
-84.0
 21
212.480809
 31
0.0
  0
LINE
  8
52
  5
4C94
 10
-149.6
 20
209.680809
 30
0.0
 11
-84.0
 21
209.680809
 31
0.0
  0
LINE
  8
51
  5
4C95
 10
-149.7
 20
208.680809
 30
0.0
 11
-84.0
 21
208.680809
 31
0.0
  0
ARC
  8
52
  5
4C96
 10
-160.0
 20
204.680809
 30
0.0
 40
5.15
 50
314.867683
 51
45.132317
  0
ARC
  8
52
  5
4C97
 10
-149.6
 20
208.180809
 30
0.0
 40
4.3
 50
90.0
 51
180.0
  0
LINE
  8
52
  5
4C98
 10
-154.6
 20
209.580809
 30
0.0
 11
-154.6
 21
204.680809
 31
0.0
  0
ARC
  8
52
  5
4C99
 10
-155.1
 20
209.580809
 30
0.0
 40
0.5
 50
360.0
 51
90.0
  0
LINE
  8
51
  5
4C9A
 10
-150.2
 20
204.680809
 30
0.0
 11
-150.2
 21
208.180809
 31
0.0
  0
ARC
  8
51
  5
4C9B
 10
-149.7
 20
208.180809
 30
0.0
 40
0.5
 50
90.0
 51
180.0
  0
LINE
  8
52
  5
4C9C
 10
-151.1
 20
204.680809
 30
0.0
 11
-151.1
 21
208.180809
 31
0.0
  0
ARC
  8
52
  5
4C9D
 10
-149.6
 20
208.180809
 30
0.0
 40
1.5
 50
90.0
 51
180.0
  0
LINE
  8
52
  5
4C9E
 10
-153.9
 20
204.680809
 30
0.0
 11
-153.9
 21
208.180809
 31
0.0
  0
LINE
  8
52
  5
4CA0
 10
-165.4
 20
204.680809
 30
0.0
 11
-165.4
 21
199.780809
 31
0.0
  0
ARC
  8
52
  5
4CA1
 10
-160.0
 20
204.680809
 30
0.0
 40
5.15
 50
134.867683
 51
225.132317
  0
ARC
  8
51
  5
4CA2
 10
-160.0
 20
204.680809
 30
0.0
 40
9.0
 50
90.0
 51
180.0
  0
ARC
  8
52
  5
4CA3
 10
-160.0
 20
204.680809
 30
0.0
 40
5.4
 50
90.0
 51
180.0
  0
ARC
  8
52
  5
4CA4
 10
-163.5
 20
194.280809
 30
0.0
 40
1.5
 50
90.0
 51
180.0
  0
ARC
  8
52
  5
4CA5
 10
-163.5
 20
194.280809
 30
0.0
 40
4.3
 50
90.0
 51
180.0
  0
LINE
  8
52
  5
4CA6
 10
-160.0
 20
199.280809
 30
0.0
 11
-164.9
 21
199.280809
 31
0.0
  0
ARC
  8
52
  5
4CA7
 10
-164.9
 20
199.780809
 30
0.0
 40
0.5
 50
180.0
 51
270.0
  0
LINE
  8
52
  5
4CA8
 10
-160.0
 20
198.580809
 30
0.0
 11
-163.5
 21
198.580809
 31
0.0
  0
LINE
  8
51
  5
4CA9
 10
-160.0
 20
194.880809
 30
0.0
 11
-163.5
 21
194.880809
 31
0.0
  0
ARC
  8
51
  5
4CAA
 10
-163.5
 20
194.380809
 30
0.0
 40
0.5
 50
90.0
 51
180.0
  0
LINE
  8
52
  5
4CAB
 10
-160.0
 20
195.780809
 30
0.0
 11
-163.5
 21
195.780809
 31
0.0
  0
LINE
  8
61
  5
4E14
 10
83.860182
 20
82.680809
 30
0.0
 11
83.860182
 21
143.680809
 31
0.0
  0
LINE
  8
63
  6
DASHDOT
  5
4E15
 10
168.860182
 20
69.680809
 30
0.0
 11
168.860182
 21
143.680809
 31
0.0
  0
LINE
  8
61
  5
4E16
 10
92.860182
 20
73.680809
 30
0.0
 11
168.860182
 21
73.680809
 31
0.0
  0
LINE
  8
61
  5
4E17
 10
96.493363
 20
86.330809
 30
0.0
 11
89.227002
 21
86.330809
 31
0.0
  0
LINE
  8
61
  5
4E19
 10
96.493363
 20
79.030809
 30
0.0
 11
89.227002
 21
79.030809
 31
0.0
  0
ARC
  8
61
  5
4E44
 10
92.860182
 20
82.680809
 30
0.0
 40
5.15
 50
314.867683
 51
45.132317
  0
ARC
  8
61
  5
4E4F
 10
92.860182
 20
82.680809
 30
0.0
 40
5.15
 50
134.867683
 51
225.132317
  0
ARC
  8
61
  5
4E50
 10
92.860182
 20
82.680809
 30
0.0
 40
9.0
 50
180.0
 51
270.0
  0
LINE
  8
63
  6
DASHDOT
  5
4E63
 10
168.860182
 20
143.680809
 30
0.0
 11
80.860182
 21
143.680809
 31
0.0
  0
LINE
  8
21
  5
4F9B
 10
85.403862
 20
251.486912
 30
0.0
 11
85.7329
 21
264.052354
 31
0.0
  0
LINE
  8
21
  5
4F9C
 10
88.860182
 20
243.0
 30
0.0
 11
88.895092
 21
245.0
 31
0.0
  0
LINE
  8
21
  5
4F9D
 10
87.825272
 20
245.0
 30
0.0
 11
103.860182
 21
245.0
 31
0.0
  0
LINE
  8
21
  5
4F9E
 10
87.860182
 20
243.0
 30
0.0
 11
87.807817
 21
246.0
 31
0.0
  0
LINE
  8
21
  5
4F9F
 10
87.860182
 20
243.0
 30
0.0
 11
88.860182
 21
243.0
 31
0.0
  0
ARC
  8
21
  5
4FA0
 10
84.47819
 20
250.5
 30
0.0
 40
0.5
 50
90.0
 51
178.5
  0
LINE
  8
21
  5
4FA1
 10
83.860182
 20
246.0
 30
0.0
 11
85.060182
 21
246.0
 31
0.0
  0
LINE
  8
21
  5
4FA2
 10
83.860182
 20
246.0
 30
0.0
 11
83.978361
 21
250.513088
 31
0.0
  0
LINE
  8
21
  5
4FA3
 10
84.47819
 20
251.0
 30
0.0
 11
168.860182
 21
251.0
 31
0.0
  0
ARC
  8
21
  5
4FA4
 10
84.904033
 20
251.5
 30
0.0
 40
0.5
 50
270.0
 51
358.5
  0
LINE
  8
21
  5
4FA8
 10
87.732214
 20
266.0
 30
0.0
 11
168.860182
 21
266.0
 31
0.0
  0
LINE
  8
24
  5
4FA9
 10
102.660182
 20
263.0
 30
0.0
 11
168.860182
 21
263.0
 31
0.0
  0
LINE
  8
21
  5
4FAA
 10
105.860182
 20
243.0
 30
0.0
 11
168.860182
 21
243.0
 31
0.0
  0
LINE
  8
24
  5
4FAD
 10
102.660182
 20
245.0
 30
0.0
 11
102.660182
 21
263.0
 31
0.0
  0
LINE
  8
21
  5
4FAF
 10
105.860182
 20
243.0
 30
0.0
 11
103.860182
 21
245.0
 31
0.0
  0
ARC
  8
21
  5
5106
 10
87.732214
 20
264.0
 30
0.0
 40
2.0
 50
90.0
 51
178.5
  0
LINE
  8
21
  5
5107
 10
249.98815
 20
266.0
 30
0.0
 11
168.860182
 21
266.0
 31
0.0
  0
LINE
  8
24
  5
5108
 10
235.060182
 20
263.0
 30
0.0
 11
168.860182
 21
263.0
 31
0.0
  0
LINE
  8
21
  5
5109
 10
231.860182
 20
243.0
 30
0.0
 11
168.860182
 21
243.0
 31
0.0
  0
LINE
  8
21
  5
510A
 10
249.895092
 20
245.0
 30
0.0
 11
233.860182
 21
245.0
 31
0.0
  0
LINE
  8
21
  5
510B
 10
252.316502
 20
251.486912
 30
0.0
 11
251.987465
 21
264.052354
 31
0.0
  0
LINE
  8
21
  5
510C
 10
248.860182
 20
243.0
 30
0.0
 11
248.825272
 21
245.0
 31
0.0
  0
LINE
  8
24
  5
510D
 10
235.060182
 20
245.0
 30
0.0
 11
235.060182
 21
263.0
 31
0.0
  0
ARC
  8
21
  5
510E
 10
252.816331
 20
251.5
 30
0.0
 40
0.5
 50
181.5
 51
270.0
  0
LINE
  8
21
  5
5110
 10
253.860182
 20
246.0
 30
0.0
 11
252.660182
 21
246.0
 31
0.0
  0
ARC
  8
21
  5
5111
 10
253.242174
 20
250.5
 30
0.0
 40
0.5
 50
1.5
 51
90.0
  0
LINE
  8
21
  5
5112
 10
253.860182
 20
246.0
 30
0.0
 11
253.742003
 21
250.513088
 31
0.0
  0
LINE
  8
21
  5
5113
 10
253.242174
 20
251.0
 30
0.0
 11
168.860182
 21
251.0
 31
0.0
  0
LINE
  8
21
  5
5115
 10
249.860182
 20
243.0
 30
0.0
 11
248.860182
 21
243.0
 31
0.0
  0
LINE
  8
21
  5
5116
 10
249.860182
 20
243.0
 30
0.0
 11
249.912547
 21
246.0
 31
0.0
  0
LINE
  8
21
  5
5117
 10
231.860182
 20
243.0
 30
0.0
 11
233.860182
 21
245.0
 31
0.0
  0
ARC
  8
21
  5
5118
 10
249.98815
 20
264.0
 30
0.0
 40
2.0
 50
1.5
 51
90.0
  0
LINE
  8
61
  5
5135
 10
85.403862
 20
82.680809
 30
0.0
 11
85.403862
 21
143.680809
 31
0.0
  0
ARC
  8
61
  5
51ED
 10
92.860182
 20
82.680809
 30
0.0
 40
7.45632
 50
180.0
 51
270.0
  0
LINE
  8
61
  5
51EE
 10
92.860182
 20
75.224489
 30
0.0
 11
168.860182
 21
75.224489
 31
0.0
  0
CIRCLE
  8
61
  5
51F0
 10
92.860182
 20
82.680809
 30
0.0
 40
5.5
  0
LINE
  8
61
  5
51F6
 10
244.860182
 20
75.224489
 30
0.0
 11
168.860182
 21
75.224489
 31
0.0
  0
LINE
  8
61
  5
51F7
 10
244.860182
 20
73.680809
 30
0.0
 11
168.860182
 21
73.680809
 31
0.0
  0
LINE
  8
61
  5
51F9
 10
252.316502
 20
82.680809
 30
0.0
 11
252.316502
 21
143.680809
 31
0.0
  0
LINE
  8
61
  5
51FA
 10
253.860182
 20
82.680809
 30
0.0
 11
253.860182
 21
143.680809
 31
0.0
  0
CIRCLE
  8
61
  5
51FC
 10
244.860182
 20
82.680809
 30
0.0
 40
5.5
  0
LINE
  8
61
  5
51FE
 10
241.227002
 20
79.030809
 30
0.0
 11
248.493363
 21
79.030809
 31
0.0
  0
LINE
  8
61
  5
51FF
 10
241.227002
 20
86.330809
 30
0.0
 11
248.493363
 21
86.330809
 31
0.0
  0
ARC
  8
61
  5
5201
 10
244.860182
 20
82.680809
 30
0.0
 40
7.45632
 50
270.0
 51
0.0
  0
ARC
  8
61
  5
5202
 10
244.860182
 20
82.680809
 30
0.0
 40
9.0
 50
270.0
 51
0.0
  0
ARC
  8
61
  5
5203
 10
244.860182
 20
82.680809
 30
0.0
 40
5.15
 50
314.867683
 51
45.132317
  0
ARC
  8
61
  5
5206
 10
244.860182
 20
82.680809
 30
0.0
 40
5.15
 50
134.867683
 51
225.132317
  0
LINE
  8
63
  6
DASHDOT
  5
5207
 10
168.860182
 20
143.680809
 30
0.0
 11
256.860182
 21
143.680809
 31
0.0
  0
LINE
  8
61
  5
5209
 10
92.860182
 20
212.13713
 30
0.0
 11
168.860182
 21
212.13713
 31
0.0
  0
LINE
  8
61
  5
520A
 10
92.860182
 20
213.680809
 30
0.0
 11
168.860182
 21
213.680809
 31
0.0
  0
LINE
  8
61
  5
520C
 10
85.403862
 20
204.680809
 30
0.0
 11
85.403862
 21
143.680809
 31
0.0
  0
LINE
  8
61
  5
520D
 10
83.860182
 20
204.680809
 30
0.0
 11
83.860182
 21
143.680809
 31
0.0
  0
CIRCLE
  8
61
  5
520F
 10
92.860182
 20
204.680809
 30
0.0
 40
5.5
  0
LINE
  8
61
  5
5211
 10
96.493363
 20
208.330809
 30
0.0
 11
89.227002
 21
208.330809
 31
0.0
  0
LINE
  8
61
  5
5212
 10
96.493363
 20
201.030809
 30
0.0
 11
89.227002
 21
201.030809
 31
0.0
  0
ARC
  8
61
  5
5214
 10
92.860182
 20
204.680809
 30
0.0
 40
7.45632
 50
90.0
 51
180.0
  0
ARC
  8
61
  5
5215
 10
92.860182
 20
204.680809
 30
0.0
 40
9.0
 50
90.0
 51
180.0
  0
ARC
  8
61
  5
5216
 10
92.860182
 20
204.680809
 30
0.0
 40
5.15
 50
134.867683
 51
225.132317
  0
ARC
  8
61
  5
5219
 10
92.860182
 20
204.680809
 30
0.0
 40
5.15
 50
314.867683
 51
45.132317
  0
LINE
  8
61
  5
521A
 10
253.860182
 20
204.680809
 30
0.0
 11
253.860182
 21
143.680809
 31
0.0
  0
LINE
  8
61
  5
521B
 10
252.316502
 20
204.680809
 30
0.0
 11
252.316502
 21
143.680809
 31
0.0
  0
LINE
  8
63
  6
DASHDOT
  5
521D
 10
168.860182
 20
217.680809
 30
0.0
 11
168.860182
 21
143.680809
 31
0.0
  0
LINE
  8
61
  5
521E
 10
244.860182
 20
213.680809
 30
0.0
 11
168.860182
 21
213.680809
 31
0.0
  0
LINE
  8
61
  5
521F
 10
244.860182
 20
212.13713
 30
0.0
 11
168.860182
 21
212.13713
 31
0.0
  0
ARC
  8
61
  5
5221
 10
244.860182
 20
204.680809
 30
0.0
 40
5.15
 50
134.867683
 51
225.132317
  0
CIRCLE
  8
61
  5
5223
 10
244.860182
 20
204.680809
 30
0.0
 40
5.5
  0
ARC
  8
61
  5
5226
 10
244.860182
 20
204.680809
 30
0.0
 40
9.0
 50
0.0
 51
90.0
  0
ARC
  8
61
  5
5227
 10
244.860182
 20
204.680809
 30
0.0
 40
7.45632
 50
0.0
 51
90.0
  0
ARC
  8
61
  5
5229
 10
244.860182
 20
204.680809
 30
0.0
 40
5.15
 50
314.867683
 51
45.132317
  0
LINE
  8
61
  5
522A
 10
241.227002
 20
201.030809
 30
0.0
 11
248.493363
 21
201.030809
 31
0.0
  0
LINE
  8
61
  5
522B
 10
241.227002
 20
208.330809
 30
0.0
 11
248.493363
 21
208.330809
 31
0.0
  0
LINE
  8
34
  5
522E
 10
303.0
 20
194.880809
 30
0.0
 11
303.0
 21
143.680809
 31
0.0
  0
LINE
  8
34
  5
5233
 10
285.0
 20
194.880809
 30
0.0
 11
303.0
 21
194.880809
 31
0.0
  0
LINE
  8
31
  5
5240
 10
285.0
 20
77.645899
 30
0.0
 11
285.0
 21
93.680809
 31
0.0
  0
LINE
  8
31
  5
5241
 10
283.0
 20
95.680809
 30
0.0
 11
283.0
 21
143.680809
 31
0.0
  0
LINE
  8
31
  5
5243
 10
306.0
 20
77.552842
 30
0.0
 11
306.0
 21
143.680809
 31
0.0
  0
LINE
  8
31
  5
5245
 10
283.0
 20
95.680809
 30
0.0
 11
285.0
 21
93.680809
 31
0.0
  0
LINE
  8
31
  5
5246
 10
283.0
 20
78.680809
 30
0.0
 11
285.0
 21
78.71572
 31
0.0
  0
LINE
  8
31
  5
5247
 10
291.486912
 20
75.224489
 30
0.0
 11
304.052354
 21
75.553527
 31
0.0
  0
LINE
  8
31
  5
5248
 10
283.0
 20
77.680809
 30
0.0
 11
283.0
 21
78.680809
 31
0.0
  0
LINE
  8
31
  5
5249
 10
283.0
 20
77.680809
 30
0.0
 11
286.0
 21
77.628444
 31
0.0
  0
LINE
  8
31
  5
524B
 10
291.0
 20
74.298817
 30
0.0
 11
291.0
 21
74.724661
 31
0.0
  0
LINE
  8
31
  5
524C
 10
286.0
 20
73.680809
 30
0.0
 11
290.513088
 21
73.798989
 31
0.0
  0
ARC
  8
31
  5
524D
 10
290.5
 20
74.298817
 30
0.0
 40
0.5
 50
271.5
 51
0.0
  0
LINE
  8
31
  5
524E
 10
286.0
 20
73.680809
 30
0.0
 11
286.0
 21
143.680809
 31
0.0
  0
ARC
  8
31
  5
5250
 10
291.5
 20
74.724661
 30
0.0
 40
0.5
 50
91.5
 51
180.0
  0
ARC
  8
31
  5
5251
 10
304.0
 20
77.552842
 30
0.0
 40
2.0
 50
271.5
 51
0.0
  0
LINE
  8
33
  6
DASHDOT
  5
5254
 10
280.0
 20
143.680809
 30
0.0
 11
309.0
 21
143.680809
 31
0.0
  0
LINE
  8
31
  5
C85E
 10
291.0
 20
74.298817
 30
0.0
 11
291.0
 21
143.680809
 31
0.0
  0
LINE
  8
23
  6
DASHDOT
  5
E2E3
 10
168.860182
 20
238.830998
 30
0.0
 11
168.860182
 21
269.969082
 31
0.0
  0
LINE
  8
21
  5
EFC4
 10
85.060182
 20
246.0
 30
0.0
 11
168.860182
 21
246.0
 31
0.0
  0
LINE
  8
21
  5
EFC5
 10
252.660182
 20
246.0
 30
0.0
 11
168.860182
 21
246.0
 31
0.0
  0
ARC
  8
52
  5
F356
 10
-160.0
 20
204.680809
 30
0.0
 40
7.8
 50
105.0
 51
165.0
  0
LINE
  8
52
  5
F357
 10
-165.215999
 20
206.078432
 30
0.0
 11
-167.534221
 21
206.699598
 31
0.0
  0
LINE
  8
52
  5
F358
 10
-161.397623
 20
209.896809
 30
0.0
 11
-162.018789
 21
212.215031
 31
0.0
  0
ARC
  8
52
  5
F359
 10
-8.0
 20
82.680809
 30
0.0
 40
7.3
 50
290.0
 51
340.0
  0
LINE
  8
52
  5
F35A
 10
-2.92566
 20
80.833901
 30
0.0
 11
-1.140244
 21
80.184062
 31
0.0
  0
LINE
  8
52
  5
F35B
 10
-6.153091
 20
77.606469
 30
0.0
 11
-5.503253
 21
75.821053
 31
0.0
  0
LINE
  8
34
  5
1F332
 10
303.0
 20
92.480809
 30
0.0
 11
303.0
 21
143.680809
 31
0.0
  0
LINE
  8
34
  5
1F333
 10
285.0
 20
92.480809
 30
0.0
 11
303.0
 21
92.480809
 31
0.0
  0
LINE
  8
31
  5
1F334
 10
291.0
 20
213.062801
 30
0.0
 11
291.0
 21
143.680809
 31
0.0
  0
LINE
  8
31
  5
1F335
 10
286.0
 20
213.680809
 30
0.0
 11
286.0
 21
143.680809
 31
0.0
  0
LINE
  8
31
  5
1F336
 10
306.0
 20
209.808777
 30
0.0
 11
306.0
 21
143.680809
 31
0.0
  0
LINE
  8
31
  5
1F337
 10
283.0
 20
191.680809
 30
0.0
 11
283.0
 21
143.680809
 31
0.0
  0
LINE
  8
31
  5
1F338
 10
291.486912
 20
212.13713
 30
0.0
 11
304.052354
 21
211.808092
 31
0.0
  0
LINE
  8
31
  5
1F339
 10
285.0
 20
209.71572
 30
0.0
 11
285.0
 21
193.680809
 31
0.0
  0
LINE
  8
31
  5
1F33A
 10
283.0
 20
191.680809
 30
0.0
 11
285.0
 21
193.680809
 31
0.0
  0
ARC
  8
31
  5
1F33B
 10
291.5
 20
212.636958
 30
0.0
 40
0.5
 50
180.0
 51
268.5
  0
ARC
  8
31
  5
1F33C
 10
290.5
 20
213.062801
 30
0.0
 40
0.5
 50
0.0
 51
88.5
  0
LINE
  8
31
  5
1F33D
 10
286.0
 20
213.680809
 30
0.0
 11
290.513088
 21
213.56263
 31
0.0
  0
LINE
  8
31
  5
1F33E
 10
291.0
 20
213.062801
 30
0.0
 11
291.0
 21
212.636958
 31
0.0
  0
LINE
  8
31
  5
1F33F
 10
283.0
 20
209.680809
 30
0.0
 11
286.0
 21
209.733175
 31
0.0
  0
LINE
  8
31
  5
1F340
 10
283.0
 20
209.680809
 30
0.0
 11
283.0
 21
208.680809
 31
0.0
  0
LINE
  8
31
  5
1F341
 10
283.0
 20
208.680809
 30
0.0
 11
285.0
 21
208.645899
 31
0.0
  0
ARC
  8
31
  5
1F342
 10
304.0
 20
209.808777
 30
0.0
 40
2.0
 50
0.0
 51
88.5
  0
LINE
  8
44
  5
1F343
 10
34.720364
 20
92.480809
 30
0.0
 11
34.720364
 21
143.680809
 31
0.0
  0
LINE
  8
41
  5
1F344
 10
46.720364
 20
74.298817
 30
0.0
 11
46.720364
 21
143.680809
 31
0.0
  0
LINE
  8
41
  5
1F345
 10
51.720364
 20
73.680809
 30
0.0
 11
51.720364
 21
143.680809
 31
0.0
  0
LINE
  8
41
  5
1F346
 10
31.720364
 20
77.552842
 30
0.0
 11
31.720364
 21
143.680809
 31
0.0
  0
LINE
  8
41
  5
1F347
 10
54.720364
 20
95.680809
 30
0.0
 11
54.720364
 21
143.680809
 31
0.0
  0
LINE
  8
44
  5
1F348
 10
52.720364
 20
92.480809
 30
0.0
 11
34.720364
 21
92.480809
 31
0.0
  0
LINE
  8
41
  5
1F349
 10
46.233453
 20
75.224489
 30
0.0
 11
33.66801
 21
75.553527
 31
0.0
  0
LINE
  8
41
  5
1F34A
 10
52.720364
 20
77.645899
 30
0.0
 11
52.720364
 21
93.680809
 31
0.0
  0
LINE
  8
41
  5
1F34B
 10
54.720364
 20
77.680809
 30
0.0
 11
51.720364
 21
77.628444
 31
0.0
  0
LINE
  8
41
  5
1F34C
 10
54.720364
 20
77.680809
 30
0.0
 11
54.720364
 21
78.680809
 31
0.0
  0
LINE
  8
41
  5
1F34D
 10
54.720364
 20
78.680809
 30
0.0
 11
52.720364
 21
78.71572
 31
0.0
  0
ARC
  8
41
  5
1F34E
 10
46.220364
 20
74.724661
 30
0.0
 40
0.5
 50
0.0
 51
88.5
  0
ARC
  8
41
  5
1F34F
 10
47.220364
 20
74.298817
 30
0.0
 40
0.5
 50
180.0
 51
268.5
  0
LINE
  8
41
  5
1F350
 10
51.720364
 20
73.680809
 30
0.0
 11
47.207276
 21
73.798989
 31
0.0
  0
LINE
  8
41
  5
1F351
 10
46.720364
 20
74.298817
 30
0.0
 11
46.720364
 21
74.724661
 31
0.0
  0
LINE
  8
41
  5
1F352
 10
54.720364
 20
95.680809
 30
0.0
 11
52.720364
 21
93.680809
 31
0.0
  0
ARC
  8
41
  5
1F353
 10
33.720364
 20
77.552842
 30
0.0
 40
2.0
 50
180.0
 51
268.5
  0
LINE
  8
41
  5
1F354
 10
54.720364
 20
191.680809
 30
0.0
 11
54.720364
 21
143.680809
 31
0.0
  0
LINE
  8
41
  5
1F355
 10
31.720364
 20
209.808777
 30
0.0
 11
31.720364
 21
143.680809
 31
0.0
  0
LINE
  8
41
  5
1F356
 10
51.720364
 20
213.680809
 30
0.0
 11
51.720364
 21
143.680809
 31
0.0
  0
LINE
  8
41
  5
1F357
 10
46.720364
 20
213.062801
 30
0.0
 11
46.720364
 21
143.680809
 31
0.0
  0
LINE
  8
44
  5
1F358
 10
34.720364
 20
194.880809
 30
0.0
 11
34.720364
 21
143.680809
 31
0.0
  0
LINE
  8
43
  6
DASHDOT
  5
1F359
 10
57.720364
 20
143.680809
 30
0.0
 11
28.720364
 21
143.680809
 31
0.0
  0
LINE
  8
41
  5
1F35A
 10
46.233453
 20
212.13713
 30
0.0
 11
33.66801
 21
211.808092
 31
0.0
  0
LINE
  8
44
  5
1F35B
 10
52.720364
 20
194.880809
 30
0.0
 11
34.720364
 21
194.880809
 31
0.0
  0
LINE
  8
41
  5
1F35C
 10
52.720364
 20
209.71572
 30
0.0
 11
52.720364
 21
193.680809
 31
0.0
  0
LINE
  8
41
  5
1F35D
 10
54.720364
 20
191.680809
 30
0.0
 11
52.720364
 21
193.680809
 31
0.0
  0
LINE
  8
41
  5
1F35E
 10
54.720364
 20
209.680809
 30
0.0
 11
51.720364
 21
209.733175
 31
0.0
  0
LINE
  8
41
  5
1F35F
 10
54.720364
 20
208.680809
 30
0.0
 11
52.720364
 21
208.645899
 31
0.0
  0
LINE
  8
41
  5
1F360
 10
54.720364
 20
209.680809
 30
0.0
 11
54.720364
 21
208.680809
 31
0.0
  0
LINE
  8
41
  5
1F361
 10
46.720364
 20
213.062801
 30
0.0
 11
46.720364
 21
212.636958
 31
0.0
  0
LINE
  8
41
  5
1F362
 10
51.720364
 20
213.680809
 30
0.0
 11
47.207276
 21
213.56263
 31
0.0
  0
ARC
  8
41
  5
1F363
 10
47.220364
 20
213.062801
 30
0.0
 40
0.5
 50
91.5
 51
180.0
  0
ARC
  8
41
  5
1F364
 10
46.220364
 20
212.636958
 30
0.0
 40
0.5
 50
271.5
 51
0.0
  0
ARC
  8
41
  5
1F365
 10
33.720364
 20
209.808777
 30
0.0
 40
2.0
 50
91.5
 51
180.0
  0
LINE
  8
11
  5
1F366
 10
249.98815
 20
21.361619
 30
0.0
 11
168.860182
 21
21.361619
 31
0.0
  0
LINE
  8
11
  5
1F367
 10
231.860182
 20
44.361619
 30
0.0
 11
168.860182
 21
44.361619
 31
0.0
  0
LINE
  8
11
  5
1F368
 10
252.660182
 20
41.361619
 30
0.0
 11
168.860182
 21
41.361619
 31
0.0
  0
LINE
  8
11
  5
1F369
 10
253.242174
 20
36.361619
 30
0.0
 11
168.860182
 21
36.361619
 31
0.0
  0
LINE
  8
14
  5
1F36A
 10
235.060182
 20
24.361619
 30
0.0
 11
168.860182
 21
24.361619
 31
0.0
  0
LINE
  8
11
  5
1F36B
 10
252.316502
 20
35.874707
 30
0.0
 11
251.987465
 21
23.309265
 31
0.0
  0
LINE
  8
14
  5
1F36C
 10
235.060182
 20
42.361619
 30
0.0
 11
235.060182
 21
24.361619
 31
0.0
  0
LINE
  8
11
  5
1F36D
 10
249.895092
 20
42.361619
 30
0.0
 11
233.860182
 21
42.361619
 31
0.0
  0
LINE
  8
11
  5
1F36E
 10
249.860182
 20
44.361619
 30
0.0
 11
249.912547
 21
41.361619
 31
0.0
  0
LINE
  8
11
  5
1F36F
 10
249.860182
 20
44.361619
 30
0.0
 11
248.860182
 21
44.361619
 31
0.0
  0
LINE
  8
11
  5
1F370
 10
248.860182
 20
44.361619
 30
0.0
 11
248.825272
 21
42.361619
 31
0.0
  0
ARC
  8
11
  5
1F371
 10
252.816331
 20
35.861619
 30
0.0
 40
0.5
 50
90.0
 51
178.5
  0
ARC
  8
11
  5
1F372
 10
253.242174
 20
36.861619
 30
0.0
 40
0.5
 50
270.0
 51
358.5
  0
LINE
  8
11
  5
1F373
 10
253.860182
 20
41.361619
 30
0.0
 11
252.660182
 21
41.361619
 31
0.0
  0
LINE
  8
11
  5
1F374
 10
253.860182
 20
41.361619
 30
0.0
 11
253.742003
 21
36.84853
 31
0.0
  0
LINE
  8
11
  5
1F375
 10
231.860182
 20
44.361619
 30
0.0
 11
233.860182
 21
42.361619
 31
0.0
  0
ARC
  8
11
  5
1F376
 10
249.98815
 20
23.361619
 30
0.0
 40
2.0
 50
270.0
 51
358.5
  0
LINE
  8
11
  5
1F377
 10
87.732214
 20
21.361619
 30
0.0
 11
168.860182
 21
21.361619
 31
0.0
  0
LINE
  8
11
  5
1F378
 10
105.860182
 20
44.361619
 30
0.0
 11
168.860182
 21
44.361619
 31
0.0
  0
LINE
  8
11
  5
1F379
 10
85.060182
 20
41.361619
 30
0.0
 11
168.860182
 21
41.361619
 31
0.0
  0
LINE
  8
11
  5
1F37A
 10
84.47819
 20
36.361619
 30
0.0
 11
168.860182
 21
36.361619
 31
0.0
  0
LINE
  8
14
  5
1F37B
 10
102.660182
 20
24.361619
 30
0.0
 11
168.860182
 21
24.361619
 31
0.0
  0
LINE
  8
13
  6
DASHDOT
  5
1F37C
 10
168.860182
 20
48.530621
 30
0.0
 11
168.860182
 21
17.392537
 31
0.0
  0
LINE
  8
11
  5
1F37D
 10
85.403862
 20
35.874707
 30
0.0
 11
85.7329
 21
23.309265
 31
0.0
  0
LINE
  8
14
  5
1F37E
 10
102.660182
 20
42.361619
 30
0.0
 11
102.660182
 21
24.361619
 31
0.0
  0
LINE
  8
11
  5
1F37F
 10
87.825272
 20
42.361619
 30
0.0
 11
103.860182
 21
42.361619
 31
0.0
  0
LINE
  8
11
  5
1F380
 10
105.860182
 20
44.361619
 30
0.0
 11
103.860182
 21
42.361619
 31
0.0
  0
LINE
  8
11
  5
1F381
 10
87.860182
 20
44.361619
 30
0.0
 11
87.807817
 21
41.361619
 31
0.0
  0
LINE
  8
11
  5
1F382
 10
87.860182
 20
44.361619
 30
0.0
 11
88.860182
 21
44.361619
 31
0.0
  0
LINE
  8
11
  5
1F383
 10
88.860182
 20
44.361619
 30
0.0
 11
88.895092
 21
42.361619
 31
0.0
  0
ARC
  8
11
  5
1F384
 10
84.904033
 20
35.861619
 30
0.0
 40
0.5
 50
1.5
 51
90.0
  0
LINE
  8
11
  5
1F385
 10
83.860182
 20
41.361619
 30
0.0
 11
85.060182
 21
41.361619
 31
0.0
  0
ARC
  8
11
  5
1F386
 10
84.47819
 20
36.861619
 30
0.0
 40
0.5
 50
181.5
 51
270.0
  0
LINE
  8
11
  5
1F387
 10
83.860182
 20
41.361619
 30
0.0
 11
83.978361
 21
36.84853
 31
0.0
  0
ARC
  8
11
  5
1F388
 10
87.732214
 20
23.361619
 30
0.0
 40
2.0
 50
181.5
 51
270.0
  0
TEXT
  8
L20
  5
1F389
 10
-151.487771
 20
248.733835
 30
0.0
 40
7.0
  1
FIBOX PICCOLO H 170x140x20 COVER
  0
ENDBLK
  8
0
  5
1F391
  0
ENDSEC
  0
SECTION
  2
ENTITIES
  0
VIEWPORT
  8
0
  5
1
 67
     1
 68
     1
 10
210.0
 20
152.094241
 30
0.0
 40
420.0
 41
304.188482
 69
     1
1001
ACAD
1000
MVIEW
1002
{
1070
    16
1010
0.0
1020
0.0
1030
0.0
1010
0.0
1020
0.0
1030
1.0
1040
0.0
1040
304.188482
1040
210.0
1040
152.094241
1040
50.0
1040
0.0
1040
0.0
1070
     0
1070
   100
1070
     1
1070
     1
1070
     1
1070
     0
1070
     0
1070
     0
1040
0.0
1040
0.0
1040
0.0
1040
1.0
1040
1.0
1040
0.0
1040
0.0
1070
     0
1002
{
1002
}
1002
}
  0
INSERT
  8
L1
  5
1F392
  2
PICH20C
 10
0.0
 20
0.0
 30
0.0
  0
ENDSEC
  0
EOF
