  0
SECTION
  2
HEADER
  9
$ACADVER
  1
AC1009
  9
$INSBASE
 10
0.0
 20
0.0
 30
0.0
  9
$EXTMIN
 10
-196.029208
 20
49.036314
 30
0.0
  9
$EXTMAX
 10
511.127049
 20
305.796731
 30
0.0
  9
$LIMMIN
 10
0.0
 20
0.0
  9
$LIMMAX
 10
420.0
 20
297.0
  9
$ORTHOMODE
 70
     0
  9
$REGENMODE
 70
     1
  9
$FILLMODE
 70
     1
  9
$QTEXTMODE
 70
     0
  9
$MIRRTEXT
 70
     1
  9
$DRAGMODE
 70
     2
  9
$LTSCALE
 40
7.0
  9
$OSMODE
 70
     0
  9
$ATTMODE
 70
     1
  9
$TEXTSIZE
 40
3.5
  9
$TRACEWID
 40
0.05
  9
$TEXTSTYLE
  7
STANDARD
  9
$CLAYER
  8
L1
  9
$CELTYPE
  6
BYLAYER
  9
$CECOLOR
 62
   256
  9
$DIMSCALE
 40
1.0
  9
$DIMASZ
 40
3.5
  9
$DIMEXO
 40
0.0
  9
$DIMDLI
 40
10.0
  9
$DIMRND
 40
0.0
  9
$DIMDLE
 40
0.0
  9
$DIMEXE
 40
2.0
  9
$DIMTP
 40
0.0
  9
$DIMTM
 40
0.0
  9
$DIMTXT
 40
3.5
  9
$DIMCEN
 40
2.5
  9
$DIMTSZ
 40
0.0
  9
$DIMTOL
 70
     0
  9
$DIMLIM
 70
     0
  9
$DIMTIH
 70
     0
  9
$DIMTOH
 70
     0
  9
$DIMSE1
 70
     0
  9
$DIMSE2
 70
     0
  9
$DIMTAD
 70
     1
  9
$DIMZIN
 70
     8
  9
$DIMBLK
  1

  9
$DIMASO
 70
     1
  9
$DIMSHO
 70
     1
  9
$DIMPOST
  1

  9
$DIMAPOST
  1

  9
$DIMALT
 70
     0
  9
$DIMALTD
 70
     2
  9
$DIMALTF
 40
25.4
  9
$DIMLFAC
 40
1.0
  9
$DIMTOFL
 70
     1
  9
$DIMTVP
 40
0.0
  9
$DIMTIX
 70
     0
  9
$DIMSOXD
 70
     0
  9
$DIMSAH
 70
     0
  9
$DIMBLK1
  1

  9
$DIMBLK2
  1

  9
$DIMSTYLE
  2
*UNNAMED
  9
$DIMCLRD
 70
   256
  9
$DIMCLRE
 70
   256
  9
$DIMCLRT
 70
     3
  9
$DIMTFAC
 40
1.0
  9
$DIMGAP
 40
2.0
  9
$LUNITS
 70
     2
  9
$LUPREC
 70
     2
  9
$SKETCHINC
 40
1.0
  9
$FILLETRAD
 40
0.0
  9
$AUNITS
 70
     0
  9
$AUPREC
 70
     2
  9
$MENU
  1
CAESAR
  9
$ELEVATION
 40
0.0
  9
$PELEVATION
 40
0.0
  9
$THICKNESS
 40
0.0
  9
$LIMCHECK
 70
     0
  9
$BLIPMODE
 70
     1
  9
$CHAMFERA
 40
5.0
  9
$CHAMFERB
 40
5.0
  9
$SKPOLY
 70
     0
  9
$TDCREATE
 40
2449682.498928703
  9
$TDUPDATE
 40
2449682.498928703
  9
$TDINDWG
 40
0.0000000000
  9
$TDUSRTIMER
 40
0.0000000000
  9
$USRTIMER
 70
     1
  9
$ANGBASE
 50
0.0
  9
$ANGDIR
 70
     0
  9
$PDMODE
 70
     0
  9
$PDSIZE
 40
0.0
  9
$PLINEWID
 40
0.0
  9
$COORDS
 70
     2
  9
$SPLFRAME
 70
     0
  9
$SPLINETYPE
 70
     6
  9
$SPLINESEGS
 70
     8
  9
$ATTDIA
 70
     0
  9
$ATTREQ
 70
     1
  9
$HANDLING
 70
     1
  9
$HANDSEED
  5
236E4
  9
$SURFTAB1
 70
     6
  9
$SURFTAB2
 70
     6
  9
$SURFTYPE
 70
     6
  9
$SURFU
 70
     6
  9
$SURFV
 70
     6
  9
$UCSNAME
  2

  9
$UCSORG
 10
0.0
 20
0.0
 30
0.0
  9
$UCSXDIR
 10
1.0
 20
0.0
 30
0.0
  9
$UCSYDIR
 10
0.0
 20
1.0
 30
0.0
  9
$PUCSNAME
  2

  9
$PUCSORG
 10
0.0
 20
0.0
 30
0.0
  9
$PUCSXDIR
 10
1.0
 20
0.0
 30
0.0
  9
$PUCSYDIR
 10
0.0
 20
1.0
 30
0.0
  9
$USERI1
 70
     0
  9
$USERI2
 70
     0
  9
$USERI3
 70
     0
  9
$USERI4
 70
     0
  9
$USERI5
 70
     0
  9
$USERR1
 40
1.0
  9
$USERR2
 40
0.0
  9
$USERR3
 40
3.5
  9
$USERR4
 40
0.0
  9
$USERR5
 40
0.0
  9
$WORLDVIEW
 70
     1
  9
$SHADEDGE
 70
     3
  9
$SHADEDIF
 70
    70
  9
$TILEMODE
 70
     1
  9
$MAXACTVP
 70
    16
  9
$PINSBASE
 10
0.0
 20
0.0
 30
0.0
  9
$PLIMCHECK
 70
     0
  9
$PEXTMIN
 10
1.000000E+20
 20
1.000000E+20
 30
1.000000E+20
  9
$PEXTMAX
 10
-1.000000E+20
 20
-1.000000E+20
 30
-1.000000E+20
  9
$PLIMMIN
 10
0.0
 20
0.0
  9
$PLIMMAX
 10
420.0
 20
297.0
  9
$UNITMODE
 70
     0
  9
$VISRETAIN
 70
     0
  9
$PLINEGEN
 70
     0
  9
$PSLTSCALE
 70
     0
  9
$TREEDEPTH
 70
  3020
  9
$DWGCODEPAGE
  3
dos850
  0
ENDSEC
  0
SECTION
  2
TABLES
  0
TABLE
  2
VPORT
 70
     2
  0
VPORT
  2
*ACTIVE
 70
     0
 10
0.0
 20
0.0
 11
1.0
 21
1.0
 12
287.564723
 22
225.231556
 13
0.0
 23
0.0
 14
1.0
 24
1.0
 15
10.0
 25
10.0
 16
0.0
 26
0.0
 36
1.0
 17
0.0
 27
0.0
 37
0.0
 40
456.463112
 41
1.273114
 42
50.0
 43
0.0
 44
0.0
 50
0.0
 51
0.0
 71
     0
 72
  1000
 73
     1
 74
     1
 75
     1
 76
     0
 77
     0
 78
     0
  0
ENDTAB
  0
TABLE
  2
LTYPE
 70
    10
  0
LTYPE
  2
CONTINUOUS
 70
    64
  3
Solid line
 72
    65
 73
     0
 40
0.0
  0
LTYPE
  2
BORDER
 70
     0
  3
__ __ . __ __ . __ __ . __ __ . __ __ . __ __ .
 72
    65
 73
     6
 40
1.75
 49
0.5
 49
-0.25
 49
0.5
 49
-0.25
 49
0.0
 49
-0.25
  0
LTYPE
  2
CENTER
 70
    64
  3
____ _ ____ _ ____ _ ____ _ ____ _ ____ _ ____ 
 72
    65
 73
     4
 40
2.0
 49
1.25
 49
-0.25
 49
0.25
 49
-0.25
  0
LTYPE
  2
DASHDOT
 70
     0
  3
__ . __ . __ . __ . __ . __ . __ . __ . __ . __
 72
    65
 73
     4
 40
1.0
 49
0.5
 49
-0.25
 49
0.0
 49
-0.25
  0
LTYPE
  2
DASHED
 70
    64
  3
__ __ __ __ __ __ __ __ __ __ __ __ __ __ __ __
 72
    65
 73
     2
 40
0.75
 49
0.5
 49
-0.25
  0
LTYPE
  2
DIVIDE
 70
     0
  3
____ . . ____ . . ____ . . ____ . . ____ . . __
 72
    65
 73
     6
 40
1.25
 49
0.5
 49
-0.25
 49
0.0
 49
-0.25
 49
0.0
 49
-0.25
  0
LTYPE
  2
DOT
 70
     0
  3
. . . . . . . . . . . . . . . . . . . . . . . .
 72
    65
 73
     2
 40
0.25
 49
0.0
 49
-0.25
  0
LTYPE
  2
HIDDEN
 70
    64
  3
__ __ __ __ __ __ __ __ __ __ __ __ __ __ __ __
 72
    65
 73
     2
 40
0.375
 49
0.25
 49
-0.125
  0
LTYPE
  2
PHANTOM
 70
    64
  3
______  __  __  ______  __  __  ______  __  __ 
 72
    65
 73
     6
 40
2.5
 49
1.25
 49
-0.25
 49
0.25
 49
-0.25
 49
0.25
 49
-0.25
  0
LTYPE
  2
DOTX2
 70
    64
  3
.  .  .  .  .  .  .  .  .  .  .  .  .  .  .  . 
 72
    65
 73
     2
 40
0.5
 49
0.0
 49
-0.5
  0
ENDTAB
  0
TABLE
  2
LAYER
 70
    74
  0
LAYER
  2
0
 70
    64
 62
     7
  6
CONTINUOUS
  0
LAYER
  2
L1
 70
     0
 62
     3
  6
CONTINUOUS
  0
LAYER
  2
L2
 70
     0
 62
     1
  6
CONTINUOUS
  0
LAYER
  2
L3
 70
     0
 62
     7
  6
DASHED
  0
LAYER
  2
L4
 70
     0
 62
     1
  6
DASHED
  0
LAYER
  2
L5
 70
     0
 62
     6
  6
CENTER
  0
LAYER
  2
L6
 70
     0
 62
     1
  6
CENTER
  0
LAYER
  2
L7
 70
     0
 62
     1
  6
PHANTOM
  0
LAYER
  2
VPORT
 70
     0
 62
     7
  6
CONTINUOUS
  0
LAYER
  2
L8
 70
     0
 62
     1
  6
CONTINUOUS
  0
LAYER
  2
L20
 70
     0
 62
     3
  6
CONTINUOUS
  0
LAYER
  2
L21
 70
     0
 62
     1
  6
CONTINUOUS
  0
LAYER
  2
L22
 70
     0
 62
     1
  6
CONTINUOUS
  0
LAYER
  2
L23
 70
     0
 62
     1
  6
CONTINUOUS
  0
LAYER
  2
L30
 70
     0
 62
     3
  6
CONTINUOUS
  0
LAYER
  2
L31
 70
     0
 62
     1
  6
CONTINUOUS
  0
LAYER
  2
L32
 70
     0
 62
     3
  6
CONTINUOUS
  0
LAYER
  2
L33
 70
     0
 62
     1
  6
CONTINUOUS
  0
LAYER
  2
L34
 70
     0
 62
     3
  6
CONTINUOUS
  0
LAYER
  2
L35
 70
     0
 62
     1
  6
CONTINUOUS
  0
LAYER
  2
L40
 70
     0
 62
     7
  6
CONTINUOUS
  0
LAYER
  2
L41
 70
     0
 62
     1
  6
CONTINUOUS
  0
LAYER
  2
L42
 70
     0
 62
     1
  6
CONTINUOUS
  0
LAYER
  2
L43
 70
     0
 62
     7
  6
CONTINUOUS
  0
LAYER
  2
L44
 70
     0
 62
     1
  6
CONTINUOUS
  0
LAYER
  2
L45
 70
     0
 62
     1
  6
CONTINUOUS
  0
LAYER
  2
L46
 70
     0
 62
     3
  6
CONTINUOUS
  0
LAYER
  2
L50
 70
     0
 62
     7
  6
CONTINUOUS
  0
LAYER
  2
L51
 70
     0
 62
     1
  6
CONTINUOUS
  0
LAYER
  2
L52
 70
     0
 62
     7
  6
CONTINUOUS
  0
LAYER
  2
L53
 70
     0
 62
     1
  6
CONTINUOUS
  0
LAYER
  2
L54
 70
     0
 62
     3
  6
CONTINUOUS
  0
LAYER
  2
L55
 70
     0
 62
     3
  6
CONTINUOUS
  0
LAYER
  2
L56
 70
     0
 62
     3
  6
CONTINUOUS
  0
LAYER
  2
L57
 70
     0
 62
     1
  6
CONTINUOUS
  0
LAYER
  2
L9
 70
     0
 62
     7
  6
HIDDEN
  0
LAYER
  2
L15
 70
     0
 62
     2
  6
CONTINUOUS
  0
LAYER
  2
L16
 70
     0
 62
     5
  6
DOTX2
  0
LAYER
  2
L24
 70
     0
 62
     1
  6
CONTINUOUS
  0
LAYER
  2
A1
 70
     0
 62
     7
  6
CONTINUOUS
  0
LAYER
  2
RA1
 70
     0
 62
     1
  6
CONTINUOUS
  0
LAYER
  2
TITEL
 70
     0
 62
     7
  6
CONTINUOUS
  0
LAYER
  2
DEFPOINTS
 70
     0
 62
     7
  6
CONTINUOUS
  0
LAYER
  2
1
 70
     0
 62
     7
  6
CONTINUOUS
  0
LAYER
  2
11
 70
    64
 62
     7
  6
CONTINUOUS
  0
LAYER
  2
12
 70
     0
 62
     1
  6
CONTINUOUS
  0
LAYER
  2
13
 70
    64
 62
     1
  6
CENTER
  0
LAYER
  2
14
 70
    64
 62
     1
  6
DASHED
  0
LAYER
  2
15
 70
     0
 62
     2
  6
DASHED
  0
LAYER
  2
21
 70
    64
 62
     7
  6
CONTINUOUS
  0
LAYER
  2
22
 70
     0
 62
     1
  6
CONTINUOUS
  0
LAYER
  2
23
 70
    64
 62
     1
  6
CENTER
  0
LAYER
  2
24
 70
    64
 62
     1
  6
DASHED
  0
LAYER
  2
25
 70
     0
 62
     2
  6
DASHED
  0
LAYER
  2
31
 70
    64
 62
     7
  6
CONTINUOUS
  0
LAYER
  2
32
 70
     0
 62
     1
  6
CONTINUOUS
  0
LAYER
  2
33
 70
    64
 62
     1
  6
CENTER
  0
LAYER
  2
34
 70
    64
 62
     1
  6
DASHED
  0
LAYER
  2
35
 70
     0
 62
     2
  6
DASHED
  0
LAYER
  2
41
 70
    64
 62
     7
  6
CONTINUOUS
  0
LAYER
  2
42
 70
     0
 62
     1
  6
CONTINUOUS
  0
LAYER
  2
43
 70
    64
 62
     1
  6
CENTER
  0
LAYER
  2
44
 70
    64
 62
     1
  6
DASHED
  0
LAYER
  2
45
 70
     0
 62
     2
  6
DASHED
  0
LAYER
  2
51
 70
    64
 62
     7
  6
CONTINUOUS
  0
LAYER
  2
52
 70
     0
 62
     1
  6
CONTINUOUS
  0
LAYER
  2
53
 70
    64
 62
     1
  6
CENTER
  0
LAYER
  2
54
 70
     0
 62
     1
  6
DASHED
  0
LAYER
  2
55
 70
     0
 62
     2
  6
DASHED
  0
LAYER
  2
61
 70
    64
 62
     7
  6
CONTINUOUS
  0
LAYER
  2
62
 70
    64
 62
     1
  6
CONTINUOUS
  0
LAYER
  2
63
 70
    64
 62
     1
  6
CENTER
  0
LAYER
  2
64
 70
     0
 62
     1
  6
DASHED
  0
LAYER
  2
65
 70
     0
 62
     2
  6
DASHED
  0
ENDTAB
  0
TABLE
  2
STYLE
 70
     4
  0
STYLE
  2
STANDARD
 70
     0
 40
0.0
 41
1.0
 50
0.0
 71
     0
 42
3.5
  3
CAEISO
  4

  0
STYLE
  2
SIMPLEX
 70
    64
 40
0.0
 41
1.0
 50
0.0
 71
     0
 42
20.0
  3
SIMPLEX.SHX
  4

  0
STYLE
  2
COMPLEX
 70
    64
 40
5.0
 41
1.0
 50
0.0
 71
     0
 42
5.0
  3
COMPLEX
  4

  0
STYLE
  2
CAEISO
 70
     0
 40
0.0
 41
1.0
 50
0.0
 71
     0
 42
1.0
  3
CAEISO
  4

  0
ENDTAB
  0
TABLE
  2
VIEW
 70
     0
  0
ENDTAB
  0
TABLE
  2
UCS
 70
     0
  0
ENDTAB
  0
TABLE
  2
APPID
 70
     1
  0
APPID
  2
ACAD
 70
    64
  0
ENDTAB
  0
TABLE
  2
DIMSTYLE
 70
     6
  0
DIMSTYLE
  2
ACADUS
 70
     0
  3

  4

  5

  6

  7

 40
1.0
 41
0.18
 42
0.0625
 43
0.38
 44
0.18
 45
0.0
 46
0.0
 47
0.0
 48
0.0
140
0.18
141
0.09
142
0.0
143
25.4
144
1.0
145
0.0
146
1.0
147
0.09
 71
     0
 72
     0
 73
     1
 74
     1
 75
     0
 76
     0
 77
     0
 78
     0
170
     0
171
     2
172
     0
173
     0
174
     0
175
     0
176
     0
177
     0
178
     0
  0
DIMSTYLE
  2
NORDIC
 70
     0
  3

  4

  5

  6

  7

 40
1.0
 41
3.5
 42
1.0
 43
10.0
 44
2.0
 45
0.0
 46
0.0
 47
0.0
 48
0.0
140
3.5
141
2.5
142
0.0
143
25.4
144
1.0
145
0.0
146
1.0
147
2.0
 71
     0
 72
     0
 73
     0
 74
     0
 75
     0
 76
     0
 77
     1
 78
     8
170
     0
171
     2
172
     1
173
     0
174
     0
175
     0
176
     0
177
     0
178
     0
  0
DIMSTYLE
  2
RADIAL
 70
     0
  3

  4

  5

  6

  7

 40
1.0
 41
3.5
 42
1.0
 43
10.0
 44
2.0
 45
0.0
 46
0.0
 47
0.0
 48
0.0
140
3.5
141
2.5
142
0.0
143
25.4
144
1.0
145
0.0
146
1.0
147
2.0
 71
     0
 72
     0
 73
     0
 74
     1
 75
     0
 76
     0
 77
     1
 78
     8
170
     0
171
     2
172
     0
173
     0
174
     0
175
     0
176
     0
177
     0
178
     0
  0
DIMSTYLE
  2
NORTOL
 70
     0
  3

  4

  5

  6

  7

 40
1.0
 41
3.5
 42
1.0
 43
10.0
 44
2.0
 45
0.0
 46
0.0
 47
0.2
 48
0.1
140
3.5
141
2.5
142
0.0
143
25.4
144
1.0
145
0.7
146
0.71
147
2.0
 71
     1
 72
     0
 73
     0
 74
     0
 75
     0
 76
     0
 77
     0
 78
     8
170
     0
171
     2
172
     1
173
     0
174
     0
175
     0
176
     0
177
     0
178
     0
  0
DIMSTYLE
  2
RADTOL
 70
     0
  3

  4

  5

  6

  7

 40
1.0
 41
3.5
 42
1.0
 43
10.0
 44
2.0
 45
0.0
 46
0.0
 47
0.2
 48
0.1
140
3.5
141
2.5
142
0.0
143
25.4
144
1.0
145
0.7
146
0.7
147
2.0
 71
     1
 72
     0
 73
     0
 74
     1
 75
     0
 76
     0
 77
     0
 78
     8
170
     0
171
     2
172
     0
173
     0
174
     0
175
     0
176
     0
177
     0
178
     0
  0
DIMSTYLE
  2
HANSU
 70
     0
  3

  4

  5

  6

  7

 40
1.0
 41
3.5
 42
0.0
 43
10.0
 44
2.0
 45
0.0
 46
0.0
 47
0.0
 48
0.0
140
3.5
141
2.5
142
0.0
143
25.4
144
0.8
145
0.0
146
1.0
147
2.0
 71
     0
 72
     0
 73
     0
 74
     0
 75
     0
 76
     0
 77
     1
 78
     8
170
     0
171
     2
172
     1
173
     0
174
     0
175
     0
176
   256
177
   256
178
     3
  0
ENDTAB
  0
ENDSEC
  0
SECTION
  2
BLOCKS
  0
BLOCK
  8
0
  5
2329
  2
AME_NIL
 70
     0
 10
0.0
 20
0.0
 30
0.0
  1
AME_NIL
  3
AME_NIL
  0
ENDBLK
  8
0
  5
232A
  0
BLOCK
  8
0
  5
232C
  2
AME_SOL
 70
     0
 10
0.0
 20
0.0
 30
0.0
  1
AME_SOL
  3
AME_SOL
  0
ENDBLK
  8
0
  5
232D
  0
BLOCK
  8
0
  5
233F
  2
SOLAXES
 70
     0
 10
0.0
 20
0.0
 30
0.0
  1
SOLAXES
  3
SOLAXES
  0
LINE
  8
0
 62
     0
  5
2340
 10
0.0
 20
0.0
 30
0.0
 11
63.851158
 21
0.0
 31
0.0
  0
LINE
  8
0
 62
     0
  5
2341
 10
0.0
 20
0.0
 30
0.0
 11
0.0
 21
63.851158
 31
0.0
  0
LINE
  8
0
 62
     0
  5
2342
 10
0.0
 20
0.0
 30
0.0
 11
0.0
 21
0.0
 31
63.851158
  0
CIRCLE
  8
0
 62
     0
  5
2343
 10
0.0
 20
0.0
 30
57.466042
 40
3.192558
210
1.0
220
0.0
230
0.0
  0
LINE
  8
0
 62
     0
  5
2344
 10
57.466042
 20
3.192558
 30
0.0
 11
63.851158
 21
0.0
 31
0.0
  0
LINE
  8
0
 62
     0
  5
2345
 10
57.466042
 20
0.0
 30
3.192558
 11
63.851158
 21
0.0
 31
0.0
  0
LINE
  8
0
 62
     0
  5
2346
 10
57.466042
 20
-3.192558
 30
0.0
 11
63.851158
 21
0.0
 31
0.0
  0
LINE
  8
0
 62
     0
  5
2347
 10
57.466042
 20
0.0
 30
-3.192558
 11
63.851158
 21
0.0
 31
0.0
  0
CIRCLE
  8
0
 62
     0
  5
2348
 10
0.0
 20
0.0
 30
57.466042
 40
3.192558
210
0.0
220
1.0
230
0.0
  0
LINE
  8
0
 62
     0
  5
2349
 10
3.192558
 20
57.466042
 30
0.0
 11
0.0
 21
63.851158
 31
0.0
  0
LINE
  8
0
 62
     0
  5
234A
 10
0.0
 20
57.466042
 30
3.192558
 11
0.0
 21
63.851158
 31
0.0
  0
LINE
  8
0
 62
     0
  5
234B
 10
-3.192558
 20
57.466042
 30
0.0
 11
0.0
 21
63.851158
 31
0.0
  0
LINE
  8
0
 62
     0
  5
234C
 10
0.0
 20
57.466042
 30
-3.192558
 11
0.0
 21
63.851158
 31
0.0
  0
CIRCLE
  8
0
 62
     0
  5
234D
 10
0.0
 20
0.0
 30
51.080927
 40
3.192558
210
0.0
220
1.0
230
0.0
  0
LINE
  8
0
 62
     0
  5
234E
 10
3.192558
 20
51.080927
 30
0.0
 11
0.0
 21
57.466042
 31
0.0
  0
LINE
  8
0
 62
     0
  5
234F
 10
0.0
 20
51.080927
 30
3.192558
 11
0.0
 21
57.466042
 31
0.0
  0
LINE
  8
0
 62
     0
  5
2350
 10
-3.192558
 20
51.080927
 30
0.0
 11
0.0
 21
57.466042
 31
0.0
  0
LINE
  8
0
 62
     0
  5
2351
 10
0.0
 20
51.080927
 30
-3.192558
 11
0.0
 21
57.466042
 31
0.0
  0
CIRCLE
  8
0
 62
     0
  5
2352
 10
0.0
 20
0.0
 30
57.466042
 40
3.192558
  0
LINE
  8
0
 62
     0
  5
2353
 10
3.192558
 20
0.0
 30
57.466042
 11
0.0
 21
0.0
 31
63.851158
  0
LINE
  8
0
 62
     0
  5
2354
 10
0.0
 20
3.192558
 30
57.466042
 11
0.0
 21
0.0
 31
63.851158
  0
LINE
  8
0
 62
     0
  5
2355
 10
-3.192558
 20
0.0
 30
57.466042
 11
0.0
 21
0.0
 31
63.851158
  0
LINE
  8
0
 62
     0
  5
2356
 10
0.0
 20
-3.192558
 30
57.466042
 11
0.0
 21
0.0
 31
63.851158
  0
CIRCLE
  8
0
 62
     0
  5
2357
 10
0.0
 20
0.0
 30
51.080927
 40
3.192558
  0
LINE
  8
0
 62
     0
  5
2358
 10
3.192558
 20
0.0
 30
51.080927
 11
0.0
 21
0.0
 31
57.466042
  0
LINE
  8
0
 62
     0
  5
2359
 10
0.0
 20
3.192558
 30
51.080927
 11
0.0
 21
0.0
 31
57.466042
  0
LINE
  8
0
 62
     0
  5
235A
 10
-3.192558
 20
0.0
 30
51.080927
 11
0.0
 21
0.0
 31
57.466042
  0
LINE
  8
0
 62
     0
  5
235B
 10
0.0
 20
-3.192558
 30
51.080927
 11
0.0
 21
0.0
 31
57.466042
  0
CIRCLE
  8
0
 62
     0
  5
235C
 10
0.0
 20
0.0
 30
44.695811
 40
3.192558
  0
LINE
  8
0
 62
     0
  5
235D
 10
3.192558
 20
0.0
 30
44.695811
 11
0.0
 21
0.0
 31
51.080927
  0
LINE
  8
0
 62
     0
  5
235E
 10
0.0
 20
3.192558
 30
44.695811
 11
0.0
 21
0.0
 31
51.080927
  0
LINE
  8
0
 62
     0
  5
235F
 10
-3.192558
 20
0.0
 30
44.695811
 11
0.0
 21
0.0
 31
51.080927
  0
LINE
  8
0
 62
     0
  5
2360
 10
0.0
 20
-3.192558
 30
44.695811
 11
0.0
 21
0.0
 31
51.080927
  0
ENDBLK
  8
0
  5
2361
  0
BLOCK
  8
0
  5
2460
  2
AME_MAT
 70
     0
 10
0.0
 20
0.0
 30
0.0
  1
AME_MAT
  3
AME_MAT
  0
ENDBLK
  8
0
  5
2461
  0
BLOCK
  8
0
  5
2465
  2
PICF45B
 70
    64
 10
0.0
 20
0.0
 30
0.0
  3
PICF45B
  0
LINE
  8
21
  5
4BA2
 10
185.911537
 20
303.796731
 30
0.0
 11
186.424437
 21
303.796731
 31
0.0
  0
LINE
  8
21
  5
4BA3
 10
185.61172
 20
303.507201
 30
0.0
 11
185.551989
 21
301.796731
 31
0.0
  0
LINE
  8
21
  5
4BA4
 10
183.921831
 20
301.796731
 30
0.0
 11
183.952774
 21
297.293295
 31
0.0
  0
LINE
  8
21
  5
4BA5
 10
184.452762
 20
296.796731
 30
0.0
 11
298.821831
 21
296.796731
 31
0.0
  0
LINE
  8
21
  5
4BA6
 10
183.921831
 20
301.796731
 30
0.0
 11
298.821831
 21
301.796731
 31
0.0
  0
LINE
  8
21
  5
4BA7
 10
185.261063
 20
296.301094
 30
0.0
 11
185.497238
 21
258.779278
 31
0.0
  0
ARC
  8
21
  5
4BA9
 10
187.497162
 20
258.796731
 30
0.0
 40
2.0
 50
180.5
 51
270.0
  0
ARC
  8
21
  5
4BAA
 10
184.761082
 20
296.296731
 30
0.0
 40
0.5
 50
0.5
 51
90.0
  0
ARC
  8
21
  5
4BAF
 10
185.911537
 20
303.496731
 30
0.0
 40
0.3
 50
90.0
 51
178.0
  0
LINE
  8
21
  5
4BB4
 10
187.821831
 20
255.496731
 30
0.0
 11
199.821831
 21
255.496731
 31
0.0
  0
LINE
  8
21
  5
4BB5
 10
199.821831
 20
255.496731
 30
0.0
 11
199.902215
 21
255.796731
 31
0.0
  0
LINE
  8
21
  5
4BB6
 10
187.821831
 20
255.496731
 30
0.0
 11
187.473497
 21
256.796731
 31
0.0
  0
ARC
  8
61
  5
4BE8
 10
193.821831
 20
147.416523
 30
0.0
 40
10.0
 50
180.0
 51
270.0
  0
LINE
  8
61
  5
4BE9
 10
183.821831
 20
177.416523
 30
0.0
 11
183.821831
 21
147.416523
 31
0.0
  0
LINE
  8
61
  5
4BEA
 10
188.121831
 20
177.416523
 30
0.0
 11
188.121831
 21
155.543023
 31
0.0
  0
ARC
  8
61
  5
4BEE
 10
193.821831
 20
147.416523
 30
0.0
 40
8.0
 50
0.0
 51
90.0
  0
LINE
  8
61
  5
4BF0
 10
193.821831
 20
137.416523
 30
0.0
 11
298.821831
 21
137.416523
 31
0.0
  0
CIRCLE
  8
62
  5
4BF3
 10
193.821831
 20
147.416523
 30
0.0
 40
6.0
  0
CIRCLE
  8
62
  5
4BF4
 10
193.821831
 20
147.416523
 30
0.0
 40
4.188125
  0
LINE
  8
61
  5
4BF7
 10
193.821831
 20
155.416523
 30
0.0
 11
188.721831
 21
155.416523
 31
0.0
  0
LINE
  8
61
  5
4BFB
 10
201.948331
 20
141.716523
 30
0.0
 11
298.821831
 21
141.716523
 31
0.0
  0
LINE
  8
61
  5
4BFF
 10
201.821831
 20
147.416523
 30
0.0
 11
201.821831
 21
142.316523
 31
0.0
  0
LINE
  8
61
  5
4C00
 10
201.821831
 20
137.416523
 30
0.0
 11
201.821831
 21
137.416523
 31
0.0
  0
LINE
  8
63
  6
DASHDOT
  5
4C01
 10
298.821831
 20
136.416523
 30
0.0
 11
298.821831
 21
177.416523
 31
0.0
  0
LINE
  8
63
  6
DASHDOT
  5
4C02
 10
298.821831
 20
177.416523
 30
0.0
 11
181.821831
 21
177.416523
 31
0.0
  0
LINE
  8
61
  5
4C03
 10
413.821831
 20
177.416523
 30
0.0
 11
413.821831
 21
147.416523
 31
0.0
  0
LINE
  8
61
  5
4C04
 10
409.521831
 20
177.416523
 30
0.0
 11
409.521831
 21
155.543023
 31
0.0
  0
LINE
  8
61
  5
4C09
 10
403.821831
 20
137.416523
 30
0.0
 11
298.821831
 21
137.416523
 31
0.0
  0
LINE
  8
61
  5
4C0A
 10
395.69533
 20
141.716523
 30
0.0
 11
298.821831
 21
141.716523
 31
0.0
  0
ARC
  8
61
  5
4C0B
 10
403.821831
 20
147.416523
 30
0.0
 40
10.0
 50
270.0
 51
0.0
  0
LINE
  8
61
  5
4C0D
 10
403.821831
 20
155.416523
 30
0.0
 11
408.921831
 21
155.416523
 31
0.0
  0
CIRCLE
  8
62
  5
4C0F
 10
403.821831
 20
147.416523
 30
0.0
 40
4.188125
  0
CIRCLE
  8
62
  5
4C10
 10
403.821831
 20
147.416523
 30
0.0
 40
6.0
  0
ARC
  8
61
  5
4C14
 10
403.821831
 20
147.416523
 30
0.0
 40
8.0
 50
90.0
 51
180.0
  0
LINE
  8
61
  5
4C19
 10
395.821831
 20
137.416523
 30
0.0
 11
395.821831
 21
137.416523
 31
0.0
  0
LINE
  8
61
  5
4C1A
 10
395.821831
 20
147.416523
 30
0.0
 11
395.821831
 21
142.316523
 31
0.0
  0
LINE
  8
61
  5
4C1C
 10
183.821831
 20
177.416523
 30
0.0
 11
183.821831
 21
207.416523
 31
0.0
  0
LINE
  8
61
  5
4C1D
 10
188.121831
 20
177.416523
 30
0.0
 11
188.121831
 21
199.290022
 31
0.0
  0
LINE
  8
61
  5
4C22
 10
193.821831
 20
217.416523
 30
0.0
 11
298.821831
 21
217.416523
 31
0.0
  0
LINE
  8
61
  5
4C23
 10
201.948331
 20
213.116523
 30
0.0
 11
298.821831
 21
213.116523
 31
0.0
  0
ARC
  8
61
  5
4C24
 10
193.821831
 20
207.416523
 30
0.0
 40
10.0
 50
90.0
 51
180.0
  0
LINE
  8
61
  5
4C26
 10
193.821831
 20
199.416523
 30
0.0
 11
188.721831
 21
199.416523
 31
0.0
  0
CIRCLE
  8
62
  5
4C28
 10
193.821831
 20
207.416523
 30
0.0
 40
4.188125
  0
CIRCLE
  8
62
  5
4C29
 10
193.821831
 20
207.416523
 30
0.0
 40
6.0
  0
ARC
  8
61
  5
4C2D
 10
193.821831
 20
207.416523
 30
0.0
 40
8.0
 50
270.0
 51
0.0
  0
LINE
  8
61
  5
4C32
 10
201.821831
 20
217.416523
 30
0.0
 11
201.821831
 21
217.416523
 31
0.0
  0
LINE
  8
61
  5
4C33
 10
201.821831
 20
207.416523
 30
0.0
 11
201.821831
 21
212.516523
 31
0.0
  0
LINE
  8
61
  5
4C35
 10
395.69533
 20
213.116523
 30
0.0
 11
298.821831
 21
213.116523
 31
0.0
  0
LINE
  8
61
  5
4C36
 10
403.821831
 20
217.416523
 30
0.0
 11
298.821831
 21
217.416523
 31
0.0
  0
LINE
  8
61
  5
4C3B
 10
409.521831
 20
177.416523
 30
0.0
 11
409.521831
 21
199.290022
 31
0.0
  0
LINE
  8
61
  5
4C3C
 10
413.821831
 20
177.416523
 30
0.0
 11
413.821831
 21
207.416523
 31
0.0
  0
ARC
  8
61
  5
4C3F
 10
403.821831
 20
207.416523
 30
0.0
 40
8.0
 50
180.0
 51
270.0
  0
ARC
  8
61
  5
4C40
 10
403.821831
 20
207.416523
 30
0.0
 40
10.0
 50
0.0
 51
90.0
  0
CIRCLE
  8
62
  5
4C45
 10
403.821831
 20
207.416523
 30
0.0
 40
6.0
  0
CIRCLE
  8
62
  5
4C46
 10
403.821831
 20
207.416523
 30
0.0
 40
4.188125
  0
LINE
  8
61
  5
4C49
 10
395.821831
 20
207.416523
 30
0.0
 11
395.821831
 21
212.516523
 31
0.0
  0
LINE
  8
61
  5
4C4A
 10
395.821831
 20
217.416523
 30
0.0
 11
395.821831
 21
217.416523
 31
0.0
  0
LINE
  8
61
  5
4C4C
 10
403.821831
 20
199.416523
 30
0.0
 11
408.921831
 21
199.416523
 31
0.0
  0
LINE
  8
63
  6
DASHDOT
  5
4C4E
 10
298.821831
 20
218.416523
 30
0.0
 11
298.821831
 21
177.416523
 31
0.0
  0
LINE
  8
63
  6
DASHDOT
  5
4C4F
 10
298.821831
 20
177.416523
 30
0.0
 11
415.821831
 21
177.416523
 31
0.0
  0
ARC
  8
51
  5
4C57
 10
26.04186
 20
149.455607
 30
0.0
 40
10.0
 50
270.0
 51
0.0
  0
ARC
  8
51
  5
4C5E
 10
-183.95814
 20
149.455607
 30
0.0
 40
10.0
 50
180.0
 51
270.0
  0
LINE
  8
53
  6
DASHDOT
  5
4C5F
 10
-78.95814
 20
179.455607
 30
0.0
 11
39.045186
 21
179.455607
 31
0.0
  0
LINE
  8
51
  5
4C61
 10
26.04186
 20
219.455607
 30
0.0
 11
-78.95814
 21
219.455607
 31
0.0
  0
LINE
  8
51
  5
4C64
 10
-193.95814
 20
179.455607
 30
0.0
 11
-193.95814
 21
209.455607
 31
0.0
  0
LINE
  8
53
  6
DASHDOT
  5
4C68
 10
-78.95814
 20
220.455607
 30
0.0
 11
-78.95814
 21
179.455607
 31
0.0
  0
LINE
  8
51
  5
4C6B
 10
-183.95814
 20
219.455607
 30
0.0
 11
-78.95814
 21
219.455607
 31
0.0
  0
ARC
  8
51
  5
4C6D
 10
-183.95814
 20
209.455607
 30
0.0
 40
10.0
 50
90.0
 51
180.0
  0
LINE
  8
51
  5
4C7B
 10
-175.95814
 20
219.455607
 30
0.0
 11
-175.95814
 21
219.455607
 31
0.0
  0
LINE
  8
53
  6
DASHDOT
  5
4C7E
 10
-78.95814
 20
179.455607
 30
0.0
 11
-195.95814
 21
179.455607
 31
0.0
  0
LINE
  8
51
  5
4C82
 10
-193.95814
 20
179.455607
 30
0.0
 11
-193.95814
 21
149.455607
 31
0.0
  0
LINE
  8
51
  5
4C8D
 10
36.04186
 20
179.455607
 30
0.0
 11
36.04186
 21
209.455607
 31
0.0
  0
ARC
  8
51
  5
4C91
 10
26.04186
 20
209.455607
 30
0.0
 40
10.0
 50
0.0
 51
90.0
  0
LINE
  8
51
  5
4C9B
 10
18.04186
 20
219.455607
 30
0.0
 11
18.04186
 21
219.455607
 31
0.0
  0
LINE
  8
51
  5
4CA0
 10
36.04186
 20
179.455607
 30
0.0
 11
36.04186
 21
149.455607
 31
0.0
  0
LINE
  8
51
  5
4CAC
 10
26.04186
 20
139.455607
 30
0.0
 11
-78.95814
 21
139.455607
 31
0.0
  0
LINE
  8
51
  5
4CAF
 10
-183.95814
 20
139.455607
 30
0.0
 11
-78.95814
 21
139.455607
 31
0.0
  0
LINE
  8
51
  5
4CB4
 10
-175.95814
 20
139.455607
 30
0.0
 11
-175.95814
 21
139.455607
 31
0.0
  0
LINE
  8
51
  5
4CB7
 10
18.04186
 20
139.455607
 30
0.0
 11
18.04186
 21
139.455607
 31
0.0
  0
CIRCLE
  8
51
  5
4CB8
 10
-183.95814
 20
149.455607
 30
0.0
 40
2.2
  0
CIRCLE
  8
51
  5
4CB9
 10
-183.95814
 20
149.455607
 30
0.0
 40
4.0
  0
CIRCLE
  8
51
  5
4CBA
 10
-183.95814
 20
149.455607
 30
0.0
 40
6.0
  0
CIRCLE
  8
51
  5
4CBB
 10
26.04186
 20
149.455607
 30
0.0
 40
6.0
  0
CIRCLE
  8
51
  5
4CBC
 10
26.04186
 20
149.455607
 30
0.0
 40
4.0
  0
CIRCLE
  8
51
  5
4CBD
 10
26.04186
 20
149.455607
 30
0.0
 40
2.2
  0
CIRCLE
  8
51
  5
4CBE
 10
-183.95814
 20
209.455607
 30
0.0
 40
6.0
  0
CIRCLE
  8
51
  5
4CBF
 10
-183.95814
 20
209.455607
 30
0.0
 40
4.0
  0
CIRCLE
  8
51
  5
4CC0
 10
-183.95814
 20
209.455607
 30
0.0
 40
2.2
  0
CIRCLE
  8
51
  5
4CC1
 10
26.04186
 20
209.455607
 30
0.0
 40
6.0
  0
CIRCLE
  8
51
  5
4CC2
 10
26.04186
 20
209.455607
 30
0.0
 40
4.0
  0
CIRCLE
  8
51
  5
4CC3
 10
26.04186
 20
209.455607
 30
0.0
 40
2.2
  0
LINE
  8
51
  5
4CC4
 10
-183.95814
 20
140.755607
 30
0.0
 11
-78.95814
 21
140.755607
 31
0.0
  0
LINE
  8
51
  5
4CC5
 10
26.04186
 20
140.755607
 30
0.0
 11
-78.95814
 21
140.755607
 31
0.0
  0
ARC
  8
51
  5
4CC6
 10
26.04186
 20
149.455607
 30
0.0
 40
8.7
 50
270.0
 51
0.0
  0
LINE
  8
51
  5
4CC7
 10
34.74186
 20
179.455607
 30
0.0
 11
34.74186
 21
149.455607
 31
0.0
  0
LINE
  8
51
  5
4CC8
 10
34.74186
 20
179.455607
 30
0.0
 11
34.74186
 21
209.455607
 31
0.0
  0
ARC
  8
51
  5
4CC9
 10
26.04186
 20
209.455607
 30
0.0
 40
8.7
 50
0.0
 51
90.0
  0
LINE
  8
51
  5
4CCA
 10
26.04186
 20
218.155607
 30
0.0
 11
-78.95814
 21
218.155607
 31
0.0
  0
LINE
  8
51
  5
4CCB
 10
-183.95814
 20
218.155607
 30
0.0
 11
-78.95814
 21
218.155607
 31
0.0
  0
ARC
  8
51
  5
4CCC
 10
-183.95814
 20
209.455607
 30
0.0
 40
8.7
 50
90.0
 51
180.0
  0
LINE
  8
51
  5
4CCD
 10
-192.65814
 20
179.455607
 30
0.0
 11
-192.65814
 21
209.455607
 31
0.0
  0
LINE
  8
51
  5
4CCE
 10
-192.65814
 20
179.455607
 30
0.0
 11
-192.65814
 21
149.455607
 31
0.0
  0
ARC
  8
51
  5
4CCF
 10
-183.95814
 20
149.455607
 30
0.0
 40
8.7
 50
180.0
 51
270.0
  0
LINE
  8
21
  5
4D26
 10
205.821831
 20
255.796731
 30
0.0
 11
201.321831
 21
255.796731
 31
0.0
  0
LINE
  8
21
  5
4D2D
 10
196.821831
 20
255.796731
 30
0.0
 11
201.321831
 21
255.796731
 31
0.0
  0
LINE
  8
21
  5
4D2E
 10
196.821831
 20
255.796731
 30
0.0
 11
196.553881
 21
256.796731
 31
0.0
  0
LINE
  8
21
  5
4D3A
 10
205.821831
 20
255.796731
 30
0.0
 11
206.08978
 21
256.796731
 31
0.0
  0
LINE
  8
23
  6
DASHDOT
  5
4D49
 10
298.821831
 20
305.796731
 30
0.0
 11
298.821831
 21
253.796731
 31
0.0
  0
LINE
  8
21
  5
4D4A
 10
187.497162
 20
256.796731
 30
0.0
 11
291.301697
 21
256.796731
 31
0.0
  0
ARC
  8
24
  5
4D4F
 10
298.821831
 20
234.63724
 30
0.0
 40
26.400758
 50
90.0
 51
107.639179
  0
ARC
  8
24
  5
4D50
 10
298.821831
 20
234.63724
 30
0.0
 40
23.400758
 50
90.0
 51
108.745362
  0
LINE
  8
24
  5
4D51
 10
395.821831
 20
303.796731
 30
0.0
 11
395.437848
 21
259.796731
 31
0.0
  0
LINE
  8
21
  5
4D54
 10
410.146499
 20
256.796731
 30
0.0
 11
306.341964
 21
256.796731
 31
0.0
  0
LINE
  8
24
  5
4D55
 10
395.437848
 20
259.796731
 30
0.0
 11
306.821831
 21
259.796731
 31
0.0
  0
LINE
  8
21
  5
4D59
 10
409.821831
 20
255.496731
 30
0.0
 11
397.821831
 21
255.496731
 31
0.0
  0
ARC
  8
21
  5
4D5A
 10
410.146499
 20
258.796731
 30
0.0
 40
2.0
 50
270.0
 51
359.5
  0
LINE
  8
21
  5
4D5B
 10
409.821831
 20
255.496731
 30
0.0
 11
410.170165
 21
256.796731
 31
0.0
  0
LINE
  8
21
  5
4D63
 10
400.821831
 20
255.796731
 30
0.0
 11
396.321831
 21
255.796731
 31
0.0
  0
LINE
  8
21
  5
4D65
 10
397.821831
 20
255.496731
 30
0.0
 11
397.741446
 21
255.796731
 31
0.0
  0
LINE
  8
21
  5
4D67
 10
400.821831
 20
255.796731
 30
0.0
 11
401.08978
 21
256.796731
 31
0.0
  0
LINE
  8
21
  5
4D6D
 10
391.821831
 20
255.796731
 30
0.0
 11
391.553881
 21
256.796731
 31
0.0
  0
LINE
  8
21
  5
4D6F
 10
391.821831
 20
255.796731
 30
0.0
 11
396.321831
 21
255.796731
 31
0.0
  0
ARC
  8
24
  5
4D72
 10
298.821831
 20
234.63724
 30
0.0
 40
26.400758
 50
72.360821
 51
90.0
  0
ARC
  8
24
  5
4D73
 10
298.821831
 20
234.63724
 30
0.0
 40
23.400758
 50
71.254638
 51
90.0
  0
LINE
  8
31
  5
4D97
 10
501.631412
 20
138.755755
 30
0.0
 11
464.109596
 21
139.09193
 31
0.0
  0
LINE
  8
33
  6
DASHDOT
  5
4D9A
 10
511.127049
 20
177.416523
 30
0.0
 11
459.127049
 21
177.416523
 31
0.0
  0
LINE
  8
31
  5
4D9B
 10
501.631412
 20
216.07729
 30
0.0
 11
464.109596
 21
215.741115
 31
0.0
  0
LINE
  8
31
  5
4DA4
 10
462.127049
 20
213.741191
 30
0.0
 11
462.127049
 21
194.491923
 31
0.0
  0
LINE
  8
31
  5
4DA5
 10
460.827049
 20
213.416523
 30
0.0
 11
460.827049
 21
201.416523
 31
0.0
  0
ARC
  8
31
  5
4DA6
 10
464.127049
 20
213.741191
 30
0.0
 40
2.0
 50
90.5
 51
180.0
  0
LINE
  8
31
  5
4DA7
 10
460.827049
 20
213.416523
 30
0.0
 11
462.127049
 21
213.764857
 31
0.0
  0
LINE
  8
31
  5
4DB1
 10
460.827049
 20
201.416523
 30
0.0
 11
462.127049
 21
201.068189
 31
0.0
  0
ARC
  8
31
  5
4DC9
 10
464.127049
 20
141.091854
 30
0.0
 40
2.0
 50
180.0
 51
269.5
  0
LINE
  8
31
  5
4DCC
 10
460.827049
 20
141.416523
 30
0.0
 11
460.827049
 21
153.416523
 31
0.0
  0
LINE
  8
31
  5
4DCD
 10
462.127049
 20
141.091854
 30
0.0
 11
462.127049
 21
158.036453
 31
0.0
  0
LINE
  8
31
  5
4DD5
 10
460.827049
 20
153.416523
 30
0.0
 11
462.127049
 21
153.764857
 31
0.0
  0
LINE
  8
31
  5
4DDB
 10
460.827049
 20
141.416523
 30
0.0
 11
462.127049
 21
141.068189
 31
0.0
  0
LINE
  8
31
  5
4DE2
 10
508.837518
 20
215.726633
 30
0.0
 11
507.127049
 21
215.786364
 31
0.0
  0
LINE
  8
31
  5
4DE3
 10
502.127049
 20
217.084222
 30
0.0
 11
502.127049
 21
177.416523
 31
0.0
  0
LINE
  8
31
  5
4DE4
 10
507.127049
 20
217.416523
 30
0.0
 11
507.127049
 21
177.416523
 31
0.0
  0
ARC
  8
31
  5
4DE5
 10
502.427049
 20
217.084222
 30
0.0
 40
0.3
 50
90.5
 51
180.0
  0
LINE
  8
31
  5
4DE6
 10
507.127049
 20
217.416523
 30
0.0
 11
502.424431
 21
217.38421
 31
0.0
  0
ARC
  8
31
  5
4DE8
 10
501.627049
 20
216.577271
 30
0.0
 40
0.5
 50
270.5
 51
0.0
  0
LINE
  8
31
  5
4DEA
 10
509.127049
 20
215.426816
 30
0.0
 11
509.127049
 21
177.416523
 31
0.0
  0
ARC
  8
31
  5
4DEB
 10
508.827049
 20
215.426816
 30
0.0
 40
0.3
 50
0.0
 51
88.0
  0
LINE
  8
31
  5
4DEC
 10
508.837518
 20
139.106412
 30
0.0
 11
507.127049
 21
139.046681
 31
0.0
  0
ARC
  8
31
  5
4DEF
 10
501.627049
 20
138.255774
 30
0.0
 40
0.5
 50
0.0
 51
89.5
  0
LINE
  8
31
  5
4DF0
 10
507.127049
 20
137.416523
 30
0.0
 11
502.424431
 21
137.448835
 31
0.0
  0
ARC
  8
31
  5
4DF1
 10
502.427049
 20
137.748823
 30
0.0
 40
0.3
 50
180.0
 51
269.5
  0
LINE
  8
31
  5
4DF2
 10
507.127049
 20
137.416523
 30
0.0
 11
507.127049
 21
177.416523
 31
0.0
  0
LINE
  8
31
  5
4DF3
 10
502.127049
 20
137.748823
 30
0.0
 11
502.127049
 21
138.255774
 31
0.0
  0
LINE
  8
31
  5
4DF4
 10
509.127049
 20
139.406229
 30
0.0
 11
509.127049
 21
177.416523
 31
0.0
  0
ARC
  8
31
  5
4DF6
 10
508.827049
 20
139.406229
 30
0.0
 40
0.3
 50
272.0
 51
0.0
  0
LINE
  8
21
  5
4DF7
 10
185.911537
 20
303.796731
 30
0.0
 11
298.821831
 21
303.796731
 31
0.0
  0
LINE
  8
21
  5
4DF8
 10
411.732124
 20
303.796731
 30
0.0
 11
298.821831
 21
303.796731
 31
0.0
  0
LINE
  8
31
  5
4DF9
 10
502.127049
 20
137.748823
 30
0.0
 11
502.127049
 21
177.416523
 31
0.0
  0
LINE
  8
34
  5
4E1D
 10
472.127049
 20
177.416523
 30
0.0
 11
472.127049
 21
181.416523
 31
0.0
  0
LINE
  8
31
  5
4E1E
 10
461.127049
 20
181.916523
 30
0.0
 11
461.127049
 21
177.416523
 31
0.0
  0
LINE
  8
34
  5
4E1F
 10
472.127049
 20
181.416523
 30
0.0
 11
465.583471
 21
181.989012
 31
0.0
  0
LINE
  8
31
  5
4E20
 10
461.127049
 20
181.916523
 30
0.0
 11
462.127049
 21
182.184472
 31
0.0
  0
LINE
  8
34
  5
4E22
 10
472.127049
 20
173.416523
 30
0.0
 11
465.583471
 21
172.844034
 31
0.0
  0
LINE
  8
31
  5
4E27
 10
461.127049
 20
172.916523
 30
0.0
 11
461.127049
 21
177.416523
 31
0.0
  0
LINE
  8
31
  5
4E2A
 10
461.127049
 20
172.916523
 30
0.0
 11
462.127049
 21
172.648573
 31
0.0
  0
LINE
  8
34
  5
4E2D
 10
472.127049
 20
177.416523
 30
0.0
 11
472.127049
 21
173.416523
 31
0.0
  0
LINE
  8
34
  5
4E30
 10
472.127049
 20
173.416523
 30
0.0
 11
472.127049
 21
167.416523
 31
0.0
  0
LINE
  8
34
  5
4E31
 10
472.127049
 20
167.416523
 30
0.0
 11
465.583471
 21
166.844034
 31
0.0
  0
LINE
  8
34
  5
4E32
 10
472.127049
 20
187.416523
 30
0.0
 11
465.583471
 21
187.989012
 31
0.0
  0
LINE
  8
34
  5
4E33
 10
472.127049
 20
181.416523
 30
0.0
 11
472.127049
 21
187.416523
 31
0.0
  0
ARC
  8
34
  5
4E34
 10
465.627049
 20
188.487109
 30
0.0
 40
0.5
 50
180.0
 51
265.0
  0
ARC
  8
34
  5
4E35
 10
465.627049
 20
166.345936
 30
0.0
 40
0.5
 50
95.0
 51
180.0
  0
ARC
  8
34
  5
4E6C
 10
465.627049
 20
182.487109
 30
0.0
 40
0.5
 50
180.0
 51
265.0
  0
ARC
  8
34
  5
4E6D
 10
465.627049
 20
172.345936
 30
0.0
 40
0.5
 50
95.0
 51
180.0
  0
LINE
  8
62
  5
4E6E
 10
409.559659
 20
209.170753
 30
0.0
 11
411.472269
 21
209.755496
 31
0.0
  0
LINE
  8
62
  5
4E6F
 10
405.576061
 20
213.154351
 30
0.0
 11
406.160804
 21
215.066961
 31
0.0
  0
ARC
  8
62
  5
4E70
 10
403.821831
 20
207.416523
 30
0.0
 40
8.0
 50
17.0
 51
73.0
  0
LINE
  8
62
  5
4E71
 10
188.183675
 20
145.364402
 30
0.0
 11
186.30429
 21
144.680361
 31
0.0
  0
LINE
  8
62
  5
4E72
 10
191.76971
 20
141.778367
 30
0.0
 11
191.085669
 21
139.898982
 31
0.0
  0
ARC
  8
62
  5
4E73
 10
193.821831
 20
147.416523
 30
0.0
 40
8.0
 50
200.0
 51
250.0
  0
ARC
  8
61
  5
4E74
 10
201.321831
 20
177.416523
 30
0.0
 40
4.0
 50
284.477512
 51
75.522488
  0
CIRCLE
  8
61
  5
4E75
 10
201.321831
 20
177.416523
 30
0.0
 40
2.0
  0
CIRCLE
  8
61
  5
4E76
 10
201.321831
 20
177.416523
 30
0.0
 40
1.5
  0
LINE
  8
61
  5
4E78
 10
202.321831
 20
187.416523
 30
0.0
 11
200.321831
 21
187.416523
 31
0.0
  0
LINE
  8
61
  5
4E79
 10
200.321831
 20
187.416523
 30
0.0
 11
200.321831
 21
181.289506
 31
0.0
  0
LINE
  8
61
  5
4E7B
 10
200.321831
 20
167.416523
 30
0.0
 11
202.321831
 21
167.416523
 31
0.0
  0
LINE
  8
61
  5
4E7C
 10
202.321831
 20
167.416523
 30
0.0
 11
202.321831
 21
173.543539
 31
0.0
  0
ARC
  8
61
  5
4E7D
 10
201.321831
 20
177.416523
 30
0.0
 40
4.0
 50
104.477512
 51
255.522488
  0
LINE
  8
61
  5
4E7F
 10
202.321831
 20
181.289506
 30
0.0
 11
202.321831
 21
187.416523
 31
0.0
  0
LINE
  8
61
  5
4E81
 10
200.321831
 20
173.543539
 30
0.0
 11
200.321831
 21
167.416523
 31
0.0
  0
LINE
  8
61
  5
4EFF
 10
397.321831
 20
187.416523
 30
0.0
 11
397.321831
 21
181.289506
 31
0.0
  0
LINE
  8
61
  5
4F00
 10
395.321831
 20
181.289506
 30
0.0
 11
395.321831
 21
187.416523
 31
0.0
  0
LINE
  8
61
  5
4F01
 10
397.321831
 20
173.543539
 30
0.0
 11
397.321831
 21
167.416523
 31
0.0
  0
LINE
  8
61
  5
4F02
 10
395.321831
 20
167.416523
 30
0.0
 11
395.321831
 21
173.543539
 31
0.0
  0
LINE
  8
61
  5
4F03
 10
397.321831
 20
167.416523
 30
0.0
 11
395.321831
 21
167.416523
 31
0.0
  0
CIRCLE
  8
61
  5
4F04
 10
396.321831
 20
177.416523
 30
0.0
 40
1.5
  0
CIRCLE
  8
61
  5
4F05
 10
396.321831
 20
177.416523
 30
0.0
 40
2.0
  0
ARC
  8
61
  5
4F06
 10
396.321831
 20
177.416523
 30
0.0
 40
4.0
 50
284.477512
 51
75.522488
  0
ARC
  8
61
  5
4F07
 10
396.321831
 20
177.416523
 30
0.0
 40
4.0
 50
104.477512
 51
255.522488
  0
LINE
  8
61
  5
4F08
 10
395.321831
 20
187.416523
 30
0.0
 11
397.321831
 21
187.416523
 31
0.0
  0
CIRCLE
  8
51
  5
4F09
 10
-176.45814
 20
179.455607
 30
0.0
 40
4.5
  0
CIRCLE
  8
51
  5
4F0A
 10
18.54186
 20
179.455607
 30
0.0
 40
4.5
  0
LINE
  8
21
  5
5065
 10
291.301697
 20
256.796731
 30
0.0
 11
298.821831
 21
256.796731
 31
0.0
  0
LINE
  8
21
  5
5066
 10
306.341964
 20
256.796731
 30
0.0
 11
298.821831
 21
256.796731
 31
0.0
  0
LINE
  8
31
  5
5103
 10
462.127049
 20
194.491923
 30
0.0
 11
462.127049
 21
177.416523
 31
0.0
  0
LINE
  8
31
  5
5104
 10
462.127049
 20
158.036453
 30
0.0
 11
462.127049
 21
177.416523
 31
0.0
  0
LINE
  8
53
  6
DASHDOT
  5
1343B
 10
-78.95814
 20
136.719148
 30
0.0
 11
-78.95814
 21
179.455607
 31
0.0
  0
ARC
  8
21
  5
22B60
 10
184.452762
 20
297.296731
 30
0.0
 40
0.5
 50
180.39368
 51
270.0
  0
LINE
  8
21
  5
22D14
 10
412.031941
 20
303.507201
 30
0.0
 11
412.091672
 21
301.796731
 31
0.0
  0
LINE
  8
21
  5
22D16
 10
413.721831
 20
301.796731
 30
0.0
 11
298.821831
 21
301.796731
 31
0.0
  0
ARC
  8
21
  5
22D17
 10
413.190899
 20
297.296731
 30
0.0
 40
0.5
 50
270.0
 51
359.60632
  0
LINE
  8
21
  5
22D18
 10
413.721831
 20
301.796731
 30
0.0
 11
413.690887
 21
297.293295
 31
0.0
  0
ARC
  8
21
  5
22D19
 10
412.882579
 20
296.296731
 30
0.0
 40
0.5
 50
90.0
 51
179.5
  0
LINE
  8
21
  5
22D1A
 10
413.190899
 20
296.796731
 30
0.0
 11
298.821831
 21
296.796731
 31
0.0
  0
ARC
  8
21
  5
22D1D
 10
411.732124
 20
303.496731
 30
0.0
 40
0.3
 50
2.0
 51
90.0
  0
LINE
  8
21
  5
22D1E
 10
411.732124
 20
303.796731
 30
0.0
 11
411.219224
 21
303.796731
 31
0.0
  0
LINE
  8
21
  5
22D21
 10
412.382598
 20
296.301094
 30
0.0
 11
412.146423
 21
258.779278
 31
0.0
  0
ARC
  8
62
  5
231A1
 10
193.821831
 20
147.416523
 30
0.0
 40
6.9
 50
0.0
 51
90.0
  0
LINE
  8
62
  5
231A2
 10
203.821831
 20
139.216523
 30
0.0
 11
298.821831
 21
139.216523
 31
0.0
  0
LINE
  8
62
  5
231A3
 10
185.621831
 20
177.416523
 30
0.0
 11
185.621831
 21
157.416523
 31
0.0
  0
LINE
  8
61
  5
231A4
 10
203.821831
 20
140.316523
 30
0.0
 11
298.821831
 21
140.316523
 31
0.0
  0
LINE
  8
61
  5
231A5
 10
186.721831
 20
177.416523
 30
0.0
 11
186.721831
 21
157.416523
 31
0.0
  0
LINE
  8
62
  5
231A6
 10
200.721831
 20
147.416523
 30
0.0
 11
200.721831
 21
142.316523
 31
0.0
  0
LINE
  8
62
  5
231A7
 10
193.821831
 20
154.316523
 30
0.0
 11
188.721831
 21
154.316523
 31
0.0
  0
ARC
  8
61
  5
231A8
 10
203.821831
 20
142.316523
 30
0.0
 40
2.0
 50
180.0
 51
270.0
  0
ARC
  8
61
  5
231AA
 10
188.721831
 20
157.416523
 30
0.0
 40
2.0
 50
180.0
 51
270.0
  0
ARC
  8
62
  5
231AB
 10
188.721831
 20
157.416523
 30
0.0
 40
3.1
 50
180.0
 51
270.0
  0
ARC
  8
62
  5
231AC
 10
203.821831
 20
142.316523
 30
0.0
 40
3.1
 50
180.0
 51
270.0
  0
LINE
  8
62
  5
231AD
 10
393.821831
 20
139.216523
 30
0.0
 11
298.821831
 21
139.216523
 31
0.0
  0
LINE
  8
61
  5
231AE
 10
393.821831
 20
140.316523
 30
0.0
 11
298.821831
 21
140.316523
 31
0.0
  0
ARC
  8
62
  5
231AF
 10
393.821831
 20
142.316523
 30
0.0
 40
3.1
 50
270.0
 51
0.0
  0
LINE
  8
62
  5
231B0
 10
396.921831
 20
147.416523
 30
0.0
 11
396.921831
 21
142.316523
 31
0.0
  0
ARC
  8
62
  5
231B1
 10
403.821831
 20
147.416523
 30
0.0
 40
6.9
 50
90.0
 51
180.0
  0
LINE
  8
62
  5
231B2
 10
403.821831
 20
154.316523
 30
0.0
 11
408.921831
 21
154.316523
 31
0.0
  0
ARC
  8
62
  5
231B3
 10
408.921831
 20
157.416523
 30
0.0
 40
3.1
 50
270.0
 51
0.0
  0
LINE
  8
62
  5
231B4
 10
412.021831
 20
177.416523
 30
0.0
 11
412.021831
 21
157.416523
 31
0.0
  0
LINE
  8
61
  5
231B5
 10
410.921831
 20
177.416523
 30
0.0
 11
410.921831
 21
157.416523
 31
0.0
  0
LINE
  8
62
  5
231B6
 10
203.821831
 20
215.616523
 30
0.0
 11
298.821831
 21
215.616523
 31
0.0
  0
LINE
  8
61
  5
231B7
 10
203.821831
 20
214.516523
 30
0.0
 11
298.821831
 21
214.516523
 31
0.0
  0
ARC
  8
62
  5
231B8
 10
203.821831
 20
212.516523
 30
0.0
 40
3.1
 50
90.0
 51
180.0
  0
LINE
  8
62
  5
231B9
 10
200.721831
 20
207.416523
 30
0.0
 11
200.721831
 21
212.516523
 31
0.0
  0
ARC
  8
62
  5
231BA
 10
193.821831
 20
207.416523
 30
0.0
 40
6.9
 50
270.0
 51
0.0
  0
LINE
  8
62
  5
231BB
 10
193.821831
 20
200.516523
 30
0.0
 11
188.721831
 21
200.516523
 31
0.0
  0
ARC
  8
62
  5
231BC
 10
188.721831
 20
197.416523
 30
0.0
 40
3.1
 50
90.0
 51
180.0
  0
LINE
  8
62
  5
231BD
 10
185.621831
 20
177.416523
 30
0.0
 11
185.621831
 21
197.416523
 31
0.0
  0
LINE
  8
61
  5
231BE
 10
186.721831
 20
177.416523
 30
0.0
 11
186.721831
 21
197.416523
 31
0.0
  0
LINE
  8
62
  5
231BF
 10
393.821831
 20
215.616523
 30
0.0
 11
298.821831
 21
215.616523
 31
0.0
  0
LINE
  8
61
  5
231C0
 10
393.821831
 20
214.516523
 30
0.0
 11
298.821831
 21
214.516523
 31
0.0
  0
ARC
  8
62
  5
231C1
 10
393.821831
 20
212.516523
 30
0.0
 40
3.1
 50
0.0
 51
90.0
  0
LINE
  8
62
  5
231C2
 10
396.921831
 20
207.416523
 30
0.0
 11
396.921831
 21
212.516523
 31
0.0
  0
ARC
  8
62
  5
231C3
 10
403.821831
 20
207.416523
 30
0.0
 40
6.9
 50
180.0
 51
270.0
  0
LINE
  8
62
  5
231C4
 10
403.821831
 20
200.516523
 30
0.0
 11
408.921831
 21
200.516523
 31
0.0
  0
ARC
  8
62
  5
231C5
 10
408.921831
 20
197.416523
 30
0.0
 40
3.1
 50
0.0
 51
90.0
  0
LINE
  8
62
  5
231C6
 10
412.021831
 20
177.416523
 30
0.0
 11
412.021831
 21
197.416523
 31
0.0
  0
LINE
  8
61
  5
231C7
 10
410.921831
 20
177.416523
 30
0.0
 11
410.921831
 21
197.416523
 31
0.0
  0
ARC
  8
61
  5
231C8
 10
393.821831
 20
142.316523
 30
0.0
 40
2.0
 50
270.0
 51
0.0
  0
ARC
  8
61
  5
231C9
 10
408.921831
 20
157.416523
 30
0.0
 40
2.0
 50
270.0
 51
0.0
  0
ARC
  8
61
  5
231CA
 10
393.821831
 20
212.516523
 30
0.0
 40
2.0
 50
0.0
 51
90.0
  0
ARC
  8
61
  5
231CB
 10
408.921831
 20
197.416523
 30
0.0
 40
2.0
 50
0.0
 51
90.0
  0
ARC
  8
61
  5
231CC
 10
188.721831
 20
197.416523
 30
0.0
 40
2.0
 50
90.0
 51
180.0
  0
ARC
  8
61
  5
231CD
 10
203.821831
 20
212.516523
 30
0.0
 40
2.0
 50
90.0
 51
180.0
  0
LINE
  8
34
  5
234DA
 10
509.127049
 20
155.316523
 30
0.0
 11
465.622685
 21
155.696179
 31
0.0
  0
LINE
  8
34
  5
234DC
 10
465.127049
 20
156.19616
 30
0.0
 11
465.127049
 21
177.416523
 31
0.0
  0
LINE
  8
34
  5
234E2
 10
465.127049
 20
198.636885
 30
0.0
 11
465.127049
 21
177.416523
 31
0.0
  0
LINE
  8
34
  5
234E3
 10
509.127049
 20
199.516523
 30
0.0
 11
465.622685
 21
199.136866
 31
0.0
  0
TEXT
  8
L20
  5
23665
 10
-157.867699
 20
272.812804
 30
0.0
 40
11.7
  1
FIBOX PICCOLO F 230x80x45 BASE
  0
ARC
  8
34
  5
23666
 10
465.627049
 20
156.19616
 30
0.0
 40
0.5
 50
180.0
 51
269.5
  0
ARC
  8
34
  5
23667
 10
465.627049
 20
198.636885
 30
0.0
 40
0.5
 50
90.5
 51
180.0
  0
LINE
  8
24
  5
23668
 10
202.205813
 20
259.796731
 30
0.0
 11
290.821831
 21
259.796731
 31
0.0
  0
LINE
  8
24
  5
23669
 10
201.821831
 20
303.796731
 30
0.0
 11
202.205813
 21
259.796731
 31
0.0
  0
CIRCLE
  8
62
  5
2366D
 10
298.821831
 20
177.416523
 30
0.0
 40
8.0
  0
LINE
  8
14
  5
23674
 10
202.205813
 20
95.036314
 30
0.0
 11
290.821831
 21
95.036314
 31
0.0
  0
LINE
  8
11
  5
23675
 10
184.452762
 20
58.036314
 30
0.0
 11
298.821831
 21
58.036314
 31
0.0
  0
LINE
  8
11
  5
23676
 10
183.921831
 20
53.036314
 30
0.0
 11
298.821831
 21
53.036314
 31
0.0
  0
LINE
  8
11
  5
23677
 10
185.911537
 20
51.036314
 30
0.0
 11
298.821831
 21
51.036314
 31
0.0
  0
LINE
  8
11
  5
23678
 10
187.497162
 20
98.036314
 30
0.0
 11
291.301697
 21
98.036314
 31
0.0
  0
LINE
  8
14
  5
23679
 10
395.437848
 20
95.036314
 30
0.0
 11
306.821831
 21
95.036314
 31
0.0
  0
LINE
  8
11
  5
2367A
 10
411.732124
 20
51.036314
 30
0.0
 11
298.821831
 21
51.036314
 31
0.0
  0
LINE
  8
11
  5
2367B
 10
410.146499
 20
98.036314
 30
0.0
 11
306.341964
 21
98.036314
 31
0.0
  0
LINE
  8
11
  5
2367C
 10
413.721831
 20
53.036314
 30
0.0
 11
298.821831
 21
53.036314
 31
0.0
  0
LINE
  8
11
  5
2367D
 10
413.190899
 20
58.036314
 30
0.0
 11
298.821831
 21
58.036314
 31
0.0
  0
LINE
  8
14
  5
2367E
 10
395.821831
 20
51.036314
 30
0.0
 11
395.437848
 21
95.036314
 31
0.0
  0
LINE
  8
11
  5
2367F
 10
412.382598
 20
58.531951
 30
0.0
 11
412.146423
 21
96.053767
 31
0.0
  0
ARC
  8
11
  5
23680
 10
410.146499
 20
96.036314
 30
0.0
 40
2.0
 50
0.5
 51
90.0
  0
LINE
  8
11
  5
23682
 10
400.821831
 20
99.036314
 30
0.0
 11
396.321831
 21
99.036314
 31
0.0
  0
LINE
  8
11
  5
23683
 10
409.821831
 20
99.336314
 30
0.0
 11
397.821831
 21
99.336314
 31
0.0
  0
LINE
  8
11
  5
23684
 10
409.821831
 20
99.336314
 30
0.0
 11
410.170165
 21
98.036314
 31
0.0
  0
LINE
  8
11
  5
23685
 10
400.821831
 20
99.036314
 30
0.0
 11
401.08978
 21
98.036314
 31
0.0
  0
LINE
  8
11
  5
23687
 10
391.821831
 20
99.036314
 30
0.0
 11
391.553881
 21
98.036314
 31
0.0
  0
LINE
  8
11
  5
23688
 10
391.821831
 20
99.036314
 30
0.0
 11
396.321831
 21
99.036314
 31
0.0
  0
LINE
  8
11
  5
23689
 10
397.821831
 20
99.336314
 30
0.0
 11
397.741446
 21
99.036314
 31
0.0
  0
ARC
  8
11
  5
2368B
 10
412.882579
 20
58.536314
 30
0.0
 40
0.5
 50
180.5
 51
270.0
  0
ARC
  8
11
  5
2368C
 10
413.190899
 20
57.536314
 30
0.0
 40
0.5
 50
0.39368
 51
90.0
  0
LINE
  8
11
  5
2368D
 10
413.721831
 20
53.036314
 30
0.0
 11
413.690887
 21
57.53975
 31
0.0
  0
LINE
  8
11
  5
2368E
 10
412.031941
 20
51.325845
 30
0.0
 11
412.091672
 21
53.036314
 31
0.0
  0
ARC
  8
11
  5
2368F
 10
411.732124
 20
51.336314
 30
0.0
 40
0.3
 50
270.0
 51
358.0
  0
LINE
  8
11
  5
23690
 10
411.732124
 20
51.036314
 30
0.0
 11
411.219224
 21
51.036314
 31
0.0
  0
LINE
  8
13
  6
DASHDOT
  5
23691
 10
298.821831
 20
49.036314
 30
0.0
 11
298.821831
 21
101.036314
 31
0.0
  0
LINE
  8
11
  5
23692
 10
306.341964
 20
98.036314
 30
0.0
 11
298.821831
 21
98.036314
 31
0.0
  0
ARC
  8
14
  5
23693
 10
298.821831
 20
120.195806
 30
0.0
 40
23.400758
 50
270.0
 51
288.745362
  0
ARC
  8
14
  5
23694
 10
298.821831
 20
120.195806
 30
0.0
 40
26.400758
 50
270.0
 51
287.639179
  0
ARC
  8
14
  5
23695
 10
298.821831
 20
120.195806
 30
0.0
 40
26.400758
 50
252.360821
 51
270.0
  0
LINE
  8
11
  5
23696
 10
291.301697
 20
98.036314
 30
0.0
 11
298.821831
 21
98.036314
 31
0.0
  0
ARC
  8
14
  5
23697
 10
298.821831
 20
120.195806
 30
0.0
 40
23.400758
 50
251.254638
 51
270.0
  0
LINE
  8
14
  5
23698
 10
201.821831
 20
51.036314
 30
0.0
 11
202.205813
 21
95.036314
 31
0.0
  0
LINE
  8
11
  5
23699
 10
185.261063
 20
58.531951
 30
0.0
 11
185.497238
 21
96.053767
 31
0.0
  0
LINE
  8
11
  5
2369A
 10
187.821831
 20
99.336314
 30
0.0
 11
199.821831
 21
99.336314
 31
0.0
  0
LINE
  8
11
  5
2369C
 10
205.821831
 20
99.036314
 30
0.0
 11
201.321831
 21
99.036314
 31
0.0
  0
LINE
  8
11
  5
2369D
 10
205.821831
 20
99.036314
 30
0.0
 11
206.08978
 21
98.036314
 31
0.0
  0
LINE
  8
11
  5
2369F
 10
196.821831
 20
99.036314
 30
0.0
 11
201.321831
 21
99.036314
 31
0.0
  0
LINE
  8
11
  5
236A0
 10
199.821831
 20
99.336314
 30
0.0
 11
199.902215
 21
99.036314
 31
0.0
  0
LINE
  8
11
  5
236A1
 10
196.821831
 20
99.036314
 30
0.0
 11
196.553881
 21
98.036314
 31
0.0
  0
LINE
  8
11
  5
236A3
 10
187.821831
 20
99.336314
 30
0.0
 11
187.473497
 21
98.036314
 31
0.0
  0
ARC
  8
11
  5
236A4
 10
187.497162
 20
96.036314
 30
0.0
 40
2.0
 50
90.0
 51
179.5
  0
LINE
  8
11
  5
236A5
 10
185.61172
 20
51.325845
 30
0.0
 11
185.551989
 21
53.036314
 31
0.0
  0
ARC
  8
11
  5
236A6
 10
184.761082
 20
58.536314
 30
0.0
 40
0.5
 50
270.0
 51
359.5
  0
LINE
  8
11
  5
236A7
 10
183.921831
 20
53.036314
 30
0.0
 11
183.952774
 21
57.53975
 31
0.0
  0
ARC
  8
11
  5
236A8
 10
184.452762
 20
57.536314
 30
0.0
 40
0.5
 50
90.0
 51
179.60632
  0
LINE
  8
11
  5
236A9
 10
185.911537
 20
51.036314
 30
0.0
 11
186.424437
 21
51.036314
 31
0.0
  0
ARC
  8
11
  5
236AA
 10
185.911537
 20
51.336314
 30
0.0
 40
0.3
 50
182.0
 51
270.0
  0
LINE
  8
41
  5
236AB
 10
95.516613
 20
217.084222
 30
0.0
 11
95.516613
 21
177.416523
 31
0.0
  0
LINE
  8
41
  5
236AC
 10
88.516613
 20
215.426816
 30
0.0
 11
88.516613
 21
177.416523
 31
0.0
  0
LINE
  8
41
  5
236AD
 10
90.516613
 20
217.416523
 30
0.0
 11
90.516613
 21
177.416523
 31
0.0
  0
LINE
  8
41
  5
236AE
 10
135.516613
 20
213.741191
 30
0.0
 11
135.516613
 21
196.796593
 31
0.0
  0
LINE
  8
41
  5
236AF
 10
136.816613
 20
213.416523
 30
0.0
 11
136.816613
 21
201.416523
 31
0.0
  0
LINE
  8
41
  5
236B0
 10
96.012249
 20
216.07729
 30
0.0
 11
133.534066
 21
215.741115
 31
0.0
  0
LINE
  8
41
  5
236B1
 10
136.816613
 20
213.416523
 30
0.0
 11
135.516613
 21
213.764857
 31
0.0
  0
ARC
  8
41
  5
236B2
 10
133.516613
 20
213.741191
 30
0.0
 40
2.0
 50
0.0
 51
89.5
  0
LINE
  8
41
  5
236B3
 10
90.516613
 20
217.416523
 30
0.0
 11
95.219231
 21
217.38421
 31
0.0
  0
LINE
  8
41
  5
236B4
 10
95.516613
 20
217.084222
 30
0.0
 11
95.516613
 21
216.577271
 31
0.0
  0
ARC
  8
41
  5
236B5
 10
95.216613
 20
217.084222
 30
0.0
 40
0.3
 50
0.0
 51
89.5
  0
ARC
  8
41
  5
236B6
 10
96.016613
 20
216.577271
 30
0.0
 40
0.5
 50
180.0
 51
269.5
  0
ARC
  8
41
  5
236B7
 10
88.816613
 20
215.426816
 30
0.0
 40
0.3
 50
92.0
 51
180.0
  0
LINE
  8
41
  5
236B8
 10
88.806143
 20
215.726633
 30
0.0
 11
90.516613
 21
215.786364
 31
0.0
  0
LINE
  8
44
  5
236B9
 10
88.516613
 20
155.316523
 30
0.0
 11
132.020976
 21
155.696179
 31
0.0
  0
LINE
  8
44
  5
236BA
 10
88.516613
 20
199.516523
 30
0.0
 11
132.020976
 21
199.136866
 31
0.0
  0
LINE
  8
41
  5
236BB
 10
96.012249
 20
138.755755
 30
0.0
 11
133.534066
 21
139.09193
 31
0.0
  0
LINE
  8
43
  6
DASHDOT
  5
236BC
 10
86.516613
 20
177.416523
 30
0.0
 11
138.516613
 21
177.416523
 31
0.0
  0
LINE
  8
41
  5
236BD
 10
135.516613
 20
141.091854
 30
0.0
 11
135.516613
 21
160.341123
 31
0.0
  0
LINE
  8
44
  5
236BE
 10
132.516613
 20
198.636885
 30
0.0
 11
132.516613
 21
177.416523
 31
0.0
  0
LINE
  8
41
  5
236BF
 10
135.516613
 20
196.796593
 30
0.0
 11
135.516613
 21
177.416523
 31
0.0
  0
LINE
  8
44
  5
236C0
 10
125.516613
 20
177.416523
 30
0.0
 11
125.516613
 21
181.416523
 31
0.0
  0
LINE
  8
41
  5
236C1
 10
136.516613
 20
181.916523
 30
0.0
 11
136.516613
 21
177.416523
 31
0.0
  0
LINE
  8
41
  5
236C2
 10
136.516613
 20
181.916523
 30
0.0
 11
135.516613
 21
182.184472
 31
0.0
  0
LINE
  8
41
  5
236C3
 10
136.816613
 20
201.416523
 30
0.0
 11
135.516613
 21
201.068189
 31
0.0
  0
ARC
  8
44
  5
236C4
 10
132.016613
 20
198.636885
 30
0.0
 40
0.5
 50
0.0
 51
89.5
  0
LINE
  8
44
  5
236C5
 10
125.516613
 20
181.416523
 30
0.0
 11
125.516613
 21
187.416523
 31
0.0
  0
LINE
  8
44
  5
236C6
 10
125.516613
 20
187.416523
 30
0.0
 11
132.06019
 21
187.989012
 31
0.0
  0
ARC
  8
44
  5
236C7
 10
132.016613
 20
188.487109
 30
0.0
 40
0.5
 50
275.0
 51
0.0
  0
LINE
  8
44
  5
236C8
 10
125.516613
 20
181.416523
 30
0.0
 11
132.06019
 21
181.989012
 31
0.0
  0
ARC
  8
44
  5
236C9
 10
132.016613
 20
182.487109
 30
0.0
 40
0.5
 50
275.0
 51
0.0
  0
LINE
  8
41
  5
236CA
 10
136.516613
 20
172.916523
 30
0.0
 11
135.516613
 21
172.648573
 31
0.0
  0
LINE
  8
41
  5
236CB
 10
136.516613
 20
172.916523
 30
0.0
 11
136.516613
 21
177.416523
 31
0.0
  0
LINE
  8
44
  5
236CC
 10
132.516613
 20
156.19616
 30
0.0
 11
132.516613
 21
177.416523
 31
0.0
  0
LINE
  8
41
  5
236CD
 10
135.516613
 20
160.341123
 30
0.0
 11
135.516613
 21
177.416523
 31
0.0
  0
LINE
  8
44
  5
236CE
 10
125.516613
 20
173.416523
 30
0.0
 11
125.516613
 21
167.416523
 31
0.0
  0
LINE
  8
44
  5
236CF
 10
125.516613
 20
173.416523
 30
0.0
 11
132.06019
 21
172.844034
 31
0.0
  0
ARC
  8
44
  5
236D0
 10
132.016613
 20
172.345936
 30
0.0
 40
0.5
 50
0.0
 51
85.0
  0
LINE
  8
44
  5
236D1
 10
125.516613
 20
177.416523
 30
0.0
 11
125.516613
 21
173.416523
 31
0.0
  0
LINE
  8
44
  5
236D2
 10
125.516613
 20
167.416523
 30
0.0
 11
132.06019
 21
166.844034
 31
0.0
  0
ARC
  8
44
  5
236D3
 10
132.016613
 20
166.345936
 30
0.0
 40
0.5
 50
0.0
 51
85.0
  0
ARC
  8
44
  5
236D4
 10
132.016613
 20
156.19616
 30
0.0
 40
0.5
 50
270.5
 51
0.0
  0
LINE
  8
41
  5
236D5
 10
136.816613
 20
153.416523
 30
0.0
 11
135.516613
 21
153.764857
 31
0.0
  0
LINE
  8
41
  5
236D6
 10
136.816613
 20
141.416523
 30
0.0
 11
135.516613
 21
141.068189
 31
0.0
  0
LINE
  8
41
  5
236D7
 10
136.816613
 20
141.416523
 30
0.0
 11
136.816613
 21
153.416523
 31
0.0
  0
ARC
  8
41
  5
236D8
 10
133.516613
 20
141.091854
 30
0.0
 40
2.0
 50
270.5
 51
0.0
  0
LINE
  8
41
  5
236D9
 10
88.516613
 20
139.406229
 30
0.0
 11
88.516613
 21
177.416523
 31
0.0
  0
LINE
  8
41
  5
236DA
 10
90.516613
 20
137.416523
 30
0.0
 11
90.516613
 21
177.416523
 31
0.0
  0
LINE
  8
41
  5
236DB
 10
95.516613
 20
137.748823
 30
0.0
 11
95.516613
 21
177.416523
 31
0.0
  0
LINE
  8
41
  5
236DC
 10
90.516613
 20
137.416523
 30
0.0
 11
95.219231
 21
137.448835
 31
0.0
  0
ARC
  8
41
  5
236DD
 10
96.016613
 20
138.255774
 30
0.0
 40
0.5
 50
90.5
 51
180.0
  0
ARC
  8
41
  5
236DE
 10
95.216613
 20
137.748823
 30
0.0
 40
0.3
 50
270.5
 51
0.0
  0
ARC
  8
41
  5
236DF
 10
88.816613
 20
139.406229
 30
0.0
 40
0.3
 50
180.0
 51
268.0
  0
LINE
  8
41
  5
236E0
 10
88.806143
 20
139.106412
 30
0.0
 11
90.516613
 21
139.046681
 31
0.0
  0
ENDBLK
  8
0
  5
236E2
  0
ENDSEC
  0
SECTION
  2
ENTITIES
  0
VIEWPORT
  8
0
  5
1
 67
     1
 68
     1
 10
210.0
 20
152.094241
 30
0.0
 40
420.0
 41
304.188482
 69
     1
1001
ACAD
1000
MVIEW
1002
{
1070
    16
1010
0.0
1020
0.0
1030
0.0
1010
0.0
1020
0.0
1030
1.0
1040
0.0
1040
304.188482
1040
210.0
1040
152.094241
1040
50.0
1040
0.0
1040
0.0
1070
     0
1070
   100
1070
     1
1070
     1
1070
     1
1070
     0
1070
     0
1070
     0
1040
0.0
1040
0.0
1040
0.0
1040
1.0
1040
1.0
1040
0.0
1040
0.0
1070
     0
1002
{
1002
}
1002
}
  0
INSERT
  8
L1
  5
236E3
  2
PICF45B
 10
0.0
 20
0.0
 30
0.0
  0
ENDSEC
  0
EOF
