  0
SECTION
  2
HEADER
  9
$ACADVER
  1
AC1009
  9
$INSBASE
 10
0.0
 20
0.0
 30
0.0
  9
$EXTMIN
 10
-226.0
 20
30.500134
 30
0.0
  9
$EXTMAX
 10
420.0
 20
256.861484
 30
0.0
  9
$LIMMIN
 10
0.0
 20
0.0
  9
$LIMMAX
 10
420.0
 20
297.0
  9
$ORTHOMODE
 70
     0
  9
$REGENMODE
 70
     1
  9
$FILLMODE
 70
     1
  9
$QTEXTMODE
 70
     0
  9
$MIRRTEXT
 70
     1
  9
$DRAGMODE
 70
     2
  9
$LTSCALE
 40
7.0
  9
$OSMODE
 70
     0
  9
$ATTMODE
 70
     1
  9
$TEXTSIZE
 40
3.5
  9
$TRACEWID
 40
0.05
  9
$TEXTSTYLE
  7
STANDARD
  9
$CLAYER
  8
L1
  9
$CELTYPE
  6
BYLAYER
  9
$CECOLOR
 62
   256
  9
$DIMSCALE
 40
1.0
  9
$DIMASZ
 40
3.5
  9
$DIMEXO
 40
0.0
  9
$DIMDLI
 40
10.0
  9
$DIMRND
 40
0.0
  9
$DIMDLE
 40
0.0
  9
$DIMEXE
 40
2.0
  9
$DIMTP
 40
0.0
  9
$DIMTM
 40
0.0
  9
$DIMTXT
 40
3.5
  9
$DIMCEN
 40
2.5
  9
$DIMTSZ
 40
0.0
  9
$DIMTOL
 70
     0
  9
$DIMLIM
 70
     0
  9
$DIMTIH
 70
     0
  9
$DIMTOH
 70
     0
  9
$DIMSE1
 70
     0
  9
$DIMSE2
 70
     0
  9
$DIMTAD
 70
     1
  9
$DIMZIN
 70
     8
  9
$DIMBLK
  1

  9
$DIMASO
 70
     1
  9
$DIMSHO
 70
     1
  9
$DIMPOST
  1

  9
$DIMAPOST
  1

  9
$DIMALT
 70
     0
  9
$DIMALTD
 70
     2
  9
$DIMALTF
 40
25.4
  9
$DIMLFAC
 40
1.0
  9
$DIMTOFL
 70
     1
  9
$DIMTVP
 40
0.0
  9
$DIMTIX
 70
     0
  9
$DIMSOXD
 70
     0
  9
$DIMSAH
 70
     0
  9
$DIMBLK1
  1

  9
$DIMBLK2
  1

  9
$DIMSTYLE
  2
*UNNAMED
  9
$DIMCLRD
 70
   256
  9
$DIMCLRE
 70
   256
  9
$DIMCLRT
 70
     3
  9
$DIMTFAC
 40
1.0
  9
$DIMGAP
 40
2.0
  9
$LUNITS
 70
     2
  9
$LUPREC
 70
     2
  9
$SKETCHINC
 40
1.0
  9
$FILLETRAD
 40
0.0
  9
$AUNITS
 70
     0
  9
$AUPREC
 70
     2
  9
$MENU
  1
CAESAR
  9
$ELEVATION
 40
0.0
  9
$PELEVATION
 40
0.0
  9
$THICKNESS
 40
0.0
  9
$LIMCHECK
 70
     0
  9
$BLIPMODE
 70
     1
  9
$CHAMFERA
 40
5.0
  9
$CHAMFERB
 40
5.0
  9
$SKPOLY
 70
     0
  9
$TDCREATE
 40
2449682.498856250
  9
$TDUPDATE
 40
2449682.498856250
  9
$TDINDWG
 40
0.0000000000
  9
$TDUSRTIMER
 40
0.0000000000
  9
$USRTIMER
 70
     1
  9
$ANGBASE
 50
0.0
  9
$ANGDIR
 70
     0
  9
$PDMODE
 70
     0
  9
$PDSIZE
 40
0.0
  9
$PLINEWID
 40
0.0
  9
$COORDS
 70
     2
  9
$SPLFRAME
 70
     0
  9
$SPLINETYPE
 70
     6
  9
$SPLINESEGS
 70
     8
  9
$ATTDIA
 70
     0
  9
$ATTREQ
 70
     1
  9
$HANDLING
 70
     1
  9
$HANDSEED
  5
2FD21
  9
$SURFTAB1
 70
     6
  9
$SURFTAB2
 70
     6
  9
$SURFTYPE
 70
     6
  9
$SURFU
 70
     6
  9
$SURFV
 70
     6
  9
$UCSNAME
  2

  9
$UCSORG
 10
0.0
 20
0.0
 30
0.0
  9
$UCSXDIR
 10
1.0
 20
0.0
 30
0.0
  9
$UCSYDIR
 10
0.0
 20
1.0
 30
0.0
  9
$PUCSNAME
  2

  9
$PUCSORG
 10
0.0
 20
0.0
 30
0.0
  9
$PUCSXDIR
 10
1.0
 20
0.0
 30
0.0
  9
$PUCSYDIR
 10
0.0
 20
1.0
 30
0.0
  9
$USERI1
 70
     0
  9
$USERI2
 70
     0
  9
$USERI3
 70
     0
  9
$USERI4
 70
     0
  9
$USERI5
 70
     0
  9
$USERR1
 40
1.0
  9
$USERR2
 40
0.0
  9
$USERR3
 40
3.5
  9
$USERR4
 40
0.0
  9
$USERR5
 40
0.0
  9
$WORLDVIEW
 70
     1
  9
$SHADEDGE
 70
     3
  9
$SHADEDIF
 70
    70
  9
$TILEMODE
 70
     1
  9
$MAXACTVP
 70
    16
  9
$PINSBASE
 10
0.0
 20
0.0
 30
0.0
  9
$PLIMCHECK
 70
     0
  9
$PEXTMIN
 10
1.000000E+20
 20
1.000000E+20
 30
1.000000E+20
  9
$PEXTMAX
 10
-1.000000E+20
 20
-1.000000E+20
 30
-1.000000E+20
  9
$PLIMMIN
 10
0.0
 20
0.0
  9
$PLIMMAX
 10
420.0
 20
297.0
  9
$UNITMODE
 70
     0
  9
$VISRETAIN
 70
     0
  9
$PLINEGEN
 70
     0
  9
$PSLTSCALE
 70
     0
  9
$TREEDEPTH
 70
  3020
  9
$DWGCODEPAGE
  3
dos850
  0
ENDSEC
  0
SECTION
  2
TABLES
  0
TABLE
  2
VPORT
 70
     2
  0
VPORT
  2
*ACTIVE
 70
     0
 10
0.0
 20
0.0
 11
1.0
 21
1.0
 12
287.564723
 22
225.231556
 13
0.0
 23
0.0
 14
1.0
 24
1.0
 15
10.0
 25
10.0
 16
0.0
 26
0.0
 36
1.0
 17
0.0
 27
0.0
 37
0.0
 40
456.463112
 41
1.273114
 42
50.0
 43
0.0
 44
0.0
 50
0.0
 51
0.0
 71
     0
 72
  1000
 73
     1
 74
     1
 75
     1
 76
     0
 77
     0
 78
     0
  0
ENDTAB
  0
TABLE
  2
LTYPE
 70
    10
  0
LTYPE
  2
CONTINUOUS
 70
    64
  3
Solid line
 72
    65
 73
     0
 40
0.0
  0
LTYPE
  2
BORDER
 70
     0
  3
__ __ . __ __ . __ __ . __ __ . __ __ . __ __ .
 72
    65
 73
     6
 40
1.75
 49
0.5
 49
-0.25
 49
0.5
 49
-0.25
 49
0.0
 49
-0.25
  0
LTYPE
  2
CENTER
 70
    64
  3
____ _ ____ _ ____ _ ____ _ ____ _ ____ _ ____ 
 72
    65
 73
     4
 40
2.0
 49
1.25
 49
-0.25
 49
0.25
 49
-0.25
  0
LTYPE
  2
DASHDOT
 70
     0
  3
__ . __ . __ . __ . __ . __ . __ . __ . __ . __
 72
    65
 73
     4
 40
1.0
 49
0.5
 49
-0.25
 49
0.0
 49
-0.25
  0
LTYPE
  2
DASHED
 70
    64
  3
__ __ __ __ __ __ __ __ __ __ __ __ __ __ __ __
 72
    65
 73
     2
 40
0.75
 49
0.5
 49
-0.25
  0
LTYPE
  2
DIVIDE
 70
     0
  3
____ . . ____ . . ____ . . ____ . . ____ . . __
 72
    65
 73
     6
 40
1.25
 49
0.5
 49
-0.25
 49
0.0
 49
-0.25
 49
0.0
 49
-0.25
  0
LTYPE
  2
DOT
 70
     0
  3
. . . . . . . . . . . . . . . . . . . . . . . .
 72
    65
 73
     2
 40
0.25
 49
0.0
 49
-0.25
  0
LTYPE
  2
HIDDEN
 70
    64
  3
__ __ __ __ __ __ __ __ __ __ __ __ __ __ __ __
 72
    65
 73
     2
 40
0.375
 49
0.25
 49
-0.125
  0
LTYPE
  2
PHANTOM
 70
    64
  3
______  __  __  ______  __  __  ______  __  __ 
 72
    65
 73
     6
 40
2.5
 49
1.25
 49
-0.25
 49
0.25
 49
-0.25
 49
0.25
 49
-0.25
  0
LTYPE
  2
DOTX2
 70
    64
  3
.  .  .  .  .  .  .  .  .  .  .  .  .  .  .  . 
 72
    65
 73
     2
 40
0.5
 49
0.0
 49
-0.5
  0
ENDTAB
  0
TABLE
  2
LAYER
 70
    74
  0
LAYER
  2
0
 70
    64
 62
     7
  6
CONTINUOUS
  0
LAYER
  2
L1
 70
     0
 62
     3
  6
CONTINUOUS
  0
LAYER
  2
L2
 70
     0
 62
     1
  6
CONTINUOUS
  0
LAYER
  2
L3
 70
     0
 62
     7
  6
DASHED
  0
LAYER
  2
L4
 70
     0
 62
     1
  6
DASHED
  0
LAYER
  2
L5
 70
     0
 62
     6
  6
CENTER
  0
LAYER
  2
L6
 70
     0
 62
     1
  6
CENTER
  0
LAYER
  2
L7
 70
     0
 62
     1
  6
PHANTOM
  0
LAYER
  2
VPORT
 70
     0
 62
     7
  6
CONTINUOUS
  0
LAYER
  2
L8
 70
     0
 62
     1
  6
CONTINUOUS
  0
LAYER
  2
L20
 70
     0
 62
     3
  6
CONTINUOUS
  0
LAYER
  2
L21
 70
     0
 62
     1
  6
CONTINUOUS
  0
LAYER
  2
L22
 70
     0
 62
     1
  6
CONTINUOUS
  0
LAYER
  2
L23
 70
     0
 62
     1
  6
CONTINUOUS
  0
LAYER
  2
L30
 70
     0
 62
     3
  6
CONTINUOUS
  0
LAYER
  2
L31
 70
     0
 62
     1
  6
CONTINUOUS
  0
LAYER
  2
L32
 70
     0
 62
     3
  6
CONTINUOUS
  0
LAYER
  2
L33
 70
     0
 62
     1
  6
CONTINUOUS
  0
LAYER
  2
L34
 70
     0
 62
     3
  6
CONTINUOUS
  0
LAYER
  2
L35
 70
     0
 62
     1
  6
CONTINUOUS
  0
LAYER
  2
L40
 70
     0
 62
     7
  6
CONTINUOUS
  0
LAYER
  2
L41
 70
     0
 62
     1
  6
CONTINUOUS
  0
LAYER
  2
L42
 70
     0
 62
     1
  6
CONTINUOUS
  0
LAYER
  2
L43
 70
     0
 62
     7
  6
CONTINUOUS
  0
LAYER
  2
L44
 70
     0
 62
     1
  6
CONTINUOUS
  0
LAYER
  2
L45
 70
     0
 62
     1
  6
CONTINUOUS
  0
LAYER
  2
L46
 70
     0
 62
     3
  6
CONTINUOUS
  0
LAYER
  2
L50
 70
     0
 62
     7
  6
CONTINUOUS
  0
LAYER
  2
L51
 70
     0
 62
     1
  6
CONTINUOUS
  0
LAYER
  2
L52
 70
     0
 62
     7
  6
CONTINUOUS
  0
LAYER
  2
L53
 70
     0
 62
     1
  6
CONTINUOUS
  0
LAYER
  2
L54
 70
     0
 62
     3
  6
CONTINUOUS
  0
LAYER
  2
L55
 70
     0
 62
     3
  6
CONTINUOUS
  0
LAYER
  2
L56
 70
     0
 62
     3
  6
CONTINUOUS
  0
LAYER
  2
L57
 70
     0
 62
     1
  6
CONTINUOUS
  0
LAYER
  2
L9
 70
     0
 62
     7
  6
HIDDEN
  0
LAYER
  2
L15
 70
     0
 62
     2
  6
CONTINUOUS
  0
LAYER
  2
L16
 70
     0
 62
     5
  6
DOTX2
  0
LAYER
  2
L24
 70
     0
 62
     1
  6
CONTINUOUS
  0
LAYER
  2
A1
 70
     0
 62
     7
  6
CONTINUOUS
  0
LAYER
  2
RA1
 70
     0
 62
     1
  6
CONTINUOUS
  0
LAYER
  2
TITEL
 70
     0
 62
     7
  6
CONTINUOUS
  0
LAYER
  2
DEFPOINTS
 70
     0
 62
     7
  6
CONTINUOUS
  0
LAYER
  2
1
 70
     0
 62
     7
  6
CONTINUOUS
  0
LAYER
  2
11
 70
    64
 62
     7
  6
CONTINUOUS
  0
LAYER
  2
12
 70
     0
 62
     1
  6
CONTINUOUS
  0
LAYER
  2
13
 70
    64
 62
     1
  6
CENTER
  0
LAYER
  2
14
 70
    64
 62
     1
  6
DASHED
  0
LAYER
  2
15
 70
     0
 62
     2
  6
DASHED
  0
LAYER
  2
21
 70
    64
 62
     7
  6
CONTINUOUS
  0
LAYER
  2
22
 70
     0
 62
     1
  6
CONTINUOUS
  0
LAYER
  2
23
 70
    64
 62
     1
  6
CENTER
  0
LAYER
  2
24
 70
    64
 62
     1
  6
DASHED
  0
LAYER
  2
25
 70
     0
 62
     2
  6
DASHED
  0
LAYER
  2
31
 70
    64
 62
     7
  6
CONTINUOUS
  0
LAYER
  2
32
 70
     0
 62
     1
  6
CONTINUOUS
  0
LAYER
  2
33
 70
    64
 62
     1
  6
CENTER
  0
LAYER
  2
34
 70
    64
 62
     1
  6
DASHED
  0
LAYER
  2
35
 70
     0
 62
     2
  6
DASHED
  0
LAYER
  2
41
 70
    64
 62
     7
  6
CONTINUOUS
  0
LAYER
  2
42
 70
     0
 62
     1
  6
CONTINUOUS
  0
LAYER
  2
43
 70
    64
 62
     1
  6
CENTER
  0
LAYER
  2
44
 70
    64
 62
     1
  6
DASHED
  0
LAYER
  2
45
 70
     0
 62
     2
  6
DASHED
  0
LAYER
  2
51
 70
    64
 62
     7
  6
CONTINUOUS
  0
LAYER
  2
52
 70
    64
 62
     1
  6
CONTINUOUS
  0
LAYER
  2
53
 70
    64
 62
     1
  6
CENTER
  0
LAYER
  2
54
 70
     0
 62
     1
  6
DASHED
  0
LAYER
  2
55
 70
     0
 62
     2
  6
DASHED
  0
LAYER
  2
61
 70
    64
 62
     7
  6
CONTINUOUS
  0
LAYER
  2
62
 70
     0
 62
     1
  6
CONTINUOUS
  0
LAYER
  2
63
 70
    64
 62
     1
  6
CENTER
  0
LAYER
  2
64
 70
     0
 62
     1
  6
DASHED
  0
LAYER
  2
65
 70
     0
 62
     2
  6
DASHED
  0
ENDTAB
  0
TABLE
  2
STYLE
 70
     4
  0
STYLE
  2
STANDARD
 70
     0
 40
0.0
 41
1.0
 50
0.0
 71
     0
 42
3.5
  3
CAEISO
  4

  0
STYLE
  2
SIMPLEX
 70
    64
 40
0.0
 41
1.0
 50
0.0
 71
     0
 42
20.0
  3
SIMPLEX.SHX
  4

  0
STYLE
  2
COMPLEX
 70
    64
 40
5.0
 41
1.0
 50
0.0
 71
     0
 42
5.0
  3
COMPLEX
  4

  0
STYLE
  2
CAEISO
 70
     0
 40
0.0
 41
1.0
 50
0.0
 71
     0
 42
1.0
  3
CAEISO
  4

  0
ENDTAB
  0
TABLE
  2
VIEW
 70
     0
  0
ENDTAB
  0
TABLE
  2
UCS
 70
     0
  0
ENDTAB
  0
TABLE
  2
APPID
 70
     1
  0
APPID
  2
ACAD
 70
    64
  0
ENDTAB
  0
TABLE
  2
DIMSTYLE
 70
     6
  0
DIMSTYLE
  2
ACADUS
 70
     0
  3

  4

  5

  6

  7

 40
1.0
 41
0.18
 42
0.0625
 43
0.38
 44
0.18
 45
0.0
 46
0.0
 47
0.0
 48
0.0
140
0.18
141
0.09
142
0.0
143
25.4
144
1.0
145
0.0
146
1.0
147
0.09
 71
     0
 72
     0
 73
     1
 74
     1
 75
     0
 76
     0
 77
     0
 78
     0
170
     0
171
     2
172
     0
173
     0
174
     0
175
     0
176
     0
177
     0
178
     0
  0
DIMSTYLE
  2
NORDIC
 70
     0
  3

  4

  5

  6

  7

 40
1.0
 41
3.5
 42
1.0
 43
10.0
 44
2.0
 45
0.0
 46
0.0
 47
0.0
 48
0.0
140
3.5
141
2.5
142
0.0
143
25.4
144
1.0
145
0.0
146
1.0
147
2.0
 71
     0
 72
     0
 73
     0
 74
     0
 75
     0
 76
     0
 77
     1
 78
     8
170
     0
171
     2
172
     1
173
     0
174
     0
175
     0
176
     0
177
     0
178
     0
  0
DIMSTYLE
  2
RADIAL
 70
     0
  3

  4

  5

  6

  7

 40
1.0
 41
3.5
 42
1.0
 43
10.0
 44
2.0
 45
0.0
 46
0.0
 47
0.0
 48
0.0
140
3.5
141
2.5
142
0.0
143
25.4
144
1.0
145
0.0
146
1.0
147
2.0
 71
     0
 72
     0
 73
     0
 74
     1
 75
     0
 76
     0
 77
     1
 78
     8
170
     0
171
     2
172
     0
173
     0
174
     0
175
     0
176
     0
177
     0
178
     0
  0
DIMSTYLE
  2
NORTOL
 70
     0
  3

  4

  5

  6

  7

 40
1.0
 41
3.5
 42
1.0
 43
10.0
 44
2.0
 45
0.0
 46
0.0
 47
0.2
 48
0.1
140
3.5
141
2.5
142
0.0
143
25.4
144
1.0
145
0.7
146
0.71
147
2.0
 71
     1
 72
     0
 73
     0
 74
     0
 75
     0
 76
     0
 77
     0
 78
     8
170
     0
171
     2
172
     1
173
     0
174
     0
175
     0
176
     0
177
     0
178
     0
  0
DIMSTYLE
  2
RADTOL
 70
     0
  3

  4

  5

  6

  7

 40
1.0
 41
3.5
 42
1.0
 43
10.0
 44
2.0
 45
0.0
 46
0.0
 47
0.2
 48
0.1
140
3.5
141
2.5
142
0.0
143
25.4
144
1.0
145
0.7
146
0.7
147
2.0
 71
     1
 72
     0
 73
     0
 74
     1
 75
     0
 76
     0
 77
     0
 78
     8
170
     0
171
     2
172
     0
173
     0
174
     0
175
     0
176
     0
177
     0
178
     0
  0
DIMSTYLE
  2
HANSU
 70
     0
  3

  4

  5

  6

  7

 40
1.0
 41
3.5
 42
0.0
 43
10.0
 44
2.0
 45
0.0
 46
0.0
 47
0.0
 48
0.0
140
3.5
141
2.5
142
0.0
143
25.4
144
0.8
145
0.0
146
1.0
147
2.0
 71
     0
 72
     0
 73
     0
 74
     0
 75
     0
 76
     0
 77
     1
 78
     8
170
     0
171
     2
172
     1
173
     0
174
     0
175
     0
176
   256
177
   256
178
     3
  0
ENDTAB
  0
ENDSEC
  0
SECTION
  2
BLOCKS
  0
BLOCK
  8
0
  5
2329
  2
AME_NIL
 70
     0
 10
0.0
 20
0.0
 30
0.0
  1
AME_NIL
  3
AME_NIL
  0
ENDBLK
  8
0
  5
232A
  0
BLOCK
  8
0
  5
232C
  2
AME_SOL
 70
     0
 10
0.0
 20
0.0
 30
0.0
  1
AME_SOL
  3
AME_SOL
  0
ENDBLK
  8
0
  5
232D
  0
BLOCK
  8
0
  5
233F
  2
SOLAXES
 70
     0
 10
0.0
 20
0.0
 30
0.0
  1
SOLAXES
  3
SOLAXES
  0
LINE
  8
0
 62
     0
  5
2340
 10
0.0
 20
0.0
 30
0.0
 11
63.851158
 21
0.0
 31
0.0
  0
LINE
  8
0
 62
     0
  5
2341
 10
0.0
 20
0.0
 30
0.0
 11
0.0
 21
63.851158
 31
0.0
  0
LINE
  8
0
 62
     0
  5
2342
 10
0.0
 20
0.0
 30
0.0
 11
0.0
 21
0.0
 31
63.851158
  0
CIRCLE
  8
0
 62
     0
  5
2343
 10
0.0
 20
0.0
 30
57.466042
 40
3.192558
210
1.0
220
0.0
230
0.0
  0
LINE
  8
0
 62
     0
  5
2344
 10
57.466042
 20
3.192558
 30
0.0
 11
63.851158
 21
0.0
 31
0.0
  0
LINE
  8
0
 62
     0
  5
2345
 10
57.466042
 20
0.0
 30
3.192558
 11
63.851158
 21
0.0
 31
0.0
  0
LINE
  8
0
 62
     0
  5
2346
 10
57.466042
 20
-3.192558
 30
0.0
 11
63.851158
 21
0.0
 31
0.0
  0
LINE
  8
0
 62
     0
  5
2347
 10
57.466042
 20
0.0
 30
-3.192558
 11
63.851158
 21
0.0
 31
0.0
  0
CIRCLE
  8
0
 62
     0
  5
2348
 10
0.0
 20
0.0
 30
57.466042
 40
3.192558
210
0.0
220
1.0
230
0.0
  0
LINE
  8
0
 62
     0
  5
2349
 10
3.192558
 20
57.466042
 30
0.0
 11
0.0
 21
63.851158
 31
0.0
  0
LINE
  8
0
 62
     0
  5
234A
 10
0.0
 20
57.466042
 30
3.192558
 11
0.0
 21
63.851158
 31
0.0
  0
LINE
  8
0
 62
     0
  5
234B
 10
-3.192558
 20
57.466042
 30
0.0
 11
0.0
 21
63.851158
 31
0.0
  0
LINE
  8
0
 62
     0
  5
234C
 10
0.0
 20
57.466042
 30
-3.192558
 11
0.0
 21
63.851158
 31
0.0
  0
CIRCLE
  8
0
 62
     0
  5
234D
 10
0.0
 20
0.0
 30
51.080927
 40
3.192558
210
0.0
220
1.0
230
0.0
  0
LINE
  8
0
 62
     0
  5
234E
 10
3.192558
 20
51.080927
 30
0.0
 11
0.0
 21
57.466042
 31
0.0
  0
LINE
  8
0
 62
     0
  5
234F
 10
0.0
 20
51.080927
 30
3.192558
 11
0.0
 21
57.466042
 31
0.0
  0
LINE
  8
0
 62
     0
  5
2350
 10
-3.192558
 20
51.080927
 30
0.0
 11
0.0
 21
57.466042
 31
0.0
  0
LINE
  8
0
 62
     0
  5
2351
 10
0.0
 20
51.080927
 30
-3.192558
 11
0.0
 21
57.466042
 31
0.0
  0
CIRCLE
  8
0
 62
     0
  5
2352
 10
0.0
 20
0.0
 30
57.466042
 40
3.192558
  0
LINE
  8
0
 62
     0
  5
2353
 10
3.192558
 20
0.0
 30
57.466042
 11
0.0
 21
0.0
 31
63.851158
  0
LINE
  8
0
 62
     0
  5
2354
 10
0.0
 20
3.192558
 30
57.466042
 11
0.0
 21
0.0
 31
63.851158
  0
LINE
  8
0
 62
     0
  5
2355
 10
-3.192558
 20
0.0
 30
57.466042
 11
0.0
 21
0.0
 31
63.851158
  0
LINE
  8
0
 62
     0
  5
2356
 10
0.0
 20
-3.192558
 30
57.466042
 11
0.0
 21
0.0
 31
63.851158
  0
CIRCLE
  8
0
 62
     0
  5
2357
 10
0.0
 20
0.0
 30
51.080927
 40
3.192558
  0
LINE
  8
0
 62
     0
  5
2358
 10
3.192558
 20
0.0
 30
51.080927
 11
0.0
 21
0.0
 31
57.466042
  0
LINE
  8
0
 62
     0
  5
2359
 10
0.0
 20
3.192558
 30
51.080927
 11
0.0
 21
0.0
 31
57.466042
  0
LINE
  8
0
 62
     0
  5
235A
 10
-3.192558
 20
0.0
 30
51.080927
 11
0.0
 21
0.0
 31
57.466042
  0
LINE
  8
0
 62
     0
  5
235B
 10
0.0
 20
-3.192558
 30
51.080927
 11
0.0
 21
0.0
 31
57.466042
  0
CIRCLE
  8
0
 62
     0
  5
235C
 10
0.0
 20
0.0
 30
44.695811
 40
3.192558
  0
LINE
  8
0
 62
     0
  5
235D
 10
3.192558
 20
0.0
 30
44.695811
 11
0.0
 21
0.0
 31
51.080927
  0
LINE
  8
0
 62
     0
  5
235E
 10
0.0
 20
3.192558
 30
44.695811
 11
0.0
 21
0.0
 31
51.080927
  0
LINE
  8
0
 62
     0
  5
235F
 10
-3.192558
 20
0.0
 30
44.695811
 11
0.0
 21
0.0
 31
51.080927
  0
LINE
  8
0
 62
     0
  5
2360
 10
0.0
 20
-3.192558
 30
44.695811
 11
0.0
 21
0.0
 31
51.080927
  0
ENDBLK
  8
0
  5
2361
  0
BLOCK
  8
0
  5
2460
  2
AME_MAT
 70
     0
 10
0.0
 20
0.0
 30
0.0
  1
AME_MAT
  3
AME_MAT
  0
ENDBLK
  8
0
  5
2461
  0
BLOCK
  8
0
  5
2465
  2
PICF40C
 70
    64
 10
0.0
 20
0.0
 30
0.0
  3
PICF40C
  0
LINE
  8
53
  6
DASHDOT
  5
4C36
 10
-108.0
 20
99.680809
 30
0.0
 11
-108.0
 21
143.680809
 31
0.0
  0
LINE
  8
53
  6
DASHDOT
  5
4C37
 10
-108.0
 20
143.680809
 30
0.0
 11
10.0
 21
143.680809
 31
0.0
  0
LINE
  8
53
  6
DASHDOT
  5
4C5E
 10
-108.0
 20
143.680809
 30
0.0
 11
-226.0
 21
143.680809
 31
0.0
  0
LINE
  8
53
  6
DASHDOT
  5
4C67
 10
-108.0
 20
187.680809
 30
0.0
 11
-108.0
 21
143.680809
 31
0.0
  0
LINE
  8
61
  5
4E14
 10
109.860182
 20
112.680809
 30
0.0
 11
109.860182
 21
143.680809
 31
0.0
  0
LINE
  8
63
  6
DASHDOT
  5
4E15
 10
224.860182
 20
99.680809
 30
0.0
 11
224.860182
 21
143.680809
 31
0.0
  0
LINE
  8
61
  5
4E16
 10
118.860182
 20
103.680809
 30
0.0
 11
224.860182
 21
103.680809
 31
0.0
  0
LINE
  8
61
  5
4E17
 10
123.493363
 20
117.330809
 30
0.0
 11
116.227002
 21
117.330809
 31
0.0
  0
LINE
  8
61
  5
4E19
 10
123.493363
 20
110.030809
 30
0.0
 11
116.227002
 21
110.030809
 31
0.0
  0
ARC
  8
61
  5
4E44
 10
119.860182
 20
113.680809
 30
0.0
 40
5.15
 50
314.867683
 51
45.132317
  0
ARC
  8
61
  5
4E4F
 10
119.860182
 20
113.680809
 30
0.0
 40
5.15
 50
134.867683
 51
225.132317
  0
ARC
  8
61
  5
4E50
 10
118.860182
 20
112.680809
 30
0.0
 40
9.0
 50
180.0
 51
270.0
  0
LINE
  8
63
  6
DASHDOT
  5
4E63
 10
224.860182
 20
143.680809
 30
0.0
 11
106.860182
 21
143.680809
 31
0.0
  0
CIRCLE
  8
61
  5
51F0
 10
119.860182
 20
113.680809
 30
0.0
 40
5.5
  0
LINE
  8
33
  6
DASHDOT
  5
251BE
 10
372.0
 20
143.680809
 30
0.0
 11
420.0
 21
143.680809
 31
0.0
  0
LINE
  8
34
  5
251C0
 10
412.9
 20
164.380809
 30
0.0
 11
412.9
 21
143.680809
 31
0.0
  0
ARC
  8
31
  5
251C2
 10
414.0
 20
107.452842
 30
0.0
 40
2.0
 50
271.5
 51
0.0
  0
LINE
  8
31
  5
251C4
 10
376.0
 20
104.780809
 30
0.0
 11
376.0
 21
107.128444
 31
0.0
  0
LINE
  8
31
  5
251C5
 10
381.292147
 20
105.119389
 30
0.0
 11
414.052354
 21
105.453527
 31
0.0
  0
ARC
  8
31
  5
251C6
 10
381.3
 20
104.819492
 30
0.0
 40
0.3
 50
91.5
 51
180.0
  0
ARC
  8
31
  5
251C7
 10
380.5
 20
104.298817
 30
0.0
 40
0.5
 50
271.5
 51
0.0
  0
LINE
  8
31
  5
251C8
 10
381.0
 20
104.298817
 30
0.0
 11
381.0
 21
104.819492
 31
0.0
  0
LINE
  8
31
  5
251C9
 10
376.0
 20
103.680809
 30
0.0
 11
376.0
 21
104.780809
 31
0.0
  0
LINE
  8
31
  5
251CB
 10
376.0
 20
103.680809
 30
0.0
 11
380.513088
 21
103.798989
 31
0.0
  0
LINE
  8
31
  5
251CC
 10
374.5
 20
107.154627
 30
0.0
 11
374.5
 21
143.680809
 31
0.0
  0
LINE
  8
31
  5
251D0
 10
373.0
 20
107.163354
 30
0.0
 11
376.0
 21
107.128444
 31
0.0
  0
LINE
  8
31
  5
251D2
 10
416.0
 20
107.452842
 30
0.0
 11
416.0
 21
143.680809
 31
0.0
  0
LINE
  8
31
  5
251D3
 10
381.0
 20
104.819492
 30
0.0
 11
381.0
 21
143.680809
 31
0.0
  0
LINE
  8
31
  5
251D4
 10
376.0
 20
107.128444
 30
0.0
 11
376.0
 21
143.680809
 31
0.0
  0
LINE
  8
21
  5
25917
 10
113.632214
 20
252.861484
 30
0.0
 11
224.860182
 21
252.861484
 31
0.0
  0
LINE
  8
21
  5
25919
 10
114.360182
 20
211.361484
 30
0.0
 11
130.360182
 21
211.361484
 31
0.0
  0
LINE
  8
24
  5
2591A
 10
129.360182
 20
249.761484
 30
0.0
 11
224.860182
 21
249.761484
 31
0.0
  0
ARC
  8
21
  5
2591C
 10
113.632214
 20
250.861484
 30
0.0
 40
2.0
 50
90.0
 51
178.5
  0
LINE
  8
21
  5
25927
 10
111.298762
 20
218.153631
 30
0.0
 11
111.6329
 21
250.913838
 31
0.0
  0
LINE
  8
21
  5
2592A
 10
113.334
 20
211.361484
 30
0.0
 11
113.307817
 21
212.861484
 31
0.0
  0
ARC
  8
21
  5
2592B
 10
110.998865
 20
218.161484
 30
0.0
 40
0.3
 50
270.0
 51
358.5
  0
ARC
  8
21
  5
2592C
 10
110.47819
 20
217.361484
 30
0.0
 40
0.5
 50
90.0
 51
178.5
  0
LINE
  8
21
  5
2592D
 10
110.47819
 20
217.861484
 30
0.0
 11
224.860182
 21
217.861484
 31
0.0
  0
LINE
  8
21
  5
2592E
 10
109.860182
 20
212.861484
 30
0.0
 11
110.960182
 21
212.861484
 31
0.0
  0
LINE
  8
21
  5
25930
 10
109.860182
 20
212.861484
 30
0.0
 11
109.978361
 21
217.374573
 31
0.0
  0
LINE
  8
21
  5
25932
 10
110.960182
 20
212.861484
 30
0.0
 11
224.860182
 21
212.861484
 31
0.0
  0
ARC
  8
21
  5
2593A
 10
336.08815
 20
250.861484
 30
0.0
 40
2.0
 50
1.5
 51
90.0
  0
LINE
  8
21
  5
25941
 10
336.386365
 20
211.361484
 30
0.0
 11
319.360182
 21
211.361484
 31
0.0
  0
LINE
  8
23
  6
DASHDOT
  5
25942
 10
224.860182
 20
209.361484
 30
0.0
 11
224.860182
 21
256.861484
 31
0.0
  0
LINE
  8
21
  5
2594B
 10
338.421602
 20
218.153631
 30
0.0
 11
338.087465
 21
250.913838
 31
0.0
  0
LINE
  8
21
  5
2594C
 10
336.386365
 20
211.361484
 30
0.0
 11
336.412547
 21
212.861484
 31
0.0
  0
LINE
  8
21
  5
2594D
 10
339.860182
 20
212.861484
 30
0.0
 11
339.742003
 21
217.374573
 31
0.0
  0
LINE
  8
21
  5
2594E
 10
339.860182
 20
212.861484
 30
0.0
 11
338.760182
 21
212.861484
 31
0.0
  0
LINE
  8
21
  5
2594F
 10
339.242174
 20
217.861484
 30
0.0
 11
224.860182
 21
217.861484
 31
0.0
  0
ARC
  8
21
  5
25950
 10
339.242174
 20
217.361484
 30
0.0
 40
0.5
 50
1.5
 51
90.0
  0
ARC
  8
21
  5
25951
 10
338.7215
 20
218.161484
 30
0.0
 40
0.3
 50
181.5
 51
270.0
  0
LINE
  8
21
  5
25952
 10
338.760182
 20
212.861484
 30
0.0
 11
336.412547
 21
212.861484
 31
0.0
  0
LINE
  8
21
  5
25955
 10
336.08815
 20
252.861484
 30
0.0
 11
224.860182
 21
252.861484
 31
0.0
  0
LINE
  8
21
  5
259A5
 10
336.386365
 20
211.361484
 30
0.0
 11
336.412547
 21
212.861484
 31
0.0
  0
LINE
  8
21
  5
259A9
 10
338.760182
 20
212.861484
 30
0.0
 11
224.860182
 21
212.861484
 31
0.0
  0
LINE
  8
24
  5
259AC
 10
320.360182
 20
249.761484
 30
0.0
 11
224.860182
 21
249.761484
 31
0.0
  0
LINE
  8
21
  5
259AD
 10
114.381528
 20
211.361484
 30
0.0
 11
113.334
 21
211.361484
 31
0.0
  0
ARC
  8
52
  5
271B6
 10
-213.0
 20
173.680809
 30
0.0
 40
8.3
 50
107.0
 51
163.0
  0
LINE
  8
52
  5
271B7
 10
2.108012
 20
111.821645
 30
0.0
 11
4.235633
 21
111.047254
 31
0.0
  0
LINE
  8
52
  5
271B8
 10
-1.140836
 20
108.572797
 30
0.0
 11
-0.366445
 21
106.445176
 31
0.0
  0
ARC
  8
52
  5
271B9
 10
-3.0
 20
113.680809
 30
0.0
 40
7.7
 50
290.0
 51
340.0
  0
LINE
  8
61
  5
273B3
 10
118.860182
 20
104.980809
 30
0.0
 11
224.860182
 21
104.980809
 31
0.0
  0
ARC
  8
61
  5
273B4
 10
118.860182
 20
112.680809
 30
0.0
 40
7.7
 50
180.0
 51
270.0
  0
LINE
  8
61
  5
273B5
 10
111.160182
 20
112.680809
 30
0.0
 11
111.160182
 21
143.680809
 31
0.0
  0
LINE
  8
61
  5
273B6
 10
118.860182
 20
182.380809
 30
0.0
 11
224.860182
 21
182.380809
 31
0.0
  0
LINE
  8
61
  5
273B7
 10
118.860182
 20
183.680809
 30
0.0
 11
224.860182
 21
183.680809
 31
0.0
  0
LINE
  8
61
  5
273B9
 10
111.160182
 20
174.680809
 30
0.0
 11
111.160182
 21
143.680809
 31
0.0
  0
ARC
  8
61
  5
273BA
 10
119.860182
 20
173.680809
 30
0.0
 40
5.15
 50
314.867683
 51
45.132317
  0
ARC
  8
61
  5
273BB
 10
119.860182
 20
173.680809
 30
0.0
 40
5.15
 50
134.867683
 51
225.132317
  0
CIRCLE
  8
61
  5
273BC
 10
119.860182
 20
173.680809
 30
0.0
 40
5.5
  0
LINE
  8
61
  5
273BE
 10
109.860182
 20
174.680809
 30
0.0
 11
109.860182
 21
143.680809
 31
0.0
  0
ARC
  8
61
  5
273C0
 10
118.860182
 20
174.680809
 30
0.0
 40
7.7
 50
90.0
 51
180.0
  0
ARC
  8
61
  5
273C1
 10
118.860182
 20
174.680809
 30
0.0
 40
9.0
 50
90.0
 51
180.0
  0
LINE
  8
61
  5
273C4
 10
123.493363
 20
177.330809
 30
0.0
 11
116.227002
 21
177.330809
 31
0.0
  0
LINE
  8
61
  5
273C5
 10
123.493363
 20
170.030809
 30
0.0
 11
116.227002
 21
170.030809
 31
0.0
  0
LINE
  8
61
  5
273C7
 10
330.860182
 20
183.680809
 30
0.0
 11
224.860182
 21
183.680809
 31
0.0
  0
LINE
  8
61
  5
273C8
 10
330.860182
 20
182.380809
 30
0.0
 11
224.860182
 21
182.380809
 31
0.0
  0
LINE
  8
61
  5
273C9
 10
330.860182
 20
104.980809
 30
0.0
 11
224.860182
 21
104.980809
 31
0.0
  0
LINE
  8
61
  5
273CA
 10
330.860182
 20
103.680809
 30
0.0
 11
224.860182
 21
103.680809
 31
0.0
  0
LINE
  8
63
  6
DASHDOT
  5
273CC
 10
224.860182
 20
143.680809
 30
0.0
 11
342.860182
 21
143.680809
 31
0.0
  0
LINE
  8
61
  5
273CD
 10
338.560182
 20
112.680809
 30
0.0
 11
338.560182
 21
143.680809
 31
0.0
  0
ARC
  8
61
  5
273CE
 10
329.860182
 20
113.680809
 30
0.0
 40
5.15
 50
134.867683
 51
225.132317
  0
ARC
  8
61
  5
273CF
 10
329.860182
 20
113.680809
 30
0.0
 40
5.15
 50
314.867683
 51
45.132317
  0
CIRCLE
  8
61
  5
273D0
 10
329.860182
 20
113.680809
 30
0.0
 40
5.5
  0
LINE
  8
61
  5
273D2
 10
339.860182
 20
112.680809
 30
0.0
 11
339.860182
 21
143.680809
 31
0.0
  0
ARC
  8
61
  5
273D4
 10
330.860182
 20
112.680809
 30
0.0
 40
7.7
 50
270.0
 51
0.0
  0
ARC
  8
61
  5
273D5
 10
330.860182
 20
112.680809
 30
0.0
 40
9.0
 50
270.0
 51
0.0
  0
LINE
  8
61
  5
273D8
 10
326.227002
 20
110.030809
 30
0.0
 11
333.493363
 21
110.030809
 31
0.0
  0
LINE
  8
61
  5
273DA
 10
339.860182
 20
174.680809
 30
0.0
 11
339.860182
 21
143.680809
 31
0.0
  0
LINE
  8
61
  5
273DC
 10
338.560182
 20
174.680809
 30
0.0
 11
338.560182
 21
143.680809
 31
0.0
  0
LINE
  8
61
  5
273DD
 10
326.227002
 20
117.330809
 30
0.0
 11
333.493363
 21
117.330809
 31
0.0
  0
LINE
  8
61
  5
273DE
 10
326.227002
 20
170.030809
 30
0.0
 11
333.493363
 21
170.030809
 31
0.0
  0
LINE
  8
61
  5
273DF
 10
326.227002
 20
177.330809
 30
0.0
 11
333.493363
 21
177.330809
 31
0.0
  0
ARC
  8
61
  5
273E2
 10
330.860182
 20
174.680809
 30
0.0
 40
9.0
 50
0.0
 51
90.0
  0
ARC
  8
61
  5
273E3
 10
330.860182
 20
174.680809
 30
0.0
 40
7.7
 50
0.0
 51
90.0
  0
CIRCLE
  8
61
  5
273E4
 10
329.860182
 20
173.680809
 30
0.0
 40
5.5
  0
ARC
  8
61
  5
273E5
 10
329.860182
 20
173.680809
 30
0.0
 40
5.15
 50
314.867683
 51
45.132317
  0
ARC
  8
61
  5
273E6
 10
329.860182
 20
173.680809
 30
0.0
 40
5.15
 50
134.867683
 51
225.132317
  0
LINE
  8
63
  6
DASHDOT
  5
273E7
 10
224.860182
 20
187.680809
 30
0.0
 11
224.860182
 21
143.680809
 31
0.0
  0
LINE
  8
34
  5
2A5F5
 10
374.5
 20
164.380809
 30
0.0
 11
412.9
 21
164.380809
 31
0.0
  0
LINE
  8
24
  5
2ABE4
 10
129.360182
 20
211.361484
 30
0.0
 11
129.360182
 21
249.761484
 31
0.0
  0
LINE
  8
24
  5
2ABE8
 10
320.360182
 20
211.361484
 30
0.0
 11
320.360182
 21
249.761484
 31
0.0
  0
LINE
  8
52
  5
2ABE9
 10
-214.589761
 20
178.880684
 30
0.0
 11
-215.426685
 21
181.618139
 31
0.0
  0
LINE
  8
52
  5
2ABEA
 10
-218.199875
 20
175.270571
 30
0.0
 11
-220.937329
 21
176.107495
 31
0.0
  0
LINE
  8
51
  5
2D0C2
 10
2.5
 20
163.880809
 30
0.0
 11
2.5
 21
143.680809
 31
0.0
  0
LINE
  8
52
  5
2D0C3
 10
5.8
 20
163.680809
 30
0.0
 11
5.8
 21
143.680809
 31
0.0
  0
LINE
  8
52
  5
2D0C5
 10
3.5
 20
163.680809
 30
0.0
 11
3.5
 21
143.680809
 31
0.0
  0
LINE
  8
51
  5
2D0C6
 10
7.0
 20
173.680809
 30
0.0
 11
7.0
 21
143.680809
 31
0.0
  0
ARC
  8
51
  5
2D0C8
 10
-3.0
 20
173.680809
 30
0.0
 40
9.3
 50
180.0
 51
270.0
  0
ARC
  8
52
  5
2D0C9
 10
-13.0
 20
178.680809
 30
0.0
 40
3.8
 50
0.0
 51
90.0
  0
ARC
  8
52
  5
2D0CB
 10
-3.0
 20
173.680809
 30
0.0
 40
5.5
 50
180.0
 51
270.0
  0
ARC
  8
52
  5
2D0CC
 10
-3.0
 20
173.680809
 30
0.0
 40
8.5
 50
180.0
 51
270.0
  0
ARC
  8
52
  5
2D0CD
 10
-3.0
 20
173.680809
 30
0.0
 40
6.2
 50
180.0
 51
270.0
  0
LINE
  8
51
  5
2D0CE
 10
-3.0
 20
183.680809
 30
0.0
 11
-108.0
 21
183.680809
 31
0.0
  0
LINE
  8
51
  5
2D0CF
 10
-12.8
 20
179.180809
 30
0.0
 11
-108.0
 21
179.180809
 31
0.0
  0
LINE
  8
52
  5
2D0D0
 10
-13.0
 20
180.180809
 30
0.0
 11
-108.0
 21
180.180809
 31
0.0
  0
LINE
  8
52
  5
2D0D1
 10
-13.0
 20
182.480809
 30
0.0
 11
-108.0
 21
182.480809
 31
0.0
  0
ARC
  8
52
  5
2D0D2
 10
-13.0
 20
178.680809
 30
0.0
 40
1.5
 50
0.0
 51
90.0
  0
LINE
  8
51
  5
2D0D3
 10
-12.3
 20
173.680809
 30
0.0
 11
-12.3
 21
178.680809
 31
0.0
  0
LINE
  8
52
  5
2D0D4
 10
-11.5
 20
173.680809
 30
0.0
 11
-11.5
 21
178.680809
 31
0.0
  0
ARC
  8
51
  5
2D0D5
 10
-12.8
 20
178.680809
 30
0.0
 40
0.5
 50
0.0
 51
90.0
  0
ARC
  8
52
  5
2D0D7
 10
-3.0
 20
173.680809
 30
0.0
 40
5.15
 50
134.867683
 51
225.132317
  0
ARC
  8
52
  5
2D0D8
 10
-3.0
 20
173.680809
 30
0.0
 40
5.15
 50
314.867683
 51
45.132317
  0
LINE
  8
52
  5
2D0D9
 10
2.5
 20
173.680809
 30
0.0
 11
2.5
 21
168.680809
 31
0.0
  0
ARC
  8
52
  5
2D0DA
 10
-3.0
 20
173.680809
 30
0.0
 40
5.5
 50
0.0
 51
90.0
  0
ARC
  8
51
  5
2D0DB
 10
-3.0
 20
173.680809
 30
0.0
 40
10.0
 50
0.0
 51
90.0
  0
LINE
  8
52
  5
2D0DC
 10
-6.63318
 20
177.330809
 30
0.0
 11
0.63318
 21
177.330809
 31
0.0
  0
LINE
  8
52
  5
2D0DD
 10
-8.0
 20
179.180809
 30
0.0
 11
-3.0
 21
179.180809
 31
0.0
  0
LINE
  8
52
  5
2D0DE
 10
-9.2
 20
173.680809
 30
0.0
 11
-9.2
 21
178.680809
 31
0.0
  0
LINE
  8
52
  5
2D0DF
 10
-8.5
 20
178.680809
 30
0.0
 11
-8.5
 21
173.680809
 31
0.0
  0
ARC
  8
52
  5
2D0E0
 10
-8.0
 20
178.680809
 30
0.0
 40
0.5
 50
90.0
 51
180.0
  0
ARC
  8
51
  5
2D0E1
 10
2.0
 20
163.880809
 30
0.0
 40
0.5
 50
0.0
 51
90.0
  0
ARC
  8
52
  5
2D0E2
 10
2.0
 20
163.680809
 30
0.0
 40
3.8
 50
0.0
 51
90.0
  0
ARC
  8
52
  5
2D0E3
 10
2.0
 20
163.680809
 30
0.0
 40
1.5
 50
0.0
 51
90.0
  0
ARC
  8
52
  5
2D0E4
 10
2.0
 20
168.680809
 30
0.0
 40
0.5
 50
270.0
 51
0.0
  0
LINE
  8
52
  5
2D0E5
 10
-6.63318
 20
170.030809
 30
0.0
 11
0.63318
 21
170.030809
 31
0.0
  0
LINE
  8
52
  5
2D0E6
 10
-3.0
 20
167.480809
 30
0.0
 11
2.0
 21
167.480809
 31
0.0
  0
LINE
  8
52
  5
2D0E7
 10
-3.0
 20
168.180809
 30
0.0
 11
2.0
 21
168.180809
 31
0.0
  0
LINE
  8
51
  5
2D0E8
 10
-3.0
 20
164.380809
 30
0.0
 11
2.0
 21
164.380809
 31
0.0
  0
LINE
  8
52
  5
2D0E9
 10
-3.0
 20
165.180809
 30
0.0
 11
2.0
 21
165.180809
 31
0.0
  0
LINE
  8
52
  5
2D0ED
 10
-203.0
 20
180.180809
 30
0.0
 11
-108.0
 21
180.180809
 31
0.0
  0
LINE
  8
52
  5
2D0EE
 10
-203.0
 20
182.480809
 30
0.0
 11
-108.0
 21
182.480809
 31
0.0
  0
LINE
  8
51
  5
2D0EF
 10
-203.2
 20
179.180809
 30
0.0
 11
-108.0
 21
179.180809
 31
0.0
  0
LINE
  8
51
  5
2D0F0
 10
-213.0
 20
183.680809
 30
0.0
 11
-108.0
 21
183.680809
 31
0.0
  0
LINE
  8
51
  5
2D0F1
 10
-218.5
 20
163.880809
 30
0.0
 11
-218.5
 21
143.680809
 31
0.0
  0
LINE
  8
52
  5
2D0F2
 10
-221.8
 20
163.680809
 30
0.0
 11
-221.8
 21
143.680809
 31
0.0
  0
LINE
  8
52
  5
2D0F3
 10
-219.5
 20
163.680809
 30
0.0
 11
-219.5
 21
143.680809
 31
0.0
  0
LINE
  8
51
  5
2D0F4
 10
-223.0
 20
173.680809
 30
0.0
 11
-223.0
 21
143.680809
 31
0.0
  0
LINE
  8
52
  5
2D0F5
 10
-208.0
 20
179.180809
 30
0.0
 11
-213.0
 21
179.180809
 31
0.0
  0
ARC
  8
52
  5
2D0F6
 10
-213.0
 20
173.680809
 30
0.0
 40
5.5
 50
270.0
 51
0.0
  0
ARC
  8
52
  5
2D0F7
 10
-213.0
 20
173.680809
 30
0.0
 40
6.2
 50
270.0
 51
0.0
  0
ARC
  8
52
  5
2D0F8
 10
-213.0
 20
173.680809
 30
0.0
 40
8.5
 50
270.0
 51
0.0
  0
ARC
  8
51
  5
2D0F9
 10
-213.0
 20
173.680809
 30
0.0
 40
9.3
 50
270.0
 51
360.0
  0
LINE
  8
52
  5
2D0FA
 10
-209.36682
 20
177.330809
 30
0.0
 11
-216.63318
 21
177.330809
 31
0.0
  0
LINE
  8
52
  5
2D0FB
 10
-209.36682
 20
170.030809
 30
0.0
 11
-216.63318
 21
170.030809
 31
0.0
  0
ARC
  8
52
  5
2D0FC
 10
-203.0
 20
178.680809
 30
0.0
 40
1.5
 50
90.0
 51
180.0
  0
ARC
  8
52
  5
2D0FD
 10
-203.0
 20
178.680809
 30
0.0
 40
3.8
 50
90.0
 51
180.0
  0
ARC
  8
52
  5
2D0FE
 10
-208.0
 20
178.680809
 30
0.0
 40
0.5
 50
360.0
 51
90.0
  0
ARC
  8
51
  5
2D0FF
 10
-203.2
 20
178.680809
 30
0.0
 40
0.5
 50
90.0
 51
180.0
  0
ARC
  8
52
  5
2D100
 10
-213.0
 20
173.680809
 30
0.0
 40
5.15
 50
314.867683
 51
45.132317
  0
LINE
  8
52
  5
2D101
 10
-204.5
 20
173.680809
 30
0.0
 11
-204.5
 21
178.680809
 31
0.0
  0
LINE
  8
51
  5
2D102
 10
-203.7
 20
173.680809
 30
0.0
 11
-203.7
 21
178.680809
 31
0.0
  0
LINE
  8
52
  5
2D103
 10
-207.5
 20
178.680809
 30
0.0
 11
-207.5
 21
173.680809
 31
0.0
  0
LINE
  8
52
  5
2D104
 10
-206.8
 20
173.680809
 30
0.0
 11
-206.8
 21
178.680809
 31
0.0
  0
ARC
  8
51
  5
2D105
 10
-213.0
 20
173.680809
 30
0.0
 40
10.0
 50
90.0
 51
180.0
  0
ARC
  8
52
  5
2D106
 10
-213.0
 20
173.680809
 30
0.0
 40
5.5
 50
90.0
 51
180.0
  0
ARC
  8
52
  5
2D107
 10
-218.0
 20
163.680809
 30
0.0
 40
3.8
 50
90.0
 51
180.0
  0
ARC
  8
52
  5
2D108
 10
-218.0
 20
163.680809
 30
0.0
 40
1.5
 50
90.0
 51
180.0
  0
ARC
  8
51
  5
2D109
 10
-218.0
 20
163.880809
 30
0.0
 40
0.5
 50
90.0
 51
180.0
  0
LINE
  8
52
  5
2D10A
 10
-213.0
 20
167.480809
 30
0.0
 11
-218.0
 21
167.480809
 31
0.0
  0
LINE
  8
52
  5
2D10B
 10
-213.0
 20
165.180809
 30
0.0
 11
-218.0
 21
165.180809
 31
0.0
  0
LINE
  8
51
  5
2D10C
 10
-213.0
 20
164.380809
 30
0.0
 11
-218.0
 21
164.380809
 31
0.0
  0
ARC
  8
52
  5
2D10D
 10
-218.0
 20
168.680809
 30
0.0
 40
0.5
 50
180.0
 51
270.0
  0
ARC
  8
52
  5
2D10E
 10
-213.0
 20
173.680809
 30
0.0
 40
5.15
 50
134.867683
 51
225.132317
  0
LINE
  8
52
  5
2D10F
 10
-213.0
 20
168.180809
 30
0.0
 11
-218.0
 21
168.180809
 31
0.0
  0
LINE
  8
52
  5
2D110
 10
-218.5
 20
173.680809
 30
0.0
 11
-218.5
 21
168.680809
 31
0.0
  0
LINE
  8
52
  5
2D111
 10
-13.0
 20
107.180809
 30
0.0
 11
-108.0
 21
107.180809
 31
0.0
  0
LINE
  8
52
  5
2D112
 10
-13.0
 20
104.880809
 30
0.0
 11
-108.0
 21
104.880809
 31
0.0
  0
LINE
  8
51
  5
2D113
 10
-12.8
 20
108.180809
 30
0.0
 11
-108.0
 21
108.180809
 31
0.0
  0
LINE
  8
51
  5
2D114
 10
-3.0
 20
103.680809
 30
0.0
 11
-108.0
 21
103.680809
 31
0.0
  0
LINE
  8
51
  5
2D115
 10
2.5
 20
123.480809
 30
0.0
 11
2.5
 21
143.680809
 31
0.0
  0
LINE
  8
52
  5
2D116
 10
5.8
 20
123.680809
 30
0.0
 11
5.8
 21
143.680809
 31
0.0
  0
LINE
  8
52
  5
2D117
 10
3.5
 20
123.680809
 30
0.0
 11
3.5
 21
143.680809
 31
0.0
  0
LINE
  8
51
  5
2D118
 10
7.0
 20
113.680809
 30
0.0
 11
7.0
 21
143.680809
 31
0.0
  0
LINE
  8
52
  5
2D119
 10
-8.0
 20
108.180809
 30
0.0
 11
-3.0
 21
108.180809
 31
0.0
  0
ARC
  8
52
  5
2D11A
 10
-3.0
 20
113.680809
 30
0.0
 40
5.5
 50
90.0
 51
180.0
  0
ARC
  8
52
  5
2D11B
 10
-3.0
 20
113.680809
 30
0.0
 40
6.2
 50
90.0
 51
180.0
  0
ARC
  8
52
  5
2D11C
 10
-3.0
 20
113.680809
 30
0.0
 40
8.5
 50
90.0
 51
180.0
  0
ARC
  8
51
  5
2D11D
 10
-3.0
 20
113.680809
 30
0.0
 40
9.3
 50
90.0
 51
180.0
  0
LINE
  8
52
  5
2D11E
 10
-6.63318
 20
110.030809
 30
0.0
 11
0.63318
 21
110.030809
 31
0.0
  0
LINE
  8
52
  5
2D11F
 10
-6.63318
 20
117.330809
 30
0.0
 11
0.63318
 21
117.330809
 31
0.0
  0
ARC
  8
52
  5
2D120
 10
-13.0
 20
108.680809
 30
0.0
 40
1.5
 50
270.0
 51
0.0
  0
ARC
  8
52
  5
2D121
 10
-13.0
 20
108.680809
 30
0.0
 40
3.8
 50
270.0
 51
0.0
  0
ARC
  8
51
  5
2D122
 10
-8.0
 20
108.680809
 30
0.0
 40
0.5
 50
180.0
 51
270.0
  0
ARC
  8
51
  5
2D123
 10
-12.8
 20
108.680809
 30
0.0
 40
0.5
 50
270.0
 51
360.0
  0
ARC
  8
52
  5
2D124
 10
-3.0
 20
113.680809
 30
0.0
 40
5.15
 50
134.867683
 51
225.132317
  0
LINE
  8
52
  5
2D125
 10
-11.5
 20
113.680809
 30
0.0
 11
-11.5
 21
108.680809
 31
0.0
  0
LINE
  8
51
  5
2D126
 10
-12.3
 20
113.680809
 30
0.0
 11
-12.3
 21
108.680809
 31
0.0
  0
LINE
  8
52
  5
2D127
 10
-8.5
 20
108.680809
 30
0.0
 11
-8.5
 21
113.680809
 31
0.0
  0
LINE
  8
52
  5
2D128
 10
-9.2
 20
113.680809
 30
0.0
 11
-9.2
 21
108.680809
 31
0.0
  0
ARC
  8
51
  5
2D129
 10
-3.0
 20
113.680809
 30
0.0
 40
10.0
 50
270.0
 51
0.0
  0
ARC
  8
52
  5
2D12A
 10
-3.0
 20
113.680809
 30
0.0
 40
5.5
 50
270.0
 51
360.0
  0
ARC
  8
52
  5
2D12B
 10
2.0
 20
123.680809
 30
0.0
 40
3.8
 50
270.0
 51
0.0
  0
ARC
  8
52
  5
2D12C
 10
2.0
 20
123.680809
 30
0.0
 40
1.5
 50
270.0
 51
0.0
  0
ARC
  8
51
  5
2D12D
 10
2.0
 20
123.480809
 30
0.0
 40
0.5
 50
270.0
 51
360.0
  0
LINE
  8
52
  5
2D12E
 10
-3.0
 20
119.880809
 30
0.0
 11
2.0
 21
119.880809
 31
0.0
  0
LINE
  8
52
  5
2D12F
 10
-3.0
 20
122.180809
 30
0.0
 11
2.0
 21
122.180809
 31
0.0
  0
LINE
  8
51
  5
2D130
 10
-3.0
 20
122.980809
 30
0.0
 11
2.0
 21
122.980809
 31
0.0
  0
ARC
  8
52
  5
2D131
 10
2.0
 20
118.680809
 30
0.0
 40
0.5
 50
360.0
 51
90.0
  0
ARC
  8
52
  5
2D132
 10
-3.0
 20
113.680809
 30
0.0
 40
5.15
 50
314.867683
 51
45.132317
  0
LINE
  8
52
  5
2D133
 10
-3.0
 20
119.180809
 30
0.0
 11
2.0
 21
119.180809
 31
0.0
  0
LINE
  8
52
  5
2D134
 10
2.5
 20
113.680809
 30
0.0
 11
2.5
 21
118.680809
 31
0.0
  0
LINE
  8
51
  5
2D135
 10
-213.0
 20
103.680809
 30
0.0
 11
-108.0
 21
103.680809
 31
0.0
  0
LINE
  8
51
  5
2D136
 10
-203.2
 20
108.180809
 30
0.0
 11
-108.0
 21
108.180809
 31
0.0
  0
LINE
  8
52
  5
2D137
 10
-203.0
 20
104.880809
 30
0.0
 11
-108.0
 21
104.880809
 31
0.0
  0
LINE
  8
52
  5
2D138
 10
-203.0
 20
107.180809
 30
0.0
 11
-108.0
 21
107.180809
 31
0.0
  0
ARC
  8
52
  5
2D139
 10
-213.0
 20
113.680809
 30
0.0
 40
5.5
 50
180.0
 51
270.0
  0
ARC
  8
51
  5
2D13A
 10
-213.0
 20
113.680809
 30
0.0
 40
10.0
 50
180.0
 51
270.0
  0
ARC
  8
52
  5
2D13B
 10
-203.0
 20
108.680809
 30
0.0
 40
3.8
 50
180.0
 51
270.0
  0
ARC
  8
52
  5
2D13C
 10
-203.0
 20
108.680809
 30
0.0
 40
1.5
 50
180.0
 51
270.0
  0
LINE
  8
52
  5
2D13D
 10
-209.36682
 20
117.330809
 30
0.0
 11
-216.63318
 21
117.330809
 31
0.0
  0
LINE
  8
52
  5
2D13E
 10
-209.36682
 20
110.030809
 30
0.0
 11
-216.63318
 21
110.030809
 31
0.0
  0
ARC
  8
51
  5
2D13F
 10
-213.0
 20
113.680809
 30
0.0
 40
9.3
 50
0.0
 51
90.0
  0
ARC
  8
52
  5
2D140
 10
-213.0
 20
113.680809
 30
0.0
 40
8.5
 50
0.0
 51
90.0
  0
ARC
  8
52
  5
2D141
 10
-213.0
 20
113.680809
 30
0.0
 40
6.2
 50
0.0
 51
90.0
  0
ARC
  8
52
  5
2D142
 10
-213.0
 20
113.680809
 30
0.0
 40
5.5
 50
360.0
 51
90.0
  0
LINE
  8
52
  5
2D143
 10
-206.8
 20
113.680809
 30
0.0
 11
-206.8
 21
108.680809
 31
0.0
  0
LINE
  8
52
  5
2D144
 10
-207.5
 20
108.680809
 30
0.0
 11
-207.5
 21
113.680809
 31
0.0
  0
ARC
  8
52
  5
2D145
 10
-213.0
 20
113.680809
 30
0.0
 40
5.15
 50
314.867683
 51
45.132317
  0
ARC
  8
52
  5
2D146
 10
-208.0
 20
108.680809
 30
0.0
 40
0.5
 50
270.0
 51
0.0
  0
LINE
  8
52
  5
2D147
 10
-208.0
 20
108.180809
 30
0.0
 11
-213.0
 21
108.180809
 31
0.0
  0
LINE
  8
51
  5
2D148
 10
-203.7
 20
113.680809
 30
0.0
 11
-203.7
 21
108.680809
 31
0.0
  0
LINE
  8
52
  5
2D149
 10
-204.5
 20
113.680809
 30
0.0
 11
-204.5
 21
108.680809
 31
0.0
  0
ARC
  8
51
  5
2D14A
 10
-203.2
 20
108.680809
 30
0.0
 40
0.5
 50
180.0
 51
270.0
  0
LINE
  8
51
  5
2D14B
 10
-223.0
 20
113.680809
 30
0.0
 11
-223.0
 21
143.680809
 31
0.0
  0
LINE
  8
52
  5
2D14C
 10
-219.5
 20
123.680809
 30
0.0
 11
-219.5
 21
143.680809
 31
0.0
  0
LINE
  8
52
  5
2D14D
 10
-221.8
 20
123.680809
 30
0.0
 11
-221.8
 21
143.680809
 31
0.0
  0
LINE
  8
51
  5
2D14E
 10
-218.5
 20
123.480809
 30
0.0
 11
-218.5
 21
143.680809
 31
0.0
  0
LINE
  8
52
  5
2D14F
 10
-213.0
 20
119.180809
 30
0.0
 11
-218.0
 21
119.180809
 31
0.0
  0
LINE
  8
51
  5
2D150
 10
-213.0
 20
122.980809
 30
0.0
 11
-218.0
 21
122.980809
 31
0.0
  0
LINE
  8
52
  5
2D151
 10
-213.0
 20
122.180809
 30
0.0
 11
-218.0
 21
122.180809
 31
0.0
  0
LINE
  8
52
  5
2D152
 10
-213.0
 20
119.880809
 30
0.0
 11
-218.0
 21
119.880809
 31
0.0
  0
ARC
  8
52
  5
2D153
 10
-218.0
 20
123.680809
 30
0.0
 40
3.8
 50
180.0
 51
270.0
  0
ARC
  8
51
  5
2D154
 10
-218.0
 20
123.480809
 30
0.0
 40
0.5
 50
180.0
 51
270.0
  0
ARC
  8
52
  5
2D155
 10
-218.0
 20
123.680809
 30
0.0
 40
1.5
 50
180.0
 51
270.0
  0
LINE
  8
52
  5
2D156
 10
-218.5
 20
113.680809
 30
0.0
 11
-218.5
 21
118.680809
 31
0.0
  0
ARC
  8
52
  5
2D157
 10
-213.0
 20
113.680809
 30
0.0
 40
5.15
 50
134.867683
 51
225.132317
  0
ARC
  8
52
  5
2D158
 10
-218.0
 20
118.680809
 30
0.0
 40
0.5
 50
90.0
 51
180.0
  0
LINE
  8
21
  5
2F268
 10
317.860182
 20
209.861484
 30
0.0
 11
224.860182
 21
209.861484
 31
0.0
  0
LINE
  8
21
  5
2F269
 10
317.860182
 20
209.861484
 30
0.0
 11
319.360182
 21
211.361484
 31
0.0
  0
LINE
  8
21
  5
2F361
 10
131.860182
 20
209.861484
 30
0.0
 11
224.860182
 21
209.861484
 31
0.0
  0
LINE
  8
21
  5
2F362
 10
131.860182
 20
209.861484
 30
0.0
 11
130.360182
 21
211.361484
 31
0.0
  0
LINE
  8
31
  5
2FA21
 10
373.0
 20
107.163354
 30
0.0
 11
373.0
 21
108.180809
 31
0.0
  0
LINE
  8
31
  5
2FA22
 10
373.0
 20
108.180809
 30
0.0
 11
374.5
 21
108.206992
 31
0.0
  0
LINE
  8
34
  5
2FCC1
 10
412.9
 20
122.980809
 30
0.0
 11
412.9
 21
143.680809
 31
0.0
  0
LINE
  8
34
  5
2FCC2
 10
374.5
 20
122.980809
 30
0.0
 11
412.9
 21
122.980809
 31
0.0
  0
LINE
  8
31
  5
2FCC3
 10
381.292147
 20
182.24223
 30
0.0
 11
414.052354
 21
181.908092
 31
0.0
  0
LINE
  8
31
  5
2FCC4
 10
376.0
 20
180.233175
 30
0.0
 11
376.0
 21
143.680809
 31
0.0
  0
LINE
  8
31
  5
2FCC5
 10
381.0
 20
182.542127
 30
0.0
 11
381.0
 21
143.680809
 31
0.0
  0
LINE
  8
31
  5
2FCC6
 10
374.5
 20
180.206992
 30
0.0
 11
374.5
 21
143.680809
 31
0.0
  0
LINE
  8
31
  5
2FCC7
 10
373.0
 20
180.198264
 30
0.0
 11
376.0
 21
180.233175
 31
0.0
  0
LINE
  8
31
  5
2FCC8
 10
373.0
 20
179.180809
 30
0.0
 11
374.5
 21
179.154627
 31
0.0
  0
LINE
  8
31
  5
2FCC9
 10
373.0
 20
180.198264
 30
0.0
 11
373.0
 21
179.180809
 31
0.0
  0
LINE
  8
31
  5
2FCCA
 10
376.0
 20
183.680809
 30
0.0
 11
380.513088
 21
183.56263
 31
0.0
  0
LINE
  8
31
  5
2FCCB
 10
376.0
 20
183.680809
 30
0.0
 11
376.0
 21
182.580809
 31
0.0
  0
LINE
  8
31
  5
2FCCC
 10
381.0
 20
183.062801
 30
0.0
 11
381.0
 21
182.542127
 31
0.0
  0
ARC
  8
31
  5
2FCCD
 10
380.5
 20
183.062801
 30
0.0
 40
0.5
 50
0.0
 51
88.5
  0
ARC
  8
31
  5
2FCCE
 10
381.3
 20
182.542127
 30
0.0
 40
0.3
 50
180.0
 51
268.5
  0
LINE
  8
31
  5
2FCCF
 10
376.0
 20
182.580809
 30
0.0
 11
376.0
 21
180.233175
 31
0.0
  0
LINE
  8
31
  5
2FCD0
 10
416.0
 20
179.908777
 30
0.0
 11
416.0
 21
143.680809
 31
0.0
  0
ARC
  8
31
  5
2FCD1
 10
414.0
 20
179.908777
 30
0.0
 40
2.0
 50
0.0
 51
88.5
  0
LINE
  8
43
  6
DASHDOT
  5
2FCD2
 10
77.720364
 20
143.680809
 30
0.0
 11
29.720364
 21
143.680809
 31
0.0
  0
LINE
  8
41
  5
2FCD3
 10
33.720364
 20
179.908777
 30
0.0
 11
33.720364
 21
143.680809
 31
0.0
  0
LINE
  8
41
  5
2FCD4
 10
75.220364
 20
180.206992
 30
0.0
 11
75.220364
 21
143.680809
 31
0.0
  0
LINE
  8
41
  5
2FCD5
 10
68.720364
 20
182.542127
 30
0.0
 11
68.720364
 21
143.680809
 31
0.0
  0
LINE
  8
41
  5
2FCD6
 10
73.720364
 20
180.233175
 30
0.0
 11
73.720364
 21
143.680809
 31
0.0
  0
LINE
  8
44
  5
2FCD7
 10
36.820364
 20
122.980809
 30
0.0
 11
36.820364
 21
143.680809
 31
0.0
  0
LINE
  8
41
  5
2FCD8
 10
33.720364
 20
107.452842
 30
0.0
 11
33.720364
 21
143.680809
 31
0.0
  0
LINE
  8
41
  5
2FCD9
 10
73.720364
 20
107.128444
 30
0.0
 11
73.720364
 21
143.680809
 31
0.0
  0
LINE
  8
41
  5
2FCDA
 10
68.720364
 20
104.819492
 30
0.0
 11
68.720364
 21
143.680809
 31
0.0
  0
LINE
  8
41
  5
2FCDB
 10
75.220364
 20
107.154627
 30
0.0
 11
75.220364
 21
143.680809
 31
0.0
  0
LINE
  8
44
  5
2FCDC
 10
75.220364
 20
122.980809
 30
0.0
 11
36.820364
 21
122.980809
 31
0.0
  0
LINE
  8
41
  5
2FCDD
 10
68.428217
 20
105.119389
 30
0.0
 11
35.66801
 21
105.453527
 31
0.0
  0
LINE
  8
41
  5
2FCDE
 10
73.720364
 20
103.680809
 30
0.0
 11
69.207276
 21
103.798989
 31
0.0
  0
LINE
  8
41
  5
2FCDF
 10
73.720364
 20
103.680809
 30
0.0
 11
73.720364
 21
104.780809
 31
0.0
  0
LINE
  8
41
  5
2FCE0
 10
68.720364
 20
104.298817
 30
0.0
 11
68.720364
 21
104.819492
 31
0.0
  0
ARC
  8
41
  5
2FCE1
 10
69.220364
 20
104.298817
 30
0.0
 40
0.5
 50
180.0
 51
268.5
  0
ARC
  8
41
  5
2FCE2
 10
68.420364
 20
104.819492
 30
0.0
 40
0.3
 50
360.0
 51
88.5
  0
LINE
  8
41
  5
2FCE3
 10
73.720364
 20
104.780809
 30
0.0
 11
73.720364
 21
107.128444
 31
0.0
  0
LINE
  8
41
  5
2FCE4
 10
76.720364
 20
108.180809
 30
0.0
 11
75.220364
 21
108.206992
 31
0.0
  0
LINE
  8
41
  5
2FCE5
 10
76.720364
 20
107.163354
 30
0.0
 11
76.720364
 21
108.180809
 31
0.0
  0
LINE
  8
41
  5
2FCE6
 10
76.720364
 20
107.163354
 30
0.0
 11
73.720364
 21
107.128444
 31
0.0
  0
ARC
  8
41
  5
2FCE7
 10
35.720364
 20
107.452842
 30
0.0
 40
2.0
 50
180.0
 51
268.5
  0
LINE
  8
44
  5
2FCE8
 10
75.220364
 20
164.380809
 30
0.0
 11
36.820364
 21
164.380809
 31
0.0
  0
LINE
  8
44
  5
2FCE9
 10
36.820364
 20
164.380809
 30
0.0
 11
36.820364
 21
143.680809
 31
0.0
  0
LINE
  8
41
  5
2FCEA
 10
68.428217
 20
182.24223
 30
0.0
 11
35.66801
 21
181.908092
 31
0.0
  0
LINE
  8
41
  5
2FCEB
 10
73.720364
 20
182.580809
 30
0.0
 11
73.720364
 21
180.233175
 31
0.0
  0
ARC
  8
41
  5
2FCEC
 10
68.420364
 20
182.542127
 30
0.0
 40
0.3
 50
271.5
 51
0.0
  0
ARC
  8
41
  5
2FCED
 10
69.220364
 20
183.062801
 30
0.0
 40
0.5
 50
91.5
 51
180.0
  0
LINE
  8
41
  5
2FCEE
 10
68.720364
 20
183.062801
 30
0.0
 11
68.720364
 21
182.542127
 31
0.0
  0
LINE
  8
41
  5
2FCEF
 10
73.720364
 20
183.680809
 30
0.0
 11
73.720364
 21
182.580809
 31
0.0
  0
LINE
  8
41
  5
2FCF0
 10
73.720364
 20
183.680809
 30
0.0
 11
69.207276
 21
183.56263
 31
0.0
  0
LINE
  8
41
  5
2FCF1
 10
76.720364
 20
180.198264
 30
0.0
 11
76.720364
 21
179.180809
 31
0.0
  0
LINE
  8
41
  5
2FCF2
 10
76.720364
 20
179.180809
 30
0.0
 11
75.220364
 21
179.154627
 31
0.0
  0
LINE
  8
41
  5
2FCF3
 10
76.720364
 20
180.198264
 30
0.0
 11
73.720364
 21
180.233175
 31
0.0
  0
ARC
  8
41
  5
2FCF4
 10
35.720364
 20
179.908777
 30
0.0
 40
2.0
 50
91.5
 51
180.0
  0
LINE
  8
11
  5
2FCF5
 10
336.08815
 20
34.500134
 30
0.0
 11
224.860182
 21
34.500134
 31
0.0
  0
LINE
  8
14
  5
2FCF6
 10
320.360182
 20
37.600134
 30
0.0
 11
224.860182
 21
37.600134
 31
0.0
  0
LINE
  8
11
  5
2FCF7
 10
317.860182
 20
77.500134
 30
0.0
 11
224.860182
 21
77.500134
 31
0.0
  0
LINE
  8
11
  5
2FCF8
 10
338.760182
 20
74.500134
 30
0.0
 11
224.860182
 21
74.500134
 31
0.0
  0
LINE
  8
11
  5
2FCF9
 10
339.242174
 20
69.500134
 30
0.0
 11
224.860182
 21
69.500134
 31
0.0
  0
LINE
  8
11
  5
2FCFA
 10
338.421602
 20
69.207987
 30
0.0
 11
338.087465
 21
36.44778
 31
0.0
  0
LINE
  8
14
  5
2FCFB
 10
320.360182
 20
76.000134
 30
0.0
 11
320.360182
 21
37.600134
 31
0.0
  0
LINE
  8
11
  5
2FCFC
 10
335.360182
 20
76.000134
 30
0.0
 11
319.360182
 21
76.000134
 31
0.0
  0
ARC
  8
11
  5
2FCFD
 10
338.7215
 20
69.200134
 30
0.0
 40
0.3
 50
90.0
 51
178.5
  0
ARC
  8
11
  5
2FCFE
 10
339.242174
 20
70.000134
 30
0.0
 40
0.5
 50
270.0
 51
358.5
  0
LINE
  8
11
  5
2FCFF
 10
339.860182
 20
74.500134
 30
0.0
 11
338.760182
 21
74.500134
 31
0.0
  0
LINE
  8
11
  5
2FD00
 10
339.860182
 20
74.500134
 30
0.0
 11
339.742003
 21
69.987046
 31
0.0
  0
LINE
  8
11
  5
2FD01
 10
335.338836
 20
76.000134
 30
0.0
 11
336.386365
 21
76.000134
 31
0.0
  0
LINE
  8
11
  5
2FD02
 10
336.386365
 20
76.000134
 30
0.0
 11
336.412547
 21
74.500134
 31
0.0
  0
LINE
  8
11
  5
2FD03
 10
317.860182
 20
77.500134
 30
0.0
 11
319.360182
 21
76.000134
 31
0.0
  0
ARC
  8
11
  5
2FD04
 10
336.08815
 20
36.500134
 30
0.0
 40
2.0
 50
270.0
 51
358.5
  0
LINE
  8
11
  5
2FD05
 10
113.632214
 20
34.500134
 30
0.0
 11
224.860182
 21
34.500134
 31
0.0
  0
LINE
  8
14
  5
2FD06
 10
129.360182
 20
37.600134
 30
0.0
 11
224.860182
 21
37.600134
 31
0.0
  0
LINE
  8
11
  5
2FD07
 10
131.860182
 20
77.500134
 30
0.0
 11
224.860182
 21
77.500134
 31
0.0
  0
LINE
  8
11
  5
2FD08
 10
110.960182
 20
74.500134
 30
0.0
 11
224.860182
 21
74.500134
 31
0.0
  0
LINE
  8
11
  5
2FD09
 10
110.47819
 20
69.500134
 30
0.0
 11
224.860182
 21
69.500134
 31
0.0
  0
LINE
  8
13
  6
DASHDOT
  5
2FD0A
 10
224.860182
 20
78.000134
 30
0.0
 11
224.860182
 21
30.500134
 31
0.0
  0
LINE
  8
11
  5
2FD0B
 10
109.860182
 20
74.500134
 30
0.0
 11
110.960182
 21
74.500134
 31
0.0
  0
ARC
  8
11
  5
2FD0C
 10
110.47819
 20
70.000134
 30
0.0
 40
0.5
 50
181.5
 51
270.0
  0
LINE
  8
11
  5
2FD0D
 10
111.298762
 20
69.207987
 30
0.0
 11
111.6329
 21
36.44778
 31
0.0
  0
LINE
  8
14
  5
2FD0E
 10
129.360182
 20
76.000134
 30
0.0
 11
129.360182
 21
37.600134
 31
0.0
  0
LINE
  8
11
  5
2FD0F
 10
113.334
 20
76.000134
 30
0.0
 11
130.360182
 21
76.000134
 31
0.0
  0
LINE
  8
11
  5
2FD10
 10
131.860182
 20
77.500134
 30
0.0
 11
130.360182
 21
76.000134
 31
0.0
  0
ARC
  8
11
  5
2FD11
 10
110.998865
 20
69.200134
 30
0.0
 40
0.3
 50
1.5
 51
90.0
  0
LINE
  8
11
  5
2FD12
 10
110.960182
 20
74.500134
 30
0.0
 11
113.307817
 21
74.500134
 31
0.0
  0
LINE
  8
11
  5
2FD13
 10
113.334
 20
76.000134
 30
0.0
 11
113.307817
 21
74.500134
 31
0.0
  0
LINE
  8
11
  5
2FD14
 10
113.334
 20
76.000134
 30
0.0
 11
113.307817
 21
74.500134
 31
0.0
  0
ARC
  8
11
  5
2FD15
 10
113.632214
 20
36.500134
 30
0.0
 40
2.0
 50
181.5
 51
270.0
  0
LINE
  8
11
  5
2FD16
 10
109.860182
 20
74.500134
 30
0.0
 11
109.978361
 21
69.987046
 31
0.0
  0
TEXT
  8
L20
  5
2FD17
 10
-191.342805
 20
225.373511
 30
0.0
 40
9.0
  1
FIBOX PICCOLO F 230x80x40 COVER
  0
ENDBLK
  8
0
  5
2FD1F
  0
ENDSEC
  0
SECTION
  2
ENTITIES
  0
VIEWPORT
  8
0
  5
1
 67
     1
 68
     1
 10
210.0
 20
152.094241
 30
0.0
 40
420.0
 41
304.188482
 69
     1
1001
ACAD
1000
MVIEW
1002
{
1070
    16
1010
0.0
1020
0.0
1030
0.0
1010
0.0
1020
0.0
1030
1.0
1040
0.0
1040
304.188482
1040
210.0
1040
152.094241
1040
50.0
1040
0.0
1040
0.0
1070
     0
1070
   100
1070
     1
1070
     1
1070
     1
1070
     0
1070
     0
1070
     0
1040
0.0
1040
0.0
1040
0.0
1040
1.0
1040
1.0
1040
0.0
1040
0.0
1070
     0
1002
{
1002
}
1002
}
  0
INSERT
  8
L1
  5
2FD20
  2
PICF40C
 10
0.0
 20
0.0
 30
0.0
  0
ENDSEC
  0
EOF
