  0
SECTION
  2
HEADER
  9
$ACADVER
  1
AC1009
  9
$INSBASE
 10
0.0
 20
0.0
 30
0.0
  9
$EXTMIN
 10
-150.071068
 20
58.0
 30
0.0
  9
$EXTMAX
 10
405.0
 20
298.0
 30
0.0
  9
$LIMMIN
 10
0.0
 20
0.0
  9
$LIMMAX
 10
420.0
 20
297.0
  9
$ORTHOMODE
 70
     0
  9
$REGENMODE
 70
     1
  9
$FILLMODE
 70
     1
  9
$QTEXTMODE
 70
     0
  9
$MIRRTEXT
 70
     1
  9
$DRAGMODE
 70
     2
  9
$LTSCALE
 40
7.0
  9
$OSMODE
 70
     0
  9
$ATTMODE
 70
     1
  9
$TEXTSIZE
 40
3.5
  9
$TRACEWID
 40
0.05
  9
$TEXTSTYLE
  7
STANDARD
  9
$CLAYER
  8
L1
  9
$CELTYPE
  6
BYLAYER
  9
$CECOLOR
 62
   256
  9
$DIMSCALE
 40
1.0
  9
$DIMASZ
 40
3.5
  9
$DIMEXO
 40
0.0
  9
$DIMDLI
 40
10.0
  9
$DIMRND
 40
0.0
  9
$DIMDLE
 40
0.0
  9
$DIMEXE
 40
2.0
  9
$DIMTP
 40
0.0
  9
$DIMTM
 40
0.0
  9
$DIMTXT
 40
3.5
  9
$DIMCEN
 40
2.5
  9
$DIMTSZ
 40
0.0
  9
$DIMTOL
 70
     0
  9
$DIMLIM
 70
     0
  9
$DIMTIH
 70
     0
  9
$DIMTOH
 70
     0
  9
$DIMSE1
 70
     0
  9
$DIMSE2
 70
     0
  9
$DIMTAD
 70
     1
  9
$DIMZIN
 70
     8
  9
$DIMBLK
  1

  9
$DIMASO
 70
     1
  9
$DIMSHO
 70
     1
  9
$DIMPOST
  1

  9
$DIMAPOST
  1

  9
$DIMALT
 70
     0
  9
$DIMALTD
 70
     2
  9
$DIMALTF
 40
25.4
  9
$DIMLFAC
 40
1.0
  9
$DIMTOFL
 70
     1
  9
$DIMTVP
 40
0.0
  9
$DIMTIX
 70
     0
  9
$DIMSOXD
 70
     0
  9
$DIMSAH
 70
     0
  9
$DIMBLK1
  1

  9
$DIMBLK2
  1

  9
$DIMSTYLE
  2
*UNNAMED
  9
$DIMCLRD
 70
   256
  9
$DIMCLRE
 70
   256
  9
$DIMCLRT
 70
     3
  9
$DIMTFAC
 40
1.0
  9
$DIMGAP
 40
2.0
  9
$LUNITS
 70
     2
  9
$LUPREC
 70
     2
  9
$SKETCHINC
 40
1.0
  9
$FILLETRAD
 40
0.0
  9
$AUNITS
 70
     0
  9
$AUPREC
 70
     2
  9
$MENU
  1
CAESAR
  9
$ELEVATION
 40
0.0
  9
$PELEVATION
 40
0.0
  9
$THICKNESS
 40
0.0
  9
$LIMCHECK
 70
     0
  9
$BLIPMODE
 70
     1
  9
$CHAMFERA
 40
5.0
  9
$CHAMFERB
 40
5.0
  9
$SKPOLY
 70
     0
  9
$TDCREATE
 40
2449682.498710764
  9
$TDUPDATE
 40
2449682.498710764
  9
$TDINDWG
 40
0.0000000000
  9
$TDUSRTIMER
 40
0.0000000000
  9
$USRTIMER
 70
     1
  9
$ANGBASE
 50
0.0
  9
$ANGDIR
 70
     0
  9
$PDMODE
 70
     0
  9
$PDSIZE
 40
0.0
  9
$PLINEWID
 40
0.0
  9
$COORDS
 70
     2
  9
$SPLFRAME
 70
     0
  9
$SPLINETYPE
 70
     6
  9
$SPLINESEGS
 70
     8
  9
$ATTDIA
 70
     0
  9
$ATTREQ
 70
     1
  9
$HANDLING
 70
     1
  9
$HANDSEED
  5
20177
  9
$SURFTAB1
 70
     6
  9
$SURFTAB2
 70
     6
  9
$SURFTYPE
 70
     6
  9
$SURFU
 70
     6
  9
$SURFV
 70
     6
  9
$UCSNAME
  2

  9
$UCSORG
 10
0.0
 20
0.0
 30
0.0
  9
$UCSXDIR
 10
1.0
 20
0.0
 30
0.0
  9
$UCSYDIR
 10
0.0
 20
1.0
 30
0.0
  9
$PUCSNAME
  2

  9
$PUCSORG
 10
0.0
 20
0.0
 30
0.0
  9
$PUCSXDIR
 10
1.0
 20
0.0
 30
0.0
  9
$PUCSYDIR
 10
0.0
 20
1.0
 30
0.0
  9
$USERI1
 70
     0
  9
$USERI2
 70
     0
  9
$USERI3
 70
     0
  9
$USERI4
 70
     0
  9
$USERI5
 70
     0
  9
$USERR1
 40
1.0
  9
$USERR2
 40
0.0
  9
$USERR3
 40
3.5
  9
$USERR4
 40
0.0
  9
$USERR5
 40
0.0
  9
$WORLDVIEW
 70
     1
  9
$SHADEDGE
 70
     3
  9
$SHADEDIF
 70
    70
  9
$TILEMODE
 70
     1
  9
$MAXACTVP
 70
    16
  9
$PINSBASE
 10
0.0
 20
0.0
 30
0.0
  9
$PLIMCHECK
 70
     0
  9
$PEXTMIN
 10
1.000000E+20
 20
1.000000E+20
 30
1.000000E+20
  9
$PEXTMAX
 10
-1.000000E+20
 20
-1.000000E+20
 30
-1.000000E+20
  9
$PLIMMIN
 10
0.0
 20
0.0
  9
$PLIMMAX
 10
420.0
 20
297.0
  9
$UNITMODE
 70
     0
  9
$VISRETAIN
 70
     0
  9
$PLINEGEN
 70
     0
  9
$PSLTSCALE
 70
     0
  9
$TREEDEPTH
 70
  3020
  9
$DWGCODEPAGE
  3
dos850
  0
ENDSEC
  0
SECTION
  2
TABLES
  0
TABLE
  2
VPORT
 70
     2
  0
VPORT
  2
*ACTIVE
 70
     0
 10
0.0
 20
0.0
 11
1.0
 21
1.0
 12
287.564723
 22
225.231556
 13
0.0
 23
0.0
 14
1.0
 24
1.0
 15
10.0
 25
10.0
 16
0.0
 26
0.0
 36
1.0
 17
0.0
 27
0.0
 37
0.0
 40
456.463112
 41
1.273114
 42
50.0
 43
0.0
 44
0.0
 50
0.0
 51
0.0
 71
     0
 72
  1000
 73
     1
 74
     1
 75
     1
 76
     0
 77
     0
 78
     0
  0
ENDTAB
  0
TABLE
  2
LTYPE
 70
    10
  0
LTYPE
  2
CONTINUOUS
 70
    64
  3
Solid line
 72
    65
 73
     0
 40
0.0
  0
LTYPE
  2
BORDER
 70
     0
  3
__ __ . __ __ . __ __ . __ __ . __ __ . __ __ .
 72
    65
 73
     6
 40
1.75
 49
0.5
 49
-0.25
 49
0.5
 49
-0.25
 49
0.0
 49
-0.25
  0
LTYPE
  2
CENTER
 70
    64
  3
____ _ ____ _ ____ _ ____ _ ____ _ ____ _ ____ 
 72
    65
 73
     4
 40
2.0
 49
1.25
 49
-0.25
 49
0.25
 49
-0.25
  0
LTYPE
  2
DASHDOT
 70
     0
  3
__ . __ . __ . __ . __ . __ . __ . __ . __ . __
 72
    65
 73
     4
 40
1.0
 49
0.5
 49
-0.25
 49
0.0
 49
-0.25
  0
LTYPE
  2
DASHED
 70
    64
  3
__ __ __ __ __ __ __ __ __ __ __ __ __ __ __ __
 72
    65
 73
     2
 40
0.75
 49
0.5
 49
-0.25
  0
LTYPE
  2
DIVIDE
 70
     0
  3
____ . . ____ . . ____ . . ____ . . ____ . . __
 72
    65
 73
     6
 40
1.25
 49
0.5
 49
-0.25
 49
0.0
 49
-0.25
 49
0.0
 49
-0.25
  0
LTYPE
  2
DOT
 70
     0
  3
. . . . . . . . . . . . . . . . . . . . . . . .
 72
    65
 73
     2
 40
0.25
 49
0.0
 49
-0.25
  0
LTYPE
  2
HIDDEN
 70
    64
  3
__ __ __ __ __ __ __ __ __ __ __ __ __ __ __ __
 72
    65
 73
     2
 40
0.375
 49
0.25
 49
-0.125
  0
LTYPE
  2
PHANTOM
 70
    64
  3
______  __  __  ______  __  __  ______  __  __ 
 72
    65
 73
     6
 40
2.5
 49
1.25
 49
-0.25
 49
0.25
 49
-0.25
 49
0.25
 49
-0.25
  0
LTYPE
  2
DOTX2
 70
    64
  3
.  .  .  .  .  .  .  .  .  .  .  .  .  .  .  . 
 72
    65
 73
     2
 40
0.5
 49
0.0
 49
-0.5
  0
ENDTAB
  0
TABLE
  2
LAYER
 70
    74
  0
LAYER
  2
0
 70
    64
 62
     7
  6
CONTINUOUS
  0
LAYER
  2
L1
 70
     0
 62
     3
  6
CONTINUOUS
  0
LAYER
  2
L2
 70
     0
 62
     1
  6
CONTINUOUS
  0
LAYER
  2
L3
 70
     0
 62
     7
  6
DASHED
  0
LAYER
  2
L4
 70
     0
 62
     1
  6
DASHED
  0
LAYER
  2
L5
 70
     0
 62
     6
  6
CENTER
  0
LAYER
  2
L6
 70
     0
 62
     1
  6
CENTER
  0
LAYER
  2
L7
 70
     0
 62
     1
  6
PHANTOM
  0
LAYER
  2
VPORT
 70
     0
 62
     7
  6
CONTINUOUS
  0
LAYER
  2
L8
 70
     0
 62
     1
  6
CONTINUOUS
  0
LAYER
  2
L20
 70
     0
 62
     3
  6
CONTINUOUS
  0
LAYER
  2
L21
 70
     0
 62
     1
  6
CONTINUOUS
  0
LAYER
  2
L22
 70
     0
 62
     1
  6
CONTINUOUS
  0
LAYER
  2
L23
 70
     0
 62
     1
  6
CONTINUOUS
  0
LAYER
  2
L30
 70
     0
 62
     3
  6
CONTINUOUS
  0
LAYER
  2
L31
 70
     0
 62
     1
  6
CONTINUOUS
  0
LAYER
  2
L32
 70
     0
 62
     3
  6
CONTINUOUS
  0
LAYER
  2
L33
 70
     0
 62
     1
  6
CONTINUOUS
  0
LAYER
  2
L34
 70
     0
 62
     3
  6
CONTINUOUS
  0
LAYER
  2
L35
 70
     0
 62
     1
  6
CONTINUOUS
  0
LAYER
  2
L40
 70
     0
 62
     7
  6
CONTINUOUS
  0
LAYER
  2
L41
 70
     0
 62
     1
  6
CONTINUOUS
  0
LAYER
  2
L42
 70
     0
 62
     1
  6
CONTINUOUS
  0
LAYER
  2
L43
 70
     0
 62
     7
  6
CONTINUOUS
  0
LAYER
  2
L44
 70
     0
 62
     1
  6
CONTINUOUS
  0
LAYER
  2
L45
 70
     0
 62
     1
  6
CONTINUOUS
  0
LAYER
  2
L46
 70
     0
 62
     3
  6
CONTINUOUS
  0
LAYER
  2
L50
 70
     0
 62
     7
  6
CONTINUOUS
  0
LAYER
  2
L51
 70
     0
 62
     1
  6
CONTINUOUS
  0
LAYER
  2
L52
 70
     0
 62
     7
  6
CONTINUOUS
  0
LAYER
  2
L53
 70
     0
 62
     1
  6
CONTINUOUS
  0
LAYER
  2
L54
 70
     0
 62
     3
  6
CONTINUOUS
  0
LAYER
  2
L55
 70
     0
 62
     3
  6
CONTINUOUS
  0
LAYER
  2
L56
 70
     0
 62
     3
  6
CONTINUOUS
  0
LAYER
  2
L57
 70
     0
 62
     1
  6
CONTINUOUS
  0
LAYER
  2
L9
 70
     0
 62
     7
  6
HIDDEN
  0
LAYER
  2
L15
 70
     0
 62
     2
  6
CONTINUOUS
  0
LAYER
  2
L16
 70
     0
 62
     5
  6
DOTX2
  0
LAYER
  2
L24
 70
     0
 62
     1
  6
CONTINUOUS
  0
LAYER
  2
A1
 70
     0
 62
     7
  6
CONTINUOUS
  0
LAYER
  2
RA1
 70
     0
 62
     1
  6
CONTINUOUS
  0
LAYER
  2
TITEL
 70
     0
 62
     7
  6
CONTINUOUS
  0
LAYER
  2
DEFPOINTS
 70
     0
 62
     7
  6
CONTINUOUS
  0
LAYER
  2
1
 70
     0
 62
     7
  6
CONTINUOUS
  0
LAYER
  2
11
 70
    64
 62
     7
  6
CONTINUOUS
  0
LAYER
  2
12
 70
     0
 62
     1
  6
CONTINUOUS
  0
LAYER
  2
13
 70
    64
 62
     1
  6
CENTER
  0
LAYER
  2
14
 70
    64
 62
     1
  6
DASHED
  0
LAYER
  2
15
 70
     0
 62
     2
  6
DASHED
  0
LAYER
  2
21
 70
    64
 62
     7
  6
CONTINUOUS
  0
LAYER
  2
22
 70
     0
 62
     1
  6
CONTINUOUS
  0
LAYER
  2
23
 70
    64
 62
     1
  6
CENTER
  0
LAYER
  2
24
 70
    64
 62
     1
  6
DASHED
  0
LAYER
  2
25
 70
     0
 62
     2
  6
DASHED
  0
LAYER
  2
31
 70
    64
 62
     7
  6
CONTINUOUS
  0
LAYER
  2
32
 70
     0
 62
     1
  6
CONTINUOUS
  0
LAYER
  2
33
 70
    64
 62
     1
  6
CENTER
  0
LAYER
  2
34
 70
    64
 62
     1
  6
DASHED
  0
LAYER
  2
35
 70
     0
 62
     2
  6
DASHED
  0
LAYER
  2
41
 70
    64
 62
     7
  6
CONTINUOUS
  0
LAYER
  2
42
 70
     0
 62
     1
  6
CONTINUOUS
  0
LAYER
  2
43
 70
    64
 62
     1
  6
CENTER
  0
LAYER
  2
44
 70
    64
 62
     1
  6
DASHED
  0
LAYER
  2
45
 70
     0
 62
     2
  6
DASHED
  0
LAYER
  2
51
 70
    64
 62
     7
  6
CONTINUOUS
  0
LAYER
  2
52
 70
     0
 62
     1
  6
CONTINUOUS
  0
LAYER
  2
53
 70
    64
 62
     1
  6
CENTER
  0
LAYER
  2
54
 70
     0
 62
     1
  6
DASHED
  0
LAYER
  2
55
 70
     0
 62
     2
  6
DASHED
  0
LAYER
  2
61
 70
    64
 62
     7
  6
CONTINUOUS
  0
LAYER
  2
62
 70
    64
 62
     1
  6
CONTINUOUS
  0
LAYER
  2
63
 70
    64
 62
     1
  6
CENTER
  0
LAYER
  2
64
 70
     0
 62
     1
  6
DASHED
  0
LAYER
  2
65
 70
     0
 62
     2
  6
DASHED
  0
ENDTAB
  0
TABLE
  2
STYLE
 70
     4
  0
STYLE
  2
STANDARD
 70
     0
 40
0.0
 41
1.0
 50
0.0
 71
     0
 42
3.5
  3
CAEISO
  4

  0
STYLE
  2
SIMPLEX
 70
    64
 40
0.0
 41
1.0
 50
0.0
 71
     0
 42
20.0
  3
SIMPLEX.SHX
  4

  0
STYLE
  2
COMPLEX
 70
    64
 40
5.0
 41
1.0
 50
0.0
 71
     0
 42
5.0
  3
COMPLEX
  4

  0
STYLE
  2
CAEISO
 70
     0
 40
0.0
 41
1.0
 50
0.0
 71
     0
 42
1.0
  3
CAEISO
  4

  0
ENDTAB
  0
TABLE
  2
VIEW
 70
     0
  0
ENDTAB
  0
TABLE
  2
UCS
 70
     0
  0
ENDTAB
  0
TABLE
  2
APPID
 70
     1
  0
APPID
  2
ACAD
 70
    64
  0
ENDTAB
  0
TABLE
  2
DIMSTYLE
 70
     6
  0
DIMSTYLE
  2
ACADUS
 70
     0
  3

  4

  5

  6

  7

 40
1.0
 41
0.18
 42
0.0625
 43
0.38
 44
0.18
 45
0.0
 46
0.0
 47
0.0
 48
0.0
140
0.18
141
0.09
142
0.0
143
25.4
144
1.0
145
0.0
146
1.0
147
0.09
 71
     0
 72
     0
 73
     1
 74
     1
 75
     0
 76
     0
 77
     0
 78
     0
170
     0
171
     2
172
     0
173
     0
174
     0
175
     0
176
     0
177
     0
178
     0
  0
DIMSTYLE
  2
NORDIC
 70
     0
  3

  4

  5

  6

  7

 40
1.0
 41
3.5
 42
1.0
 43
10.0
 44
2.0
 45
0.0
 46
0.0
 47
0.0
 48
0.0
140
3.5
141
2.5
142
0.0
143
25.4
144
1.0
145
0.0
146
1.0
147
2.0
 71
     0
 72
     0
 73
     0
 74
     0
 75
     0
 76
     0
 77
     1
 78
     8
170
     0
171
     2
172
     1
173
     0
174
     0
175
     0
176
     0
177
     0
178
     0
  0
DIMSTYLE
  2
RADIAL
 70
     0
  3

  4

  5

  6

  7

 40
1.0
 41
3.5
 42
1.0
 43
10.0
 44
2.0
 45
0.0
 46
0.0
 47
0.0
 48
0.0
140
3.5
141
2.5
142
0.0
143
25.4
144
1.0
145
0.0
146
1.0
147
2.0
 71
     0
 72
     0
 73
     0
 74
     1
 75
     0
 76
     0
 77
     1
 78
     8
170
     0
171
     2
172
     0
173
     0
174
     0
175
     0
176
     0
177
     0
178
     0
  0
DIMSTYLE
  2
NORTOL
 70
     0
  3

  4

  5

  6

  7

 40
1.0
 41
3.5
 42
1.0
 43
10.0
 44
2.0
 45
0.0
 46
0.0
 47
0.2
 48
0.1
140
3.5
141
2.5
142
0.0
143
25.4
144
1.0
145
0.7
146
0.71
147
2.0
 71
     1
 72
     0
 73
     0
 74
     0
 75
     0
 76
     0
 77
     0
 78
     8
170
     0
171
     2
172
     1
173
     0
174
     0
175
     0
176
     0
177
     0
178
     0
  0
DIMSTYLE
  2
RADTOL
 70
     0
  3

  4

  5

  6

  7

 40
1.0
 41
3.5
 42
1.0
 43
10.0
 44
2.0
 45
0.0
 46
0.0
 47
0.2
 48
0.1
140
3.5
141
2.5
142
0.0
143
25.4
144
1.0
145
0.7
146
0.7
147
2.0
 71
     1
 72
     0
 73
     0
 74
     1
 75
     0
 76
     0
 77
     0
 78
     8
170
     0
171
     2
172
     0
173
     0
174
     0
175
     0
176
     0
177
     0
178
     0
  0
DIMSTYLE
  2
HANSU
 70
     0
  3

  4

  5

  6

  7

 40
1.0
 41
3.5
 42
0.0
 43
10.0
 44
2.0
 45
0.0
 46
0.0
 47
0.0
 48
0.0
140
3.5
141
2.5
142
0.0
143
25.4
144
0.8
145
0.0
146
1.0
147
2.0
 71
     0
 72
     0
 73
     0
 74
     0
 75
     0
 76
     0
 77
     1
 78
     8
170
     0
171
     2
172
     1
173
     0
174
     0
175
     0
176
   256
177
   256
178
     3
  0
ENDTAB
  0
ENDSEC
  0
SECTION
  2
BLOCKS
  0
BLOCK
  8
0
  5
2329
  2
AME_NIL
 70
     0
 10
0.0
 20
0.0
 30
0.0
  1
AME_NIL
  3
AME_NIL
  0
ENDBLK
  8
0
  5
232A
  0
BLOCK
  8
0
  5
232C
  2
AME_SOL
 70
     0
 10
0.0
 20
0.0
 30
0.0
  1
AME_SOL
  3
AME_SOL
  0
ENDBLK
  8
0
  5
232D
  0
BLOCK
  8
0
  5
233F
  2
SOLAXES
 70
     0
 10
0.0
 20
0.0
 30
0.0
  1
SOLAXES
  3
SOLAXES
  0
LINE
  8
0
 62
     0
  5
2340
 10
0.0
 20
0.0
 30
0.0
 11
63.851158
 21
0.0
 31
0.0
  0
LINE
  8
0
 62
     0
  5
2341
 10
0.0
 20
0.0
 30
0.0
 11
0.0
 21
63.851158
 31
0.0
  0
LINE
  8
0
 62
     0
  5
2342
 10
0.0
 20
0.0
 30
0.0
 11
0.0
 21
0.0
 31
63.851158
  0
CIRCLE
  8
0
 62
     0
  5
2343
 10
0.0
 20
0.0
 30
57.466042
 40
3.192558
210
1.0
220
0.0
230
0.0
  0
LINE
  8
0
 62
     0
  5
2344
 10
57.466042
 20
3.192558
 30
0.0
 11
63.851158
 21
0.0
 31
0.0
  0
LINE
  8
0
 62
     0
  5
2345
 10
57.466042
 20
0.0
 30
3.192558
 11
63.851158
 21
0.0
 31
0.0
  0
LINE
  8
0
 62
     0
  5
2346
 10
57.466042
 20
-3.192558
 30
0.0
 11
63.851158
 21
0.0
 31
0.0
  0
LINE
  8
0
 62
     0
  5
2347
 10
57.466042
 20
0.0
 30
-3.192558
 11
63.851158
 21
0.0
 31
0.0
  0
CIRCLE
  8
0
 62
     0
  5
2348
 10
0.0
 20
0.0
 30
57.466042
 40
3.192558
210
0.0
220
1.0
230
0.0
  0
LINE
  8
0
 62
     0
  5
2349
 10
3.192558
 20
57.466042
 30
0.0
 11
0.0
 21
63.851158
 31
0.0
  0
LINE
  8
0
 62
     0
  5
234A
 10
0.0
 20
57.466042
 30
3.192558
 11
0.0
 21
63.851158
 31
0.0
  0
LINE
  8
0
 62
     0
  5
234B
 10
-3.192558
 20
57.466042
 30
0.0
 11
0.0
 21
63.851158
 31
0.0
  0
LINE
  8
0
 62
     0
  5
234C
 10
0.0
 20
57.466042
 30
-3.192558
 11
0.0
 21
63.851158
 31
0.0
  0
CIRCLE
  8
0
 62
     0
  5
234D
 10
0.0
 20
0.0
 30
51.080927
 40
3.192558
210
0.0
220
1.0
230
0.0
  0
LINE
  8
0
 62
     0
  5
234E
 10
3.192558
 20
51.080927
 30
0.0
 11
0.0
 21
57.466042
 31
0.0
  0
LINE
  8
0
 62
     0
  5
234F
 10
0.0
 20
51.080927
 30
3.192558
 11
0.0
 21
57.466042
 31
0.0
  0
LINE
  8
0
 62
     0
  5
2350
 10
-3.192558
 20
51.080927
 30
0.0
 11
0.0
 21
57.466042
 31
0.0
  0
LINE
  8
0
 62
     0
  5
2351
 10
0.0
 20
51.080927
 30
-3.192558
 11
0.0
 21
57.466042
 31
0.0
  0
CIRCLE
  8
0
 62
     0
  5
2352
 10
0.0
 20
0.0
 30
57.466042
 40
3.192558
  0
LINE
  8
0
 62
     0
  5
2353
 10
3.192558
 20
0.0
 30
57.466042
 11
0.0
 21
0.0
 31
63.851158
  0
LINE
  8
0
 62
     0
  5
2354
 10
0.0
 20
3.192558
 30
57.466042
 11
0.0
 21
0.0
 31
63.851158
  0
LINE
  8
0
 62
     0
  5
2355
 10
-3.192558
 20
0.0
 30
57.466042
 11
0.0
 21
0.0
 31
63.851158
  0
LINE
  8
0
 62
     0
  5
2356
 10
0.0
 20
-3.192558
 30
57.466042
 11
0.0
 21
0.0
 31
63.851158
  0
CIRCLE
  8
0
 62
     0
  5
2357
 10
0.0
 20
0.0
 30
51.080927
 40
3.192558
  0
LINE
  8
0
 62
     0
  5
2358
 10
3.192558
 20
0.0
 30
51.080927
 11
0.0
 21
0.0
 31
57.466042
  0
LINE
  8
0
 62
     0
  5
2359
 10
0.0
 20
3.192558
 30
51.080927
 11
0.0
 21
0.0
 31
57.466042
  0
LINE
  8
0
 62
     0
  5
235A
 10
-3.192558
 20
0.0
 30
51.080927
 11
0.0
 21
0.0
 31
57.466042
  0
LINE
  8
0
 62
     0
  5
235B
 10
0.0
 20
-3.192558
 30
51.080927
 11
0.0
 21
0.0
 31
57.466042
  0
CIRCLE
  8
0
 62
     0
  5
235C
 10
0.0
 20
0.0
 30
44.695811
 40
3.192558
  0
LINE
  8
0
 62
     0
  5
235D
 10
3.192558
 20
0.0
 30
44.695811
 11
0.0
 21
0.0
 31
51.080927
  0
LINE
  8
0
 62
     0
  5
235E
 10
0.0
 20
3.192558
 30
44.695811
 11
0.0
 21
0.0
 31
51.080927
  0
LINE
  8
0
 62
     0
  5
235F
 10
-3.192558
 20
0.0
 30
44.695811
 11
0.0
 21
0.0
 31
51.080927
  0
LINE
  8
0
 62
     0
  5
2360
 10
0.0
 20
-3.192558
 30
44.695811
 11
0.0
 21
0.0
 31
51.080927
  0
ENDBLK
  8
0
  5
2361
  0
BLOCK
  8
0
  5
2460
  2
AME_MAT
 70
     0
 10
0.0
 20
0.0
 30
0.0
  1
AME_MAT
  3
AME_MAT
  0
ENDBLK
  8
0
  5
2461
  0
BLOCK
  8
0
  5
2465
  2
PICD45B
 70
    64
 10
0.0
 20
0.0
 30
0.0
  3
PICD45B
  0
LINE
  8
21
  5
4BA2
 10
151.989707
 20
296.0
 30
0.0
 11
152.702607
 21
296.0
 31
0.0
  0
LINE
  8
21
  5
4BA3
 10
151.689889
 20
295.71047
 30
0.0
 11
151.630158
 21
294.0
 31
0.0
  0
LINE
  8
21
  5
4BA4
 10
150.0
 20
294.0
 30
0.0
 11
150.032312
 21
290.297382
 31
0.0
  0
LINE
  8
21
  5
4BA5
 10
150.332301
 20
290.0
 30
0.0
 11
150.839252
 21
290.0
 31
0.0
  0
LINE
  8
21
  5
4BA6
 10
150.0
 20
294.0
 30
0.0
 11
151.630158
 21
294.0
 31
0.0
  0
LINE
  8
21
  5
4BA7
 10
151.339233
 20
289.504363
 30
0.0
 11
151.675408
 21
250.982547
 31
0.0
  0
ARC
  8
21
  5
4BA9
 10
153.675331
 20
251.0
 30
0.0
 40
2.0
 50
180.5
 51
270.0
  0
ARC
  8
21
  5
4BAA
 10
150.839252
 20
289.5
 30
0.0
 40
0.5
 50
0.5
 51
90.0
  0
ARC
  8
21
  5
4BAB
 10
150.332301
 20
290.3
 30
0.0
 40
0.3
 50
180.5
 51
270.0
  0
ARC
  8
21
  5
4BAF
 10
151.989707
 20
295.7
 30
0.0
 40
0.3
 50
90.0
 51
178.0
  0
LINE
  8
21
  5
4BB4
 10
154.0
 20
247.7
 30
0.0
 11
166.0
 21
247.7
 31
0.0
  0
LINE
  8
21
  5
4BB5
 10
166.0
 20
247.7
 30
0.0
 11
166.080385
 21
248.0
 31
0.0
  0
LINE
  8
21
  5
4BB6
 10
154.0
 20
247.7
 30
0.0
 11
153.651666
 21
249.0
 31
0.0
  0
ARC
  8
61
  5
4BE8
 10
160.0
 20
148.0
 30
0.0
 40
10.0
 50
180.0
 51
270.0
  0
LINE
  8
61
  5
4BE9
 10
150.0
 20
178.0
 30
0.0
 11
150.0
 21
148.0
 31
0.0
  0
LINE
  8
61
  5
4BEA
 10
154.3
 20
178.0
 30
0.0
 11
154.3
 21
156.126501
 31
0.0
  0
LINE
  8
61
  5
4BEB
 10
153.0
 20
178.0
 30
0.0
 11
153.0
 21
158.0
 31
0.0
  0
LINE
  8
62
  5
4BEC
 10
151.7
 20
178.0
 30
0.0
 11
151.7
 21
158.0
 31
0.0
  0
ARC
  8
62
  5
4BED
 10
170.0
 20
143.0
 30
0.0
 40
3.3
 50
180.0
 51
270.0
  0
ARC
  8
61
  5
4BEE
 10
160.0
 20
148.0
 30
0.0
 40
8.0
 50
0.0
 51
90.0
  0
LINE
  8
61
  5
4BF0
 10
160.0
 20
138.0
 30
0.0
 11
235.0
 21
138.0
 31
0.0
  0
ARC
  8
62
  5
4BF1
 10
160.0
 20
148.0
 30
0.0
 40
6.7
 50
0.0
 51
90.0
  0
CIRCLE
  8
62
  5
4BF3
 10
160.0
 20
148.0
 30
0.0
 40
6.0
  0
CIRCLE
  8
62
  5
4BF4
 10
160.0
 20
148.0
 30
0.0
 40
4.188125
  0
LINE
  8
62
  5
4BF6
 10
166.7
 20
148.0
 30
0.0
 11
166.7
 21
143.0
 31
0.0
  0
LINE
  8
61
  5
4BF7
 10
160.0
 20
156.0
 30
0.0
 11
155.0
 21
156.0
 31
0.0
  0
LINE
  8
62
  5
4BF8
 10
160.0
 20
154.7
 30
0.0
 11
155.0
 21
154.7
 31
0.0
  0
ARC
  8
61
  5
4BF9
 10
155.0
 20
158.0
 30
0.0
 40
2.0
 50
180.0
 51
270.0
  0
ARC
  8
62
  5
4BFA
 10
155.0
 20
158.0
 30
0.0
 40
3.3
 50
180.0
 51
270.0
  0
LINE
  8
61
  5
4BFB
 10
168.126501
 20
142.3
 30
0.0
 11
235.0
 21
142.3
 31
0.0
  0
LINE
  8
61
  5
4BFC
 10
170.0
 20
141.0
 30
0.0
 11
235.0
 21
141.0
 31
0.0
  0
LINE
  8
62
  5
4BFD
 10
170.0
 20
139.7
 30
0.0
 11
235.0
 21
139.7
 31
0.0
  0
ARC
  8
61
  5
4BFE
 10
170.0
 20
143.0
 30
0.0
 40
2.0
 50
180.0
 51
270.0
  0
LINE
  8
61
  5
4BFF
 10
168.0
 20
148.0
 30
0.0
 11
168.0
 21
143.0
 31
0.0
  0
LINE
  8
61
  5
4C00
 10
168.0
 20
138.0
 30
0.0
 11
168.0
 21
138.0
 31
0.0
  0
LINE
  8
63
  6
DASHDOT
  5
4C01
 10
235.0
 20
137.0
 30
0.0
 11
235.0
 21
178.0
 31
0.0
  0
LINE
  8
63
  6
DASHDOT
  5
4C02
 10
235.0
 20
178.0
 30
0.0
 11
148.0
 21
178.0
 31
0.0
  0
LINE
  8
61
  5
4C03
 10
320.0
 20
178.0
 30
0.0
 11
320.0
 21
148.0
 31
0.0
  0
LINE
  8
61
  5
4C04
 10
315.7
 20
178.0
 30
0.0
 11
315.7
 21
156.126501
 31
0.0
  0
LINE
  8
61
  5
4C05
 10
317.0
 20
178.0
 30
0.0
 11
317.0
 21
158.0
 31
0.0
  0
LINE
  8
62
  5
4C06
 10
318.3
 20
178.0
 30
0.0
 11
318.3
 21
158.0
 31
0.0
  0
LINE
  8
61
  5
4C07
 10
300.0
 20
141.0
 30
0.0
 11
235.0
 21
141.0
 31
0.0
  0
LINE
  8
62
  5
4C08
 10
300.0
 20
139.7
 30
0.0
 11
235.0
 21
139.7
 31
0.0
  0
LINE
  8
61
  5
4C09
 10
310.0
 20
138.0
 30
0.0
 11
235.0
 21
138.0
 31
0.0
  0
LINE
  8
61
  5
4C0A
 10
301.873499
 20
142.3
 30
0.0
 11
235.0
 21
142.3
 31
0.0
  0
ARC
  8
61
  5
4C0B
 10
310.0
 20
148.0
 30
0.0
 40
10.0
 50
270.0
 51
0.0
  0
LINE
  8
62
  5
4C0C
 10
310.0
 20
154.7
 30
0.0
 11
315.0
 21
154.7
 31
0.0
  0
LINE
  8
61
  5
4C0D
 10
310.0
 20
156.0
 30
0.0
 11
315.0
 21
156.0
 31
0.0
  0
CIRCLE
  8
62
  5
4C0F
 10
310.0
 20
148.0
 30
0.0
 40
4.188125
  0
CIRCLE
  8
62
  5
4C10
 10
310.0
 20
148.0
 30
0.0
 40
6.0
  0
ARC
  8
62
  5
4C12
 10
315.0
 20
158.0
 30
0.0
 40
3.3
 50
270.0
 51
0.0
  0
ARC
  8
61
  5
4C13
 10
315.0
 20
158.0
 30
0.0
 40
2.0
 50
270.0
 51
0.0
  0
ARC
  8
61
  5
4C14
 10
310.0
 20
148.0
 30
0.0
 40
8.0
 50
90.0
 51
180.0
  0
ARC
  8
62
  5
4C15
 10
310.0
 20
148.0
 30
0.0
 40
6.7
 50
90.0
 51
180.0
  0
ARC
  8
62
  5
4C17
 10
300.0
 20
143.0
 30
0.0
 40
3.3
 50
270.0
 51
0.0
  0
LINE
  8
62
  5
4C18
 10
303.3
 20
148.0
 30
0.0
 11
303.3
 21
143.0
 31
0.0
  0
LINE
  8
61
  5
4C19
 10
302.0
 20
138.0
 30
0.0
 11
302.0
 21
138.0
 31
0.0
  0
LINE
  8
61
  5
4C1A
 10
302.0
 20
148.0
 30
0.0
 11
302.0
 21
143.0
 31
0.0
  0
ARC
  8
61
  5
4C1B
 10
300.0
 20
143.0
 30
0.0
 40
2.0
 50
270.0
 51
0.0
  0
LINE
  8
61
  5
4C1C
 10
150.0
 20
178.0
 30
0.0
 11
150.0
 21
208.0
 31
0.0
  0
LINE
  8
61
  5
4C1D
 10
154.3
 20
178.0
 30
0.0
 11
154.3
 21
199.873499
 31
0.0
  0
LINE
  8
61
  5
4C1E
 10
153.0
 20
178.0
 30
0.0
 11
153.0
 21
198.0
 31
0.0
  0
LINE
  8
62
  5
4C1F
 10
151.7
 20
178.0
 30
0.0
 11
151.7
 21
198.0
 31
0.0
  0
LINE
  8
61
  5
4C20
 10
170.0
 20
215.0
 30
0.0
 11
235.0
 21
215.0
 31
0.0
  0
LINE
  8
62
  5
4C21
 10
170.0
 20
216.3
 30
0.0
 11
235.0
 21
216.3
 31
0.0
  0
LINE
  8
61
  5
4C22
 10
160.0
 20
218.0
 30
0.0
 11
235.0
 21
218.0
 31
0.0
  0
LINE
  8
61
  5
4C23
 10
168.126501
 20
213.7
 30
0.0
 11
235.0
 21
213.7
 31
0.0
  0
ARC
  8
61
  5
4C24
 10
160.0
 20
208.0
 30
0.0
 40
10.0
 50
90.0
 51
180.0
  0
LINE
  8
62
  5
4C25
 10
160.0
 20
201.3
 30
0.0
 11
155.0
 21
201.3
 31
0.0
  0
LINE
  8
61
  5
4C26
 10
160.0
 20
200.0
 30
0.0
 11
155.0
 21
200.0
 31
0.0
  0
CIRCLE
  8
62
  5
4C28
 10
160.0
 20
208.0
 30
0.0
 40
4.188125
  0
CIRCLE
  8
62
  5
4C29
 10
160.0
 20
208.0
 30
0.0
 40
6.0
  0
ARC
  8
62
  5
4C2B
 10
155.0
 20
198.0
 30
0.0
 40
3.3
 50
90.0
 51
180.0
  0
ARC
  8
61
  5
4C2C
 10
155.0
 20
198.0
 30
0.0
 40
2.0
 50
90.0
 51
180.0
  0
ARC
  8
61
  5
4C2D
 10
160.0
 20
208.0
 30
0.0
 40
8.0
 50
270.0
 51
0.0
  0
ARC
  8
62
  5
4C2E
 10
160.0
 20
208.0
 30
0.0
 40
6.7
 50
270.0
 51
0.0
  0
ARC
  8
62
  5
4C30
 10
170.0
 20
213.0
 30
0.0
 40
3.3
 50
90.0
 51
180.0
  0
LINE
  8
62
  5
4C31
 10
166.7
 20
208.0
 30
0.0
 11
166.7
 21
213.0
 31
0.0
  0
LINE
  8
61
  5
4C32
 10
168.0
 20
218.0
 30
0.0
 11
168.0
 21
218.0
 31
0.0
  0
LINE
  8
61
  5
4C33
 10
168.0
 20
208.0
 30
0.0
 11
168.0
 21
213.0
 31
0.0
  0
ARC
  8
61
  5
4C34
 10
170.0
 20
213.0
 30
0.0
 40
2.0
 50
90.0
 51
180.0
  0
LINE
  8
61
  5
4C35
 10
301.873499
 20
213.7
 30
0.0
 11
235.0
 21
213.7
 31
0.0
  0
LINE
  8
61
  5
4C36
 10
310.0
 20
218.0
 30
0.0
 11
235.0
 21
218.0
 31
0.0
  0
LINE
  8
62
  5
4C37
 10
300.0
 20
216.3
 30
0.0
 11
235.0
 21
216.3
 31
0.0
  0
LINE
  8
61
  5
4C38
 10
300.0
 20
215.0
 30
0.0
 11
235.0
 21
215.0
 31
0.0
  0
LINE
  8
62
  5
4C39
 10
318.3
 20
178.0
 30
0.0
 11
318.3
 21
198.0
 31
0.0
  0
LINE
  8
61
  5
4C3A
 10
317.0
 20
178.0
 30
0.0
 11
317.0
 21
198.0
 31
0.0
  0
LINE
  8
61
  5
4C3B
 10
315.7
 20
178.0
 30
0.0
 11
315.7
 21
199.873499
 31
0.0
  0
LINE
  8
61
  5
4C3C
 10
320.0
 20
178.0
 30
0.0
 11
320.0
 21
208.0
 31
0.0
  0
ARC
  8
61
  5
4C3D
 10
300.0
 20
213.0
 30
0.0
 40
2.0
 50
0.0
 51
90.0
  0
ARC
  8
62
  5
4C3E
 10
300.0
 20
213.0
 30
0.0
 40
3.3
 50
0.0
 51
90.0
  0
ARC
  8
61
  5
4C3F
 10
310.0
 20
208.0
 30
0.0
 40
8.0
 50
180.0
 51
270.0
  0
ARC
  8
61
  5
4C40
 10
310.0
 20
208.0
 30
0.0
 40
10.0
 50
0.0
 51
90.0
  0
ARC
  8
61
  5
4C41
 10
315.0
 20
198.0
 30
0.0
 40
2.0
 50
0.0
 51
90.0
  0
ARC
  8
62
  5
4C42
 10
315.0
 20
198.0
 30
0.0
 40
3.3
 50
0.0
 51
90.0
  0
ARC
  8
62
  5
4C44
 10
310.0
 20
208.0
 30
0.0
 40
6.7
 50
180.0
 51
270.0
  0
CIRCLE
  8
62
  5
4C45
 10
310.0
 20
208.0
 30
0.0
 40
6.0
  0
CIRCLE
  8
62
  5
4C46
 10
310.0
 20
208.0
 30
0.0
 40
4.188125
  0
LINE
  8
61
  5
4C49
 10
302.0
 20
208.0
 30
0.0
 11
302.0
 21
213.0
 31
0.0
  0
LINE
  8
61
  5
4C4A
 10
302.0
 20
218.0
 30
0.0
 11
302.0
 21
218.0
 31
0.0
  0
LINE
  8
62
  5
4C4B
 10
303.3
 20
208.0
 30
0.0
 11
303.3
 21
213.0
 31
0.0
  0
LINE
  8
61
  5
4C4C
 10
310.0
 20
200.0
 30
0.0
 11
315.0
 21
200.0
 31
0.0
  0
LINE
  8
62
  5
4C4D
 10
310.0
 20
201.3
 30
0.0
 11
315.0
 21
201.3
 31
0.0
  0
LINE
  8
63
  6
DASHDOT
  5
4C4E
 10
235.0
 20
219.0
 30
0.0
 11
235.0
 21
178.0
 31
0.0
  0
LINE
  8
63
  6
DASHDOT
  5
4C4F
 10
235.0
 20
178.0
 30
0.0
 11
322.0
 21
178.0
 31
0.0
  0
ARC
  8
51
  5
4C57
 10
12.0
 20
148.0
 30
0.0
 40
10.0
 50
270.0
 51
0.0
  0
ARC
  8
51
  5
4C5E
 10
-138.0
 20
148.0
 30
0.0
 40
10.0
 50
180.0
 51
270.0
  0
LINE
  8
53
  6
DASHDOT
  5
4C5F
 10
-63.0
 20
178.0
 30
0.0
 11
27.514304
 21
178.0
 31
0.0
  0
LINE
  8
51
  5
4C61
 10
12.0
 20
218.0
 30
0.0
 11
-63.0
 21
218.0
 31
0.0
  0
LINE
  8
51
  5
4C64
 10
-148.0
 20
178.0
 30
0.0
 11
-148.0
 21
208.0
 31
0.0
  0
LINE
  8
53
  6
DASHDOT
  5
4C68
 10
-63.0
 20
219.0
 30
0.0
 11
-63.0
 21
178.0
 31
0.0
  0
LINE
  8
51
  5
4C6B
 10
-138.0
 20
218.0
 30
0.0
 11
-63.0
 21
218.0
 31
0.0
  0
ARC
  8
51
  5
4C6D
 10
-138.0
 20
208.0
 30
0.0
 40
10.0
 50
90.0
 51
180.0
  0
LINE
  8
51
  5
4C7B
 10
-130.0
 20
218.0
 30
0.0
 11
-130.0
 21
218.0
 31
0.0
  0
LINE
  8
53
  6
DASHDOT
  5
4C7E
 10
-63.0
 20
178.0
 30
0.0
 11
-150.0
 21
178.0
 31
0.0
  0
LINE
  8
51
  5
4C82
 10
-148.0
 20
178.0
 30
0.0
 11
-148.0
 21
148.0
 31
0.0
  0
LINE
  8
51
  5
4C8D
 10
22.0
 20
178.0
 30
0.0
 11
22.0
 21
208.0
 31
0.0
  0
ARC
  8
51
  5
4C91
 10
12.0
 20
208.0
 30
0.0
 40
10.0
 50
0.0
 51
90.0
  0
LINE
  8
51
  5
4C9B
 10
4.0
 20
218.0
 30
0.0
 11
4.0
 21
218.0
 31
0.0
  0
LINE
  8
51
  5
4CA0
 10
22.0
 20
178.0
 30
0.0
 11
22.0
 21
148.0
 31
0.0
  0
LINE
  8
51
  5
4CAC
 10
12.0
 20
138.0
 30
0.0
 11
-63.0
 21
138.0
 31
0.0
  0
LINE
  8
51
  5
4CAF
 10
-138.0
 20
138.0
 30
0.0
 11
-63.0
 21
138.0
 31
0.0
  0
LINE
  8
51
  5
4CB4
 10
-130.0
 20
138.0
 30
0.0
 11
-130.0
 21
138.0
 31
0.0
  0
LINE
  8
51
  5
4CB7
 10
4.0
 20
138.0
 30
0.0
 11
4.0
 21
138.0
 31
0.0
  0
CIRCLE
  8
51
  5
4CB8
 10
-138.0
 20
148.0
 30
0.0
 40
2.2
  0
CIRCLE
  8
51
  5
4CB9
 10
-138.0
 20
148.0
 30
0.0
 40
4.0
  0
CIRCLE
  8
51
  5
4CBA
 10
-138.0
 20
148.0
 30
0.0
 40
6.0
  0
CIRCLE
  8
51
  5
4CBB
 10
12.0
 20
148.0
 30
0.0
 40
6.0
  0
CIRCLE
  8
51
  5
4CBC
 10
12.0
 20
148.0
 30
0.0
 40
4.0
  0
CIRCLE
  8
51
  5
4CBD
 10
12.0
 20
148.0
 30
0.0
 40
2.2
  0
CIRCLE
  8
51
  5
4CBE
 10
-138.0
 20
208.0
 30
0.0
 40
6.0
  0
CIRCLE
  8
51
  5
4CBF
 10
-138.0
 20
208.0
 30
0.0
 40
4.0
  0
CIRCLE
  8
51
  5
4CC0
 10
-138.0
 20
208.0
 30
0.0
 40
2.2
  0
CIRCLE
  8
51
  5
4CC1
 10
12.0
 20
208.0
 30
0.0
 40
6.0
  0
CIRCLE
  8
51
  5
4CC2
 10
12.0
 20
208.0
 30
0.0
 40
4.0
  0
CIRCLE
  8
51
  5
4CC3
 10
12.0
 20
208.0
 30
0.0
 40
2.2
  0
LINE
  8
51
  5
4CC4
 10
-138.0
 20
139.3
 30
0.0
 11
-63.0
 21
139.3
 31
0.0
  0
LINE
  8
51
  5
4CC5
 10
12.0
 20
139.3
 30
0.0
 11
-63.0
 21
139.3
 31
0.0
  0
ARC
  8
51
  5
4CC6
 10
12.0
 20
148.0
 30
0.0
 40
8.7
 50
270.0
 51
0.0
  0
LINE
  8
51
  5
4CC7
 10
20.7
 20
178.0
 30
0.0
 11
20.7
 21
148.0
 31
0.0
  0
LINE
  8
51
  5
4CC8
 10
20.7
 20
178.0
 30
0.0
 11
20.7
 21
208.0
 31
0.0
  0
ARC
  8
51
  5
4CC9
 10
12.0
 20
208.0
 30
0.0
 40
8.7
 50
0.0
 51
90.0
  0
LINE
  8
51
  5
4CCA
 10
12.0
 20
216.7
 30
0.0
 11
-63.0
 21
216.7
 31
0.0
  0
LINE
  8
51
  5
4CCB
 10
-138.0
 20
216.7
 30
0.0
 11
-63.0
 21
216.7
 31
0.0
  0
ARC
  8
51
  5
4CCC
 10
-138.0
 20
208.0
 30
0.0
 40
8.7
 50
90.0
 51
180.0
  0
LINE
  8
51
  5
4CCD
 10
-146.7
 20
178.0
 30
0.0
 11
-146.7
 21
208.0
 31
0.0
  0
LINE
  8
51
  5
4CCE
 10
-146.7
 20
178.0
 30
0.0
 11
-146.7
 21
148.0
 31
0.0
  0
ARC
  8
51
  5
4CCF
 10
-138.0
 20
148.0
 30
0.0
 40
8.7
 50
180.0
 51
270.0
  0
LINE
  8
21
  5
4D26
 10
172.0
 20
248.0
 30
0.0
 11
167.5
 21
248.0
 31
0.0
  0
LINE
  8
21
  5
4D2D
 10
163.0
 20
248.0
 30
0.0
 11
167.5
 21
248.0
 31
0.0
  0
LINE
  8
21
  5
4D2E
 10
163.0
 20
248.0
 30
0.0
 11
162.732051
 21
249.0
 31
0.0
  0
LINE
  8
21
  5
4D3A
 10
172.0
 20
248.0
 30
0.0
 11
172.267949
 21
249.0
 31
0.0
  0
LINE
  8
23
  6
DASHDOT
  5
4D49
 10
235.0
 20
298.0
 30
0.0
 11
235.0
 21
246.0
 31
0.0
  0
LINE
  8
21
  5
4D4A
 10
153.675331
 20
249.0
 30
0.0
 11
227.479867
 21
249.0
 31
0.0
  0
ARC
  8
24
  5
4D4F
 10
235.0
 20
226.840509
 30
0.0
 40
26.400758
 50
90.0
 51
107.639179
  0
ARC
  8
24
  5
4D50
 10
235.0
 20
226.840509
 30
0.0
 40
23.400758
 50
90.0
 51
108.745362
  0
LINE
  8
24
  5
4D51
 10
302.0
 20
296.0
 30
0.0
 11
301.616018
 21
252.0
 31
0.0
  0
LINE
  8
21
  5
4D52
 10
318.660767
 20
289.504363
 30
0.0
 11
318.324592
 21
250.982547
 31
0.0
  0
LINE
  8
21
  5
4D54
 10
316.324669
 20
249.0
 30
0.0
 11
242.520133
 21
249.0
 31
0.0
  0
LINE
  8
24
  5
4D57
 10
301.616018
 20
252.0
 30
0.0
 11
243.0
 21
252.0
 31
0.0
  0
LINE
  8
21
  5
4D59
 10
316.0
 20
247.7
 30
0.0
 11
304.0
 21
247.7
 31
0.0
  0
ARC
  8
21
  5
4D5A
 10
316.324669
 20
251.0
 30
0.0
 40
2.0
 50
270.0
 51
359.5
  0
LINE
  8
21
  5
4D5B
 10
316.0
 20
247.7
 30
0.0
 11
316.348334
 21
249.0
 31
0.0
  0
LINE
  8
21
  5
4D63
 10
307.0
 20
248.0
 30
0.0
 11
302.5
 21
248.0
 31
0.0
  0
LINE
  8
21
  5
4D65
 10
304.0
 20
247.7
 30
0.0
 11
303.919615
 21
248.0
 31
0.0
  0
LINE
  8
21
  5
4D67
 10
307.0
 20
248.0
 30
0.0
 11
307.267949
 21
249.0
 31
0.0
  0
LINE
  8
21
  5
4D6D
 10
298.0
 20
248.0
 30
0.0
 11
297.732051
 21
249.0
 31
0.0
  0
LINE
  8
21
  5
4D6F
 10
298.0
 20
248.0
 30
0.0
 11
302.5
 21
248.0
 31
0.0
  0
ARC
  8
24
  5
4D72
 10
235.0
 20
226.840509
 30
0.0
 40
26.400758
 50
72.360821
 51
90.0
  0
ARC
  8
24
  5
4D73
 10
235.0
 20
226.840509
 30
0.0
 40
23.400758
 50
71.254638
 51
90.0
  0
LINE
  8
21
  5
4D77
 10
318.310111
 20
295.71047
 30
0.0
 11
318.369842
 21
294.0
 31
0.0
  0
LINE
  8
21
  5
4D78
 10
319.667699
 20
290.0
 30
0.0
 11
319.160748
 21
290.0
 31
0.0
  0
LINE
  8
21
  5
4D79
 10
320.0
 20
294.0
 30
0.0
 11
318.369842
 21
294.0
 31
0.0
  0
ARC
  8
21
  5
4D7A
 10
319.667699
 20
290.3
 30
0.0
 40
0.3
 50
270.0
 51
359.5
  0
LINE
  8
21
  5
4D7B
 10
320.0
 20
294.0
 30
0.0
 11
319.967688
 21
290.297382
 31
0.0
  0
ARC
  8
21
  5
4D7D
 10
319.160748
 20
289.5
 30
0.0
 40
0.5
 50
90.0
 51
179.5
  0
LINE
  8
21
  5
4D7F
 10
318.010293
 20
296.0
 30
0.0
 11
317.297393
 21
296.0
 31
0.0
  0
ARC
  8
21
  5
4D80
 10
318.010293
 20
295.7
 30
0.0
 40
0.3
 50
2.0
 51
90.0
  0
LINE
  8
31
  5
4D97
 10
396.504363
 20
139.339233
 30
0.0
 11
357.982547
 21
139.675408
 31
0.0
  0
LINE
  8
33
  6
DASHDOT
  5
4D9A
 10
405.0
 20
178.0
 30
0.0
 11
353.0
 21
178.0
 31
0.0
  0
LINE
  8
31
  5
4D9B
 10
396.504363
 20
216.660767
 30
0.0
 11
357.982547
 21
216.324592
 31
0.0
  0
LINE
  8
31
  5
4DA4
 10
356.0
 20
214.324669
 30
0.0
 11
356.0
 21
195.0754
 31
0.0
  0
LINE
  8
31
  5
4DA5
 10
354.7
 20
214.0
 30
0.0
 11
354.7
 21
202.0
 31
0.0
  0
ARC
  8
31
  5
4DA6
 10
358.0
 20
214.324669
 30
0.0
 40
2.0
 50
90.5
 51
180.0
  0
LINE
  8
31
  5
4DA7
 10
354.7
 20
214.0
 30
0.0
 11
356.0
 21
214.348334
 31
0.0
  0
LINE
  8
31
  5
4DB1
 10
354.7
 20
202.0
 30
0.0
 11
356.0
 21
201.651666
 31
0.0
  0
ARC
  8
31
  5
4DC9
 10
358.0
 20
141.675331
 30
0.0
 40
2.0
 50
180.0
 51
269.5
  0
LINE
  8
31
  5
4DCC
 10
354.7
 20
142.0
 30
0.0
 11
354.7
 21
154.0
 31
0.0
  0
LINE
  8
31
  5
4DCD
 10
356.0
 20
141.675331
 30
0.0
 11
356.0
 21
158.61993
 31
0.0
  0
LINE
  8
31
  5
4DD5
 10
354.7
 20
154.0
 30
0.0
 11
356.0
 21
154.348334
 31
0.0
  0
LINE
  8
31
  5
4DDB
 10
354.7
 20
142.0
 30
0.0
 11
356.0
 21
141.651666
 31
0.0
  0
LINE
  8
31
  5
4DE2
 10
402.71047
 20
216.310111
 30
0.0
 11
401.0
 21
216.369842
 31
0.0
  0
LINE
  8
31
  5
4DE3
 10
397.0
 20
217.667699
 30
0.0
 11
397.0
 21
178.0
 31
0.0
  0
LINE
  8
31
  5
4DE4
 10
401.0
 20
218.0
 30
0.0
 11
401.0
 21
178.0
 31
0.0
  0
ARC
  8
31
  5
4DE5
 10
397.3
 20
217.667699
 30
0.0
 40
0.3
 50
90.5
 51
180.0
  0
LINE
  8
31
  5
4DE6
 10
401.0
 20
218.0
 30
0.0
 11
397.297382
 21
217.967688
 31
0.0
  0
ARC
  8
31
  5
4DE8
 10
396.5
 20
217.160748
 30
0.0
 40
0.5
 50
270.5
 51
0.0
  0
LINE
  8
31
  5
4DEA
 10
403.0
 20
216.010293
 30
0.0
 11
403.0
 21
178.0
 31
0.0
  0
ARC
  8
31
  5
4DEB
 10
402.7
 20
216.010293
 30
0.0
 40
0.3
 50
0.0
 51
88.0
  0
LINE
  8
31
  5
4DEC
 10
402.71047
 20
139.689889
 30
0.0
 11
401.0
 21
139.630158
 31
0.0
  0
ARC
  8
31
  5
4DEF
 10
396.5
 20
138.839252
 30
0.0
 40
0.5
 50
0.0
 51
89.5
  0
LINE
  8
31
  5
4DF0
 10
401.0
 20
138.0
 30
0.0
 11
397.297382
 21
138.032312
 31
0.0
  0
ARC
  8
31
  5
4DF1
 10
397.3
 20
138.332301
 30
0.0
 40
0.3
 50
180.0
 51
269.5
  0
LINE
  8
31
  5
4DF2
 10
401.0
 20
138.0
 30
0.0
 11
401.0
 21
178.0
 31
0.0
  0
LINE
  8
31
  5
4DF3
 10
397.0
 20
138.332301
 30
0.0
 11
397.0
 21
138.839252
 31
0.0
  0
LINE
  8
31
  5
4DF4
 10
403.0
 20
139.989707
 30
0.0
 11
403.0
 21
178.0
 31
0.0
  0
ARC
  8
31
  5
4DF6
 10
402.7
 20
139.989707
 30
0.0
 40
0.3
 50
272.0
 51
0.0
  0
LINE
  8
21
  5
4DF7
 10
151.989707
 20
296.0
 30
0.0
 11
235.0
 21
296.0
 31
0.0
  0
LINE
  8
21
  5
4DF8
 10
318.010293
 20
296.0
 30
0.0
 11
235.0
 21
296.0
 31
0.0
  0
LINE
  8
31
  5
4DF9
 10
397.0
 20
138.332301
 30
0.0
 11
397.0
 21
178.0
 31
0.0
  0
LINE
  8
34
  5
4E1D
 10
366.0
 20
178.0
 30
0.0
 11
366.0
 21
182.0
 31
0.0
  0
LINE
  8
31
  5
4E1E
 10
355.0
 20
182.5
 30
0.0
 11
355.0
 21
178.0
 31
0.0
  0
LINE
  8
34
  5
4E1F
 10
366.0
 20
182.0
 30
0.0
 11
359.456422
 21
182.572489
 31
0.0
  0
LINE
  8
31
  5
4E20
 10
355.0
 20
182.5
 30
0.0
 11
356.0
 21
182.767949
 31
0.0
  0
LINE
  8
34
  5
4E22
 10
366.0
 20
174.0
 30
0.0
 11
359.456422
 21
173.427511
 31
0.0
  0
LINE
  8
31
  5
4E27
 10
355.0
 20
173.5
 30
0.0
 11
355.0
 21
178.0
 31
0.0
  0
LINE
  8
31
  5
4E2A
 10
355.0
 20
173.5
 30
0.0
 11
356.0
 21
173.232051
 31
0.0
  0
LINE
  8
34
  5
4E2D
 10
366.0
 20
178.0
 30
0.0
 11
366.0
 21
174.0
 31
0.0
  0
LINE
  8
34
  5
4E30
 10
366.0
 20
174.0
 30
0.0
 11
366.0
 21
168.0
 31
0.0
  0
LINE
  8
34
  5
4E31
 10
366.0
 20
168.0
 30
0.0
 11
359.456422
 21
167.427511
 31
0.0
  0
LINE
  8
34
  5
4E32
 10
366.0
 20
188.0
 30
0.0
 11
359.456422
 21
188.572489
 31
0.0
  0
LINE
  8
34
  5
4E33
 10
366.0
 20
182.0
 30
0.0
 11
366.0
 21
188.0
 31
0.0
  0
ARC
  8
34
  5
4E34
 10
359.5
 20
189.070586
 30
0.0
 40
0.5
 50
180.0
 51
265.0
  0
ARC
  8
34
  5
4E35
 10
359.5
 20
166.929414
 30
0.0
 40
0.5
 50
95.0
 51
180.0
  0
ARC
  8
34
  5
4E6C
 10
359.5
 20
183.070586
 30
0.0
 40
0.5
 50
180.0
 51
265.0
  0
ARC
  8
34
  5
4E6D
 10
359.5
 20
172.929414
 30
0.0
 40
0.5
 50
95.0
 51
180.0
  0
LINE
  8
62
  5
4E6E
 10
315.737829
 20
209.75423
 30
0.0
 11
317.650438
 21
210.338974
 31
0.0
  0
LINE
  8
62
  5
4E6F
 10
311.75423
 20
213.737829
 30
0.0
 11
312.338974
 21
215.650438
 31
0.0
  0
ARC
  8
62
  5
4E70
 10
310.0
 20
208.0
 30
0.0
 40
8.0
 50
17.0
 51
73.0
  0
LINE
  8
62
  5
4E71
 10
154.361844
 20
145.947879
 30
0.0
 11
152.482459
 21
145.263839
 31
0.0
  0
LINE
  8
62
  5
4E72
 10
157.947879
 20
142.361844
 30
0.0
 11
157.263839
 21
140.482459
 31
0.0
  0
ARC
  8
62
  5
4E73
 10
160.0
 20
148.0
 30
0.0
 40
8.0
 50
200.0
 51
250.0
  0
ARC
  8
61
  5
4E74
 10
167.5
 20
178.0
 30
0.0
 40
4.0
 50
284.477512
 51
75.522488
  0
CIRCLE
  8
61
  5
4E75
 10
167.5
 20
178.0
 30
0.0
 40
2.0
  0
CIRCLE
  8
61
  5
4E76
 10
167.5
 20
178.0
 30
0.0
 40
1.5
  0
LINE
  8
61
  5
4E78
 10
168.5
 20
188.0
 30
0.0
 11
166.5
 21
188.0
 31
0.0
  0
LINE
  8
61
  5
4E79
 10
166.5
 20
188.0
 30
0.0
 11
166.5
 21
181.872983
 31
0.0
  0
LINE
  8
61
  5
4E7B
 10
166.5
 20
168.0
 30
0.0
 11
168.5
 21
168.0
 31
0.0
  0
LINE
  8
61
  5
4E7C
 10
168.5
 20
168.0
 30
0.0
 11
168.5
 21
174.127017
 31
0.0
  0
ARC
  8
61
  5
4E7D
 10
167.5
 20
178.0
 30
0.0
 40
4.0
 50
104.477512
 51
255.522488
  0
LINE
  8
61
  5
4E7F
 10
168.5
 20
181.872983
 30
0.0
 11
168.5
 21
188.0
 31
0.0
  0
LINE
  8
61
  5
4E81
 10
166.5
 20
174.127017
 30
0.0
 11
166.5
 21
168.0
 31
0.0
  0
LINE
  8
61
  5
4EFF
 10
303.5
 20
188.0
 30
0.0
 11
303.5
 21
181.872983
 31
0.0
  0
LINE
  8
61
  5
4F00
 10
301.5
 20
181.872983
 30
0.0
 11
301.5
 21
188.0
 31
0.0
  0
LINE
  8
61
  5
4F01
 10
303.5
 20
174.127017
 30
0.0
 11
303.5
 21
168.0
 31
0.0
  0
LINE
  8
61
  5
4F02
 10
301.5
 20
168.0
 30
0.0
 11
301.5
 21
174.127017
 31
0.0
  0
LINE
  8
61
  5
4F03
 10
303.5
 20
168.0
 30
0.0
 11
301.5
 21
168.0
 31
0.0
  0
CIRCLE
  8
61
  5
4F04
 10
302.5
 20
178.0
 30
0.0
 40
1.5
  0
CIRCLE
  8
61
  5
4F05
 10
302.5
 20
178.0
 30
0.0
 40
2.0
  0
ARC
  8
61
  5
4F06
 10
302.5
 20
178.0
 30
0.0
 40
4.0
 50
284.477512
 51
75.522488
  0
ARC
  8
61
  5
4F07
 10
302.5
 20
178.0
 30
0.0
 40
4.0
 50
104.477512
 51
255.522488
  0
LINE
  8
61
  5
4F08
 10
301.5
 20
188.0
 30
0.0
 11
303.5
 21
188.0
 31
0.0
  0
LINE
  8
21
  5
5065
 10
227.479867
 20
249.0
 30
0.0
 11
235.0
 21
249.0
 31
0.0
  0
LINE
  8
21
  5
5066
 10
242.520133
 20
249.0
 30
0.0
 11
235.0
 21
249.0
 31
0.0
  0
LINE
  8
31
  5
5103
 10
356.0
 20
195.0754
 30
0.0
 11
356.0
 21
178.0
 31
0.0
  0
LINE
  8
31
  5
5104
 10
356.0
 20
158.61993
 30
0.0
 11
356.0
 21
178.0
 31
0.0
  0
LINE
  8
53
  6
DASHDOT
  5
1343B
 10
-63.0
 20
133.454332
 30
0.0
 11
-63.0
 21
178.0
 31
0.0
  0
LINE
  8
34
  5
1FCF4
 10
359.0
 20
156.879638
 30
0.0
 11
359.0
 21
178.0
 31
0.0
  0
TEXT
  8
L20
  5
1FD84
 10
-101.939284
 20
265.356026
 30
0.0
 40
7.0
  1
FIBOX PICCOLO D 170x80x45 BASE
  0
CIRCLE
  8
61
  5
1FF27
 10
174.25
 20
149.0
 30
0.0
 40
4.0
  0
CIRCLE
  8
61
  5
1FF28
 10
174.25
 20
149.0
 30
0.0
 40
2.0
  0
CIRCLE
  8
61
  5
1FF29
 10
174.25
 20
149.0
 30
0.0
 40
1.5
  0
CIRCLE
  8
61
  5
1FF2A
 10
174.25
 20
207.0
 30
0.0
 40
4.0
  0
CIRCLE
  8
61
  5
1FF2B
 10
174.25
 20
207.0
 30
0.0
 40
2.0
  0
CIRCLE
  8
61
  5
1FF2C
 10
174.25
 20
207.0
 30
0.0
 40
1.5
  0
CIRCLE
  8
61
  5
1FF2D
 10
295.75
 20
149.0
 30
0.0
 40
4.0
  0
CIRCLE
  8
61
  5
1FF2E
 10
295.75
 20
149.0
 30
0.0
 40
2.0
  0
CIRCLE
  8
61
  5
1FF2F
 10
295.75
 20
149.0
 30
0.0
 40
1.5
  0
CIRCLE
  8
61
  5
1FF30
 10
295.75
 20
207.0
 30
0.0
 40
4.0
  0
CIRCLE
  8
61
  5
1FF31
 10
295.75
 20
207.0
 30
0.0
 40
2.0
  0
CIRCLE
  8
61
  5
1FF32
 10
295.75
 20
207.0
 30
0.0
 40
1.5
  0
CIRCLE
  8
61
  5
1FF33
 10
205.0
 20
149.0
 30
0.0
 40
4.0
  0
CIRCLE
  8
61
  5
1FF34
 10
205.0
 20
149.0
 30
0.0
 40
2.0
  0
CIRCLE
  8
61
  5
1FF35
 10
205.0
 20
149.0
 30
0.0
 40
1.5
  0
CIRCLE
  8
61
  5
1FF36
 10
205.0
 20
207.0
 30
0.0
 40
1.5
  0
CIRCLE
  8
61
  5
1FF37
 10
205.0
 20
207.0
 30
0.0
 40
2.0
  0
CIRCLE
  8
61
  5
1FF38
 10
205.0
 20
207.0
 30
0.0
 40
4.0
  0
CIRCLE
  8
61
  5
1FF39
 10
235.0
 20
149.0
 30
0.0
 40
1.5
  0
CIRCLE
  8
61
  5
1FF3A
 10
235.0
 20
149.0
 30
0.0
 40
2.0
  0
CIRCLE
  8
61
  5
1FF3B
 10
235.0
 20
149.0
 30
0.0
 40
4.0
  0
CIRCLE
  8
61
  5
1FF3C
 10
235.0
 20
207.0
 30
0.0
 40
1.5
  0
CIRCLE
  8
61
  5
1FF3D
 10
235.0
 20
207.0
 30
0.0
 40
2.0
  0
CIRCLE
  8
61
  5
1FF3E
 10
235.0
 20
207.0
 30
0.0
 40
4.0
  0
CIRCLE
  8
61
  5
1FF3F
 10
265.0
 20
149.0
 30
0.0
 40
1.5
  0
CIRCLE
  8
61
  5
1FF40
 10
265.0
 20
149.0
 30
0.0
 40
2.0
  0
CIRCLE
  8
61
  5
1FF41
 10
265.0
 20
149.0
 30
0.0
 40
4.0
  0
CIRCLE
  8
61
  5
1FF42
 10
265.0
 20
207.0
 30
0.0
 40
1.5
  0
CIRCLE
  8
61
  5
1FF43
 10
265.0
 20
207.0
 30
0.0
 40
2.0
  0
CIRCLE
  8
61
  5
1FF44
 10
265.0
 20
207.0
 30
0.0
 40
4.0
  0
CIRCLE
  8
51
  5
200E7
 10
-93.0
 20
149.0
 30
0.0
 40
4.5
  0
CIRCLE
  8
51
  5
200E8
 10
-93.0
 20
207.0
 30
0.0
 40
4.5
  0
CIRCLE
  8
51
  5
200E9
 10
-63.0
 20
149.0
 30
0.0
 40
4.5
  0
CIRCLE
  8
51
  5
200EA
 10
-63.0
 20
207.0
 30
0.0
 40
4.5
  0
CIRCLE
  8
51
  5
200EB
 10
-33.0
 20
149.0
 30
0.0
 40
4.5
  0
CIRCLE
  8
51
  5
200EC
 10
-33.0
 20
207.0
 30
0.0
 40
4.5
  0
CIRCLE
  8
51
  5
200ED
 10
-2.25
 20
149.0
 30
0.0
 40
4.5
  0
CIRCLE
  8
51
  5
200EE
 10
-2.25
 20
207.0
 30
0.0
 40
4.5
  0
CIRCLE
  8
51
  5
200EF
 10
-123.75
 20
149.0
 30
0.0
 40
4.5
  0
CIRCLE
  8
51
  5
200F0
 10
-123.75
 20
207.0
 30
0.0
 40
4.5
  0
LINE
  8
24
  5
200F1
 10
168.0
 20
296.0
 30
0.0
 11
168.383982
 21
252.0
 31
0.0
  0
LINE
  8
24
  5
200F2
 10
168.383982
 20
252.0
 30
0.0
 11
227.0
 21
252.0
 31
0.0
  0
LINE
  8
21
  5
200F6
 10
151.630158
 20
294.0
 30
0.0
 11
318.369842
 21
294.0
 31
0.0
  0
LINE
  8
21
  5
200F8
 10
150.839252
 20
290.0
 30
0.0
 11
319.160748
 21
290.0
 31
0.0
  0
LINE
  8
34
  5
200F9
 10
403.0
 20
156.0
 30
0.0
 11
359.495637
 21
156.379657
 31
0.0
  0
ARC
  8
34
  5
200FA
 10
359.5
 20
156.879638
 30
0.0
 40
0.5
 50
180.0
 51
269.5
  0
LINE
  8
34
  5
200FB
 10
403.0
 20
200.0
 30
0.0
 11
359.495637
 21
199.620343
 31
0.0
  0
LINE
  8
34
  5
200FC
 10
359.0
 20
199.120362
 30
0.0
 11
359.0
 21
178.0
 31
0.0
  0
ARC
  8
34
  5
200FD
 10
359.5
 20
199.120362
 30
0.0
 40
0.5
 50
90.5
 51
180.0
  0
CIRCLE
  8
62
  5
200FE
 10
235.0
 20
178.0
 30
0.0
 40
8.0
  0
LINE
  8
11
  5
200FF
 10
153.675331
 20
107.0
 30
0.0
 11
227.479867
 21
107.0
 31
0.0
  0
LINE
  8
11
  5
20100
 10
319.160748
 20
66.0
 30
0.0
 11
150.839252
 21
66.0
 31
0.0
  0
LINE
  8
11
  5
20101
 10
318.369842
 20
62.0
 30
0.0
 11
151.630158
 21
62.0
 31
0.0
  0
LINE
  8
11
  5
20102
 10
151.989707
 20
60.0
 30
0.0
 11
235.0
 21
60.0
 31
0.0
  0
LINE
  8
11
  5
20103
 10
154.0
 20
108.3
 30
0.0
 11
166.0
 21
108.3
 31
0.0
  0
LINE
  8
11
  5
20104
 10
316.324669
 20
107.0
 30
0.0
 11
242.520133
 21
107.0
 31
0.0
  0
LINE
  8
14
  5
20105
 10
301.616018
 20
104.0
 30
0.0
 11
243.0
 21
104.0
 31
0.0
  0
LINE
  8
11
  5
20106
 10
318.010293
 20
60.0
 30
0.0
 11
235.0
 21
60.0
 31
0.0
  0
LINE
  8
14
  5
20107
 10
302.0
 20
60.0
 30
0.0
 11
301.616018
 21
104.0
 31
0.0
  0
LINE
  8
11
  5
20108
 10
318.660767
 20
66.495637
 30
0.0
 11
318.324592
 21
105.017453
 31
0.0
  0
LINE
  8
11
  5
20109
 10
316.0
 20
108.3
 30
0.0
 11
304.0
 21
108.3
 31
0.0
  0
LINE
  8
11
  5
2010A
 10
316.0
 20
108.3
 30
0.0
 11
316.348334
 21
107.0
 31
0.0
  0
ARC
  8
11
  5
2010B
 10
316.324669
 20
105.0
 30
0.0
 40
2.0
 50
0.5
 51
90.0
  0
LINE
  8
11
  5
2010D
 10
298.0
 20
108.0
 30
0.0
 11
302.5
 21
108.0
 31
0.0
  0
LINE
  8
11
  5
2010E
 10
304.0
 20
108.3
 30
0.0
 11
303.919615
 21
108.0
 31
0.0
  0
LINE
  8
11
  5
2010F
 10
307.0
 20
108.0
 30
0.0
 11
307.267949
 21
107.0
 31
0.0
  0
LINE
  8
11
  5
20110
 10
307.0
 20
108.0
 30
0.0
 11
302.5
 21
108.0
 31
0.0
  0
LINE
  8
11
  5
20112
 10
298.0
 20
108.0
 30
0.0
 11
297.732051
 21
107.0
 31
0.0
  0
LINE
  8
11
  5
20114
 10
318.310111
 20
60.28953
 30
0.0
 11
318.369842
 21
62.0
 31
0.0
  0
ARC
  8
11
  5
20115
 10
319.667699
 20
65.7
 30
0.0
 40
0.3
 50
0.5
 51
90.0
  0
ARC
  8
11
  5
20116
 10
319.160748
 20
66.5
 30
0.0
 40
0.5
 50
180.5
 51
270.0
  0
LINE
  8
11
  5
20117
 10
320.0
 20
62.0
 30
0.0
 11
318.369842
 21
62.0
 31
0.0
  0
LINE
  8
11
  5
20118
 10
319.667699
 20
66.0
 30
0.0
 11
319.160748
 21
66.0
 31
0.0
  0
LINE
  8
11
  5
20119
 10
320.0
 20
62.0
 30
0.0
 11
319.967688
 21
65.702618
 31
0.0
  0
LINE
  8
11
  5
2011A
 10
318.010293
 20
60.0
 30
0.0
 11
317.297393
 21
60.0
 31
0.0
  0
ARC
  8
11
  5
2011B
 10
318.010293
 20
60.3
 30
0.0
 40
0.3
 50
270.0
 51
358.0
  0
LINE
  8
14
  5
2011C
 10
168.0
 20
60.0
 30
0.0
 11
168.383982
 21
104.0
 31
0.0
  0
LINE
  8
13
  6
DASHDOT
  5
2011D
 10
235.0
 20
58.0
 30
0.0
 11
235.0
 21
110.0
 31
0.0
  0
LINE
  8
14
  5
2011E
 10
168.383982
 20
104.0
 30
0.0
 11
227.0
 21
104.0
 31
0.0
  0
LINE
  8
11
  5
2011F
 10
227.479867
 20
107.0
 30
0.0
 11
235.0
 21
107.0
 31
0.0
  0
ARC
  8
14
  5
20120
 10
235.0
 20
129.159491
 30
0.0
 40
23.400758
 50
251.254638
 51
270.0
  0
ARC
  8
14
  5
20121
 10
235.0
 20
129.159491
 30
0.0
 40
26.400758
 50
252.360821
 51
270.0
  0
LINE
  8
11
  5
20122
 10
242.520133
 20
107.0
 30
0.0
 11
235.0
 21
107.0
 31
0.0
  0
ARC
  8
14
  5
20123
 10
235.0
 20
129.159491
 30
0.0
 40
23.400758
 50
270.0
 51
288.745362
  0
ARC
  8
14
  5
20124
 10
235.0
 20
129.159491
 30
0.0
 40
26.400758
 50
270.0
 51
287.639179
  0
LINE
  8
11
  5
20126
 10
172.0
 20
108.0
 30
0.0
 11
167.5
 21
108.0
 31
0.0
  0
LINE
  8
11
  5
20127
 10
172.0
 20
108.0
 30
0.0
 11
172.267949
 21
107.0
 31
0.0
  0
LINE
  8
11
  5
20129
 10
166.0
 20
108.3
 30
0.0
 11
166.080385
 21
108.0
 31
0.0
  0
LINE
  8
11
  5
2012A
 10
163.0
 20
108.0
 30
0.0
 11
162.732051
 21
107.0
 31
0.0
  0
LINE
  8
11
  5
2012B
 10
163.0
 20
108.0
 30
0.0
 11
167.5
 21
108.0
 31
0.0
  0
LINE
  8
11
  5
2012D
 10
151.339233
 20
66.495637
 30
0.0
 11
151.675408
 21
105.017453
 31
0.0
  0
LINE
  8
11
  5
2012E
 10
154.0
 20
108.3
 30
0.0
 11
153.651666
 21
107.0
 31
0.0
  0
ARC
  8
11
  5
2012F
 10
153.675331
 20
105.0
 30
0.0
 40
2.0
 50
90.0
 51
179.5
  0
LINE
  8
11
  5
20130
 10
151.689889
 20
60.28953
 30
0.0
 11
151.630158
 21
62.0
 31
0.0
  0
ARC
  8
11
  5
20131
 10
150.839252
 20
66.5
 30
0.0
 40
0.5
 50
270.0
 51
359.5
  0
LINE
  8
11
  5
20132
 10
150.0
 20
62.0
 30
0.0
 11
151.630158
 21
62.0
 31
0.0
  0
LINE
  8
11
  5
20133
 10
150.0
 20
62.0
 30
0.0
 11
150.032312
 21
65.702618
 31
0.0
  0
ARC
  8
11
  5
20134
 10
150.332301
 20
65.7
 30
0.0
 40
0.3
 50
90.0
 51
179.5
  0
LINE
  8
11
  5
20135
 10
150.332301
 20
66.0
 30
0.0
 11
150.839252
 21
66.0
 31
0.0
  0
ARC
  8
11
  5
20136
 10
151.989707
 20
60.3
 30
0.0
 40
0.3
 50
182.0
 51
270.0
  0
LINE
  8
11
  5
20137
 10
151.989707
 20
60.0
 30
0.0
 11
152.702607
 21
60.0
 31
0.0
  0
LINE
  8
41
  5
20138
 10
115.3
 20
214.0
 30
0.0
 11
115.3
 21
202.0
 31
0.0
  0
LINE
  8
41
  5
20139
 10
73.0
 20
217.667699
 30
0.0
 11
73.0
 21
178.0
 31
0.0
  0
LINE
  8
41
  5
2013A
 10
67.0
 20
216.010293
 30
0.0
 11
67.0
 21
178.0
 31
0.0
  0
LINE
  8
41
  5
2013B
 10
69.0
 20
218.0
 30
0.0
 11
69.0
 21
178.0
 31
0.0
  0
LINE
  8
41
  5
2013C
 10
114.0
 20
214.324669
 30
0.0
 11
114.0
 21
197.38007
 31
0.0
  0
LINE
  8
41
  5
2013D
 10
67.28953
 20
216.310111
 30
0.0
 11
69.0
 21
216.369842
 31
0.0
  0
ARC
  8
41
  5
2013E
 10
112.0
 20
214.324669
 30
0.0
 40
2.0
 50
0.0
 51
89.5
  0
LINE
  8
41
  5
2013F
 10
115.3
 20
214.0
 30
0.0
 11
114.0
 21
214.348334
 31
0.0
  0
LINE
  8
41
  5
20140
 10
73.495637
 20
216.660767
 30
0.0
 11
112.017453
 21
216.324592
 31
0.0
  0
ARC
  8
41
  5
20141
 10
73.5
 20
217.160748
 30
0.0
 40
0.5
 50
180.0
 51
269.5
  0
LINE
  8
41
  5
20142
 10
73.0
 20
217.667699
 30
0.0
 11
73.0
 21
217.160748
 31
0.0
  0
ARC
  8
41
  5
20143
 10
72.7
 20
217.667699
 30
0.0
 40
0.3
 50
0.0
 51
89.5
  0
LINE
  8
41
  5
20144
 10
69.0
 20
218.0
 30
0.0
 11
72.702618
 21
217.967688
 31
0.0
  0
ARC
  8
41
  5
20145
 10
67.3
 20
216.010293
 30
0.0
 40
0.3
 50
92.0
 51
180.0
  0
LINE
  8
44
  5
20146
 10
67.0
 20
156.0
 30
0.0
 11
110.504363
 21
156.379657
 31
0.0
  0
LINE
  8
44
  5
20147
 10
67.0
 20
200.0
 30
0.0
 11
110.504363
 21
199.620343
 31
0.0
  0
LINE
  8
41
  5
20148
 10
67.28953
 20
139.689889
 30
0.0
 11
69.0
 21
139.630158
 31
0.0
  0
LINE
  8
43
  6
DASHDOT
  5
20149
 10
65.0
 20
178.0
 30
0.0
 11
117.0
 21
178.0
 31
0.0
  0
LINE
  8
44
  5
2014A
 10
111.0
 20
156.879638
 30
0.0
 11
111.0
 21
178.0
 31
0.0
  0
LINE
  8
41
  5
2014B
 10
69.0
 20
138.0
 30
0.0
 11
69.0
 21
178.0
 31
0.0
  0
LINE
  8
41
  5
2014C
 10
73.0
 20
138.332301
 30
0.0
 11
73.0
 21
178.0
 31
0.0
  0
LINE
  8
41
  5
2014D
 10
114.0
 20
141.675331
 30
0.0
 11
114.0
 21
160.9246
 31
0.0
  0
LINE
  8
41
  5
2014E
 10
114.0
 20
197.38007
 30
0.0
 11
114.0
 21
178.0
 31
0.0
  0
LINE
  8
41
  5
2014F
 10
115.3
 20
202.0
 30
0.0
 11
114.0
 21
201.651666
 31
0.0
  0
LINE
  8
41
  5
20150
 10
114.0
 20
160.9246
 30
0.0
 11
114.0
 21
178.0
 31
0.0
  0
LINE
  8
41
  5
20151
 10
115.0
 20
173.5
 30
0.0
 11
115.0
 21
178.0
 31
0.0
  0
LINE
  8
41
  5
20152
 10
115.0
 20
182.5
 30
0.0
 11
114.0
 21
182.767949
 31
0.0
  0
LINE
  8
41
  5
20153
 10
115.0
 20
182.5
 30
0.0
 11
115.0
 21
178.0
 31
0.0
  0
LINE
  8
41
  5
20154
 10
115.0
 20
173.5
 30
0.0
 11
114.0
 21
173.232051
 31
0.0
  0
LINE
  8
44
  5
20155
 10
111.0
 20
199.120362
 30
0.0
 11
111.0
 21
178.0
 31
0.0
  0
LINE
  8
44
  5
20156
 10
104.0
 20
182.0
 30
0.0
 11
104.0
 21
188.0
 31
0.0
  0
ARC
  8
44
  5
20157
 10
110.5
 20
199.120362
 30
0.0
 40
0.5
 50
0.0
 51
89.5
  0
LINE
  8
44
  5
20158
 10
104.0
 20
188.0
 30
0.0
 11
110.543578
 21
188.572489
 31
0.0
  0
ARC
  8
44
  5
20159
 10
110.5
 20
189.070586
 30
0.0
 40
0.5
 50
275.0
 51
0.0
  0
LINE
  8
44
  5
2015A
 10
104.0
 20
174.0
 30
0.0
 11
104.0
 21
168.0
 31
0.0
  0
LINE
  8
44
  5
2015B
 10
104.0
 20
178.0
 30
0.0
 11
104.0
 21
174.0
 31
0.0
  0
LINE
  8
44
  5
2015C
 10
104.0
 20
182.0
 30
0.0
 11
110.543578
 21
182.572489
 31
0.0
  0
ARC
  8
44
  5
2015D
 10
110.5
 20
183.070586
 30
0.0
 40
0.5
 50
275.0
 51
0.0
  0
LINE
  8
44
  5
2015E
 10
104.0
 20
178.0
 30
0.0
 11
104.0
 21
182.0
 31
0.0
  0
LINE
  8
44
  5
2015F
 10
104.0
 20
174.0
 30
0.0
 11
110.543578
 21
173.427511
 31
0.0
  0
ARC
  8
44
  5
20160
 10
110.5
 20
172.929414
 30
0.0
 40
0.5
 50
0.0
 51
85.0
  0
LINE
  8
44
  5
20161
 10
104.0
 20
168.0
 30
0.0
 11
110.543578
 21
167.427511
 31
0.0
  0
ARC
  8
44
  5
20162
 10
110.5
 20
166.929414
 30
0.0
 40
0.5
 50
0.0
 51
85.0
  0
ARC
  8
41
  5
20163
 10
112.0
 20
141.675331
 30
0.0
 40
2.0
 50
270.5
 51
0.0
  0
LINE
  8
41
  5
20164
 10
115.3
 20
142.0
 30
0.0
 11
115.3
 21
154.0
 31
0.0
  0
LINE
  8
41
  5
20165
 10
115.3
 20
154.0
 30
0.0
 11
114.0
 21
154.348334
 31
0.0
  0
LINE
  8
41
  5
20166
 10
115.3
 20
142.0
 30
0.0
 11
114.0
 21
141.651666
 31
0.0
  0
LINE
  8
41
  5
20167
 10
73.495637
 20
139.339233
 30
0.0
 11
112.017453
 21
139.675408
 31
0.0
  0
ARC
  8
44
  5
20168
 10
110.5
 20
156.879638
 30
0.0
 40
0.5
 50
270.5
 51
0.0
  0
ARC
  8
41
  5
20169
 10
73.5
 20
138.839252
 30
0.0
 40
0.5
 50
90.5
 51
180.0
  0
LINE
  8
41
  5
2016A
 10
69.0
 20
138.0
 30
0.0
 11
72.702618
 21
138.032312
 31
0.0
  0
ARC
  8
41
  5
2016B
 10
72.7
 20
138.332301
 30
0.0
 40
0.3
 50
270.5
 51
0.0
  0
LINE
  8
41
  5
2016C
 10
67.0
 20
139.989707
 30
0.0
 11
67.0
 21
178.0
 31
0.0
  0
ARC
  8
41
  5
2016D
 10
67.3
 20
139.989707
 30
0.0
 40
0.3
 50
180.0
 51
268.0
  0
ENDBLK
  8
0
  5
20175
  0
ENDSEC
  0
SECTION
  2
ENTITIES
  0
VIEWPORT
  8
0
  5
1
 67
     1
 68
     1
 10
210.0
 20
152.094241
 30
0.0
 40
420.0
 41
304.188482
 69
     1
1001
ACAD
1000
MVIEW
1002
{
1070
    16
1010
0.0
1020
0.0
1030
0.0
1010
0.0
1020
0.0
1030
1.0
1040
0.0
1040
304.188482
1040
210.0
1040
152.094241
1040
50.0
1040
0.0
1040
0.0
1070
     0
1070
   100
1070
     1
1070
     1
1070
     1
1070
     0
1070
     0
1070
     0
1040
0.0
1040
0.0
1040
0.0
1040
1.0
1040
1.0
1040
0.0
1040
0.0
1070
     0
1002
{
1002
}
1002
}
  0
INSERT
  8
L1
  5
20176
  2
PICD45B
 10
0.0
 20
0.0
 30
0.0
  0
ENDSEC
  0
EOF
