  0
SECTION
  2
HEADER
  9
$ACADVER
  1
AC1009
  9
$INSBASE
 10
0.0
 20
0.0
 30
0.0
  9
$EXTMIN
 10
-140.0
 20
51.77166
 30
0.0
  9
$EXTMAX
 10
337.187236
 20
235.661049
 30
0.0
  9
$LIMMIN
 10
0.0
 20
0.0
  9
$LIMMAX
 10
420.0
 20
297.0
  9
$ORTHOMODE
 70
     0
  9
$REGENMODE
 70
     1
  9
$FILLMODE
 70
     1
  9
$QTEXTMODE
 70
     0
  9
$MIRRTEXT
 70
     1
  9
$DRAGMODE
 70
     2
  9
$LTSCALE
 40
7.0
  9
$OSMODE
 70
     0
  9
$ATTMODE
 70
     1
  9
$TEXTSIZE
 40
3.5
  9
$TRACEWID
 40
0.05
  9
$TEXTSTYLE
  7
STANDARD
  9
$CLAYER
  8
L1
  9
$CELTYPE
  6
BYLAYER
  9
$CECOLOR
 62
   256
  9
$DIMSCALE
 40
1.0
  9
$DIMASZ
 40
3.5
  9
$DIMEXO
 40
0.0
  9
$DIMDLI
 40
10.0
  9
$DIMRND
 40
0.0
  9
$DIMDLE
 40
0.0
  9
$DIMEXE
 40
2.0
  9
$DIMTP
 40
0.0
  9
$DIMTM
 40
0.0
  9
$DIMTXT
 40
3.5
  9
$DIMCEN
 40
2.5
  9
$DIMTSZ
 40
0.0
  9
$DIMTOL
 70
     0
  9
$DIMLIM
 70
     0
  9
$DIMTIH
 70
     0
  9
$DIMTOH
 70
     0
  9
$DIMSE1
 70
     0
  9
$DIMSE2
 70
     0
  9
$DIMTAD
 70
     1
  9
$DIMZIN
 70
     8
  9
$DIMBLK
  1

  9
$DIMASO
 70
     1
  9
$DIMSHO
 70
     1
  9
$DIMPOST
  1

  9
$DIMAPOST
  1

  9
$DIMALT
 70
     0
  9
$DIMALTD
 70
     2
  9
$DIMALTF
 40
25.4
  9
$DIMLFAC
 40
1.0
  9
$DIMTOFL
 70
     1
  9
$DIMTVP
 40
0.0
  9
$DIMTIX
 70
     0
  9
$DIMSOXD
 70
     0
  9
$DIMSAH
 70
     0
  9
$DIMBLK1
  1

  9
$DIMBLK2
  1

  9
$DIMSTYLE
  2
*UNNAMED
  9
$DIMCLRD
 70
   256
  9
$DIMCLRE
 70
   256
  9
$DIMCLRT
 70
     3
  9
$DIMTFAC
 40
1.0
  9
$DIMGAP
 40
2.0
  9
$LUNITS
 70
     2
  9
$LUPREC
 70
     2
  9
$SKETCHINC
 40
1.0
  9
$FILLETRAD
 40
0.0
  9
$AUNITS
 70
     0
  9
$AUPREC
 70
     2
  9
$MENU
  1
CAESAR
  9
$ELEVATION
 40
0.0
  9
$PELEVATION
 40
0.0
  9
$THICKNESS
 40
0.0
  9
$LIMCHECK
 70
     0
  9
$BLIPMODE
 70
     1
  9
$CHAMFERA
 40
5.0
  9
$CHAMFERB
 40
5.0
  9
$SKPOLY
 70
     0
  9
$TDCREATE
 40
2449682.498568981
  9
$TDUPDATE
 40
2449682.498568981
  9
$TDINDWG
 40
0.0000000000
  9
$TDUSRTIMER
 40
0.0000000000
  9
$USRTIMER
 70
     1
  9
$ANGBASE
 50
0.0
  9
$ANGDIR
 70
     0
  9
$PDMODE
 70
     0
  9
$PDSIZE
 40
0.0
  9
$PLINEWID
 40
0.0
  9
$COORDS
 70
     2
  9
$SPLFRAME
 70
     0
  9
$SPLINETYPE
 70
     6
  9
$SPLINESEGS
 70
     8
  9
$ATTDIA
 70
     0
  9
$ATTREQ
 70
     1
  9
$HANDLING
 70
     1
  9
$HANDSEED
  5
2CA8C
  9
$SURFTAB1
 70
     6
  9
$SURFTAB2
 70
     6
  9
$SURFTYPE
 70
     6
  9
$SURFU
 70
     6
  9
$SURFV
 70
     6
  9
$UCSNAME
  2

  9
$UCSORG
 10
0.0
 20
0.0
 30
0.0
  9
$UCSXDIR
 10
1.0
 20
0.0
 30
0.0
  9
$UCSYDIR
 10
0.0
 20
1.0
 30
0.0
  9
$PUCSNAME
  2

  9
$PUCSORG
 10
0.0
 20
0.0
 30
0.0
  9
$PUCSXDIR
 10
1.0
 20
0.0
 30
0.0
  9
$PUCSYDIR
 10
0.0
 20
1.0
 30
0.0
  9
$USERI1
 70
     0
  9
$USERI2
 70
     0
  9
$USERI3
 70
     0
  9
$USERI4
 70
     0
  9
$USERI5
 70
     0
  9
$USERR1
 40
1.0
  9
$USERR2
 40
0.0
  9
$USERR3
 40
3.5
  9
$USERR4
 40
0.0
  9
$USERR5
 40
0.0
  9
$WORLDVIEW
 70
     1
  9
$SHADEDGE
 70
     3
  9
$SHADEDIF
 70
    70
  9
$TILEMODE
 70
     1
  9
$MAXACTVP
 70
    16
  9
$PINSBASE
 10
0.0
 20
0.0
 30
0.0
  9
$PLIMCHECK
 70
     0
  9
$PEXTMIN
 10
1.000000E+20
 20
1.000000E+20
 30
1.000000E+20
  9
$PEXTMAX
 10
-1.000000E+20
 20
-1.000000E+20
 30
-1.000000E+20
  9
$PLIMMIN
 10
0.0
 20
0.0
  9
$PLIMMAX
 10
420.0
 20
297.0
  9
$UNITMODE
 70
     0
  9
$VISRETAIN
 70
     0
  9
$PLINEGEN
 70
     0
  9
$PSLTSCALE
 70
     0
  9
$TREEDEPTH
 70
  3020
  9
$DWGCODEPAGE
  3
dos850
  0
ENDSEC
  0
SECTION
  2
TABLES
  0
TABLE
  2
VPORT
 70
     2
  0
VPORT
  2
*ACTIVE
 70
     0
 10
0.0
 20
0.0
 11
1.0
 21
1.0
 12
287.564723
 22
225.231556
 13
0.0
 23
0.0
 14
1.0
 24
1.0
 15
10.0
 25
10.0
 16
0.0
 26
0.0
 36
1.0
 17
0.0
 27
0.0
 37
0.0
 40
456.463112
 41
1.273114
 42
50.0
 43
0.0
 44
0.0
 50
0.0
 51
0.0
 71
     0
 72
  1000
 73
     1
 74
     1
 75
     1
 76
     0
 77
     0
 78
     0
  0
ENDTAB
  0
TABLE
  2
LTYPE
 70
    10
  0
LTYPE
  2
CONTINUOUS
 70
    64
  3
Solid line
 72
    65
 73
     0
 40
0.0
  0
LTYPE
  2
BORDER
 70
     0
  3
__ __ . __ __ . __ __ . __ __ . __ __ . __ __ .
 72
    65
 73
     6
 40
1.75
 49
0.5
 49
-0.25
 49
0.5
 49
-0.25
 49
0.0
 49
-0.25
  0
LTYPE
  2
CENTER
 70
    64
  3
____ _ ____ _ ____ _ ____ _ ____ _ ____ _ ____ 
 72
    65
 73
     4
 40
2.0
 49
1.25
 49
-0.25
 49
0.25
 49
-0.25
  0
LTYPE
  2
DASHDOT
 70
     0
  3
__ . __ . __ . __ . __ . __ . __ . __ . __ . __
 72
    65
 73
     4
 40
1.0
 49
0.5
 49
-0.25
 49
0.0
 49
-0.25
  0
LTYPE
  2
DASHED
 70
    64
  3
__ __ __ __ __ __ __ __ __ __ __ __ __ __ __ __
 72
    65
 73
     2
 40
0.75
 49
0.5
 49
-0.25
  0
LTYPE
  2
DIVIDE
 70
     0
  3
____ . . ____ . . ____ . . ____ . . ____ . . __
 72
    65
 73
     6
 40
1.25
 49
0.5
 49
-0.25
 49
0.0
 49
-0.25
 49
0.0
 49
-0.25
  0
LTYPE
  2
DOT
 70
     0
  3
. . . . . . . . . . . . . . . . . . . . . . . .
 72
    65
 73
     2
 40
0.25
 49
0.0
 49
-0.25
  0
LTYPE
  2
HIDDEN
 70
    64
  3
__ __ __ __ __ __ __ __ __ __ __ __ __ __ __ __
 72
    65
 73
     2
 40
0.375
 49
0.25
 49
-0.125
  0
LTYPE
  2
PHANTOM
 70
    64
  3
______  __  __  ______  __  __  ______  __  __ 
 72
    65
 73
     6
 40
2.5
 49
1.25
 49
-0.25
 49
0.25
 49
-0.25
 49
0.25
 49
-0.25
  0
LTYPE
  2
DOTX2
 70
    64
  3
.  .  .  .  .  .  .  .  .  .  .  .  .  .  .  . 
 72
    65
 73
     2
 40
0.5
 49
0.0
 49
-0.5
  0
ENDTAB
  0
TABLE
  2
LAYER
 70
    74
  0
LAYER
  2
0
 70
    64
 62
     7
  6
CONTINUOUS
  0
LAYER
  2
L1
 70
     0
 62
     3
  6
CONTINUOUS
  0
LAYER
  2
L2
 70
     0
 62
     1
  6
CONTINUOUS
  0
LAYER
  2
L3
 70
     0
 62
     7
  6
DASHED
  0
LAYER
  2
L4
 70
     0
 62
     1
  6
DASHED
  0
LAYER
  2
L5
 70
     0
 62
     6
  6
CENTER
  0
LAYER
  2
L6
 70
     0
 62
     1
  6
CENTER
  0
LAYER
  2
L7
 70
     0
 62
     1
  6
PHANTOM
  0
LAYER
  2
VPORT
 70
     0
 62
     7
  6
CONTINUOUS
  0
LAYER
  2
L8
 70
     0
 62
     1
  6
CONTINUOUS
  0
LAYER
  2
L20
 70
     0
 62
     3
  6
CONTINUOUS
  0
LAYER
  2
L21
 70
     0
 62
     1
  6
CONTINUOUS
  0
LAYER
  2
L22
 70
     0
 62
     1
  6
CONTINUOUS
  0
LAYER
  2
L23
 70
     0
 62
     1
  6
CONTINUOUS
  0
LAYER
  2
L30
 70
     0
 62
     3
  6
CONTINUOUS
  0
LAYER
  2
L31
 70
     0
 62
     1
  6
CONTINUOUS
  0
LAYER
  2
L32
 70
     0
 62
     3
  6
CONTINUOUS
  0
LAYER
  2
L33
 70
     0
 62
     1
  6
CONTINUOUS
  0
LAYER
  2
L34
 70
     0
 62
     3
  6
CONTINUOUS
  0
LAYER
  2
L35
 70
     0
 62
     1
  6
CONTINUOUS
  0
LAYER
  2
L40
 70
     0
 62
     7
  6
CONTINUOUS
  0
LAYER
  2
L41
 70
     0
 62
     1
  6
CONTINUOUS
  0
LAYER
  2
L42
 70
     0
 62
     1
  6
CONTINUOUS
  0
LAYER
  2
L43
 70
     0
 62
     7
  6
CONTINUOUS
  0
LAYER
  2
L44
 70
     0
 62
     1
  6
CONTINUOUS
  0
LAYER
  2
L45
 70
     0
 62
     1
  6
CONTINUOUS
  0
LAYER
  2
L46
 70
     0
 62
     3
  6
CONTINUOUS
  0
LAYER
  2
L50
 70
     0
 62
     7
  6
CONTINUOUS
  0
LAYER
  2
L51
 70
     0
 62
     1
  6
CONTINUOUS
  0
LAYER
  2
L52
 70
     0
 62
     7
  6
CONTINUOUS
  0
LAYER
  2
L53
 70
     0
 62
     1
  6
CONTINUOUS
  0
LAYER
  2
L54
 70
     0
 62
     3
  6
CONTINUOUS
  0
LAYER
  2
L55
 70
     0
 62
     3
  6
CONTINUOUS
  0
LAYER
  2
L56
 70
     0
 62
     3
  6
CONTINUOUS
  0
LAYER
  2
L57
 70
     0
 62
     1
  6
CONTINUOUS
  0
LAYER
  2
L9
 70
     0
 62
     7
  6
HIDDEN
  0
LAYER
  2
L15
 70
     0
 62
     2
  6
CONTINUOUS
  0
LAYER
  2
L16
 70
     0
 62
     5
  6
DOTX2
  0
LAYER
  2
L24
 70
     0
 62
     1
  6
CONTINUOUS
  0
LAYER
  2
A1
 70
     0
 62
     7
  6
CONTINUOUS
  0
LAYER
  2
RA1
 70
     0
 62
     1
  6
CONTINUOUS
  0
LAYER
  2
TITEL
 70
     0
 62
     7
  6
CONTINUOUS
  0
LAYER
  2
DEFPOINTS
 70
     0
 62
     7
  6
CONTINUOUS
  0
LAYER
  2
1
 70
     0
 62
     7
  6
CONTINUOUS
  0
LAYER
  2
11
 70
    64
 62
     7
  6
CONTINUOUS
  0
LAYER
  2
12
 70
     0
 62
     1
  6
CONTINUOUS
  0
LAYER
  2
13
 70
    64
 62
     1
  6
CENTER
  0
LAYER
  2
14
 70
    64
 62
     1
  6
DASHED
  0
LAYER
  2
15
 70
     0
 62
     2
  6
DASHED
  0
LAYER
  2
21
 70
    64
 62
     7
  6
CONTINUOUS
  0
LAYER
  2
22
 70
     0
 62
     1
  6
CONTINUOUS
  0
LAYER
  2
23
 70
    64
 62
     1
  6
CENTER
  0
LAYER
  2
24
 70
    64
 62
     1
  6
DASHED
  0
LAYER
  2
25
 70
     0
 62
     2
  6
DASHED
  0
LAYER
  2
31
 70
    64
 62
     7
  6
CONTINUOUS
  0
LAYER
  2
32
 70
     0
 62
     1
  6
CONTINUOUS
  0
LAYER
  2
33
 70
    64
 62
     1
  6
CENTER
  0
LAYER
  2
34
 70
    64
 62
     1
  6
DASHED
  0
LAYER
  2
35
 70
     0
 62
     2
  6
DASHED
  0
LAYER
  2
41
 70
    64
 62
     7
  6
CONTINUOUS
  0
LAYER
  2
42
 70
     0
 62
     1
  6
CONTINUOUS
  0
LAYER
  2
43
 70
    64
 62
     1
  6
CENTER
  0
LAYER
  2
44
 70
    64
 62
     1
  6
DASHED
  0
LAYER
  2
45
 70
     0
 62
     2
  6
DASHED
  0
LAYER
  2
51
 70
    64
 62
     7
  6
CONTINUOUS
  0
LAYER
  2
52
 70
    64
 62
     1
  6
CONTINUOUS
  0
LAYER
  2
53
 70
    64
 62
     1
  6
CENTER
  0
LAYER
  2
54
 70
     0
 62
     1
  6
DASHED
  0
LAYER
  2
55
 70
     0
 62
     2
  6
DASHED
  0
LAYER
  2
61
 70
    64
 62
     7
  6
CONTINUOUS
  0
LAYER
  2
62
 70
     0
 62
     1
  6
CONTINUOUS
  0
LAYER
  2
63
 70
    64
 62
     1
  6
CENTER
  0
LAYER
  2
64
 70
     0
 62
     1
  6
DASHED
  0
LAYER
  2
65
 70
     0
 62
     2
  6
DASHED
  0
ENDTAB
  0
TABLE
  2
STYLE
 70
     4
  0
STYLE
  2
STANDARD
 70
     0
 40
0.0
 41
1.0
 50
0.0
 71
     0
 42
3.5
  3
CAEISO
  4

  0
STYLE
  2
SIMPLEX
 70
    64
 40
0.0
 41
1.0
 50
0.0
 71
     0
 42
20.0
  3
SIMPLEX.SHX
  4

  0
STYLE
  2
COMPLEX
 70
    64
 40
5.0
 41
1.0
 50
0.0
 71
     0
 42
5.0
  3
COMPLEX
  4

  0
STYLE
  2
CAEISO
 70
     0
 40
0.0
 41
1.0
 50
0.0
 71
     0
 42
1.0
  3
CAEISO
  4

  0
ENDTAB
  0
TABLE
  2
VIEW
 70
     0
  0
ENDTAB
  0
TABLE
  2
UCS
 70
     0
  0
ENDTAB
  0
TABLE
  2
APPID
 70
     1
  0
APPID
  2
ACAD
 70
    64
  0
ENDTAB
  0
TABLE
  2
DIMSTYLE
 70
     6
  0
DIMSTYLE
  2
ACADUS
 70
     0
  3

  4

  5

  6

  7

 40
1.0
 41
0.18
 42
0.0625
 43
0.38
 44
0.18
 45
0.0
 46
0.0
 47
0.0
 48
0.0
140
0.18
141
0.09
142
0.0
143
25.4
144
1.0
145
0.0
146
1.0
147
0.09
 71
     0
 72
     0
 73
     1
 74
     1
 75
     0
 76
     0
 77
     0
 78
     0
170
     0
171
     2
172
     0
173
     0
174
     0
175
     0
176
     0
177
     0
178
     0
  0
DIMSTYLE
  2
NORDIC
 70
     0
  3

  4

  5

  6

  7

 40
1.0
 41
3.5
 42
1.0
 43
10.0
 44
2.0
 45
0.0
 46
0.0
 47
0.0
 48
0.0
140
3.5
141
2.5
142
0.0
143
25.4
144
1.0
145
0.0
146
1.0
147
2.0
 71
     0
 72
     0
 73
     0
 74
     0
 75
     0
 76
     0
 77
     1
 78
     8
170
     0
171
     2
172
     1
173
     0
174
     0
175
     0
176
     0
177
     0
178
     0
  0
DIMSTYLE
  2
RADIAL
 70
     0
  3

  4

  5

  6

  7

 40
1.0
 41
3.5
 42
1.0
 43
10.0
 44
2.0
 45
0.0
 46
0.0
 47
0.0
 48
0.0
140
3.5
141
2.5
142
0.0
143
25.4
144
1.0
145
0.0
146
1.0
147
2.0
 71
     0
 72
     0
 73
     0
 74
     1
 75
     0
 76
     0
 77
     1
 78
     8
170
     0
171
     2
172
     0
173
     0
174
     0
175
     0
176
     0
177
     0
178
     0
  0
DIMSTYLE
  2
NORTOL
 70
     0
  3

  4

  5

  6

  7

 40
1.0
 41
3.5
 42
1.0
 43
10.0
 44
2.0
 45
0.0
 46
0.0
 47
0.2
 48
0.1
140
3.5
141
2.5
142
0.0
143
25.4
144
1.0
145
0.7
146
0.71
147
2.0
 71
     1
 72
     0
 73
     0
 74
     0
 75
     0
 76
     0
 77
     0
 78
     8
170
     0
171
     2
172
     1
173
     0
174
     0
175
     0
176
     0
177
     0
178
     0
  0
DIMSTYLE
  2
RADTOL
 70
     0
  3

  4

  5

  6

  7

 40
1.0
 41
3.5
 42
1.0
 43
10.0
 44
2.0
 45
0.0
 46
0.0
 47
0.2
 48
0.1
140
3.5
141
2.5
142
0.0
143
25.4
144
1.0
145
0.7
146
0.7
147
2.0
 71
     1
 72
     0
 73
     0
 74
     1
 75
     0
 76
     0
 77
     0
 78
     8
170
     0
171
     2
172
     0
173
     0
174
     0
175
     0
176
     0
177
     0
178
     0
  0
DIMSTYLE
  2
HANSU
 70
     0
  3

  4

  5

  6

  7

 40
1.0
 41
3.5
 42
0.0
 43
10.0
 44
2.0
 45
0.0
 46
0.0
 47
0.0
 48
0.0
140
3.5
141
2.5
142
0.0
143
25.4
144
0.8
145
0.0
146
1.0
147
2.0
 71
     0
 72
     0
 73
     0
 74
     0
 75
     0
 76
     0
 77
     1
 78
     8
170
     0
171
     2
172
     1
173
     0
174
     0
175
     0
176
   256
177
   256
178
     3
  0
ENDTAB
  0
ENDSEC
  0
SECTION
  2
BLOCKS
  0
BLOCK
  8
0
  5
2329
  2
AME_NIL
 70
     0
 10
0.0
 20
0.0
 30
0.0
  1
AME_NIL
  3
AME_NIL
  0
ENDBLK
  8
0
  5
232A
  0
BLOCK
  8
0
  5
232C
  2
AME_SOL
 70
     0
 10
0.0
 20
0.0
 30
0.0
  1
AME_SOL
  3
AME_SOL
  0
ENDBLK
  8
0
  5
232D
  0
BLOCK
  8
0
  5
233F
  2
SOLAXES
 70
     0
 10
0.0
 20
0.0
 30
0.0
  1
SOLAXES
  3
SOLAXES
  0
LINE
  8
0
 62
     0
  5
2340
 10
0.0
 20
0.0
 30
0.0
 11
63.851158
 21
0.0
 31
0.0
  0
LINE
  8
0
 62
     0
  5
2341
 10
0.0
 20
0.0
 30
0.0
 11
0.0
 21
63.851158
 31
0.0
  0
LINE
  8
0
 62
     0
  5
2342
 10
0.0
 20
0.0
 30
0.0
 11
0.0
 21
0.0
 31
63.851158
  0
CIRCLE
  8
0
 62
     0
  5
2343
 10
0.0
 20
0.0
 30
57.466042
 40
3.192558
210
1.0
220
0.0
230
0.0
  0
LINE
  8
0
 62
     0
  5
2344
 10
57.466042
 20
3.192558
 30
0.0
 11
63.851158
 21
0.0
 31
0.0
  0
LINE
  8
0
 62
     0
  5
2345
 10
57.466042
 20
0.0
 30
3.192558
 11
63.851158
 21
0.0
 31
0.0
  0
LINE
  8
0
 62
     0
  5
2346
 10
57.466042
 20
-3.192558
 30
0.0
 11
63.851158
 21
0.0
 31
0.0
  0
LINE
  8
0
 62
     0
  5
2347
 10
57.466042
 20
0.0
 30
-3.192558
 11
63.851158
 21
0.0
 31
0.0
  0
CIRCLE
  8
0
 62
     0
  5
2348
 10
0.0
 20
0.0
 30
57.466042
 40
3.192558
210
0.0
220
1.0
230
0.0
  0
LINE
  8
0
 62
     0
  5
2349
 10
3.192558
 20
57.466042
 30
0.0
 11
0.0
 21
63.851158
 31
0.0
  0
LINE
  8
0
 62
     0
  5
234A
 10
0.0
 20
57.466042
 30
3.192558
 11
0.0
 21
63.851158
 31
0.0
  0
LINE
  8
0
 62
     0
  5
234B
 10
-3.192558
 20
57.466042
 30
0.0
 11
0.0
 21
63.851158
 31
0.0
  0
LINE
  8
0
 62
     0
  5
234C
 10
0.0
 20
57.466042
 30
-3.192558
 11
0.0
 21
63.851158
 31
0.0
  0
CIRCLE
  8
0
 62
     0
  5
234D
 10
0.0
 20
0.0
 30
51.080927
 40
3.192558
210
0.0
220
1.0
230
0.0
  0
LINE
  8
0
 62
     0
  5
234E
 10
3.192558
 20
51.080927
 30
0.0
 11
0.0
 21
57.466042
 31
0.0
  0
LINE
  8
0
 62
     0
  5
234F
 10
0.0
 20
51.080927
 30
3.192558
 11
0.0
 21
57.466042
 31
0.0
  0
LINE
  8
0
 62
     0
  5
2350
 10
-3.192558
 20
51.080927
 30
0.0
 11
0.0
 21
57.466042
 31
0.0
  0
LINE
  8
0
 62
     0
  5
2351
 10
0.0
 20
51.080927
 30
-3.192558
 11
0.0
 21
57.466042
 31
0.0
  0
CIRCLE
  8
0
 62
     0
  5
2352
 10
0.0
 20
0.0
 30
57.466042
 40
3.192558
  0
LINE
  8
0
 62
     0
  5
2353
 10
3.192558
 20
0.0
 30
57.466042
 11
0.0
 21
0.0
 31
63.851158
  0
LINE
  8
0
 62
     0
  5
2354
 10
0.0
 20
3.192558
 30
57.466042
 11
0.0
 21
0.0
 31
63.851158
  0
LINE
  8
0
 62
     0
  5
2355
 10
-3.192558
 20
0.0
 30
57.466042
 11
0.0
 21
0.0
 31
63.851158
  0
LINE
  8
0
 62
     0
  5
2356
 10
0.0
 20
-3.192558
 30
57.466042
 11
0.0
 21
0.0
 31
63.851158
  0
CIRCLE
  8
0
 62
     0
  5
2357
 10
0.0
 20
0.0
 30
51.080927
 40
3.192558
  0
LINE
  8
0
 62
     0
  5
2358
 10
3.192558
 20
0.0
 30
51.080927
 11
0.0
 21
0.0
 31
57.466042
  0
LINE
  8
0
 62
     0
  5
2359
 10
0.0
 20
3.192558
 30
51.080927
 11
0.0
 21
0.0
 31
57.466042
  0
LINE
  8
0
 62
     0
  5
235A
 10
-3.192558
 20
0.0
 30
51.080927
 11
0.0
 21
0.0
 31
57.466042
  0
LINE
  8
0
 62
     0
  5
235B
 10
0.0
 20
-3.192558
 30
51.080927
 11
0.0
 21
0.0
 31
57.466042
  0
CIRCLE
  8
0
 62
     0
  5
235C
 10
0.0
 20
0.0
 30
44.695811
 40
3.192558
  0
LINE
  8
0
 62
     0
  5
235D
 10
3.192558
 20
0.0
 30
44.695811
 11
0.0
 21
0.0
 31
51.080927
  0
LINE
  8
0
 62
     0
  5
235E
 10
0.0
 20
3.192558
 30
44.695811
 11
0.0
 21
0.0
 31
51.080927
  0
LINE
  8
0
 62
     0
  5
235F
 10
-3.192558
 20
0.0
 30
44.695811
 11
0.0
 21
0.0
 31
51.080927
  0
LINE
  8
0
 62
     0
  5
2360
 10
0.0
 20
-3.192558
 30
44.695811
 11
0.0
 21
0.0
 31
51.080927
  0
ENDBLK
  8
0
  5
2361
  0
BLOCK
  8
0
  5
2460
  2
AME_MAT
 70
     0
 10
0.0
 20
0.0
 30
0.0
  1
AME_MAT
  3
AME_MAT
  0
ENDBLK
  8
0
  5
2461
  0
BLOCK
  8
0
  5
2465
  2
PICD20C
 70
    64
 10
0.0
 20
0.0
 30
0.0
  3
PICD20C
  0
LINE
  8
53
  6
DASHDOT
  5
4C36
 10
-52.0
 20
99.680809
 30
0.0
 11
-52.0
 21
143.680809
 31
0.0
  0
LINE
  8
53
  6
DASHDOT
  5
4C37
 10
-52.0
 20
143.680809
 30
0.0
 11
36.0
 21
143.680809
 31
0.0
  0
LINE
  8
53
  6
DASHDOT
  5
4C5E
 10
-52.0
 20
143.680809
 30
0.0
 11
-140.0
 21
143.680809
 31
0.0
  0
LINE
  8
53
  6
DASHDOT
  5
4C67
 10
-52.0
 20
187.680809
 30
0.0
 11
-52.0
 21
143.680809
 31
0.0
  0
LINE
  8
61
  5
4E14
 10
113.860182
 20
112.680809
 30
0.0
 11
113.860182
 21
143.680809
 31
0.0
  0
LINE
  8
63
  6
DASHDOT
  5
4E15
 10
198.860182
 20
99.680809
 30
0.0
 11
198.860182
 21
143.680809
 31
0.0
  0
LINE
  8
61
  5
4E16
 10
122.860182
 20
103.680809
 30
0.0
 11
198.860182
 21
103.680809
 31
0.0
  0
LINE
  8
61
  5
4E17
 10
127.493363
 20
117.330809
 30
0.0
 11
120.227002
 21
117.330809
 31
0.0
  0
LINE
  8
61
  5
4E19
 10
127.493363
 20
110.030809
 30
0.0
 11
120.227002
 21
110.030809
 31
0.0
  0
ARC
  8
61
  5
4E44
 10
123.860182
 20
113.680809
 30
0.0
 40
5.15
 50
314.867683
 51
45.132317
  0
ARC
  8
61
  5
4E4F
 10
123.860182
 20
113.680809
 30
0.0
 40
5.15
 50
134.867683
 51
225.132317
  0
ARC
  8
61
  5
4E50
 10
122.860182
 20
112.680809
 30
0.0
 40
9.0
 50
180.0
 51
270.0
  0
LINE
  8
63
  6
DASHDOT
  5
4E63
 10
198.860182
 20
143.680809
 30
0.0
 11
110.860182
 21
143.680809
 31
0.0
  0
CIRCLE
  8
61
  5
51F0
 10
123.860182
 20
113.680809
 30
0.0
 40
5.5
  0
LINE
  8
33
  6
DASHDOT
  5
251BE
 10
312.0
 20
143.680809
 30
0.0
 11
337.187236
 21
143.680809
 31
0.0
  0
LINE
  8
34
  5
251C0
 10
333.0
 20
164.180809
 30
0.0
 11
333.0
 21
143.680809
 31
0.0
  0
ARC
  8
31
  5
251C2
 10
334.0
 20
107.452842
 30
0.0
 40
2.0
 50
271.5
 51
0.0
  0
LINE
  8
31
  5
251C4
 10
316.0
 20
104.780809
 30
0.0
 11
316.0
 21
107.128444
 31
0.0
  0
LINE
  8
31
  5
251C5
 10
321.292147
 20
105.119389
 30
0.0
 11
334.052354
 21
105.453527
 31
0.0
  0
ARC
  8
31
  5
251C6
 10
321.3
 20
104.819492
 30
0.0
 40
0.3
 50
91.5
 51
180.0
  0
ARC
  8
31
  5
251C7
 10
320.5
 20
104.298817
 30
0.0
 40
0.5
 50
271.5
 51
0.0
  0
LINE
  8
31
  5
251C8
 10
321.0
 20
104.298817
 30
0.0
 11
321.0
 21
104.819492
 31
0.0
  0
LINE
  8
31
  5
251C9
 10
316.0
 20
103.680809
 30
0.0
 11
316.0
 21
104.780809
 31
0.0
  0
LINE
  8
31
  5
251CB
 10
316.0
 20
103.680809
 30
0.0
 11
320.513088
 21
103.798989
 31
0.0
  0
LINE
  8
31
  5
251CC
 10
314.0
 20
107.154627
 30
0.0
 11
314.0
 21
143.680809
 31
0.0
  0
LINE
  8
31
  5
251D0
 10
314.0
 20
107.163354
 30
0.0
 11
316.0
 21
107.128444
 31
0.0
  0
LINE
  8
31
  5
251D2
 10
336.0
 20
107.452842
 30
0.0
 11
336.0
 21
143.680809
 31
0.0
  0
LINE
  8
31
  5
251D3
 10
321.0
 20
104.819492
 30
0.0
 11
321.0
 21
143.680809
 31
0.0
  0
LINE
  8
31
  5
251D4
 10
316.0
 20
107.128444
 30
0.0
 11
316.0
 21
143.680809
 31
0.0
  0
LINE
  8
52
  5
26066
 10
-133.4
 20
163.680809
 30
0.0
 11
-133.4
 21
143.680809
 31
0.0
  0
LINE
  8
52
  5
26067
 10
-135.9
 20
163.680809
 30
0.0
 11
-135.9
 21
143.680809
 31
0.0
  0
LINE
  8
51
  5
26068
 10
-132.5
 20
163.680809
 30
0.0
 11
-132.5
 21
143.680809
 31
0.0
  0
LINE
  8
51
  5
26069
 10
-137.0
 20
173.680809
 30
0.0
 11
-137.0
 21
143.680809
 31
0.0
  0
LINE
  8
51
  5
2606A
 10
-127.0
 20
183.680809
 30
0.0
 11
-52.0
 21
183.680809
 31
0.0
  0
LINE
  8
52
  5
2606B
 10
-117.0
 20
180.080809
 30
0.0
 11
-52.0
 21
180.080809
 31
0.0
  0
LINE
  8
51
  5
2606C
 10
-117.0
 20
179.180809
 30
0.0
 11
-52.0
 21
179.180809
 31
0.0
  0
LINE
  8
52
  5
2606D
 10
-117.0
 20
182.580809
 30
0.0
 11
-52.0
 21
182.580809
 31
0.0
  0
ARC
  8
52
  5
2606E
 10
-131.9
 20
163.680809
 30
0.0
 40
1.5
 50
90.0
 51
180.0
  0
ARC
  8
52
  5
2606F
 10
-132.1
 20
163.680809
 30
0.0
 40
3.8
 50
90.0
 51
180.0
  0
ARC
  8
52
  5
26070
 10
-126.95
 20
173.630809
 30
0.0
 40
5.5
 50
90.0
 51
180.0
  0
ARC
  8
51
  5
26071
 10
-127.0
 20
173.680809
 30
0.0
 40
10.0
 50
90.0
 51
180.0
  0
LINE
  8
52
  5
26072
 10
-121.55
 20
178.630809
 30
0.0
 11
-121.55
 21
173.730809
 31
0.0
  0
LINE
  8
52
  5
26073
 10
-120.8
 20
173.680809
 30
0.0
 11
-120.8
 21
178.780809
 31
0.0
  0
ARC
  8
52
  5
26074
 10
-127.0
 20
173.680809
 30
0.0
 40
5.15
 50
314.867683
 51
45.132317
  0
LINE
  8
52
  5
26075
 10
-118.5
 20
173.680809
 30
0.0
 11
-118.5
 21
178.580809
 31
0.0
  0
LINE
  8
51
  5
26076
 10
-117.5
 20
173.680809
 30
0.0
 11
-117.5
 21
178.680809
 31
0.0
  0
ARC
  8
52
  5
26077
 10
-127.0
 20
173.680809
 30
0.0
 40
5.15
 50
134.867683
 51
225.132317
  0
ARC
  8
52
  5
26078
 10
-117.0
 20
178.780809
 30
0.0
 40
3.8
 50
90.0
 51
180.0
  0
ARC
  8
51
  5
26079
 10
-117.0
 20
178.680809
 30
0.0
 40
0.5
 50
90.0
 51
180.0
  0
ARC
  8
52
  5
2607A
 10
-117.0
 20
178.580809
 30
0.0
 40
1.5
 50
90.0
 51
180.0
  0
LINE
  8
52
  5
2607B
 10
-122.05
 20
179.130809
 30
0.0
 11
-126.95
 21
179.130809
 31
0.0
  0
LINE
  8
52
  5
2607C
 10
-123.36682
 20
177.330809
 30
0.0
 11
-130.63318
 21
177.330809
 31
0.0
  0
ARC
  8
52
  5
2607D
 10
-122.05
 20
178.630809
 30
0.0
 40
0.5
 50
360.0
 51
90.0
  0
ARC
  8
52
  5
2607E
 10
-127.05
 20
173.730809
 30
0.0
 40
5.5
 50
270.0
 51
0.0
  0
ARC
  8
52
  5
2607F
 10
-127.0
 20
173.680809
 30
0.0
 40
6.2
 50
270.0
 51
0.0
  0
ARC
  8
52
  5
26080
 10
-127.0
 20
173.680809
 30
0.0
 40
8.5
 50
270.0
 51
0.0
  0
ARC
  8
51
  5
26081
 10
-127.0
 20
173.680809
 30
0.0
 40
9.5
 50
270.0
 51
360.0
  0
LINE
  8
52
  5
26082
 10
-132.45
 20
173.630809
 30
0.0
 11
-132.45
 21
168.730809
 31
0.0
  0
LINE
  8
52
  5
26083
 10
-123.36682
 20
170.030809
 30
0.0
 11
-130.63318
 21
170.030809
 31
0.0
  0
ARC
  8
51
  5
26084
 10
-132.0
 20
163.680809
 30
0.0
 40
0.5
 50
90.0
 51
180.0
  0
ARC
  8
52
  5
26085
 10
-131.95
 20
168.730809
 30
0.0
 40
0.5
 50
180.0
 51
270.0
  0
LINE
  8
52
  5
26086
 10
-127.05
 20
168.230809
 30
0.0
 11
-131.95
 21
168.230809
 31
0.0
  0
LINE
  8
52
  5
26087
 10
-127.0
 20
167.480809
 30
0.0
 11
-132.1
 21
167.480809
 31
0.0
  0
LINE
  8
52
  5
26088
 10
-127.0
 20
165.180809
 30
0.0
 11
-131.9
 21
165.180809
 31
0.0
  0
LINE
  8
51
  5
26089
 10
-127.0
 20
164.180809
 30
0.0
 11
-132.0
 21
164.180809
 31
0.0
  0
LINE
  8
52
  5
27142
 10
29.4
 20
163.680809
 30
0.0
 11
29.4
 21
143.680809
 31
0.0
  0
LINE
  8
51
  5
27143
 10
28.5
 20
163.680809
 30
0.0
 11
28.5
 21
143.680809
 31
0.0
  0
LINE
  8
51
  5
27144
 10
33.0
 20
173.680809
 30
0.0
 11
33.0
 21
143.680809
 31
0.0
  0
LINE
  8
52
  5
27145
 10
31.9
 20
163.680809
 30
0.0
 11
31.9
 21
143.680809
 31
0.0
  0
LINE
  8
51
  5
27146
 10
23.0
 20
183.680809
 30
0.0
 11
-52.0
 21
183.680809
 31
0.0
  0
LINE
  8
52
  5
27147
 10
13.0
 20
182.580809
 30
0.0
 11
-52.0
 21
182.580809
 31
0.0
  0
LINE
  8
51
  5
27148
 10
13.0
 20
179.180809
 30
0.0
 11
-52.0
 21
179.180809
 31
0.0
  0
LINE
  8
52
  5
27149
 10
13.0
 20
180.080809
 30
0.0
 11
-52.0
 21
180.080809
 31
0.0
  0
ARC
  8
52
  5
2714A
 10
13.0
 20
178.580809
 30
0.0
 40
1.5
 50
0.0
 51
90.0
  0
ARC
  8
51
  5
2714C
 10
23.0
 20
173.680809
 30
0.0
 40
10.0
 50
0.0
 51
90.0
  0
ARC
  8
52
  5
2714D
 10
22.95
 20
173.630809
 30
0.0
 40
5.5
 50
0.0
 51
90.0
  0
ARC
  8
52
  5
2714E
 10
13.0
 20
178.780809
 30
0.0
 40
3.8
 50
0.0
 51
90.0
  0
LINE
  8
51
  5
2714F
 10
23.0
 20
164.180809
 30
0.0
 11
28.0
 21
164.180809
 31
0.0
  0
LINE
  8
52
  5
27150
 10
23.0
 20
165.180809
 30
0.0
 11
27.9
 21
165.180809
 31
0.0
  0
LINE
  8
52
  5
27151
 10
23.0
 20
167.480809
 30
0.0
 11
28.1
 21
167.480809
 31
0.0
  0
LINE
  8
52
  5
27152
 10
23.05
 20
168.230809
 30
0.0
 11
27.95
 21
168.230809
 31
0.0
  0
LINE
  8
52
  5
27153
 10
19.36682
 20
170.030809
 30
0.0
 11
26.63318
 21
170.030809
 31
0.0
  0
LINE
  8
52
  5
27154
 10
19.36682
 20
177.330809
 30
0.0
 11
26.63318
 21
177.330809
 31
0.0
  0
ARC
  8
52
  5
27155
 10
28.1
 20
163.680809
 30
0.0
 40
3.8
 50
0.0
 51
90.0
  0
ARC
  8
51
  5
27156
 10
28.0
 20
163.680809
 30
0.0
 40
0.5
 50
0.0
 51
90.0
  0
ARC
  8
52
  5
27157
 10
27.9
 20
163.680809
 30
0.0
 40
1.5
 50
0.0
 51
90.0
  0
ARC
  8
52
  5
27158
 10
27.95
 20
168.730809
 30
0.0
 40
0.5
 50
270.0
 51
0.0
  0
LINE
  8
52
  5
27159
 10
28.45
 20
173.630809
 30
0.0
 11
28.45
 21
168.730809
 31
0.0
  0
ARC
  8
52
  5
2715A
 10
23.0
 20
173.680809
 30
0.0
 40
5.15
 50
314.867683
 51
45.132317
  0
ARC
  8
51
  5
2715B
 10
23.0
 20
173.680809
 30
0.0
 40
9.5
 50
180.0
 51
270.0
  0
ARC
  8
52
  5
2715C
 10
23.0
 20
173.680809
 30
0.0
 40
8.5
 50
180.0
 51
270.0
  0
ARC
  8
52
  5
2715D
 10
23.0
 20
173.680809
 30
0.0
 40
6.2
 50
180.0
 51
270.0
  0
ARC
  8
52
  5
2715E
 10
23.05
 20
173.730809
 30
0.0
 40
5.5
 50
180.0
 51
270.0
  0
LINE
  8
52
  5
2715F
 10
18.05
 20
179.130809
 30
0.0
 11
22.95
 21
179.130809
 31
0.0
  0
ARC
  8
52
  5
27160
 10
23.0
 20
173.680809
 30
0.0
 40
5.15
 50
134.867683
 51
225.132317
  0
ARC
  8
51
  5
27161
 10
13.0
 20
178.680809
 30
0.0
 40
0.5
 50
0.0
 51
90.0
  0
LINE
  8
51
  5
27162
 10
13.5
 20
173.680809
 30
0.0
 11
13.5
 21
178.680809
 31
0.0
  0
LINE
  8
52
  5
27163
 10
14.5
 20
173.680809
 30
0.0
 11
14.5
 21
178.580809
 31
0.0
  0
LINE
  8
52
  5
27164
 10
16.8
 20
173.680809
 30
0.0
 11
16.8
 21
178.780809
 31
0.0
  0
ARC
  8
52
  5
27165
 10
18.05
 20
178.630809
 30
0.0
 40
0.5
 50
90.0
 51
180.0
  0
LINE
  8
52
  5
27166
 10
17.55
 20
178.630809
 30
0.0
 11
17.55
 21
173.730809
 31
0.0
  0
LINE
  8
52
  5
27167
 10
-133.4
 20
123.680809
 30
0.0
 11
-133.4
 21
143.680809
 31
0.0
  0
LINE
  8
51
  5
27168
 10
-132.5
 20
123.680809
 30
0.0
 11
-132.5
 21
143.680809
 31
0.0
  0
LINE
  8
51
  5
27169
 10
-137.0
 20
113.680809
 30
0.0
 11
-137.0
 21
143.680809
 31
0.0
  0
LINE
  8
52
  5
2716A
 10
-135.9
 20
123.680809
 30
0.0
 11
-135.9
 21
143.680809
 31
0.0
  0
ARC
  8
52
  5
2716B
 10
-117.0
 20
108.780809
 30
0.0
 40
1.5
 50
180.0
 51
270.0
  0
ARC
  8
51
  5
2716D
 10
-127.0
 20
113.680809
 30
0.0
 40
10.0
 50
180.0
 51
270.0
  0
ARC
  8
52
  5
2716E
 10
-126.95
 20
113.730809
 30
0.0
 40
5.5
 50
180.0
 51
270.0
  0
ARC
  8
52
  5
2716F
 10
-117.0
 20
108.580809
 30
0.0
 40
3.8
 50
180.0
 51
270.0
  0
LINE
  8
51
  5
27170
 10
-127.0
 20
123.180809
 30
0.0
 11
-132.0
 21
123.180809
 31
0.0
  0
LINE
  8
52
  5
27171
 10
-127.0
 20
122.180809
 30
0.0
 11
-131.9
 21
122.180809
 31
0.0
  0
LINE
  8
52
  5
27172
 10
-127.0
 20
119.880809
 30
0.0
 11
-132.1
 21
119.880809
 31
0.0
  0
LINE
  8
52
  5
27173
 10
-127.05
 20
119.130809
 30
0.0
 11
-131.95
 21
119.130809
 31
0.0
  0
LINE
  8
52
  5
27174
 10
-123.36682
 20
117.330809
 30
0.0
 11
-130.63318
 21
117.330809
 31
0.0
  0
LINE
  8
52
  5
27175
 10
-123.36682
 20
110.030809
 30
0.0
 11
-130.63318
 21
110.030809
 31
0.0
  0
ARC
  8
52
  5
27177
 10
-132.1
 20
123.680809
 30
0.0
 40
3.8
 50
180.0
 51
270.0
  0
ARC
  8
51
  5
27178
 10
-132.0
 20
123.680809
 30
0.0
 40
0.5
 50
180.0
 51
270.0
  0
ARC
  8
52
  5
27179
 10
-131.9
 20
123.680809
 30
0.0
 40
1.5
 50
180.0
 51
270.0
  0
ARC
  8
52
  5
2717A
 10
-131.95
 20
118.630809
 30
0.0
 40
0.5
 50
90.0
 51
180.0
  0
LINE
  8
52
  5
2717B
 10
-132.45
 20
113.730809
 30
0.0
 11
-132.45
 21
118.630809
 31
0.0
  0
ARC
  8
52
  5
2717C
 10
-127.0
 20
113.680809
 30
0.0
 40
5.15
 50
134.867683
 51
225.132317
  0
ARC
  8
51
  5
2717D
 10
-127.0
 20
113.680809
 30
0.0
 40
9.5
 50
0.0
 51
90.0
  0
ARC
  8
52
  5
2717E
 10
-127.0
 20
113.680809
 30
0.0
 40
8.5
 50
0.0
 51
90.0
  0
ARC
  8
52
  5
2717F
 10
-127.0
 20
113.680809
 30
0.0
 40
6.2
 50
0.0
 51
90.0
  0
ARC
  8
52
  5
27180
 10
-127.05
 20
113.630809
 30
0.0
 40
5.5
 50
0.0
 51
90.0
  0
LINE
  8
52
  5
27181
 10
-122.05
 20
108.230809
 30
0.0
 11
-126.95
 21
108.230809
 31
0.0
  0
ARC
  8
52
  5
27182
 10
-127.0
 20
113.680809
 30
0.0
 40
5.15
 50
314.867683
 51
45.132317
  0
ARC
  8
51
  5
27183
 10
-117.0
 20
108.680809
 30
0.0
 40
0.5
 50
180.0
 51
270.0
  0
LINE
  8
51
  5
27184
 10
-117.5
 20
113.680809
 30
0.0
 11
-117.5
 21
108.680809
 31
0.0
  0
LINE
  8
52
  5
27185
 10
-118.5
 20
113.680809
 30
0.0
 11
-118.5
 21
108.780809
 31
0.0
  0
LINE
  8
52
  5
27186
 10
-120.8
 20
113.680809
 30
0.0
 11
-120.8
 21
108.580809
 31
0.0
  0
ARC
  8
52
  5
27187
 10
-122.05
 20
108.730809
 30
0.0
 40
0.5
 50
270.0
 51
0.0
  0
LINE
  8
52
  5
27188
 10
-121.55
 20
108.730809
 30
0.0
 11
-121.55
 21
113.630809
 31
0.0
  0
LINE
  8
51
  5
27189
 10
-127.0
 20
103.680809
 30
0.0
 11
-52.0
 21
103.680809
 31
0.0
  0
LINE
  8
52
  5
2718A
 10
-117.0
 20
104.780809
 30
0.0
 11
-52.0
 21
104.780809
 31
0.0
  0
LINE
  8
51
  5
2718B
 10
-117.0
 20
108.180809
 30
0.0
 11
-52.0
 21
108.180809
 31
0.0
  0
LINE
  8
52
  5
2718C
 10
-117.0
 20
107.280809
 30
0.0
 11
-52.0
 21
107.280809
 31
0.0
  0
LINE
  8
51
  5
2718D
 10
23.0
 20
103.680809
 30
0.0
 11
-52.0
 21
103.680809
 31
0.0
  0
LINE
  8
52
  5
2718E
 10
13.0
 20
107.280809
 30
0.0
 11
-52.0
 21
107.280809
 31
0.0
  0
LINE
  8
51
  5
2718F
 10
13.0
 20
108.180809
 30
0.0
 11
-52.0
 21
108.180809
 31
0.0
  0
LINE
  8
52
  5
27190
 10
13.0
 20
104.780809
 30
0.0
 11
-52.0
 21
104.780809
 31
0.0
  0
LINE
  8
52
  5
27191
 10
18.05
 20
108.230809
 30
0.0
 11
22.95
 21
108.230809
 31
0.0
  0
ARC
  8
52
  5
27192
 10
23.05
 20
113.630809
 30
0.0
 40
5.5
 50
90.0
 51
180.0
  0
ARC
  8
52
  5
27193
 10
23.0
 20
113.680809
 30
0.0
 40
6.2
 50
90.0
 51
180.0
  0
ARC
  8
52
  5
27194
 10
23.0
 20
113.680809
 30
0.0
 40
8.5
 50
90.0
 51
180.0
  0
ARC
  8
51
  5
27195
 10
23.0
 20
113.680809
 30
0.0
 40
9.5
 50
90.0
 51
180.0
  0
LINE
  8
52
  5
27196
 10
19.36682
 20
110.030809
 30
0.0
 11
26.63318
 21
110.030809
 31
0.0
  0
LINE
  8
52
  5
27197
 10
19.36682
 20
117.330809
 30
0.0
 11
26.63318
 21
117.330809
 31
0.0
  0
ARC
  8
52
  5
27198
 10
13.0
 20
108.580809
 30
0.0
 40
3.8
 50
270.0
 51
0.0
  0
ARC
  8
52
  5
27199
 10
13.0
 20
108.780809
 30
0.0
 40
1.5
 50
270.0
 51
0.0
  0
LINE
  8
52
  5
2719A
 10
14.5
 20
113.680809
 30
0.0
 11
14.5
 21
108.780809
 31
0.0
  0
LINE
  8
51
  5
2719B
 10
13.5
 20
113.680809
 30
0.0
 11
13.5
 21
108.680809
 31
0.0
  0
ARC
  8
51
  5
2719C
 10
13.0
 20
108.680809
 30
0.0
 40
0.5
 50
270.0
 51
360.0
  0
LINE
  8
52
  5
2719D
 10
17.55
 20
108.730809
 30
0.0
 11
17.55
 21
113.630809
 31
0.0
  0
ARC
  8
52
  5
2719E
 10
18.05
 20
108.730809
 30
0.0
 40
0.5
 50
180.0
 51
270.0
  0
LINE
  8
52
  5
2719F
 10
16.8
 20
113.680809
 30
0.0
 11
16.8
 21
108.580809
 31
0.0
  0
ARC
  8
52
  5
271A0
 10
23.0
 20
113.680809
 30
0.0
 40
5.15
 50
134.867683
 51
225.132317
  0
ARC
  8
51
  5
271A2
 10
23.0
 20
113.680809
 30
0.0
 40
10.0
 50
270.0
 51
0.0
  0
LINE
  8
52
  5
271A3
 10
31.9
 20
123.680809
 30
0.0
 11
31.9
 21
143.680809
 31
0.0
  0
LINE
  8
51
  5
271A4
 10
33.0
 20
113.680809
 30
0.0
 11
33.0
 21
143.680809
 31
0.0
  0
LINE
  8
51
  5
271A5
 10
28.5
 20
123.680809
 30
0.0
 11
28.5
 21
143.680809
 31
0.0
  0
LINE
  8
52
  5
271A6
 10
29.4
 20
123.680809
 30
0.0
 11
29.4
 21
143.680809
 31
0.0
  0
ARC
  8
52
  5
271A7
 10
22.95
 20
113.730809
 30
0.0
 40
5.5
 50
270.0
 51
360.0
  0
ARC
  8
52
  5
271A8
 10
28.1
 20
123.680809
 30
0.0
 40
3.8
 50
270.0
 51
360.0
  0
ARC
  8
52
  5
271A9
 10
27.9
 20
123.680809
 30
0.0
 40
1.5
 50
270.0
 51
0.0
  0
ARC
  8
51
  5
271AA
 10
28.0
 20
123.680809
 30
0.0
 40
0.5
 50
270.0
 51
360.0
  0
LINE
  8
52
  5
271AB
 10
23.0
 20
119.880809
 30
0.0
 11
28.1
 21
119.880809
 31
0.0
  0
LINE
  8
52
  5
271AC
 10
23.0
 20
122.180809
 30
0.0
 11
27.9
 21
122.180809
 31
0.0
  0
LINE
  8
51
  5
271AD
 10
23.0
 20
123.180809
 30
0.0
 11
28.0
 21
123.180809
 31
0.0
  0
ARC
  8
52
  5
271AE
 10
23.0
 20
113.680809
 30
0.0
 40
5.15
 50
314.867683
 51
45.132317
  0
LINE
  8
52
  5
271AF
 10
28.45
 20
113.730809
 30
0.0
 11
28.45
 21
118.630809
 31
0.0
  0
ARC
  8
52
  5
271B0
 10
27.95
 20
118.630809
 30
0.0
 40
0.5
 50
360.0
 51
90.0
  0
LINE
  8
52
  5
271B1
 10
23.05
 20
119.130809
 30
0.0
 11
27.95
 21
119.130809
 31
0.0
  0
ARC
  8
52
  5
271B6
 10
-127.0
 20
173.680809
 30
0.0
 40
8.3
 50
107.0
 51
163.0
  0
LINE
  8
52
  5
271B7
 10
28.108012
 20
111.821645
 30
0.0
 11
30.235633
 21
111.047254
 31
0.0
  0
LINE
  8
52
  5
271B8
 10
24.859164
 20
108.572797
 30
0.0
 11
25.633555
 21
106.445176
 31
0.0
  0
ARC
  8
52
  5
271B9
 10
23.0
 20
113.680809
 30
0.0
 40
7.7
 50
290.0
 51
340.0
  0
LINE
  8
61
  5
273B3
 10
122.860182
 20
104.980809
 30
0.0
 11
198.860182
 21
104.980809
 31
0.0
  0
ARC
  8
61
  5
273B4
 10
122.860182
 20
112.680809
 30
0.0
 40
7.7
 50
180.0
 51
270.0
  0
LINE
  8
61
  5
273B5
 10
115.160182
 20
112.680809
 30
0.0
 11
115.160182
 21
143.680809
 31
0.0
  0
LINE
  8
61
  5
273B6
 10
122.860182
 20
182.380809
 30
0.0
 11
198.860182
 21
182.380809
 31
0.0
  0
LINE
  8
61
  5
273B7
 10
122.860182
 20
183.680809
 30
0.0
 11
198.860182
 21
183.680809
 31
0.0
  0
LINE
  8
61
  5
273B9
 10
115.160182
 20
174.680809
 30
0.0
 11
115.160182
 21
143.680809
 31
0.0
  0
ARC
  8
61
  5
273BA
 10
123.860182
 20
173.680809
 30
0.0
 40
5.15
 50
314.867683
 51
45.132317
  0
ARC
  8
61
  5
273BB
 10
123.860182
 20
173.680809
 30
0.0
 40
5.15
 50
134.867683
 51
225.132317
  0
CIRCLE
  8
61
  5
273BC
 10
123.860182
 20
173.680809
 30
0.0
 40
5.5
  0
LINE
  8
61
  5
273BE
 10
113.860182
 20
174.680809
 30
0.0
 11
113.860182
 21
143.680809
 31
0.0
  0
ARC
  8
61
  5
273C0
 10
122.860182
 20
174.680809
 30
0.0
 40
7.7
 50
90.0
 51
180.0
  0
ARC
  8
61
  5
273C1
 10
122.860182
 20
174.680809
 30
0.0
 40
9.0
 50
90.0
 51
180.0
  0
LINE
  8
61
  5
273C4
 10
127.493363
 20
177.330809
 30
0.0
 11
120.227002
 21
177.330809
 31
0.0
  0
LINE
  8
61
  5
273C5
 10
127.493363
 20
170.030809
 30
0.0
 11
120.227002
 21
170.030809
 31
0.0
  0
LINE
  8
61
  5
273C7
 10
274.860182
 20
183.680809
 30
0.0
 11
198.860182
 21
183.680809
 31
0.0
  0
LINE
  8
61
  5
273C8
 10
274.860182
 20
182.380809
 30
0.0
 11
198.860182
 21
182.380809
 31
0.0
  0
LINE
  8
61
  5
273C9
 10
274.860182
 20
104.980809
 30
0.0
 11
198.860182
 21
104.980809
 31
0.0
  0
LINE
  8
61
  5
273CA
 10
274.860182
 20
103.680809
 30
0.0
 11
198.860182
 21
103.680809
 31
0.0
  0
LINE
  8
63
  6
DASHDOT
  5
273CC
 10
198.860182
 20
143.680809
 30
0.0
 11
286.860182
 21
143.680809
 31
0.0
  0
LINE
  8
61
  5
273CD
 10
282.560182
 20
112.680809
 30
0.0
 11
282.560182
 21
143.680809
 31
0.0
  0
ARC
  8
61
  5
273CE
 10
273.860182
 20
113.680809
 30
0.0
 40
5.15
 50
134.867683
 51
225.132317
  0
ARC
  8
61
  5
273CF
 10
273.860182
 20
113.680809
 30
0.0
 40
5.15
 50
314.867683
 51
45.132317
  0
CIRCLE
  8
61
  5
273D0
 10
273.860182
 20
113.680809
 30
0.0
 40
5.5
  0
LINE
  8
61
  5
273D2
 10
283.860182
 20
112.680809
 30
0.0
 11
283.860182
 21
143.680809
 31
0.0
  0
ARC
  8
61
  5
273D4
 10
274.860182
 20
112.680809
 30
0.0
 40
7.7
 50
270.0
 51
0.0
  0
ARC
  8
61
  5
273D5
 10
274.860182
 20
112.680809
 30
0.0
 40
9.0
 50
270.0
 51
0.0
  0
LINE
  8
61
  5
273D8
 10
270.227002
 20
110.030809
 30
0.0
 11
277.493363
 21
110.030809
 31
0.0
  0
LINE
  8
61
  5
273DA
 10
283.860182
 20
174.680809
 30
0.0
 11
283.860182
 21
143.680809
 31
0.0
  0
LINE
  8
61
  5
273DC
 10
282.560182
 20
174.680809
 30
0.0
 11
282.560182
 21
143.680809
 31
0.0
  0
LINE
  8
61
  5
273DD
 10
270.227002
 20
117.330809
 30
0.0
 11
277.493363
 21
117.330809
 31
0.0
  0
LINE
  8
61
  5
273DE
 10
270.227002
 20
170.030809
 30
0.0
 11
277.493363
 21
170.030809
 31
0.0
  0
LINE
  8
61
  5
273DF
 10
270.227002
 20
177.330809
 30
0.0
 11
277.493363
 21
177.330809
 31
0.0
  0
ARC
  8
61
  5
273E2
 10
274.860182
 20
174.680809
 30
0.0
 40
9.0
 50
0.0
 51
90.0
  0
ARC
  8
61
  5
273E3
 10
274.860182
 20
174.680809
 30
0.0
 40
7.7
 50
0.0
 51
90.0
  0
CIRCLE
  8
61
  5
273E4
 10
273.860182
 20
173.680809
 30
0.0
 40
5.5
  0
ARC
  8
61
  5
273E5
 10
273.860182
 20
173.680809
 30
0.0
 40
5.15
 50
314.867683
 51
45.132317
  0
ARC
  8
61
  5
273E6
 10
273.860182
 20
173.680809
 30
0.0
 40
5.15
 50
134.867683
 51
225.132317
  0
LINE
  8
63
  6
DASHDOT
  5
273E7
 10
198.860182
 20
187.680809
 30
0.0
 11
198.860182
 21
143.680809
 31
0.0
  0
LINE
  8
34
  5
2A5F5
 10
314.0
 20
164.180809
 30
0.0
 11
333.0
 21
164.180809
 31
0.0
  0
LINE
  8
52
  5
2ABE9
 10
-128.589761
 20
178.880684
 30
0.0
 11
-129.426685
 21
181.618139
 31
0.0
  0
LINE
  8
52
  5
2ABEA
 10
-132.199875
 20
175.270571
 30
0.0
 11
-134.937329
 21
176.107495
 31
0.0
  0
LINE
  8
34
  5
2C7C9
 10
333.0
 20
123.180809
 30
0.0
 11
333.0
 21
143.680809
 31
0.0
  0
LINE
  8
34
  5
2C7CA
 10
314.0
 20
123.180809
 30
0.0
 11
333.0
 21
123.180809
 31
0.0
  0
LINE
  8
31
  5
2C7CB
 10
316.0
 20
180.233175
 30
0.0
 11
316.0
 21
143.680809
 31
0.0
  0
LINE
  8
31
  5
2C7CC
 10
321.0
 20
182.542127
 30
0.0
 11
321.0
 21
143.680809
 31
0.0
  0
LINE
  8
31
  5
2C7CD
 10
336.0
 20
179.908777
 30
0.0
 11
336.0
 21
143.680809
 31
0.0
  0
LINE
  8
31
  5
2C7CE
 10
314.0
 20
180.206992
 30
0.0
 11
314.0
 21
143.680809
 31
0.0
  0
LINE
  8
31
  5
2C7CF
 10
321.292147
 20
182.24223
 30
0.0
 11
334.052354
 21
181.908092
 31
0.0
  0
LINE
  8
31
  5
2C7D0
 10
314.0
 20
180.198264
 30
0.0
 11
316.0
 21
180.233175
 31
0.0
  0
LINE
  8
31
  5
2C7D1
 10
316.0
 20
183.680809
 30
0.0
 11
320.513088
 21
183.56263
 31
0.0
  0
LINE
  8
31
  5
2C7D2
 10
316.0
 20
183.680809
 30
0.0
 11
316.0
 21
182.580809
 31
0.0
  0
LINE
  8
31
  5
2C7D3
 10
321.0
 20
183.062801
 30
0.0
 11
321.0
 21
182.542127
 31
0.0
  0
ARC
  8
31
  5
2C7D4
 10
320.5
 20
183.062801
 30
0.0
 40
0.5
 50
0.0
 51
88.5
  0
ARC
  8
31
  5
2C7D5
 10
321.3
 20
182.542127
 30
0.0
 40
0.3
 50
180.0
 51
268.5
  0
LINE
  8
31
  5
2C7D6
 10
316.0
 20
182.580809
 30
0.0
 11
316.0
 21
180.233175
 31
0.0
  0
ARC
  8
31
  5
2C7D7
 10
334.0
 20
179.908777
 30
0.0
 40
2.0
 50
0.0
 51
88.5
  0
LINE
  8
21
  5
2C7D8
 10
117.334
 20
212.861484
 30
0.0
 11
198.860182
 21
212.861484
 31
0.0
  0
LINE
  8
21
  5
2C7D9
 10
117.632214
 20
234.861484
 30
0.0
 11
198.860182
 21
234.861484
 31
0.0
  0
LINE
  8
21
  5
2C7DA
 10
114.998865
 20
219.861484
 30
0.0
 11
198.860182
 21
219.861484
 31
0.0
  0
LINE
  8
21
  5
2C7DB
 10
117.307817
 20
214.861484
 30
0.0
 11
198.860182
 21
214.861484
 31
0.0
  0
LINE
  8
24
  5
2C7DC
 10
133.360182
 20
231.861484
 30
0.0
 11
198.860182
 21
231.861484
 31
0.0
  0
LINE
  8
21
  5
2C7DD
 10
115.298762
 20
220.153631
 30
0.0
 11
115.6329
 21
232.913838
 31
0.0
  0
LINE
  8
24
  5
2C7DE
 10
133.360182
 20
212.861484
 30
0.0
 11
133.360182
 21
231.861484
 31
0.0
  0
LINE
  8
21
  5
2C7DF
 10
114.47819
 20
219.861484
 30
0.0
 11
114.998865
 21
219.861484
 31
0.0
  0
LINE
  8
21
  5
2C7E0
 10
113.860182
 20
214.861484
 30
0.0
 11
114.960182
 21
214.861484
 31
0.0
  0
ARC
  8
21
  5
2C7E1
 10
114.47819
 20
219.361484
 30
0.0
 40
0.5
 50
90.0
 51
178.5
  0
LINE
  8
21
  5
2C7E2
 10
113.860182
 20
214.861484
 30
0.0
 11
113.978361
 21
219.374573
 31
0.0
  0
LINE
  8
21
  5
2C7E3
 10
114.960182
 20
214.861484
 30
0.0
 11
117.307817
 21
214.861484
 31
0.0
  0
ARC
  8
21
  5
2C7E4
 10
114.998865
 20
220.161484
 30
0.0
 40
0.3
 50
270.0
 51
358.5
  0
LINE
  8
21
  5
2C7E5
 10
117.342727
 20
212.861484
 30
0.0
 11
117.307817
 21
214.861484
 31
0.0
  0
ARC
  8
21
  5
2C7E6
 10
117.632214
 20
232.861484
 30
0.0
 40
2.0
 50
90.0
 51
178.5
  0
LINE
  8
24
  5
2C7E7
 10
264.360182
 20
231.861484
 30
0.0
 11
198.860182
 21
231.861484
 31
0.0
  0
LINE
  8
21
  5
2C7E8
 10
280.412547
 20
214.861484
 30
0.0
 11
198.860182
 21
214.861484
 31
0.0
  0
LINE
  8
21
  5
2C7E9
 10
282.7215
 20
219.861484
 30
0.0
 11
198.860182
 21
219.861484
 31
0.0
  0
LINE
  8
21
  5
2C7EA
 10
280.08815
 20
234.861484
 30
0.0
 11
198.860182
 21
234.861484
 31
0.0
  0
LINE
  8
21
  5
2C7EB
 10
280.386365
 20
212.861484
 30
0.0
 11
198.860182
 21
212.861484
 31
0.0
  0
LINE
  8
23
  6
DASHDOT
  5
2C7EC
 10
198.860182
 20
210.861484
 30
0.0
 11
198.860182
 21
235.661049
 31
0.0
  0
LINE
  8
24
  5
2C7EF
 10
264.360182
 20
212.861484
 30
0.0
 11
264.360182
 21
231.861484
 31
0.0
  0
LINE
  8
21
  5
2C7F0
 10
282.421602
 20
220.153631
 30
0.0
 11
282.087465
 21
232.913838
 31
0.0
  0
LINE
  8
21
  5
2C7F1
 10
280.377637
 20
212.861484
 30
0.0
 11
280.412547
 21
214.861484
 31
0.0
  0
LINE
  8
21
  5
2C7F2
 10
283.860182
 20
214.861484
 30
0.0
 11
283.742003
 21
219.374573
 31
0.0
  0
LINE
  8
21
  5
2C7F3
 10
283.860182
 20
214.861484
 30
0.0
 11
282.760182
 21
214.861484
 31
0.0
  0
LINE
  8
21
  5
2C7F4
 10
283.242174
 20
219.861484
 30
0.0
 11
282.7215
 21
219.861484
 31
0.0
  0
ARC
  8
21
  5
2C7F5
 10
283.242174
 20
219.361484
 30
0.0
 40
0.5
 50
1.5
 51
90.0
  0
ARC
  8
21
  5
2C7F6
 10
282.7215
 20
220.161484
 30
0.0
 40
0.3
 50
181.5
 51
270.0
  0
LINE
  8
21
  5
2C7F7
 10
282.760182
 20
214.861484
 30
0.0
 11
280.412547
 21
214.861484
 31
0.0
  0
ARC
  8
21
  5
2C7F8
 10
280.08815
 20
232.861484
 30
0.0
 40
2.0
 50
1.5
 51
90.0
  0
LINE
  8
44
  5
2C7F9
 10
64.720364
 20
123.180809
 30
0.0
 11
64.720364
 21
143.680809
 31
0.0
  0
LINE
  8
41
  5
2C7FA
 10
81.720364
 20
107.128444
 30
0.0
 11
81.720364
 21
143.680809
 31
0.0
  0
LINE
  8
41
  5
2C7FB
 10
76.720364
 20
104.819492
 30
0.0
 11
76.720364
 21
143.680809
 31
0.0
  0
LINE
  8
41
  5
2C7FC
 10
61.720364
 20
107.452842
 30
0.0
 11
61.720364
 21
143.680809
 31
0.0
  0
LINE
  8
41
  5
2C7FD
 10
83.720364
 20
107.154627
 30
0.0
 11
83.720364
 21
143.680809
 31
0.0
  0
ARC
  8
41
  5
2C7FE
 10
63.720364
 20
107.452842
 30
0.0
 40
2.0
 50
180.0
 51
268.5
  0
LINE
  8
41
  5
2C7FF
 10
76.428217
 20
105.119389
 30
0.0
 11
63.66801
 21
105.453527
 31
0.0
  0
LINE
  8
41
  5
2C800
 10
81.720364
 20
103.680809
 30
0.0
 11
81.720364
 21
104.780809
 31
0.0
  0
LINE
  8
41
  5
2C801
 10
76.720364
 20
104.298817
 30
0.0
 11
76.720364
 21
104.819492
 31
0.0
  0
LINE
  8
41
  5
2C802
 10
81.720364
 20
103.680809
 30
0.0
 11
77.207276
 21
103.798989
 31
0.0
  0
ARC
  8
41
  5
2C803
 10
77.220364
 20
104.298817
 30
0.0
 40
0.5
 50
180.0
 51
268.5
  0
LINE
  8
41
  5
2C804
 10
83.720364
 20
107.163354
 30
0.0
 11
81.720364
 21
107.128444
 31
0.0
  0
ARC
  8
41
  5
2C805
 10
76.420364
 20
104.819492
 30
0.0
 40
0.3
 50
360.0
 51
88.5
  0
LINE
  8
41
  5
2C806
 10
81.720364
 20
104.780809
 30
0.0
 11
81.720364
 21
107.128444
 31
0.0
  0
LINE
  8
44
  5
2C807
 10
83.720364
 20
123.180809
 30
0.0
 11
64.720364
 21
123.180809
 31
0.0
  0
LINE
  8
41
  5
2C808
 10
83.720364
 20
180.206992
 30
0.0
 11
83.720364
 21
143.680809
 31
0.0
  0
LINE
  8
41
  5
2C809
 10
61.720364
 20
179.908777
 30
0.0
 11
61.720364
 21
143.680809
 31
0.0
  0
LINE
  8
41
  5
2C80A
 10
76.720364
 20
182.542127
 30
0.0
 11
76.720364
 21
143.680809
 31
0.0
  0
LINE
  8
41
  5
2C80B
 10
81.720364
 20
180.233175
 30
0.0
 11
81.720364
 21
143.680809
 31
0.0
  0
LINE
  8
44
  5
2C80C
 10
64.720364
 20
164.180809
 30
0.0
 11
64.720364
 21
143.680809
 31
0.0
  0
LINE
  8
43
  6
DASHDOT
  5
2C80E
 10
85.720364
 20
143.680809
 30
0.0
 11
60.955922
 21
143.680809
 31
0.0
  0
ARC
  8
41
  5
2C810
 10
63.720364
 20
179.908777
 30
0.0
 40
2.0
 50
91.5
 51
180.0
  0
LINE
  8
44
  5
2C811
 10
83.720364
 20
164.180809
 30
0.0
 11
64.720364
 21
164.180809
 31
0.0
  0
LINE
  8
41
  5
2C812
 10
76.428217
 20
182.24223
 30
0.0
 11
63.66801
 21
181.908092
 31
0.0
  0
LINE
  8
41
  5
2C813
 10
81.720364
 20
182.580809
 30
0.0
 11
81.720364
 21
180.233175
 31
0.0
  0
ARC
  8
41
  5
2C814
 10
76.420364
 20
182.542127
 30
0.0
 40
0.3
 50
271.5
 51
0.0
  0
ARC
  8
41
  5
2C815
 10
77.220364
 20
183.062801
 30
0.0
 40
0.5
 50
91.5
 51
180.0
  0
LINE
  8
41
  5
2C816
 10
76.720364
 20
183.062801
 30
0.0
 11
76.720364
 21
182.542127
 31
0.0
  0
LINE
  8
41
  5
2C817
 10
81.720364
 20
183.680809
 30
0.0
 11
81.720364
 21
182.580809
 31
0.0
  0
LINE
  8
41
  5
2C818
 10
81.720364
 20
183.680809
 30
0.0
 11
77.207276
 21
183.56263
 31
0.0
  0
LINE
  8
41
  5
2C819
 10
83.720364
 20
180.198264
 30
0.0
 11
81.720364
 21
180.233175
 31
0.0
  0
LINE
  8
11
  5
2C81A
 10
280.412547
 20
72.500134
 30
0.0
 11
198.860182
 21
72.500134
 31
0.0
  0
LINE
  8
11
  5
2C81B
 10
282.7215
 20
67.500134
 30
0.0
 11
198.860182
 21
67.500134
 31
0.0
  0
LINE
  8
11
  5
2C81C
 10
280.08815
 20
52.500134
 30
0.0
 11
198.860182
 21
52.500134
 31
0.0
  0
LINE
  8
11
  5
2C81D
 10
280.386365
 20
74.500134
 30
0.0
 11
198.860182
 21
74.500134
 31
0.0
  0
LINE
  8
14
  5
2C81E
 10
264.360182
 20
55.500134
 30
0.0
 11
198.860182
 21
55.500134
 31
0.0
  0
ARC
  8
11
  5
2C81F
 10
280.08815
 20
54.500134
 30
0.0
 40
2.0
 50
270.0
 51
358.5
  0
LINE
  8
11
  5
2C820
 10
282.421602
 20
67.207987
 30
0.0
 11
282.087465
 21
54.44778
 31
0.0
  0
LINE
  8
11
  5
2C821
 10
282.760182
 20
72.500134
 30
0.0
 11
280.412547
 21
72.500134
 31
0.0
  0
ARC
  8
11
  5
2C822
 10
282.7215
 20
67.200134
 30
0.0
 40
0.3
 50
90.0
 51
178.5
  0
LINE
  8
11
  5
2C823
 10
283.860182
 20
72.500134
 30
0.0
 11
283.742003
 21
67.987046
 31
0.0
  0
ARC
  8
11
  5
2C824
 10
283.242174
 20
68.000134
 30
0.0
 40
0.5
 50
270.0
 51
358.5
  0
LINE
  8
11
  5
2C825
 10
283.860182
 20
72.500134
 30
0.0
 11
282.760182
 21
72.500134
 31
0.0
  0
LINE
  8
11
  5
2C826
 10
283.242174
 20
67.500134
 30
0.0
 11
282.7215
 21
67.500134
 31
0.0
  0
LINE
  8
11
  5
2C827
 10
280.377637
 20
74.500134
 30
0.0
 11
280.412547
 21
72.500134
 31
0.0
  0
LINE
  8
14
  5
2C828
 10
264.360182
 20
74.500134
 30
0.0
 11
264.360182
 21
55.500134
 31
0.0
  0
LINE
  8
11
  5
2C829
 10
117.334
 20
74.500134
 30
0.0
 11
198.860182
 21
74.500134
 31
0.0
  0
LINE
  8
11
  5
2C82A
 10
117.632214
 20
52.500134
 30
0.0
 11
198.860182
 21
52.500134
 31
0.0
  0
LINE
  8
11
  5
2C82B
 10
114.998865
 20
67.500134
 30
0.0
 11
198.860182
 21
67.500134
 31
0.0
  0
LINE
  8
11
  5
2C82C
 10
117.307817
 20
72.500134
 30
0.0
 11
198.860182
 21
72.500134
 31
0.0
  0
LINE
  8
14
  5
2C82D
 10
133.360182
 20
55.500134
 30
0.0
 11
198.860182
 21
55.500134
 31
0.0
  0
LINE
  8
13
  6
DASHDOT
  5
2C82F
 10
198.860182
 20
76.500134
 30
0.0
 11
198.860182
 21
51.77166
 31
0.0
  0
ARC
  8
11
  5
2C831
 10
117.632214
 20
54.500134
 30
0.0
 40
2.0
 50
181.5
 51
270.0
  0
LINE
  8
14
  5
2C832
 10
133.360182
 20
74.500134
 30
0.0
 11
133.360182
 21
55.500134
 31
0.0
  0
LINE
  8
11
  5
2C833
 10
115.298762
 20
67.207987
 30
0.0
 11
115.6329
 21
54.44778
 31
0.0
  0
LINE
  8
11
  5
2C834
 10
114.47819
 20
67.500134
 30
0.0
 11
114.998865
 21
67.500134
 31
0.0
  0
LINE
  8
11
  5
2C835
 10
113.860182
 20
72.500134
 30
0.0
 11
114.960182
 21
72.500134
 31
0.0
  0
LINE
  8
11
  5
2C836
 10
114.960182
 20
72.500134
 30
0.0
 11
117.307817
 21
72.500134
 31
0.0
  0
ARC
  8
11
  5
2C837
 10
114.998865
 20
67.200134
 30
0.0
 40
0.3
 50
1.5
 51
90.0
  0
LINE
  8
11
  5
2C838
 10
117.342727
 20
74.500134
 30
0.0
 11
117.307817
 21
72.500134
 31
0.0
  0
ARC
  8
11
  5
2C839
 10
114.47819
 20
68.000134
 30
0.0
 40
0.5
 50
181.5
 51
270.0
  0
LINE
  8
11
  5
2C83A
 10
113.860182
 20
72.500134
 30
0.0
 11
113.978361
 21
67.987046
 31
0.0
  0
TEXT
  8
L20
  5
2C83B
 10
-109.0
 20
217.0
 30
0.0
 40
7.0
  1
FIBOX PICCOLO D 170x80x20 COVER
  0
ENDBLK
  8
0
  5
2CA8A
  0
ENDSEC
  0
SECTION
  2
ENTITIES
  0
VIEWPORT
  8
0
  5
1
 67
     1
 68
     1
 10
210.0
 20
152.094241
 30
0.0
 40
420.0
 41
304.188482
 69
     1
1001
ACAD
1000
MVIEW
1002
{
1070
    16
1010
0.0
1020
0.0
1030
0.0
1010
0.0
1020
0.0
1030
1.0
1040
0.0
1040
304.188482
1040
210.0
1040
152.094241
1040
50.0
1040
0.0
1040
0.0
1070
     0
1070
   100
1070
     1
1070
     1
1070
     1
1070
     0
1070
     0
1070
     0
1040
0.0
1040
0.0
1040
0.0
1040
1.0
1040
1.0
1040
0.0
1040
0.0
1070
     0
1002
{
1002
}
1002
}
  0
INSERT
  8
L1
  5
2CA8B
  2
PICD20C
 10
0.0
 20
0.0
 30
0.0
  0
ENDSEC
  0
EOF
