  0
SECTION
  2
HEADER
  9
$ACADVER
  1
AC1009
  9
$INSBASE
 10
0.0
 20
0.0
 30
0.0
  9
$EXTMIN
 10
-105.903303
 20
37.772815
 30
0.0
  9
$EXTMAX
 10
294.323877
 20
252.099896
 30
0.0
  9
$LIMMIN
 10
0.0
 20
0.0
  9
$LIMMAX
 10
420.0
 20
297.0
  9
$ORTHOMODE
 70
     0
  9
$REGENMODE
 70
     1
  9
$FILLMODE
 70
     1
  9
$QTEXTMODE
 70
     0
  9
$MIRRTEXT
 70
     1
  9
$DRAGMODE
 70
     2
  9
$LTSCALE
 40
7.0
  9
$OSMODE
 70
     0
  9
$ATTMODE
 70
     1
  9
$TEXTSIZE
 40
3.5
  9
$TRACEWID
 40
0.05
  9
$TEXTSTYLE
  7
STANDARD
  9
$CLAYER
  8
L1
  9
$CELTYPE
  6
BYLAYER
  9
$CECOLOR
 62
   256
  9
$DIMSCALE
 40
1.0
  9
$DIMASZ
 40
3.5
  9
$DIMEXO
 40
0.0
  9
$DIMDLI
 40
10.0
  9
$DIMRND
 40
0.0
  9
$DIMDLE
 40
0.0
  9
$DIMEXE
 40
2.0
  9
$DIMTP
 40
0.0
  9
$DIMTM
 40
0.0
  9
$DIMTXT
 40
3.5
  9
$DIMCEN
 40
2.5
  9
$DIMTSZ
 40
0.0
  9
$DIMTOL
 70
     0
  9
$DIMLIM
 70
     0
  9
$DIMTIH
 70
     0
  9
$DIMTOH
 70
     0
  9
$DIMSE1
 70
     0
  9
$DIMSE2
 70
     0
  9
$DIMTAD
 70
     1
  9
$DIMZIN
 70
     8
  9
$DIMBLK
  1

  9
$DIMASO
 70
     1
  9
$DIMSHO
 70
     1
  9
$DIMPOST
  1

  9
$DIMAPOST
  1

  9
$DIMALT
 70
     0
  9
$DIMALTD
 70
     2
  9
$DIMALTF
 40
25.4
  9
$DIMLFAC
 40
1.0
  9
$DIMTOFL
 70
     1
  9
$DIMTVP
 40
0.0
  9
$DIMTIX
 70
     0
  9
$DIMSOXD
 70
     0
  9
$DIMSAH
 70
     0
  9
$DIMBLK1
  1

  9
$DIMBLK2
  1

  9
$DIMSTYLE
  2
*UNNAMED
  9
$DIMCLRD
 70
   256
  9
$DIMCLRE
 70
   256
  9
$DIMCLRT
 70
     3
  9
$DIMTFAC
 40
1.0
  9
$DIMGAP
 40
2.0
  9
$LUNITS
 70
     2
  9
$LUPREC
 70
     2
  9
$SKETCHINC
 40
1.0
  9
$FILLETRAD
 40
0.0
  9
$AUNITS
 70
     0
  9
$AUPREC
 70
     2
  9
$MENU
  1
CAESAR
  9
$ELEVATION
 40
0.0
  9
$PELEVATION
 40
0.0
  9
$THICKNESS
 40
0.0
  9
$LIMCHECK
 70
     0
  9
$BLIPMODE
 70
     1
  9
$CHAMFERA
 40
5.0
  9
$CHAMFERB
 40
5.0
  9
$SKPOLY
 70
     0
  9
$TDCREATE
 40
2449682.498213541
  9
$TDUPDATE
 40
2449682.498213541
  9
$TDINDWG
 40
0.0000000000
  9
$TDUSRTIMER
 40
0.0000000000
  9
$USRTIMER
 70
     1
  9
$ANGBASE
 50
0.0
  9
$ANGDIR
 70
     0
  9
$PDMODE
 70
     0
  9
$PDSIZE
 40
0.0
  9
$PLINEWID
 40
0.0
  9
$COORDS
 70
     2
  9
$SPLFRAME
 70
     0
  9
$SPLINETYPE
 70
     6
  9
$SPLINESEGS
 70
     8
  9
$ATTDIA
 70
     0
  9
$ATTREQ
 70
     1
  9
$HANDLING
 70
     1
  9
$HANDSEED
  5
2EFAD
  9
$SURFTAB1
 70
     6
  9
$SURFTAB2
 70
     6
  9
$SURFTYPE
 70
     6
  9
$SURFU
 70
     6
  9
$SURFV
 70
     6
  9
$UCSNAME
  2

  9
$UCSORG
 10
0.0
 20
0.0
 30
0.0
  9
$UCSXDIR
 10
1.0
 20
0.0
 30
0.0
  9
$UCSYDIR
 10
0.0
 20
1.0
 30
0.0
  9
$PUCSNAME
  2

  9
$PUCSORG
 10
0.0
 20
0.0
 30
0.0
  9
$PUCSXDIR
 10
1.0
 20
0.0
 30
0.0
  9
$PUCSYDIR
 10
0.0
 20
1.0
 30
0.0
  9
$USERI1
 70
     0
  9
$USERI2
 70
     0
  9
$USERI3
 70
     0
  9
$USERI4
 70
     0
  9
$USERI5
 70
     0
  9
$USERR1
 40
1.0
  9
$USERR2
 40
0.0
  9
$USERR3
 40
3.5
  9
$USERR4
 40
0.0
  9
$USERR5
 40
0.0
  9
$WORLDVIEW
 70
     1
  9
$SHADEDGE
 70
     3
  9
$SHADEDIF
 70
    70
  9
$TILEMODE
 70
     1
  9
$MAXACTVP
 70
    16
  9
$PINSBASE
 10
0.0
 20
0.0
 30
0.0
  9
$PLIMCHECK
 70
     0
  9
$PEXTMIN
 10
1.000000E+20
 20
1.000000E+20
 30
1.000000E+20
  9
$PEXTMAX
 10
-1.000000E+20
 20
-1.000000E+20
 30
-1.000000E+20
  9
$PLIMMIN
 10
0.0
 20
0.0
  9
$PLIMMAX
 10
420.0
 20
297.0
  9
$UNITMODE
 70
     0
  9
$VISRETAIN
 70
     0
  9
$PLINEGEN
 70
     0
  9
$PSLTSCALE
 70
     0
  9
$TREEDEPTH
 70
  3020
  9
$DWGCODEPAGE
  3
dos850
  0
ENDSEC
  0
SECTION
  2
TABLES
  0
TABLE
  2
VPORT
 70
     2
  0
VPORT
  2
*ACTIVE
 70
     0
 10
0.0
 20
0.0
 11
1.0
 21
1.0
 12
287.564723
 22
225.231556
 13
0.0
 23
0.0
 14
1.0
 24
1.0
 15
10.0
 25
10.0
 16
0.0
 26
0.0
 36
1.0
 17
0.0
 27
0.0
 37
0.0
 40
456.463112
 41
1.273114
 42
50.0
 43
0.0
 44
0.0
 50
0.0
 51
0.0
 71
     0
 72
  1000
 73
     1
 74
     1
 75
     1
 76
     0
 77
     0
 78
     0
  0
ENDTAB
  0
TABLE
  2
LTYPE
 70
    10
  0
LTYPE
  2
CONTINUOUS
 70
    64
  3
Solid line
 72
    65
 73
     0
 40
0.0
  0
LTYPE
  2
BORDER
 70
     0
  3
__ __ . __ __ . __ __ . __ __ . __ __ . __ __ .
 72
    65
 73
     6
 40
1.75
 49
0.5
 49
-0.25
 49
0.5
 49
-0.25
 49
0.0
 49
-0.25
  0
LTYPE
  2
CENTER
 70
    64
  3
____ _ ____ _ ____ _ ____ _ ____ _ ____ _ ____ 
 72
    65
 73
     4
 40
2.0
 49
1.25
 49
-0.25
 49
0.25
 49
-0.25
  0
LTYPE
  2
DASHDOT
 70
     0
  3
__ . __ . __ . __ . __ . __ . __ . __ . __ . __
 72
    65
 73
     4
 40
1.0
 49
0.5
 49
-0.25
 49
0.0
 49
-0.25
  0
LTYPE
  2
DASHED
 70
    64
  3
__ __ __ __ __ __ __ __ __ __ __ __ __ __ __ __
 72
    65
 73
     2
 40
0.75
 49
0.5
 49
-0.25
  0
LTYPE
  2
DIVIDE
 70
     0
  3
____ . . ____ . . ____ . . ____ . . ____ . . __
 72
    65
 73
     6
 40
1.25
 49
0.5
 49
-0.25
 49
0.0
 49
-0.25
 49
0.0
 49
-0.25
  0
LTYPE
  2
DOT
 70
     0
  3
. . . . . . . . . . . . . . . . . . . . . . . .
 72
    65
 73
     2
 40
0.25
 49
0.0
 49
-0.25
  0
LTYPE
  2
HIDDEN
 70
    64
  3
__ __ __ __ __ __ __ __ __ __ __ __ __ __ __ __
 72
    65
 73
     2
 40
0.375
 49
0.25
 49
-0.125
  0
LTYPE
  2
PHANTOM
 70
    64
  3
______  __  __  ______  __  __  ______  __  __ 
 72
    65
 73
     6
 40
2.5
 49
1.25
 49
-0.25
 49
0.25
 49
-0.25
 49
0.25
 49
-0.25
  0
LTYPE
  2
DOTX2
 70
    64
  3
.  .  .  .  .  .  .  .  .  .  .  .  .  .  .  . 
 72
    65
 73
     2
 40
0.5
 49
0.0
 49
-0.5
  0
ENDTAB
  0
TABLE
  2
LAYER
 70
    74
  0
LAYER
  2
0
 70
    64
 62
     7
  6
CONTINUOUS
  0
LAYER
  2
L1
 70
     0
 62
     3
  6
CONTINUOUS
  0
LAYER
  2
L2
 70
     0
 62
     1
  6
CONTINUOUS
  0
LAYER
  2
L3
 70
     0
 62
     7
  6
DASHED
  0
LAYER
  2
L4
 70
     0
 62
     1
  6
DASHED
  0
LAYER
  2
L5
 70
     0
 62
     6
  6
CENTER
  0
LAYER
  2
L6
 70
     0
 62
     1
  6
CENTER
  0
LAYER
  2
L7
 70
     0
 62
     1
  6
PHANTOM
  0
LAYER
  2
VPORT
 70
     0
 62
     7
  6
CONTINUOUS
  0
LAYER
  2
L8
 70
     0
 62
     1
  6
CONTINUOUS
  0
LAYER
  2
L20
 70
     0
 62
     3
  6
CONTINUOUS
  0
LAYER
  2
L21
 70
     0
 62
     1
  6
CONTINUOUS
  0
LAYER
  2
L22
 70
     0
 62
     1
  6
CONTINUOUS
  0
LAYER
  2
L23
 70
     0
 62
     1
  6
CONTINUOUS
  0
LAYER
  2
L30
 70
     0
 62
     3
  6
CONTINUOUS
  0
LAYER
  2
L31
 70
     0
 62
     1
  6
CONTINUOUS
  0
LAYER
  2
L32
 70
     0
 62
     3
  6
CONTINUOUS
  0
LAYER
  2
L33
 70
     0
 62
     1
  6
CONTINUOUS
  0
LAYER
  2
L34
 70
     0
 62
     3
  6
CONTINUOUS
  0
LAYER
  2
L35
 70
     0
 62
     1
  6
CONTINUOUS
  0
LAYER
  2
L40
 70
     0
 62
     7
  6
CONTINUOUS
  0
LAYER
  2
L41
 70
     0
 62
     1
  6
CONTINUOUS
  0
LAYER
  2
L42
 70
     0
 62
     1
  6
CONTINUOUS
  0
LAYER
  2
L43
 70
     0
 62
     7
  6
CONTINUOUS
  0
LAYER
  2
L44
 70
     0
 62
     1
  6
CONTINUOUS
  0
LAYER
  2
L45
 70
     0
 62
     1
  6
CONTINUOUS
  0
LAYER
  2
L46
 70
     0
 62
     3
  6
CONTINUOUS
  0
LAYER
  2
L50
 70
     0
 62
     7
  6
CONTINUOUS
  0
LAYER
  2
L51
 70
     0
 62
     1
  6
CONTINUOUS
  0
LAYER
  2
L52
 70
     0
 62
     7
  6
CONTINUOUS
  0
LAYER
  2
L53
 70
     0
 62
     1
  6
CONTINUOUS
  0
LAYER
  2
L54
 70
     0
 62
     3
  6
CONTINUOUS
  0
LAYER
  2
L55
 70
     0
 62
     3
  6
CONTINUOUS
  0
LAYER
  2
L56
 70
     0
 62
     3
  6
CONTINUOUS
  0
LAYER
  2
L57
 70
     0
 62
     1
  6
CONTINUOUS
  0
LAYER
  2
L9
 70
     0
 62
     7
  6
HIDDEN
  0
LAYER
  2
L15
 70
     0
 62
     2
  6
CONTINUOUS
  0
LAYER
  2
L16
 70
     0
 62
     5
  6
DOTX2
  0
LAYER
  2
L24
 70
     0
 62
     1
  6
CONTINUOUS
  0
LAYER
  2
A1
 70
     0
 62
     7
  6
CONTINUOUS
  0
LAYER
  2
RA1
 70
     0
 62
     1
  6
CONTINUOUS
  0
LAYER
  2
TITEL
 70
     0
 62
     7
  6
CONTINUOUS
  0
LAYER
  2
DEFPOINTS
 70
     0
 62
     7
  6
CONTINUOUS
  0
LAYER
  2
1
 70
     0
 62
     7
  6
CONTINUOUS
  0
LAYER
  2
11
 70
    64
 62
     7
  6
CONTINUOUS
  0
LAYER
  2
12
 70
     0
 62
     1
  6
CONTINUOUS
  0
LAYER
  2
13
 70
    64
 62
     1
  6
CENTER
  0
LAYER
  2
14
 70
    64
 62
     1
  6
DASHED
  0
LAYER
  2
15
 70
     0
 62
     2
  6
DASHED
  0
LAYER
  2
21
 70
    64
 62
     7
  6
CONTINUOUS
  0
LAYER
  2
22
 70
     0
 62
     1
  6
CONTINUOUS
  0
LAYER
  2
23
 70
    64
 62
     1
  6
CENTER
  0
LAYER
  2
24
 70
    64
 62
     1
  6
DASHED
  0
LAYER
  2
25
 70
     0
 62
     2
  6
DASHED
  0
LAYER
  2
31
 70
    64
 62
     7
  6
CONTINUOUS
  0
LAYER
  2
32
 70
     0
 62
     1
  6
CONTINUOUS
  0
LAYER
  2
33
 70
    64
 62
     1
  6
CENTER
  0
LAYER
  2
34
 70
    64
 62
     1
  6
DASHED
  0
LAYER
  2
35
 70
     0
 62
     2
  6
DASHED
  0
LAYER
  2
41
 70
    64
 62
     7
  6
CONTINUOUS
  0
LAYER
  2
42
 70
     0
 62
     1
  6
CONTINUOUS
  0
LAYER
  2
43
 70
    64
 62
     1
  6
CENTER
  0
LAYER
  2
44
 70
    64
 62
     1
  6
DASHED
  0
LAYER
  2
45
 70
     0
 62
     2
  6
DASHED
  0
LAYER
  2
51
 70
    64
 62
     7
  6
CONTINUOUS
  0
LAYER
  2
52
 70
    64
 62
     1
  6
CONTINUOUS
  0
LAYER
  2
53
 70
    64
 62
     1
  6
CENTER
  0
LAYER
  2
54
 70
     0
 62
     1
  6
DASHED
  0
LAYER
  2
55
 70
     0
 62
     2
  6
DASHED
  0
LAYER
  2
61
 70
    64
 62
     7
  6
CONTINUOUS
  0
LAYER
  2
62
 70
     0
 62
     1
  6
CONTINUOUS
  0
LAYER
  2
63
 70
    64
 62
     1
  6
CENTER
  0
LAYER
  2
64
 70
     0
 62
     1
  6
DASHED
  0
LAYER
  2
65
 70
     0
 62
     2
  6
DASHED
  0
ENDTAB
  0
TABLE
  2
STYLE
 70
     4
  0
STYLE
  2
STANDARD
 70
     0
 40
0.0
 41
1.0
 50
0.0
 71
     0
 42
3.5
  3
CAEISO
  4

  0
STYLE
  2
SIMPLEX
 70
    64
 40
0.0
 41
1.0
 50
0.0
 71
     0
 42
20.0
  3
SIMPLEX.SHX
  4

  0
STYLE
  2
COMPLEX
 70
    64
 40
5.0
 41
1.0
 50
0.0
 71
     0
 42
5.0
  3
COMPLEX
  4

  0
STYLE
  2
CAEISO
 70
     0
 40
0.0
 41
1.0
 50
0.0
 71
     0
 42
1.0
  3
CAEISO
  4

  0
ENDTAB
  0
TABLE
  2
VIEW
 70
     0
  0
ENDTAB
  0
TABLE
  2
UCS
 70
     0
  0
ENDTAB
  0
TABLE
  2
APPID
 70
     1
  0
APPID
  2
ACAD
 70
    64
  0
ENDTAB
  0
TABLE
  2
DIMSTYLE
 70
     6
  0
DIMSTYLE
  2
ACADUS
 70
     0
  3

  4

  5

  6

  7

 40
1.0
 41
0.18
 42
0.0625
 43
0.38
 44
0.18
 45
0.0
 46
0.0
 47
0.0
 48
0.0
140
0.18
141
0.09
142
0.0
143
25.4
144
1.0
145
0.0
146
1.0
147
0.09
 71
     0
 72
     0
 73
     1
 74
     1
 75
     0
 76
     0
 77
     0
 78
     0
170
     0
171
     2
172
     0
173
     0
174
     0
175
     0
176
     0
177
     0
178
     0
  0
DIMSTYLE
  2
NORDIC
 70
     0
  3

  4

  5

  6

  7

 40
1.0
 41
3.5
 42
1.0
 43
10.0
 44
2.0
 45
0.0
 46
0.0
 47
0.0
 48
0.0
140
3.5
141
2.5
142
0.0
143
25.4
144
1.0
145
0.0
146
1.0
147
2.0
 71
     0
 72
     0
 73
     0
 74
     0
 75
     0
 76
     0
 77
     1
 78
     8
170
     0
171
     2
172
     1
173
     0
174
     0
175
     0
176
     0
177
     0
178
     0
  0
DIMSTYLE
  2
RADIAL
 70
     0
  3

  4

  5

  6

  7

 40
1.0
 41
3.5
 42
1.0
 43
10.0
 44
2.0
 45
0.0
 46
0.0
 47
0.0
 48
0.0
140
3.5
141
2.5
142
0.0
143
25.4
144
1.0
145
0.0
146
1.0
147
2.0
 71
     0
 72
     0
 73
     0
 74
     1
 75
     0
 76
     0
 77
     1
 78
     8
170
     0
171
     2
172
     0
173
     0
174
     0
175
     0
176
     0
177
     0
178
     0
  0
DIMSTYLE
  2
NORTOL
 70
     0
  3

  4

  5

  6

  7

 40
1.0
 41
3.5
 42
1.0
 43
10.0
 44
2.0
 45
0.0
 46
0.0
 47
0.2
 48
0.1
140
3.5
141
2.5
142
0.0
143
25.4
144
1.0
145
0.7
146
0.71
147
2.0
 71
     1
 72
     0
 73
     0
 74
     0
 75
     0
 76
     0
 77
     0
 78
     8
170
     0
171
     2
172
     1
173
     0
174
     0
175
     0
176
     0
177
     0
178
     0
  0
DIMSTYLE
  2
RADTOL
 70
     0
  3

  4

  5

  6

  7

 40
1.0
 41
3.5
 42
1.0
 43
10.0
 44
2.0
 45
0.0
 46
0.0
 47
0.2
 48
0.1
140
3.5
141
2.5
142
0.0
143
25.4
144
1.0
145
0.7
146
0.7
147
2.0
 71
     1
 72
     0
 73
     0
 74
     1
 75
     0
 76
     0
 77
     0
 78
     8
170
     0
171
     2
172
     0
173
     0
174
     0
175
     0
176
     0
177
     0
178
     0
  0
DIMSTYLE
  2
HANSU
 70
     0
  3

  4

  5

  6

  7

 40
1.0
 41
3.5
 42
0.0
 43
10.0
 44
2.0
 45
0.0
 46
0.0
 47
0.0
 48
0.0
140
3.5
141
2.5
142
0.0
143
25.4
144
0.8
145
0.0
146
1.0
147
2.0
 71
     0
 72
     0
 73
     0
 74
     0
 75
     0
 76
     0
 77
     1
 78
     8
170
     0
171
     2
172
     1
173
     0
174
     0
175
     0
176
   256
177
   256
178
     3
  0
ENDTAB
  0
ENDSEC
  0
SECTION
  2
BLOCKS
  0
BLOCK
  8
0
  5
2329
  2
AME_NIL
 70
     0
 10
0.0
 20
0.0
 30
0.0
  1
AME_NIL
  3
AME_NIL
  0
ENDBLK
  8
0
  5
232A
  0
BLOCK
  8
0
  5
232C
  2
AME_SOL
 70
     0
 10
0.0
 20
0.0
 30
0.0
  1
AME_SOL
  3
AME_SOL
  0
ENDBLK
  8
0
  5
232D
  0
BLOCK
  8
0
  5
233F
  2
SOLAXES
 70
     0
 10
0.0
 20
0.0
 30
0.0
  1
SOLAXES
  3
SOLAXES
  0
LINE
  8
0
 62
     0
  5
2340
 10
0.0
 20
0.0
 30
0.0
 11
63.851158
 21
0.0
 31
0.0
  0
LINE
  8
0
 62
     0
  5
2341
 10
0.0
 20
0.0
 30
0.0
 11
0.0
 21
63.851158
 31
0.0
  0
LINE
  8
0
 62
     0
  5
2342
 10
0.0
 20
0.0
 30
0.0
 11
0.0
 21
0.0
 31
63.851158
  0
CIRCLE
  8
0
 62
     0
  5
2343
 10
0.0
 20
0.0
 30
57.466042
 40
3.192558
210
1.0
220
0.0
230
0.0
  0
LINE
  8
0
 62
     0
  5
2344
 10
57.466042
 20
3.192558
 30
0.0
 11
63.851158
 21
0.0
 31
0.0
  0
LINE
  8
0
 62
     0
  5
2345
 10
57.466042
 20
0.0
 30
3.192558
 11
63.851158
 21
0.0
 31
0.0
  0
LINE
  8
0
 62
     0
  5
2346
 10
57.466042
 20
-3.192558
 30
0.0
 11
63.851158
 21
0.0
 31
0.0
  0
LINE
  8
0
 62
     0
  5
2347
 10
57.466042
 20
0.0
 30
-3.192558
 11
63.851158
 21
0.0
 31
0.0
  0
CIRCLE
  8
0
 62
     0
  5
2348
 10
0.0
 20
0.0
 30
57.466042
 40
3.192558
210
0.0
220
1.0
230
0.0
  0
LINE
  8
0
 62
     0
  5
2349
 10
3.192558
 20
57.466042
 30
0.0
 11
0.0
 21
63.851158
 31
0.0
  0
LINE
  8
0
 62
     0
  5
234A
 10
0.0
 20
57.466042
 30
3.192558
 11
0.0
 21
63.851158
 31
0.0
  0
LINE
  8
0
 62
     0
  5
234B
 10
-3.192558
 20
57.466042
 30
0.0
 11
0.0
 21
63.851158
 31
0.0
  0
LINE
  8
0
 62
     0
  5
234C
 10
0.0
 20
57.466042
 30
-3.192558
 11
0.0
 21
63.851158
 31
0.0
  0
CIRCLE
  8
0
 62
     0
  5
234D
 10
0.0
 20
0.0
 30
51.080927
 40
3.192558
210
0.0
220
1.0
230
0.0
  0
LINE
  8
0
 62
     0
  5
234E
 10
3.192558
 20
51.080927
 30
0.0
 11
0.0
 21
57.466042
 31
0.0
  0
LINE
  8
0
 62
     0
  5
234F
 10
0.0
 20
51.080927
 30
3.192558
 11
0.0
 21
57.466042
 31
0.0
  0
LINE
  8
0
 62
     0
  5
2350
 10
-3.192558
 20
51.080927
 30
0.0
 11
0.0
 21
57.466042
 31
0.0
  0
LINE
  8
0
 62
     0
  5
2351
 10
0.0
 20
51.080927
 30
-3.192558
 11
0.0
 21
57.466042
 31
0.0
  0
CIRCLE
  8
0
 62
     0
  5
2352
 10
0.0
 20
0.0
 30
57.466042
 40
3.192558
  0
LINE
  8
0
 62
     0
  5
2353
 10
3.192558
 20
0.0
 30
57.466042
 11
0.0
 21
0.0
 31
63.851158
  0
LINE
  8
0
 62
     0
  5
2354
 10
0.0
 20
3.192558
 30
57.466042
 11
0.0
 21
0.0
 31
63.851158
  0
LINE
  8
0
 62
     0
  5
2355
 10
-3.192558
 20
0.0
 30
57.466042
 11
0.0
 21
0.0
 31
63.851158
  0
LINE
  8
0
 62
     0
  5
2356
 10
0.0
 20
-3.192558
 30
57.466042
 11
0.0
 21
0.0
 31
63.851158
  0
CIRCLE
  8
0
 62
     0
  5
2357
 10
0.0
 20
0.0
 30
51.080927
 40
3.192558
  0
LINE
  8
0
 62
     0
  5
2358
 10
3.192558
 20
0.0
 30
51.080927
 11
0.0
 21
0.0
 31
57.466042
  0
LINE
  8
0
 62
     0
  5
2359
 10
0.0
 20
3.192558
 30
51.080927
 11
0.0
 21
0.0
 31
57.466042
  0
LINE
  8
0
 62
     0
  5
235A
 10
-3.192558
 20
0.0
 30
51.080927
 11
0.0
 21
0.0
 31
57.466042
  0
LINE
  8
0
 62
     0
  5
235B
 10
0.0
 20
-3.192558
 30
51.080927
 11
0.0
 21
0.0
 31
57.466042
  0
CIRCLE
  8
0
 62
     0
  5
235C
 10
0.0
 20
0.0
 30
44.695811
 40
3.192558
  0
LINE
  8
0
 62
     0
  5
235D
 10
3.192558
 20
0.0
 30
44.695811
 11
0.0
 21
0.0
 31
51.080927
  0
LINE
  8
0
 62
     0
  5
235E
 10
0.0
 20
3.192558
 30
44.695811
 11
0.0
 21
0.0
 31
51.080927
  0
LINE
  8
0
 62
     0
  5
235F
 10
-3.192558
 20
0.0
 30
44.695811
 11
0.0
 21
0.0
 31
51.080927
  0
LINE
  8
0
 62
     0
  5
2360
 10
0.0
 20
-3.192558
 30
44.695811
 11
0.0
 21
0.0
 31
51.080927
  0
ENDBLK
  8
0
  5
2361
  0
BLOCK
  8
0
  5
2460
  2
AME_MAT
 70
     0
 10
0.0
 20
0.0
 30
0.0
  1
AME_MAT
  3
AME_MAT
  0
ENDBLK
  8
0
  5
2461
  0
BLOCK
  8
0
  5
2465
  2
PICB40C
 70
    64
 10
0.0
 20
0.0
 30
0.0
  3
PICB40C
  0
LINE
  8
53
  6
DASHDOT
  5
4C36
 10
-47.903303
 20
99.680809
 30
0.0
 11
-47.903303
 21
143.680809
 31
0.0
  0
LINE
  8
53
  6
DASHDOT
  5
4C37
 10
-47.903303
 20
143.680809
 30
0.0
 11
10.096697
 21
143.680809
 31
0.0
  0
LINE
  8
53
  6
DASHDOT
  5
4C5E
 10
-47.903303
 20
143.680809
 30
0.0
 11
-105.903303
 21
143.680809
 31
0.0
  0
LINE
  8
53
  6
DASHDOT
  5
4C67
 10
-47.903303
 20
187.680809
 30
0.0
 11
-47.903303
 21
143.680809
 31
0.0
  0
LINE
  8
61
  5
4E14
 10
113.860182
 20
112.680809
 30
0.0
 11
113.860182
 21
143.680809
 31
0.0
  0
LINE
  8
63
  6
DASHDOT
  5
4E15
 10
168.860182
 20
99.680809
 30
0.0
 11
168.860182
 21
143.680809
 31
0.0
  0
LINE
  8
61
  5
4E16
 10
122.860182
 20
103.680809
 30
0.0
 11
168.860182
 21
103.680809
 31
0.0
  0
LINE
  8
61
  5
4E17
 10
127.493363
 20
117.330809
 30
0.0
 11
120.227002
 21
117.330809
 31
0.0
  0
LINE
  8
61
  5
4E19
 10
127.493363
 20
110.030809
 30
0.0
 11
120.227002
 21
110.030809
 31
0.0
  0
ARC
  8
61
  5
4E44
 10
123.860182
 20
113.680809
 30
0.0
 40
5.15
 50
314.867683
 51
45.132317
  0
ARC
  8
61
  5
4E4F
 10
123.860182
 20
113.680809
 30
0.0
 40
5.15
 50
134.867683
 51
225.132317
  0
ARC
  8
61
  5
4E50
 10
122.860182
 20
112.680809
 30
0.0
 40
9.0
 50
180.0
 51
270.0
  0
LINE
  8
63
  6
DASHDOT
  5
4E63
 10
168.860182
 20
143.680809
 30
0.0
 11
110.860182
 21
143.680809
 31
0.0
  0
CIRCLE
  8
61
  5
51F0
 10
123.860182
 20
113.680809
 30
0.0
 40
5.5
  0
LINE
  8
33
  6
DASHDOT
  5
251BE
 10
248.596697
 20
143.680809
 30
0.0
 11
294.323877
 21
143.680809
 31
0.0
  0
LINE
  8
34
  5
251C0
 10
289.596697
 20
164.380809
 30
0.0
 11
289.596697
 21
143.680809
 31
0.0
  0
ARC
  8
31
  5
251C2
 10
290.596697
 20
107.452842
 30
0.0
 40
2.0
 50
271.5
 51
0.0
  0
LINE
  8
31
  5
251C4
 10
252.596697
 20
104.780809
 30
0.0
 11
252.596697
 21
107.128444
 31
0.0
  0
LINE
  8
31
  5
251C5
 10
257.888844
 20
105.119389
 30
0.0
 11
290.649051
 21
105.453527
 31
0.0
  0
ARC
  8
31
  5
251C6
 10
257.896697
 20
104.819492
 30
0.0
 40
0.3
 50
91.5
 51
180.0
  0
ARC
  8
31
  5
251C7
 10
257.096697
 20
104.298817
 30
0.0
 40
0.5
 50
271.5
 51
0.0
  0
LINE
  8
31
  5
251C8
 10
257.596697
 20
104.298817
 30
0.0
 11
257.596697
 21
104.819492
 31
0.0
  0
LINE
  8
31
  5
251C9
 10
252.596697
 20
103.680809
 30
0.0
 11
252.596697
 21
104.780809
 31
0.0
  0
LINE
  8
31
  5
251CB
 10
252.596697
 20
103.680809
 30
0.0
 11
257.109786
 21
103.798989
 31
0.0
  0
LINE
  8
31
  5
251CC
 10
250.596697
 20
107.154627
 30
0.0
 11
250.596697
 21
143.680809
 31
0.0
  0
LINE
  8
31
  5
251D0
 10
250.596697
 20
107.163354
 30
0.0
 11
252.596697
 21
107.128444
 31
0.0
  0
LINE
  8
31
  5
251D2
 10
292.596697
 20
107.452842
 30
0.0
 11
292.596697
 21
143.680809
 31
0.0
  0
LINE
  8
31
  5
251D3
 10
257.596697
 20
104.819492
 30
0.0
 11
257.596697
 21
143.680809
 31
0.0
  0
LINE
  8
31
  5
251D4
 10
252.596697
 20
107.128444
 30
0.0
 11
252.596697
 21
143.680809
 31
0.0
  0
LINE
  8
21
  5
25917
 10
117.632214
 20
247.861484
 30
0.0
 11
168.860182
 21
247.861484
 31
0.0
  0
LINE
  8
21
  5
25919
 10
118.360182
 20
205.861484
 30
0.0
 11
168.860182
 21
205.861484
 31
0.0
  0
LINE
  8
24
  5
2591A
 10
133.360182
 20
244.861484
 30
0.0
 11
168.860182
 21
244.861484
 31
0.0
  0
ARC
  8
21
  5
2591C
 10
117.632214
 20
245.861484
 30
0.0
 40
2.0
 50
90.0
 51
178.5
  0
LINE
  8
21
  5
25927
 10
115.298762
 20
213.153631
 30
0.0
 11
115.6329
 21
245.913838
 31
0.0
  0
LINE
  8
21
  5
2592A
 10
117.334
 20
205.861484
 30
0.0
 11
117.30303
 21
207.861484
 31
0.0
  0
ARC
  8
21
  5
2592B
 10
114.998865
 20
213.161484
 30
0.0
 40
0.3
 50
270.0
 51
358.5
  0
ARC
  8
21
  5
2592C
 10
114.47819
 20
212.361484
 30
0.0
 40
0.5
 50
90.0
 51
178.5
  0
LINE
  8
21
  5
2592D
 10
114.47819
 20
212.861484
 30
0.0
 11
168.860182
 21
212.861484
 31
0.0
  0
LINE
  8
21
  5
2592E
 10
113.860182
 20
207.861484
 30
0.0
 11
114.960182
 21
207.861484
 31
0.0
  0
LINE
  8
21
  5
25930
 10
113.860182
 20
207.861484
 30
0.0
 11
113.978361
 21
212.374573
 31
0.0
  0
LINE
  8
21
  5
25932
 10
114.960182
 20
207.861484
 30
0.0
 11
168.860182
 21
207.861484
 31
0.0
  0
ARC
  8
21
  5
2593A
 10
220.08815
 20
245.861484
 30
0.0
 40
2.0
 50
1.5
 51
90.0
  0
LINE
  8
21
  5
25941
 10
220.386365
 20
205.861484
 30
0.0
 11
168.860182
 21
205.861484
 31
0.0
  0
LINE
  8
23
  6
DASHDOT
  5
25942
 10
168.860182
 20
203.861484
 30
0.0
 11
168.860182
 21
252.099896
 31
0.0
  0
LINE
  8
21
  5
2594B
 10
222.421602
 20
213.153631
 30
0.0
 11
222.087465
 21
245.913838
 31
0.0
  0
LINE
  8
21
  5
2594C
 10
220.386365
 20
205.861484
 30
0.0
 11
220.412547
 21
207.861484
 31
0.0
  0
LINE
  8
21
  5
2594D
 10
223.860182
 20
207.861484
 30
0.0
 11
223.742003
 21
212.374573
 31
0.0
  0
LINE
  8
21
  5
2594E
 10
223.860182
 20
207.861484
 30
0.0
 11
222.760182
 21
207.861484
 31
0.0
  0
LINE
  8
21
  5
2594F
 10
223.242174
 20
212.861484
 30
0.0
 11
168.860182
 21
212.861484
 31
0.0
  0
ARC
  8
21
  5
25950
 10
223.242174
 20
212.361484
 30
0.0
 40
0.5
 50
1.5
 51
90.0
  0
ARC
  8
21
  5
25951
 10
222.7215
 20
213.161484
 30
0.0
 40
0.3
 50
181.5
 51
270.0
  0
LINE
  8
21
  5
25952
 10
222.760182
 20
207.861484
 30
0.0
 11
220.412547
 21
207.861484
 31
0.0
  0
LINE
  8
21
  5
25955
 10
220.08815
 20
247.861484
 30
0.0
 11
168.860182
 21
247.861484
 31
0.0
  0
LINE
  8
21
  5
259A5
 10
220.386365
 20
205.861484
 30
0.0
 11
220.417334
 21
207.861484
 31
0.0
  0
LINE
  8
21
  5
259A9
 10
222.760182
 20
207.861484
 30
0.0
 11
168.860182
 21
207.861484
 31
0.0
  0
LINE
  8
24
  5
259AC
 10
204.360182
 20
244.861484
 30
0.0
 11
168.860182
 21
244.861484
 31
0.0
  0
LINE
  8
21
  5
259AD
 10
118.381528
 20
205.861484
 30
0.0
 11
117.334
 21
205.861484
 31
0.0
  0
ARC
  8
52
  5
271B6
 10
-92.903303
 20
173.680809
 30
0.0
 40
8.3
 50
107.0
 51
163.0
  0
LINE
  8
52
  5
271B7
 10
2.204709
 20
111.821645
 30
0.0
 11
4.33233
 21
111.047254
 31
0.0
  0
LINE
  8
52
  5
271B8
 10
-1.044138
 20
108.572797
 30
0.0
 11
-0.269748
 21
106.445176
 31
0.0
  0
ARC
  8
52
  5
271B9
 10
-2.903303
 20
113.680809
 30
0.0
 40
7.7
 50
290.0
 51
340.0
  0
LINE
  8
61
  5
273B3
 10
122.860182
 20
104.980809
 30
0.0
 11
168.860182
 21
104.980809
 31
0.0
  0
ARC
  8
61
  5
273B4
 10
122.860182
 20
112.680809
 30
0.0
 40
7.7
 50
180.0
 51
270.0
  0
LINE
  8
61
  5
273B5
 10
115.160182
 20
112.680809
 30
0.0
 11
115.160182
 21
143.680809
 31
0.0
  0
LINE
  8
61
  5
273B6
 10
122.860182
 20
182.380809
 30
0.0
 11
168.860182
 21
182.380809
 31
0.0
  0
LINE
  8
61
  5
273B7
 10
122.860182
 20
183.680809
 30
0.0
 11
168.860182
 21
183.680809
 31
0.0
  0
LINE
  8
61
  5
273B9
 10
115.160182
 20
174.680809
 30
0.0
 11
115.160182
 21
143.680809
 31
0.0
  0
ARC
  8
61
  5
273BA
 10
123.860182
 20
173.680809
 30
0.0
 40
5.15
 50
314.867683
 51
45.132317
  0
ARC
  8
61
  5
273BB
 10
123.860182
 20
173.680809
 30
0.0
 40
5.15
 50
134.867683
 51
225.132317
  0
CIRCLE
  8
61
  5
273BC
 10
123.860182
 20
173.680809
 30
0.0
 40
5.5
  0
LINE
  8
61
  5
273BE
 10
113.860182
 20
174.680809
 30
0.0
 11
113.860182
 21
143.680809
 31
0.0
  0
ARC
  8
61
  5
273C0
 10
122.860182
 20
174.680809
 30
0.0
 40
7.7
 50
90.0
 51
180.0
  0
ARC
  8
61
  5
273C1
 10
122.860182
 20
174.680809
 30
0.0
 40
9.0
 50
90.0
 51
180.0
  0
LINE
  8
61
  5
273C4
 10
127.493363
 20
177.330809
 30
0.0
 11
120.227002
 21
177.330809
 31
0.0
  0
LINE
  8
61
  5
273C5
 10
127.493363
 20
170.030809
 30
0.0
 11
120.227002
 21
170.030809
 31
0.0
  0
LINE
  8
61
  5
273C7
 10
214.860182
 20
183.680809
 30
0.0
 11
168.860182
 21
183.680809
 31
0.0
  0
LINE
  8
61
  5
273C8
 10
214.860182
 20
182.380809
 30
0.0
 11
168.860182
 21
182.380809
 31
0.0
  0
LINE
  8
61
  5
273C9
 10
214.860182
 20
104.980809
 30
0.0
 11
168.860182
 21
104.980809
 31
0.0
  0
LINE
  8
61
  5
273CA
 10
214.860182
 20
103.680809
 30
0.0
 11
168.860182
 21
103.680809
 31
0.0
  0
LINE
  8
63
  6
DASHDOT
  5
273CC
 10
168.860182
 20
143.680809
 30
0.0
 11
226.860182
 21
143.680809
 31
0.0
  0
LINE
  8
61
  5
273CD
 10
222.560182
 20
112.680809
 30
0.0
 11
222.560182
 21
143.680809
 31
0.0
  0
ARC
  8
61
  5
273CE
 10
213.860182
 20
113.680809
 30
0.0
 40
5.15
 50
134.867683
 51
225.132317
  0
ARC
  8
61
  5
273CF
 10
213.860182
 20
113.680809
 30
0.0
 40
5.15
 50
314.867683
 51
45.132317
  0
CIRCLE
  8
61
  5
273D0
 10
213.860182
 20
113.680809
 30
0.0
 40
5.5
  0
LINE
  8
61
  5
273D2
 10
223.860182
 20
112.680809
 30
0.0
 11
223.860182
 21
143.680809
 31
0.0
  0
ARC
  8
61
  5
273D4
 10
214.860182
 20
112.680809
 30
0.0
 40
7.7
 50
270.0
 51
0.0
  0
ARC
  8
61
  5
273D5
 10
214.860182
 20
112.680809
 30
0.0
 40
9.0
 50
270.0
 51
0.0
  0
LINE
  8
61
  5
273D8
 10
210.227002
 20
110.030809
 30
0.0
 11
217.493363
 21
110.030809
 31
0.0
  0
LINE
  8
61
  5
273DA
 10
223.860182
 20
174.680809
 30
0.0
 11
223.860182
 21
143.680809
 31
0.0
  0
LINE
  8
61
  5
273DC
 10
222.560182
 20
174.680809
 30
0.0
 11
222.560182
 21
143.680809
 31
0.0
  0
LINE
  8
61
  5
273DD
 10
210.227002
 20
117.330809
 30
0.0
 11
217.493363
 21
117.330809
 31
0.0
  0
LINE
  8
61
  5
273DE
 10
210.227002
 20
170.030809
 30
0.0
 11
217.493363
 21
170.030809
 31
0.0
  0
LINE
  8
61
  5
273DF
 10
210.227002
 20
177.330809
 30
0.0
 11
217.493363
 21
177.330809
 31
0.0
  0
ARC
  8
61
  5
273E2
 10
214.860182
 20
174.680809
 30
0.0
 40
9.0
 50
0.0
 51
90.0
  0
ARC
  8
61
  5
273E3
 10
214.860182
 20
174.680809
 30
0.0
 40
7.7
 50
0.0
 51
90.0
  0
CIRCLE
  8
61
  5
273E4
 10
213.860182
 20
173.680809
 30
0.0
 40
5.5
  0
ARC
  8
61
  5
273E5
 10
213.860182
 20
173.680809
 30
0.0
 40
5.15
 50
314.867683
 51
45.132317
  0
ARC
  8
61
  5
273E6
 10
213.860182
 20
173.680809
 30
0.0
 40
5.15
 50
134.867683
 51
225.132317
  0
LINE
  8
63
  6
DASHDOT
  5
273E7
 10
168.860182
 20
187.680809
 30
0.0
 11
168.860182
 21
143.680809
 31
0.0
  0
LINE
  8
34
  5
2A5F5
 10
250.596697
 20
164.380809
 30
0.0
 11
289.596697
 21
164.380809
 31
0.0
  0
LINE
  8
24
  5
2ABE4
 10
133.360182
 20
205.861484
 30
0.0
 11
133.360182
 21
244.861484
 31
0.0
  0
LINE
  8
24
  5
2ABE8
 10
204.360182
 20
205.861484
 30
0.0
 11
204.360182
 21
244.861484
 31
0.0
  0
LINE
  8
52
  5
2ABE9
 10
-94.493064
 20
178.880684
 30
0.0
 11
-95.329988
 21
181.618139
 31
0.0
  0
LINE
  8
52
  5
2ABEA
 10
-98.103178
 20
175.270571
 30
0.0
 11
-100.840632
 21
176.107495
 31
0.0
  0
LINE
  8
51
  5
2D0C2
 10
2.596697
 20
163.880809
 30
0.0
 11
2.596697
 21
143.680809
 31
0.0
  0
LINE
  8
52
  5
2D0C3
 10
5.896697
 20
163.680809
 30
0.0
 11
5.896697
 21
143.680809
 31
0.0
  0
LINE
  8
52
  5
2D0C5
 10
3.596697
 20
163.680809
 30
0.0
 11
3.596697
 21
143.680809
 31
0.0
  0
LINE
  8
51
  5
2D0C6
 10
7.096697
 20
173.680809
 30
0.0
 11
7.096697
 21
143.680809
 31
0.0
  0
ARC
  8
51
  5
2D0C8
 10
-2.903303
 20
173.680809
 30
0.0
 40
9.3
 50
180.0
 51
270.0
  0
ARC
  8
52
  5
2D0C9
 10
-12.903303
 20
178.680809
 30
0.0
 40
3.8
 50
0.0
 51
90.0
  0
ARC
  8
52
  5
2D0CB
 10
-2.903303
 20
173.680809
 30
0.0
 40
5.5
 50
180.0
 51
270.0
  0
ARC
  8
52
  5
2D0CC
 10
-2.903303
 20
173.680809
 30
0.0
 40
8.5
 50
180.0
 51
270.0
  0
ARC
  8
52
  5
2D0CD
 10
-2.903303
 20
173.680809
 30
0.0
 40
6.2
 50
180.0
 51
270.0
  0
LINE
  8
51
  5
2D0CE
 10
-2.903303
 20
183.680809
 30
0.0
 11
-47.903303
 21
183.680809
 31
0.0
  0
LINE
  8
51
  5
2D0CF
 10
-12.703303
 20
179.180809
 30
0.0
 11
-47.903303
 21
179.180809
 31
0.0
  0
LINE
  8
52
  5
2D0D0
 10
-12.903303
 20
180.180809
 30
0.0
 11
-47.903303
 21
180.180809
 31
0.0
  0
LINE
  8
52
  5
2D0D1
 10
-12.903303
 20
182.480809
 30
0.0
 11
-47.903303
 21
182.480809
 31
0.0
  0
ARC
  8
52
  5
2D0D2
 10
-12.903303
 20
178.680809
 30
0.0
 40
1.5
 50
0.0
 51
90.0
  0
LINE
  8
51
  5
2D0D3
 10
-12.203303
 20
173.680809
 30
0.0
 11
-12.203303
 21
178.680809
 31
0.0
  0
LINE
  8
52
  5
2D0D4
 10
-11.403303
 20
173.680809
 30
0.0
 11
-11.403303
 21
178.680809
 31
0.0
  0
ARC
  8
51
  5
2D0D5
 10
-12.703303
 20
178.680809
 30
0.0
 40
0.5
 50
0.0
 51
90.0
  0
ARC
  8
52
  5
2D0D7
 10
-2.903303
 20
173.680809
 30
0.0
 40
5.15
 50
134.867683
 51
225.132317
  0
ARC
  8
52
  5
2D0D8
 10
-2.903303
 20
173.680809
 30
0.0
 40
5.15
 50
314.867683
 51
45.132317
  0
LINE
  8
52
  5
2D0D9
 10
2.596697
 20
173.680809
 30
0.0
 11
2.596697
 21
168.680809
 31
0.0
  0
ARC
  8
52
  5
2D0DA
 10
-2.903303
 20
173.680809
 30
0.0
 40
5.5
 50
0.0
 51
90.0
  0
ARC
  8
51
  5
2D0DB
 10
-2.903303
 20
173.680809
 30
0.0
 40
10.0
 50
0.0
 51
90.0
  0
LINE
  8
52
  5
2D0DC
 10
-6.536483
 20
177.330809
 30
0.0
 11
0.729878
 21
177.330809
 31
0.0
  0
LINE
  8
52
  5
2D0DD
 10
-7.903303
 20
179.180809
 30
0.0
 11
-2.903303
 21
179.180809
 31
0.0
  0
LINE
  8
52
  5
2D0DE
 10
-9.103303
 20
173.680809
 30
0.0
 11
-9.103303
 21
178.680809
 31
0.0
  0
LINE
  8
52
  5
2D0DF
 10
-8.403303
 20
178.680809
 30
0.0
 11
-8.403303
 21
173.680809
 31
0.0
  0
ARC
  8
52
  5
2D0E0
 10
-7.903303
 20
178.680809
 30
0.0
 40
0.5
 50
90.0
 51
180.0
  0
ARC
  8
51
  5
2D0E1
 10
2.096697
 20
163.880809
 30
0.0
 40
0.5
 50
0.0
 51
90.0
  0
ARC
  8
52
  5
2D0E2
 10
2.096697
 20
163.680809
 30
0.0
 40
3.8
 50
0.0
 51
90.0
  0
ARC
  8
52
  5
2D0E3
 10
2.096697
 20
163.680809
 30
0.0
 40
1.5
 50
0.0
 51
90.0
  0
ARC
  8
52
  5
2D0E4
 10
2.096697
 20
168.680809
 30
0.0
 40
0.5
 50
270.0
 51
0.0
  0
LINE
  8
52
  5
2D0E5
 10
-6.536483
 20
170.030809
 30
0.0
 11
0.729878
 21
170.030809
 31
0.0
  0
LINE
  8
52
  5
2D0E6
 10
-2.903303
 20
167.480809
 30
0.0
 11
2.096697
 21
167.480809
 31
0.0
  0
LINE
  8
52
  5
2D0E7
 10
-2.903303
 20
168.180809
 30
0.0
 11
2.096697
 21
168.180809
 31
0.0
  0
LINE
  8
51
  5
2D0E8
 10
-2.903303
 20
164.380809
 30
0.0
 11
2.096697
 21
164.380809
 31
0.0
  0
LINE
  8
52
  5
2D0E9
 10
-2.903303
 20
165.180809
 30
0.0
 11
2.096697
 21
165.180809
 31
0.0
  0
LINE
  8
52
  5
2D0ED
 10
-82.903303
 20
180.180809
 30
0.0
 11
-47.903303
 21
180.180809
 31
0.0
  0
LINE
  8
52
  5
2D0EE
 10
-82.903303
 20
182.480809
 30
0.0
 11
-47.903303
 21
182.480809
 31
0.0
  0
LINE
  8
51
  5
2D0EF
 10
-83.103303
 20
179.180809
 30
0.0
 11
-47.903303
 21
179.180809
 31
0.0
  0
LINE
  8
51
  5
2D0F0
 10
-92.903303
 20
183.680809
 30
0.0
 11
-47.903303
 21
183.680809
 31
0.0
  0
LINE
  8
51
  5
2D0F1
 10
-98.403303
 20
163.880809
 30
0.0
 11
-98.403303
 21
143.680809
 31
0.0
  0
LINE
  8
52
  5
2D0F2
 10
-101.703303
 20
163.680809
 30
0.0
 11
-101.703303
 21
143.680809
 31
0.0
  0
LINE
  8
52
  5
2D0F3
 10
-99.403303
 20
163.680809
 30
0.0
 11
-99.403303
 21
143.680809
 31
0.0
  0
LINE
  8
51
  5
2D0F4
 10
-102.903303
 20
173.680809
 30
0.0
 11
-102.903303
 21
143.680809
 31
0.0
  0
LINE
  8
52
  5
2D0F5
 10
-87.903303
 20
179.180809
 30
0.0
 11
-92.903303
 21
179.180809
 31
0.0
  0
ARC
  8
52
  5
2D0F6
 10
-92.903303
 20
173.680809
 30
0.0
 40
5.5
 50
270.0
 51
0.0
  0
ARC
  8
52
  5
2D0F7
 10
-92.903303
 20
173.680809
 30
0.0
 40
6.2
 50
270.0
 51
0.0
  0
ARC
  8
52
  5
2D0F8
 10
-92.903303
 20
173.680809
 30
0.0
 40
8.5
 50
270.0
 51
0.0
  0
ARC
  8
51
  5
2D0F9
 10
-92.903303
 20
173.680809
 30
0.0
 40
9.3
 50
270.0
 51
360.0
  0
LINE
  8
52
  5
2D0FA
 10
-89.270122
 20
177.330809
 30
0.0
 11
-96.536483
 21
177.330809
 31
0.0
  0
LINE
  8
52
  5
2D0FB
 10
-89.270122
 20
170.030809
 30
0.0
 11
-96.536483
 21
170.030809
 31
0.0
  0
ARC
  8
52
  5
2D0FC
 10
-82.903303
 20
178.680809
 30
0.0
 40
1.5
 50
90.0
 51
180.0
  0
ARC
  8
52
  5
2D0FD
 10
-82.903303
 20
178.680809
 30
0.0
 40
3.8
 50
90.0
 51
180.0
  0
ARC
  8
52
  5
2D0FE
 10
-87.903303
 20
178.680809
 30
0.0
 40
0.5
 50
360.0
 51
90.0
  0
ARC
  8
51
  5
2D0FF
 10
-83.103303
 20
178.680809
 30
0.0
 40
0.5
 50
90.0
 51
180.0
  0
ARC
  8
52
  5
2D100
 10
-92.903303
 20
173.680809
 30
0.0
 40
5.15
 50
314.867683
 51
45.132317
  0
LINE
  8
52
  5
2D101
 10
-84.403303
 20
173.680809
 30
0.0
 11
-84.403303
 21
178.680809
 31
0.0
  0
LINE
  8
51
  5
2D102
 10
-83.603303
 20
173.680809
 30
0.0
 11
-83.603303
 21
178.680809
 31
0.0
  0
LINE
  8
52
  5
2D103
 10
-87.403303
 20
178.680809
 30
0.0
 11
-87.403303
 21
173.680809
 31
0.0
  0
LINE
  8
52
  5
2D104
 10
-86.703303
 20
173.680809
 30
0.0
 11
-86.703303
 21
178.680809
 31
0.0
  0
ARC
  8
51
  5
2D105
 10
-92.903303
 20
173.680809
 30
0.0
 40
10.0
 50
90.0
 51
180.0
  0
ARC
  8
52
  5
2D106
 10
-92.903303
 20
173.680809
 30
0.0
 40
5.5
 50
90.0
 51
180.0
  0
ARC
  8
52
  5
2D107
 10
-97.903303
 20
163.680809
 30
0.0
 40
3.8
 50
90.0
 51
180.0
  0
ARC
  8
52
  5
2D108
 10
-97.903303
 20
163.680809
 30
0.0
 40
1.5
 50
90.0
 51
180.0
  0
ARC
  8
51
  5
2D109
 10
-97.903303
 20
163.880809
 30
0.0
 40
0.5
 50
90.0
 51
180.0
  0
LINE
  8
52
  5
2D10A
 10
-92.903303
 20
167.480809
 30
0.0
 11
-97.903303
 21
167.480809
 31
0.0
  0
LINE
  8
52
  5
2D10B
 10
-92.903303
 20
165.180809
 30
0.0
 11
-97.903303
 21
165.180809
 31
0.0
  0
LINE
  8
51
  5
2D10C
 10
-92.903303
 20
164.380809
 30
0.0
 11
-97.903303
 21
164.380809
 31
0.0
  0
ARC
  8
52
  5
2D10D
 10
-97.903303
 20
168.680809
 30
0.0
 40
0.5
 50
180.0
 51
270.0
  0
ARC
  8
52
  5
2D10E
 10
-92.903303
 20
173.680809
 30
0.0
 40
5.15
 50
134.867683
 51
225.132317
  0
LINE
  8
52
  5
2D10F
 10
-92.903303
 20
168.180809
 30
0.0
 11
-97.903303
 21
168.180809
 31
0.0
  0
LINE
  8
52
  5
2D110
 10
-98.403303
 20
173.680809
 30
0.0
 11
-98.403303
 21
168.680809
 31
0.0
  0
LINE
  8
52
  5
2D111
 10
-12.903303
 20
107.180809
 30
0.0
 11
-47.903303
 21
107.180809
 31
0.0
  0
LINE
  8
52
  5
2D112
 10
-12.903303
 20
104.880809
 30
0.0
 11
-47.903303
 21
104.880809
 31
0.0
  0
LINE
  8
51
  5
2D113
 10
-12.703303
 20
108.180809
 30
0.0
 11
-47.903303
 21
108.180809
 31
0.0
  0
LINE
  8
51
  5
2D114
 10
-2.903303
 20
103.680809
 30
0.0
 11
-47.903303
 21
103.680809
 31
0.0
  0
LINE
  8
51
  5
2D115
 10
2.596697
 20
123.480809
 30
0.0
 11
2.596697
 21
143.680809
 31
0.0
  0
LINE
  8
52
  5
2D116
 10
5.896697
 20
123.680809
 30
0.0
 11
5.896697
 21
143.680809
 31
0.0
  0
LINE
  8
52
  5
2D117
 10
3.596697
 20
123.680809
 30
0.0
 11
3.596697
 21
143.680809
 31
0.0
  0
LINE
  8
51
  5
2D118
 10
7.096697
 20
113.680809
 30
0.0
 11
7.096697
 21
143.680809
 31
0.0
  0
LINE
  8
52
  5
2D119
 10
-7.903303
 20
108.180809
 30
0.0
 11
-2.903303
 21
108.180809
 31
0.0
  0
ARC
  8
52
  5
2D11A
 10
-2.903303
 20
113.680809
 30
0.0
 40
5.5
 50
90.0
 51
180.0
  0
ARC
  8
52
  5
2D11B
 10
-2.903303
 20
113.680809
 30
0.0
 40
6.2
 50
90.0
 51
180.0
  0
ARC
  8
52
  5
2D11C
 10
-2.903303
 20
113.680809
 30
0.0
 40
8.5
 50
90.0
 51
180.0
  0
ARC
  8
51
  5
2D11D
 10
-2.903303
 20
113.680809
 30
0.0
 40
9.3
 50
90.0
 51
180.0
  0
LINE
  8
52
  5
2D11E
 10
-6.536483
 20
110.030809
 30
0.0
 11
0.729878
 21
110.030809
 31
0.0
  0
LINE
  8
52
  5
2D11F
 10
-6.536483
 20
117.330809
 30
0.0
 11
0.729878
 21
117.330809
 31
0.0
  0
ARC
  8
52
  5
2D120
 10
-12.903303
 20
108.680809
 30
0.0
 40
1.5
 50
270.0
 51
0.0
  0
ARC
  8
52
  5
2D121
 10
-12.903303
 20
108.680809
 30
0.0
 40
3.8
 50
270.0
 51
0.0
  0
ARC
  8
52
  5
2D122
 10
-7.903303
 20
108.680809
 30
0.0
 40
0.5
 50
180.0
 51
270.0
  0
ARC
  8
51
  5
2D123
 10
-12.703303
 20
108.680809
 30
0.0
 40
0.5
 50
270.0
 51
360.0
  0
ARC
  8
52
  5
2D124
 10
-2.903303
 20
113.680809
 30
0.0
 40
5.15
 50
134.867683
 51
225.132317
  0
LINE
  8
52
  5
2D125
 10
-11.403303
 20
113.680809
 30
0.0
 11
-11.403303
 21
108.680809
 31
0.0
  0
LINE
  8
51
  5
2D126
 10
-12.203303
 20
113.680809
 30
0.0
 11
-12.203303
 21
108.680809
 31
0.0
  0
LINE
  8
52
  5
2D127
 10
-8.403303
 20
108.680809
 30
0.0
 11
-8.403303
 21
113.680809
 31
0.0
  0
LINE
  8
52
  5
2D128
 10
-9.103303
 20
113.680809
 30
0.0
 11
-9.103303
 21
108.680809
 31
0.0
  0
ARC
  8
51
  5
2D129
 10
-2.903303
 20
113.680809
 30
0.0
 40
10.0
 50
270.0
 51
0.0
  0
ARC
  8
52
  5
2D12A
 10
-2.903303
 20
113.680809
 30
0.0
 40
5.5
 50
270.0
 51
360.0
  0
ARC
  8
52
  5
2D12B
 10
2.096697
 20
123.680809
 30
0.0
 40
3.8
 50
270.0
 51
0.0
  0
ARC
  8
52
  5
2D12C
 10
2.096697
 20
123.680809
 30
0.0
 40
1.5
 50
270.0
 51
0.0
  0
ARC
  8
51
  5
2D12D
 10
2.096697
 20
123.480809
 30
0.0
 40
0.5
 50
270.0
 51
360.0
  0
LINE
  8
52
  5
2D12E
 10
-2.903303
 20
119.880809
 30
0.0
 11
2.096697
 21
119.880809
 31
0.0
  0
LINE
  8
52
  5
2D12F
 10
-2.903303
 20
122.180809
 30
0.0
 11
2.096697
 21
122.180809
 31
0.0
  0
LINE
  8
51
  5
2D130
 10
-2.903303
 20
122.980809
 30
0.0
 11
2.096697
 21
122.980809
 31
0.0
  0
ARC
  8
52
  5
2D131
 10
2.096697
 20
118.680809
 30
0.0
 40
0.5
 50
360.0
 51
90.0
  0
ARC
  8
52
  5
2D132
 10
-2.903303
 20
113.680809
 30
0.0
 40
5.15
 50
314.867683
 51
45.132317
  0
LINE
  8
52
  5
2D133
 10
-2.903303
 20
119.180809
 30
0.0
 11
2.096697
 21
119.180809
 31
0.0
  0
LINE
  8
52
  5
2D134
 10
2.596697
 20
113.680809
 30
0.0
 11
2.596697
 21
118.680809
 31
0.0
  0
LINE
  8
51
  5
2D135
 10
-92.903303
 20
103.680809
 30
0.0
 11
-47.903303
 21
103.680809
 31
0.0
  0
LINE
  8
51
  5
2D136
 10
-83.103303
 20
108.180809
 30
0.0
 11
-47.903303
 21
108.180809
 31
0.0
  0
LINE
  8
52
  5
2D137
 10
-82.903303
 20
104.880809
 30
0.0
 11
-47.903303
 21
104.880809
 31
0.0
  0
LINE
  8
52
  5
2D138
 10
-82.903303
 20
107.180809
 30
0.0
 11
-47.903303
 21
107.180809
 31
0.0
  0
ARC
  8
52
  5
2D139
 10
-92.903303
 20
113.680809
 30
0.0
 40
5.5
 50
180.0
 51
270.0
  0
ARC
  8
51
  5
2D13A
 10
-92.903303
 20
113.680809
 30
0.0
 40
10.0
 50
180.0
 51
270.0
  0
ARC
  8
52
  5
2D13B
 10
-82.903303
 20
108.680809
 30
0.0
 40
3.8
 50
180.0
 51
270.0
  0
ARC
  8
52
  5
2D13C
 10
-82.903303
 20
108.680809
 30
0.0
 40
1.5
 50
180.0
 51
270.0
  0
LINE
  8
52
  5
2D13D
 10
-89.270122
 20
117.330809
 30
0.0
 11
-96.536483
 21
117.330809
 31
0.0
  0
LINE
  8
52
  5
2D13E
 10
-89.270122
 20
110.030809
 30
0.0
 11
-96.536483
 21
110.030809
 31
0.0
  0
ARC
  8
51
  5
2D13F
 10
-92.903303
 20
113.680809
 30
0.0
 40
9.3
 50
0.0
 51
90.0
  0
ARC
  8
52
  5
2D140
 10
-92.903303
 20
113.680809
 30
0.0
 40
8.5
 50
0.0
 51
90.0
  0
ARC
  8
52
  5
2D141
 10
-92.903303
 20
113.680809
 30
0.0
 40
6.2
 50
0.0
 51
90.0
  0
ARC
  8
52
  5
2D142
 10
-92.903303
 20
113.680809
 30
0.0
 40
5.5
 50
360.0
 51
90.0
  0
LINE
  8
52
  5
2D143
 10
-86.703303
 20
113.680809
 30
0.0
 11
-86.703303
 21
108.680809
 31
0.0
  0
LINE
  8
52
  5
2D144
 10
-87.403303
 20
108.680809
 30
0.0
 11
-87.403303
 21
113.680809
 31
0.0
  0
ARC
  8
52
  5
2D145
 10
-92.903303
 20
113.680809
 30
0.0
 40
5.15
 50
314.867683
 51
45.132317
  0
ARC
  8
52
  5
2D146
 10
-87.903303
 20
108.680809
 30
0.0
 40
0.5
 50
270.0
 51
0.0
  0
LINE
  8
52
  5
2D147
 10
-87.903303
 20
108.180809
 30
0.0
 11
-92.903303
 21
108.180809
 31
0.0
  0
LINE
  8
51
  5
2D148
 10
-83.603303
 20
113.680809
 30
0.0
 11
-83.603303
 21
108.680809
 31
0.0
  0
LINE
  8
52
  5
2D149
 10
-84.403303
 20
113.680809
 30
0.0
 11
-84.403303
 21
108.680809
 31
0.0
  0
ARC
  8
51
  5
2D14A
 10
-83.103303
 20
108.680809
 30
0.0
 40
0.5
 50
180.0
 51
270.0
  0
LINE
  8
51
  5
2D14B
 10
-102.903303
 20
113.680809
 30
0.0
 11
-102.903303
 21
143.680809
 31
0.0
  0
LINE
  8
52
  5
2D14C
 10
-99.403303
 20
123.680809
 30
0.0
 11
-99.403303
 21
143.680809
 31
0.0
  0
LINE
  8
52
  5
2D14D
 10
-101.703303
 20
123.680809
 30
0.0
 11
-101.703303
 21
143.680809
 31
0.0
  0
LINE
  8
51
  5
2D14E
 10
-98.403303
 20
123.480809
 30
0.0
 11
-98.403303
 21
143.680809
 31
0.0
  0
LINE
  8
52
  5
2D14F
 10
-92.903303
 20
119.180809
 30
0.0
 11
-97.903303
 21
119.180809
 31
0.0
  0
LINE
  8
51
  5
2D150
 10
-92.903303
 20
122.980809
 30
0.0
 11
-97.903303
 21
122.980809
 31
0.0
  0
LINE
  8
52
  5
2D151
 10
-92.903303
 20
122.180809
 30
0.0
 11
-97.903303
 21
122.180809
 31
0.0
  0
LINE
  8
52
  5
2D152
 10
-92.903303
 20
119.880809
 30
0.0
 11
-97.903303
 21
119.880809
 31
0.0
  0
ARC
  8
52
  5
2D153
 10
-97.903303
 20
123.680809
 30
0.0
 40
3.8
 50
180.0
 51
270.0
  0
ARC
  8
51
  5
2D154
 10
-97.903303
 20
123.480809
 30
0.0
 40
0.5
 50
180.0
 51
270.0
  0
ARC
  8
52
  5
2D155
 10
-97.903303
 20
123.680809
 30
0.0
 40
1.5
 50
180.0
 51
270.0
  0
LINE
  8
52
  5
2D156
 10
-98.403303
 20
113.680809
 30
0.0
 11
-98.403303
 21
118.680809
 31
0.0
  0
ARC
  8
52
  5
2D157
 10
-92.903303
 20
113.680809
 30
0.0
 40
5.15
 50
134.867683
 51
225.132317
  0
ARC
  8
52
  5
2D158
 10
-97.903303
 20
118.680809
 30
0.0
 40
0.5
 50
90.0
 51
180.0
  0
LINE
  8
34
  5
2EF53
 10
289.596697
 20
122.980809
 30
0.0
 11
289.596697
 21
143.680809
 31
0.0
  0
LINE
  8
34
  5
2EF54
 10
250.596697
 20
122.980809
 30
0.0
 11
289.596697
 21
122.980809
 31
0.0
  0
LINE
  8
31
  5
2EF55
 10
257.888844
 20
182.24223
 30
0.0
 11
290.649051
 21
181.908092
 31
0.0
  0
LINE
  8
31
  5
2EF56
 10
252.596697
 20
180.233175
 30
0.0
 11
252.596697
 21
143.680809
 31
0.0
  0
LINE
  8
31
  5
2EF57
 10
257.596697
 20
182.542127
 30
0.0
 11
257.596697
 21
143.680809
 31
0.0
  0
LINE
  8
31
  5
2EF58
 10
250.596697
 20
180.206992
 30
0.0
 11
250.596697
 21
143.680809
 31
0.0
  0
LINE
  8
31
  5
2EF59
 10
250.596697
 20
180.198264
 30
0.0
 11
252.596697
 21
180.233175
 31
0.0
  0
LINE
  8
31
  5
2EF5A
 10
252.596697
 20
183.680809
 30
0.0
 11
257.109786
 21
183.56263
 31
0.0
  0
LINE
  8
31
  5
2EF5B
 10
252.596697
 20
183.680809
 30
0.0
 11
252.596697
 21
182.580809
 31
0.0
  0
LINE
  8
31
  5
2EF5C
 10
257.596697
 20
183.062801
 30
0.0
 11
257.596697
 21
182.542127
 31
0.0
  0
ARC
  8
31
  5
2EF5D
 10
257.096697
 20
183.062801
 30
0.0
 40
0.5
 50
0.0
 51
88.5
  0
ARC
  8
31
  5
2EF5E
 10
257.896697
 20
182.542127
 30
0.0
 40
0.3
 50
180.0
 51
268.5
  0
LINE
  8
31
  5
2EF5F
 10
252.596697
 20
182.580809
 30
0.0
 11
252.596697
 21
180.233175
 31
0.0
  0
LINE
  8
31
  5
2EF60
 10
292.596697
 20
179.908777
 30
0.0
 11
292.596697
 21
143.680809
 31
0.0
  0
ARC
  8
31
  5
2EF61
 10
290.596697
 20
179.908777
 30
0.0
 40
2.0
 50
0.0
 51
88.5
  0
LINE
  8
11
  5
2EF62
 10
220.08815
 20
39.500134
 30
0.0
 11
168.860182
 21
39.500134
 31
0.0
  0
LINE
  8
14
  5
2EF63
 10
204.360182
 20
42.500134
 30
0.0
 11
168.860182
 21
42.500134
 31
0.0
  0
LINE
  8
11
  5
2EF64
 10
219.360182
 20
81.500134
 30
0.0
 11
168.860182
 21
81.500134
 31
0.0
  0
LINE
  8
11
  5
2EF65
 10
222.760182
 20
79.500134
 30
0.0
 11
168.860182
 21
79.500134
 31
0.0
  0
LINE
  8
11
  5
2EF66
 10
223.242174
 20
74.500134
 30
0.0
 11
168.860182
 21
74.500134
 31
0.0
  0
LINE
  8
11
  5
2EF67
 10
223.860182
 20
79.500134
 30
0.0
 11
223.742003
 21
74.987046
 31
0.0
  0
LINE
  8
14
  5
2EF68
 10
204.360182
 20
81.500134
 30
0.0
 11
204.360182
 21
42.500134
 31
0.0
  0
LINE
  8
11
  5
2EF69
 10
219.338836
 20
81.500134
 30
0.0
 11
220.386365
 21
81.500134
 31
0.0
  0
LINE
  8
11
  5
2EF6A
 10
223.860182
 20
79.500134
 30
0.0
 11
222.760182
 21
79.500134
 31
0.0
  0
LINE
  8
11
  5
2EF6B
 10
220.386365
 20
81.500134
 30
0.0
 11
220.417334
 21
79.500134
 31
0.0
  0
LINE
  8
11
  5
2EF6C
 10
222.421602
 20
74.207987
 30
0.0
 11
222.087465
 21
41.44778
 31
0.0
  0
ARC
  8
11
  5
2EF6D
 10
222.7215
 20
74.200134
 30
0.0
 40
0.3
 50
90.0
 51
178.5
  0
ARC
  8
11
  5
2EF6E
 10
223.242174
 20
75.000134
 30
0.0
 40
0.5
 50
270.0
 51
358.5
  0
ARC
  8
11
  5
2EF6F
 10
220.08815
 20
41.500134
 30
0.0
 40
2.0
 50
270.0
 51
358.5
  0
LINE
  8
11
  5
2EF70
 10
113.860182
 20
79.500134
 30
0.0
 11
113.978361
 21
74.987046
 31
0.0
  0
LINE
  8
13
  6
DASHDOT
  5
2EF71
 10
168.860182
 20
83.500134
 30
0.0
 11
168.860182
 21
37.772815
 31
0.0
  0
LINE
  8
14
  5
2EF72
 10
133.360182
 20
81.500134
 30
0.0
 11
133.360182
 21
42.500134
 31
0.0
  0
LINE
  8
11
  5
2EF73
 10
117.334
 20
81.500134
 30
0.0
 11
168.860182
 21
81.500134
 31
0.0
  0
LINE
  8
11
  5
2EF74
 10
114.960182
 20
79.500134
 30
0.0
 11
168.860182
 21
79.500134
 31
0.0
  0
LINE
  8
11
  5
2EF75
 10
113.860182
 20
79.500134
 30
0.0
 11
114.960182
 21
79.500134
 31
0.0
  0
LINE
  8
11
  5
2EF76
 10
114.960182
 20
79.500134
 30
0.0
 11
117.307817
 21
79.500134
 31
0.0
  0
LINE
  8
11
  5
2EF77
 10
117.334
 20
81.500134
 30
0.0
 11
117.307817
 21
79.500134
 31
0.0
  0
LINE
  8
11
  5
2EF78
 10
117.334
 20
81.500134
 30
0.0
 11
117.30303
 21
79.500134
 31
0.0
  0
LINE
  8
11
  5
2EF79
 10
117.632214
 20
39.500134
 30
0.0
 11
168.860182
 21
39.500134
 31
0.0
  0
LINE
  8
11
  5
2EF7A
 10
114.47819
 20
74.500134
 30
0.0
 11
168.860182
 21
74.500134
 31
0.0
  0
LINE
  8
14
  5
2EF7B
 10
133.360182
 20
42.500134
 30
0.0
 11
168.860182
 21
42.500134
 31
0.0
  0
LINE
  8
11
  5
2EF7E
 10
115.298762
 20
74.207987
 30
0.0
 11
115.6329
 21
41.44778
 31
0.0
  0
ARC
  8
11
  5
2EF7F
 10
114.47819
 20
75.000134
 30
0.0
 40
0.5
 50
181.5
 51
270.0
  0
ARC
  8
11
  5
2EF80
 10
114.998865
 20
74.200134
 30
0.0
 40
0.3
 50
1.5
 51
90.0
  0
ARC
  8
11
  5
2EF81
 10
117.632214
 20
41.500134
 30
0.0
 40
2.0
 50
181.5
 51
270.0
  0
LINE
  8
41
  5
2EF82
 10
80.123667
 20
182.542127
 30
0.0
 11
80.123667
 21
143.680809
 31
0.0
  0
LINE
  8
41
  5
2EF83
 10
45.123667
 20
179.908777
 30
0.0
 11
45.123667
 21
143.680809
 31
0.0
  0
LINE
  8
41
  5
2EF84
 10
85.123667
 20
180.233175
 30
0.0
 11
85.123667
 21
143.680809
 31
0.0
  0
LINE
  8
41
  5
2EF85
 10
87.123667
 20
180.206992
 30
0.0
 11
87.123667
 21
143.680809
 31
0.0
  0
LINE
  8
41
  5
2EF86
 10
79.83152
 20
182.24223
 30
0.0
 11
47.071313
 21
181.908092
 31
0.0
  0
ARC
  8
41
  5
2EF87
 10
80.623667
 20
183.062801
 30
0.0
 40
0.5
 50
91.5
 51
180.0
  0
LINE
  8
41
  5
2EF88
 10
87.123667
 20
180.198264
 30
0.0
 11
85.123667
 21
180.233175
 31
0.0
  0
LINE
  8
41
  5
2EF89
 10
85.123667
 20
183.680809
 30
0.0
 11
85.123667
 21
182.580809
 31
0.0
  0
LINE
  8
41
  5
2EF8A
 10
85.123667
 20
182.580809
 30
0.0
 11
85.123667
 21
180.233175
 31
0.0
  0
LINE
  8
41
  5
2EF8B
 10
85.123667
 20
183.680809
 30
0.0
 11
80.610579
 21
183.56263
 31
0.0
  0
LINE
  8
41
  5
2EF8C
 10
80.123667
 20
183.062801
 30
0.0
 11
80.123667
 21
182.542127
 31
0.0
  0
ARC
  8
41
  5
2EF8D
 10
79.823667
 20
182.542127
 30
0.0
 40
0.3
 50
271.5
 51
0.0
  0
ARC
  8
41
  5
2EF8E
 10
47.123667
 20
179.908777
 30
0.0
 40
2.0
 50
91.5
 51
180.0
  0
LINE
  8
41
  5
2EF8F
 10
79.83152
 20
105.119389
 30
0.0
 11
47.071313
 21
105.453527
 31
0.0
  0
LINE
  8
44
  5
2EF90
 10
87.123667
 20
164.380809
 30
0.0
 11
48.123667
 21
164.380809
 31
0.0
  0
LINE
  8
44
  5
2EF91
 10
87.123667
 20
122.980809
 30
0.0
 11
48.123667
 21
122.980809
 31
0.0
  0
LINE
  8
43
  6
DASHDOT
  5
2EF92
 10
89.123667
 20
143.680809
 30
0.0
 11
41.146765
 21
143.680809
 31
0.0
  0
LINE
  8
41
  5
2EF93
 10
80.123667
 20
104.819492
 30
0.0
 11
80.123667
 21
143.680809
 31
0.0
  0
LINE
  8
41
  5
2EF94
 10
87.123667
 20
107.154627
 30
0.0
 11
87.123667
 21
143.680809
 31
0.0
  0
LINE
  8
41
  5
2EF95
 10
85.123667
 20
107.128444
 30
0.0
 11
85.123667
 21
143.680809
 31
0.0
  0
ARC
  8
41
  5
2EF96
 10
80.623667
 20
104.298817
 30
0.0
 40
0.5
 50
180.0
 51
268.5
  0
LINE
  8
41
  5
2EF97
 10
87.123667
 20
107.163354
 30
0.0
 11
85.123667
 21
107.128444
 31
0.0
  0
LINE
  8
41
  5
2EF98
 10
85.123667
 20
104.780809
 30
0.0
 11
85.123667
 21
107.128444
 31
0.0
  0
LINE
  8
41
  5
2EF99
 10
85.123667
 20
103.680809
 30
0.0
 11
85.123667
 21
104.780809
 31
0.0
  0
LINE
  8
41
  5
2EF9A
 10
85.123667
 20
103.680809
 30
0.0
 11
80.610579
 21
103.798989
 31
0.0
  0
ARC
  8
41
  5
2EF9B
 10
79.823667
 20
104.819492
 30
0.0
 40
0.3
 50
360.0
 51
88.5
  0
LINE
  8
41
  5
2EF9C
 10
80.123667
 20
104.298817
 30
0.0
 11
80.123667
 21
104.819492
 31
0.0
  0
LINE
  8
41
  5
2EF9D
 10
45.123667
 20
107.452842
 30
0.0
 11
45.123667
 21
143.680809
 31
0.0
  0
LINE
  8
44
  5
2EF9E
 10
48.123667
 20
122.980809
 30
0.0
 11
48.123667
 21
143.680809
 31
0.0
  0
LINE
  8
44
  5
2EF9F
 10
48.123667
 20
164.380809
 30
0.0
 11
48.123667
 21
143.680809
 31
0.0
  0
ARC
  8
41
  5
2EFA2
 10
47.123667
 20
107.452842
 30
0.0
 40
2.0
 50
180.0
 51
268.5
  0
TEXT
  8
L20
  5
2EFA3
 10
-67.08048
 20
222.195013
 30
0.0
 40
5.0
  1
FIBOX PICCOLO B 110x80x40 COVER
  0
ENDBLK
  8
0
  5
2EFAB
  0
ENDSEC
  0
SECTION
  2
ENTITIES
  0
VIEWPORT
  8
0
  5
1
 67
     1
 68
     1
 10
210.0
 20
152.094241
 30
0.0
 40
420.0
 41
304.188482
 69
     1
1001
ACAD
1000
MVIEW
1002
{
1070
    16
1010
0.0
1020
0.0
1030
0.0
1010
0.0
1020
0.0
1030
1.0
1040
0.0
1040
304.188482
1040
210.0
1040
152.094241
1040
50.0
1040
0.0
1040
0.0
1070
     0
1070
   100
1070
     1
1070
     1
1070
     1
1070
     0
1070
     0
1070
     0
1040
0.0
1040
0.0
1040
0.0
1040
1.0
1040
1.0
1040
0.0
1040
0.0
1070
     0
1002
{
1002
}
1002
}
  0
INSERT
  8
L1
  5
2EFAC
  2
PICB40C
 10
0.0
 20
0.0
 30
0.0
  0
ENDSEC
  0
EOF
