  0
SECTION
  2
HEADER
  9
$ACADVER
  1
AC1009
  9
$INSBASE
 10
0.0
 20
0.0
 30
0.0
  9
$EXTMIN
 10
-83.0
 20
54.611619
 30
0.0
  9
$EXTMAX
 10
285.25
 20
232.75
 30
0.0
  9
$LIMMIN
 10
0.0
 20
0.0
  9
$LIMMAX
 10
420.0
 20
297.0
  9
$ORTHOMODE
 70
     0
  9
$REGENMODE
 70
     1
  9
$FILLMODE
 70
     1
  9
$QTEXTMODE
 70
     0
  9
$MIRRTEXT
 70
     1
  9
$DRAGMODE
 70
     2
  9
$LTSCALE
 40
7.0
  9
$OSMODE
 70
     0
  9
$ATTMODE
 70
     1
  9
$TEXTSIZE
 40
3.5
  9
$TRACEWID
 40
0.05
  9
$TEXTSTYLE
  7
STANDARD
  9
$CLAYER
  8
L1
  9
$CELTYPE
  6
BYLAYER
  9
$CECOLOR
 62
   256
  9
$DIMSCALE
 40
1.0
  9
$DIMASZ
 40
3.5
  9
$DIMEXO
 40
0.0
  9
$DIMDLI
 40
10.0
  9
$DIMRND
 40
0.0
  9
$DIMDLE
 40
0.0
  9
$DIMEXE
 40
2.0
  9
$DIMTP
 40
0.0
  9
$DIMTM
 40
0.0
  9
$DIMTXT
 40
3.5
  9
$DIMCEN
 40
2.5
  9
$DIMTSZ
 40
0.0
  9
$DIMTOL
 70
     0
  9
$DIMLIM
 70
     0
  9
$DIMTIH
 70
     0
  9
$DIMTOH
 70
     0
  9
$DIMSE1
 70
     0
  9
$DIMSE2
 70
     0
  9
$DIMTAD
 70
     1
  9
$DIMZIN
 70
     8
  9
$DIMBLK
  1

  9
$DIMASO
 70
     1
  9
$DIMSHO
 70
     1
  9
$DIMPOST
  1

  9
$DIMAPOST
  1

  9
$DIMALT
 70
     0
  9
$DIMALTD
 70
     2
  9
$DIMALTF
 40
25.4
  9
$DIMLFAC
 40
1.0
  9
$DIMTOFL
 70
     1
  9
$DIMTVP
 40
0.0
  9
$DIMTIX
 70
     0
  9
$DIMSOXD
 70
     0
  9
$DIMSAH
 70
     0
  9
$DIMBLK1
  1

  9
$DIMBLK2
  1

  9
$DIMSTYLE
  2
*UNNAMED
  9
$DIMCLRD
 70
   256
  9
$DIMCLRE
 70
   256
  9
$DIMCLRT
 70
     3
  9
$DIMTFAC
 40
1.0
  9
$DIMGAP
 40
2.0
  9
$LUNITS
 70
     2
  9
$LUPREC
 70
     2
  9
$SKETCHINC
 40
1.0
  9
$FILLETRAD
 40
0.0
  9
$AUNITS
 70
     0
  9
$AUPREC
 70
     2
  9
$MENU
  1
CAESAR
  9
$ELEVATION
 40
0.0
  9
$PELEVATION
 40
0.0
  9
$THICKNESS
 40
0.0
  9
$LIMCHECK
 70
     0
  9
$BLIPMODE
 70
     1
  9
$CHAMFERA
 40
5.0
  9
$CHAMFERB
 40
5.0
  9
$SKPOLY
 70
     0
  9
$TDCREATE
 40
2449682.498141782
  9
$TDUPDATE
 40
2449682.498141782
  9
$TDINDWG
 40
0.0000000000
  9
$TDUSRTIMER
 40
0.0000000000
  9
$USRTIMER
 70
     1
  9
$ANGBASE
 50
0.0
  9
$ANGDIR
 70
     0
  9
$PDMODE
 70
     0
  9
$PDSIZE
 40
0.0
  9
$PLINEWID
 40
0.0
  9
$COORDS
 70
     2
  9
$SPLFRAME
 70
     0
  9
$SPLINETYPE
 70
     6
  9
$SPLINESEGS
 70
     8
  9
$ATTDIA
 70
     0
  9
$ATTREQ
 70
     1
  9
$HANDLING
 70
     1
  9
$HANDSEED
  5
2C74E
  9
$SURFTAB1
 70
     6
  9
$SURFTAB2
 70
     6
  9
$SURFTYPE
 70
     6
  9
$SURFU
 70
     6
  9
$SURFV
 70
     6
  9
$UCSNAME
  2

  9
$UCSORG
 10
0.0
 20
0.0
 30
0.0
  9
$UCSXDIR
 10
1.0
 20
0.0
 30
0.0
  9
$UCSYDIR
 10
0.0
 20
1.0
 30
0.0
  9
$PUCSNAME
  2

  9
$PUCSORG
 10
0.0
 20
0.0
 30
0.0
  9
$PUCSXDIR
 10
1.0
 20
0.0
 30
0.0
  9
$PUCSYDIR
 10
0.0
 20
1.0
 30
0.0
  9
$USERI1
 70
     0
  9
$USERI2
 70
     0
  9
$USERI3
 70
     0
  9
$USERI4
 70
     0
  9
$USERI5
 70
     0
  9
$USERR1
 40
1.0
  9
$USERR2
 40
0.0
  9
$USERR3
 40
3.5
  9
$USERR4
 40
0.0
  9
$USERR5
 40
0.0
  9
$WORLDVIEW
 70
     1
  9
$SHADEDGE
 70
     3
  9
$SHADEDIF
 70
    70
  9
$TILEMODE
 70
     1
  9
$MAXACTVP
 70
    16
  9
$PINSBASE
 10
0.0
 20
0.0
 30
0.0
  9
$PLIMCHECK
 70
     0
  9
$PEXTMIN
 10
1.000000E+20
 20
1.000000E+20
 30
1.000000E+20
  9
$PEXTMAX
 10
-1.000000E+20
 20
-1.000000E+20
 30
-1.000000E+20
  9
$PLIMMIN
 10
0.0
 20
0.0
  9
$PLIMMAX
 10
420.0
 20
297.0
  9
$UNITMODE
 70
     0
  9
$VISRETAIN
 70
     0
  9
$PLINEGEN
 70
     0
  9
$PSLTSCALE
 70
     0
  9
$TREEDEPTH
 70
  3020
  9
$DWGCODEPAGE
  3
dos850
  0
ENDSEC
  0
SECTION
  2
TABLES
  0
TABLE
  2
VPORT
 70
     2
  0
VPORT
  2
*ACTIVE
 70
     0
 10
0.0
 20
0.0
 11
1.0
 21
1.0
 12
287.564723
 22
225.231556
 13
0.0
 23
0.0
 14
1.0
 24
1.0
 15
10.0
 25
10.0
 16
0.0
 26
0.0
 36
1.0
 17
0.0
 27
0.0
 37
0.0
 40
456.463112
 41
1.273114
 42
50.0
 43
0.0
 44
0.0
 50
0.0
 51
0.0
 71
     0
 72
  1000
 73
     1
 74
     1
 75
     1
 76
     0
 77
     0
 78
     0
  0
ENDTAB
  0
TABLE
  2
LTYPE
 70
    10
  0
LTYPE
  2
CONTINUOUS
 70
    64
  3
Solid line
 72
    65
 73
     0
 40
0.0
  0
LTYPE
  2
BORDER
 70
     0
  3
__ __ . __ __ . __ __ . __ __ . __ __ . __ __ .
 72
    65
 73
     6
 40
1.75
 49
0.5
 49
-0.25
 49
0.5
 49
-0.25
 49
0.0
 49
-0.25
  0
LTYPE
  2
CENTER
 70
    64
  3
____ _ ____ _ ____ _ ____ _ ____ _ ____ _ ____ 
 72
    65
 73
     4
 40
2.0
 49
1.25
 49
-0.25
 49
0.25
 49
-0.25
  0
LTYPE
  2
DASHDOT
 70
     0
  3
__ . __ . __ . __ . __ . __ . __ . __ . __ . __
 72
    65
 73
     4
 40
1.0
 49
0.5
 49
-0.25
 49
0.0
 49
-0.25
  0
LTYPE
  2
DASHED
 70
    64
  3
__ __ __ __ __ __ __ __ __ __ __ __ __ __ __ __
 72
    65
 73
     2
 40
0.75
 49
0.5
 49
-0.25
  0
LTYPE
  2
DIVIDE
 70
     0
  3
____ . . ____ . . ____ . . ____ . . ____ . . __
 72
    65
 73
     6
 40
1.25
 49
0.5
 49
-0.25
 49
0.0
 49
-0.25
 49
0.0
 49
-0.25
  0
LTYPE
  2
DOT
 70
     0
  3
. . . . . . . . . . . . . . . . . . . . . . . .
 72
    65
 73
     2
 40
0.25
 49
0.0
 49
-0.25
  0
LTYPE
  2
HIDDEN
 70
    64
  3
__ __ __ __ __ __ __ __ __ __ __ __ __ __ __ __
 72
    65
 73
     2
 40
0.375
 49
0.25
 49
-0.125
  0
LTYPE
  2
PHANTOM
 70
    64
  3
______  __  __  ______  __  __  ______  __  __ 
 72
    65
 73
     6
 40
2.5
 49
1.25
 49
-0.25
 49
0.25
 49
-0.25
 49
0.25
 49
-0.25
  0
LTYPE
  2
DOTX2
 70
    64
  3
.  .  .  .  .  .  .  .  .  .  .  .  .  .  .  . 
 72
    65
 73
     2
 40
0.5
 49
0.0
 49
-0.5
  0
ENDTAB
  0
TABLE
  2
LAYER
 70
    73
  0
LAYER
  2
0
 70
    64
 62
     7
  6
CONTINUOUS
  0
LAYER
  2
L1
 70
     0
 62
     3
  6
CONTINUOUS
  0
LAYER
  2
L2
 70
     0
 62
     1
  6
CONTINUOUS
  0
LAYER
  2
L3
 70
     0
 62
     7
  6
DASHED
  0
LAYER
  2
L4
 70
     0
 62
     1
  6
DASHED
  0
LAYER
  2
L5
 70
     0
 62
     6
  6
CENTER
  0
LAYER
  2
L6
 70
     0
 62
     1
  6
CENTER
  0
LAYER
  2
L7
 70
     0
 62
     1
  6
PHANTOM
  0
LAYER
  2
VPORT
 70
     0
 62
     7
  6
CONTINUOUS
  0
LAYER
  2
L8
 70
     0
 62
     1
  6
CONTINUOUS
  0
LAYER
  2
L20
 70
     0
 62
     3
  6
CONTINUOUS
  0
LAYER
  2
L21
 70
     0
 62
     1
  6
CONTINUOUS
  0
LAYER
  2
L22
 70
     0
 62
     1
  6
CONTINUOUS
  0
LAYER
  2
L23
 70
     0
 62
     1
  6
CONTINUOUS
  0
LAYER
  2
L30
 70
     0
 62
     3
  6
CONTINUOUS
  0
LAYER
  2
L31
 70
     0
 62
     1
  6
CONTINUOUS
  0
LAYER
  2
L32
 70
     0
 62
     3
  6
CONTINUOUS
  0
LAYER
  2
L33
 70
     0
 62
     1
  6
CONTINUOUS
  0
LAYER
  2
L34
 70
     0
 62
     3
  6
CONTINUOUS
  0
LAYER
  2
L35
 70
     0
 62
     1
  6
CONTINUOUS
  0
LAYER
  2
L40
 70
     0
 62
     7
  6
CONTINUOUS
  0
LAYER
  2
L41
 70
     0
 62
     1
  6
CONTINUOUS
  0
LAYER
  2
L42
 70
     0
 62
     1
  6
CONTINUOUS
  0
LAYER
  2
L43
 70
     0
 62
     7
  6
CONTINUOUS
  0
LAYER
  2
L44
 70
     0
 62
     1
  6
CONTINUOUS
  0
LAYER
  2
L45
 70
     0
 62
     1
  6
CONTINUOUS
  0
LAYER
  2
L46
 70
     0
 62
     3
  6
CONTINUOUS
  0
LAYER
  2
L50
 70
     0
 62
     7
  6
CONTINUOUS
  0
LAYER
  2
L51
 70
     0
 62
     1
  6
CONTINUOUS
  0
LAYER
  2
L52
 70
     0
 62
     7
  6
CONTINUOUS
  0
LAYER
  2
L53
 70
     0
 62
     1
  6
CONTINUOUS
  0
LAYER
  2
L54
 70
     0
 62
     3
  6
CONTINUOUS
  0
LAYER
  2
L55
 70
     0
 62
     3
  6
CONTINUOUS
  0
LAYER
  2
L56
 70
     0
 62
     3
  6
CONTINUOUS
  0
LAYER
  2
L57
 70
     0
 62
     1
  6
CONTINUOUS
  0
LAYER
  2
L9
 70
     0
 62
     7
  6
HIDDEN
  0
LAYER
  2
L15
 70
     0
 62
     2
  6
CONTINUOUS
  0
LAYER
  2
L16
 70
     0
 62
     5
  6
DOTX2
  0
LAYER
  2
L24
 70
     0
 62
     1
  6
CONTINUOUS
  0
LAYER
  2
A1
 70
     0
 62
     7
  6
CONTINUOUS
  0
LAYER
  2
RA1
 70
     0
 62
     1
  6
CONTINUOUS
  0
LAYER
  2
TITEL
 70
     0
 62
     7
  6
CONTINUOUS
  0
LAYER
  2
DEFPOINTS
 70
     0
 62
     7
  6
CONTINUOUS
  0
LAYER
  2
11
 70
    64
 62
     7
  6
CONTINUOUS
  0
LAYER
  2
12
 70
     0
 62
     1
  6
CONTINUOUS
  0
LAYER
  2
13
 70
    64
 62
     1
  6
CENTER
  0
LAYER
  2
14
 70
    64
 62
     1
  6
DASHED
  0
LAYER
  2
15
 70
     0
 62
     2
  6
DASHED
  0
LAYER
  2
21
 70
    64
 62
     7
  6
CONTINUOUS
  0
LAYER
  2
22
 70
     0
 62
     1
  6
CONTINUOUS
  0
LAYER
  2
23
 70
    64
 62
     1
  6
CENTER
  0
LAYER
  2
24
 70
    64
 62
     1
  6
DASHED
  0
LAYER
  2
25
 70
     0
 62
     2
  6
DASHED
  0
LAYER
  2
31
 70
    64
 62
     7
  6
CONTINUOUS
  0
LAYER
  2
32
 70
     0
 62
     1
  6
CONTINUOUS
  0
LAYER
  2
33
 70
    64
 62
     1
  6
CENTER
  0
LAYER
  2
34
 70
    64
 62
     1
  6
DASHED
  0
LAYER
  2
35
 70
     0
 62
     2
  6
DASHED
  0
LAYER
  2
41
 70
    64
 62
     7
  6
CONTINUOUS
  0
LAYER
  2
42
 70
     0
 62
     1
  6
CONTINUOUS
  0
LAYER
  2
43
 70
    64
 62
     1
  6
CENTER
  0
LAYER
  2
44
 70
    64
 62
     1
  6
DASHED
  0
LAYER
  2
45
 70
     0
 62
     2
  6
DASHED
  0
LAYER
  2
51
 70
    64
 62
     7
  6
CONTINUOUS
  0
LAYER
  2
52
 70
    64
 62
     1
  6
CONTINUOUS
  0
LAYER
  2
53
 70
    64
 62
     1
  6
CENTER
  0
LAYER
  2
54
 70
    64
 62
     1
  6
DASHED
  0
LAYER
  2
55
 70
    64
 62
     2
  6
DASHED
  0
LAYER
  2
61
 70
    64
 62
     7
  6
CONTINUOUS
  0
LAYER
  2
62
 70
    64
 62
     1
  6
CONTINUOUS
  0
LAYER
  2
63
 70
    64
 62
     1
  6
CENTER
  0
LAYER
  2
64
 70
    64
 62
     1
  6
DASHED
  0
LAYER
  2
65
 70
    64
 62
     2
  6
DASHED
  0
ENDTAB
  0
TABLE
  2
STYLE
 70
     4
  0
STYLE
  2
STANDARD
 70
     0
 40
0.0
 41
1.0
 50
0.0
 71
     0
 42
3.5
  3
CAEISO
  4

  0
STYLE
  2
SIMPLEX
 70
    64
 40
0.0
 41
1.0
 50
0.0
 71
     0
 42
20.0
  3
SIMPLEX.SHX
  4

  0
STYLE
  2
COMPLEX
 70
    64
 40
5.0
 41
1.0
 50
0.0
 71
     0
 42
5.0
  3
COMPLEX
  4

  0
STYLE
  2
CAEISO
 70
     0
 40
0.0
 41
1.0
 50
0.0
 71
     0
 42
1.0
  3
CAEISO
  4

  0
ENDTAB
  0
TABLE
  2
VIEW
 70
     0
  0
ENDTAB
  0
TABLE
  2
UCS
 70
     0
  0
ENDTAB
  0
TABLE
  2
APPID
 70
     1
  0
APPID
  2
ACAD
 70
    64
  0
ENDTAB
  0
TABLE
  2
DIMSTYLE
 70
     6
  0
DIMSTYLE
  2
ACADUS
 70
     0
  3

  4

  5

  6

  7

 40
1.0
 41
0.18
 42
0.0625
 43
0.38
 44
0.18
 45
0.0
 46
0.0
 47
0.0
 48
0.0
140
0.18
141
0.09
142
0.0
143
25.4
144
1.0
145
0.0
146
1.0
147
0.09
 71
     0
 72
     0
 73
     1
 74
     1
 75
     0
 76
     0
 77
     0
 78
     0
170
     0
171
     2
172
     0
173
     0
174
     0
175
     0
176
     0
177
     0
178
     0
  0
DIMSTYLE
  2
NORDIC
 70
     0
  3

  4

  5

  6

  7

 40
1.0
 41
3.5
 42
1.0
 43
10.0
 44
2.0
 45
0.0
 46
0.0
 47
0.0
 48
0.0
140
3.5
141
2.5
142
0.0
143
25.4
144
1.0
145
0.0
146
1.0
147
2.0
 71
     0
 72
     0
 73
     0
 74
     0
 75
     0
 76
     0
 77
     1
 78
     8
170
     0
171
     2
172
     1
173
     0
174
     0
175
     0
176
     0
177
     0
178
     0
  0
DIMSTYLE
  2
RADIAL
 70
     0
  3

  4

  5

  6

  7

 40
1.0
 41
3.5
 42
1.0
 43
10.0
 44
2.0
 45
0.0
 46
0.0
 47
0.0
 48
0.0
140
3.5
141
2.5
142
0.0
143
25.4
144
1.0
145
0.0
146
1.0
147
2.0
 71
     0
 72
     0
 73
     0
 74
     1
 75
     0
 76
     0
 77
     1
 78
     8
170
     0
171
     2
172
     0
173
     0
174
     0
175
     0
176
     0
177
     0
178
     0
  0
DIMSTYLE
  2
NORTOL
 70
     0
  3

  4

  5

  6

  7

 40
1.0
 41
3.5
 42
1.0
 43
10.0
 44
2.0
 45
0.0
 46
0.0
 47
0.2
 48
0.1
140
3.5
141
2.5
142
0.0
143
25.4
144
1.0
145
0.7
146
0.71
147
2.0
 71
     1
 72
     0
 73
     0
 74
     0
 75
     0
 76
     0
 77
     0
 78
     8
170
     0
171
     2
172
     1
173
     0
174
     0
175
     0
176
     0
177
     0
178
     0
  0
DIMSTYLE
  2
RADTOL
 70
     0
  3

  4

  5

  6

  7

 40
1.0
 41
3.5
 42
1.0
 43
10.0
 44
2.0
 45
0.0
 46
0.0
 47
0.2
 48
0.1
140
3.5
141
2.5
142
0.0
143
25.4
144
1.0
145
0.7
146
0.7
147
2.0
 71
     1
 72
     0
 73
     0
 74
     1
 75
     0
 76
     0
 77
     0
 78
     8
170
     0
171
     2
172
     0
173
     0
174
     0
175
     0
176
     0
177
     0
178
     0
  0
DIMSTYLE
  2
HANSU
 70
     0
  3

  4

  5

  6

  7

 40
1.0
 41
3.5
 42
0.0
 43
10.0
 44
2.0
 45
0.0
 46
0.0
 47
0.0
 48
0.0
140
3.5
141
2.5
142
0.0
143
25.4
144
0.8
145
0.0
146
1.0
147
2.0
 71
     0
 72
     0
 73
     0
 74
     0
 75
     0
 76
     0
 77
     1
 78
     8
170
     0
171
     2
172
     1
173
     0
174
     0
175
     0
176
   256
177
   256
178
     3
  0
ENDTAB
  0
ENDSEC
  0
SECTION
  2
BLOCKS
  0
BLOCK
  8
0
  5
2329
  2
AME_NIL
 70
     0
 10
0.0
 20
0.0
 30
0.0
  1
AME_NIL
  3
AME_NIL
  0
ENDBLK
  8
0
  5
232A
  0
BLOCK
  8
0
  5
232C
  2
AME_SOL
 70
     0
 10
0.0
 20
0.0
 30
0.0
  1
AME_SOL
  3
AME_SOL
  0
ENDBLK
  8
0
  5
232D
  0
BLOCK
  8
0
  5
233F
  2
SOLAXES
 70
     0
 10
0.0
 20
0.0
 30
0.0
  1
SOLAXES
  3
SOLAXES
  0
LINE
  8
0
 62
     0
  5
2340
 10
0.0
 20
0.0
 30
0.0
 11
63.851158
 21
0.0
 31
0.0
  0
LINE
  8
0
 62
     0
  5
2341
 10
0.0
 20
0.0
 30
0.0
 11
0.0
 21
63.851158
 31
0.0
  0
LINE
  8
0
 62
     0
  5
2342
 10
0.0
 20
0.0
 30
0.0
 11
0.0
 21
0.0
 31
63.851158
  0
CIRCLE
  8
0
 62
     0
  5
2343
 10
0.0
 20
0.0
 30
57.466042
 40
3.192558
210
1.0
220
0.0
230
0.0
  0
LINE
  8
0
 62
     0
  5
2344
 10
57.466042
 20
3.192558
 30
0.0
 11
63.851158
 21
0.0
 31
0.0
  0
LINE
  8
0
 62
     0
  5
2345
 10
57.466042
 20
0.0
 30
3.192558
 11
63.851158
 21
0.0
 31
0.0
  0
LINE
  8
0
 62
     0
  5
2346
 10
57.466042
 20
-3.192558
 30
0.0
 11
63.851158
 21
0.0
 31
0.0
  0
LINE
  8
0
 62
     0
  5
2347
 10
57.466042
 20
0.0
 30
-3.192558
 11
63.851158
 21
0.0
 31
0.0
  0
CIRCLE
  8
0
 62
     0
  5
2348
 10
0.0
 20
0.0
 30
57.466042
 40
3.192558
210
0.0
220
1.0
230
0.0
  0
LINE
  8
0
 62
     0
  5
2349
 10
3.192558
 20
57.466042
 30
0.0
 11
0.0
 21
63.851158
 31
0.0
  0
LINE
  8
0
 62
     0
  5
234A
 10
0.0
 20
57.466042
 30
3.192558
 11
0.0
 21
63.851158
 31
0.0
  0
LINE
  8
0
 62
     0
  5
234B
 10
-3.192558
 20
57.466042
 30
0.0
 11
0.0
 21
63.851158
 31
0.0
  0
LINE
  8
0
 62
     0
  5
234C
 10
0.0
 20
57.466042
 30
-3.192558
 11
0.0
 21
63.851158
 31
0.0
  0
CIRCLE
  8
0
 62
     0
  5
234D
 10
0.0
 20
0.0
 30
51.080927
 40
3.192558
210
0.0
220
1.0
230
0.0
  0
LINE
  8
0
 62
     0
  5
234E
 10
3.192558
 20
51.080927
 30
0.0
 11
0.0
 21
57.466042
 31
0.0
  0
LINE
  8
0
 62
     0
  5
234F
 10
0.0
 20
51.080927
 30
3.192558
 11
0.0
 21
57.466042
 31
0.0
  0
LINE
  8
0
 62
     0
  5
2350
 10
-3.192558
 20
51.080927
 30
0.0
 11
0.0
 21
57.466042
 31
0.0
  0
LINE
  8
0
 62
     0
  5
2351
 10
0.0
 20
51.080927
 30
-3.192558
 11
0.0
 21
57.466042
 31
0.0
  0
CIRCLE
  8
0
 62
     0
  5
2352
 10
0.0
 20
0.0
 30
57.466042
 40
3.192558
  0
LINE
  8
0
 62
     0
  5
2353
 10
3.192558
 20
0.0
 30
57.466042
 11
0.0
 21
0.0
 31
63.851158
  0
LINE
  8
0
 62
     0
  5
2354
 10
0.0
 20
3.192558
 30
57.466042
 11
0.0
 21
0.0
 31
63.851158
  0
LINE
  8
0
 62
     0
  5
2355
 10
-3.192558
 20
0.0
 30
57.466042
 11
0.0
 21
0.0
 31
63.851158
  0
LINE
  8
0
 62
     0
  5
2356
 10
0.0
 20
-3.192558
 30
57.466042
 11
0.0
 21
0.0
 31
63.851158
  0
CIRCLE
  8
0
 62
     0
  5
2357
 10
0.0
 20
0.0
 30
51.080927
 40
3.192558
  0
LINE
  8
0
 62
     0
  5
2358
 10
3.192558
 20
0.0
 30
51.080927
 11
0.0
 21
0.0
 31
57.466042
  0
LINE
  8
0
 62
     0
  5
2359
 10
0.0
 20
3.192558
 30
51.080927
 11
0.0
 21
0.0
 31
57.466042
  0
LINE
  8
0
 62
     0
  5
235A
 10
-3.192558
 20
0.0
 30
51.080927
 11
0.0
 21
0.0
 31
57.466042
  0
LINE
  8
0
 62
     0
  5
235B
 10
0.0
 20
-3.192558
 30
51.080927
 11
0.0
 21
0.0
 31
57.466042
  0
CIRCLE
  8
0
 62
     0
  5
235C
 10
0.0
 20
0.0
 30
44.695811
 40
3.192558
  0
LINE
  8
0
 62
     0
  5
235D
 10
3.192558
 20
0.0
 30
44.695811
 11
0.0
 21
0.0
 31
51.080927
  0
LINE
  8
0
 62
     0
  5
235E
 10
0.0
 20
3.192558
 30
44.695811
 11
0.0
 21
0.0
 31
51.080927
  0
LINE
  8
0
 62
     0
  5
235F
 10
-3.192558
 20
0.0
 30
44.695811
 11
0.0
 21
0.0
 31
51.080927
  0
LINE
  8
0
 62
     0
  5
2360
 10
0.0
 20
-3.192558
 30
44.695811
 11
0.0
 21
0.0
 31
51.080927
  0
ENDBLK
  8
0
  5
2361
  0
BLOCK
  8
0
  5
2460
  2
AME_MAT
 70
     0
 10
0.0
 20
0.0
 30
0.0
  1
AME_MAT
  3
AME_MAT
  0
ENDBLK
  8
0
  5
2461
  0
BLOCK
  8
0
  5
2465
  2
PICB20C
 70
    64
 10
0.0
 20
0.0
 30
0.0
  3
PICB20C
  0
LINE
  8
53
  6
DASHDOT
  5
4C36
 10
-25.0
 20
99.680809
 30
0.0
 11
-25.0
 21
143.680809
 31
0.0
  0
LINE
  8
53
  6
DASHDOT
  5
4C37
 10
-25.0
 20
143.680809
 30
0.0
 11
33.0
 21
143.680809
 31
0.0
  0
LINE
  8
53
  6
DASHDOT
  5
4C5E
 10
-25.0
 20
143.680809
 30
0.0
 11
-83.0
 21
143.680809
 31
0.0
  0
LINE
  8
53
  6
DASHDOT
  5
4C67
 10
-25.0
 20
187.680809
 30
0.0
 11
-25.0
 21
143.680809
 31
0.0
  0
LINE
  8
61
  5
4E14
 10
113.860182
 20
112.680809
 30
0.0
 11
113.860182
 21
143.680809
 31
0.0
  0
LINE
  8
63
  6
DASHDOT
  5
4E15
 10
168.860182
 20
99.680809
 30
0.0
 11
168.860182
 21
143.680809
 31
0.0
  0
LINE
  8
61
  5
4E16
 10
122.860182
 20
103.680809
 30
0.0
 11
168.860182
 21
103.680809
 31
0.0
  0
LINE
  8
61
  5
4E17
 10
127.493363
 20
117.330809
 30
0.0
 11
120.227002
 21
117.330809
 31
0.0
  0
LINE
  8
61
  5
4E19
 10
127.493363
 20
110.030809
 30
0.0
 11
120.227002
 21
110.030809
 31
0.0
  0
ARC
  8
61
  5
4E44
 10
123.860182
 20
113.680809
 30
0.0
 40
5.15
 50
314.867683
 51
45.132317
  0
ARC
  8
61
  5
4E4F
 10
123.860182
 20
113.680809
 30
0.0
 40
5.15
 50
134.867683
 51
225.132317
  0
ARC
  8
61
  5
4E50
 10
122.860182
 20
112.680809
 30
0.0
 40
9.0
 50
180.0
 51
270.0
  0
LINE
  8
63
  6
DASHDOT
  5
4E63
 10
168.860182
 20
143.680809
 30
0.0
 11
110.860182
 21
143.680809
 31
0.0
  0
CIRCLE
  8
61
  5
51F0
 10
123.860182
 20
113.680809
 30
0.0
 40
5.5
  0
LINE
  8
62
  5
51F2
 10
122.860182
 20
106.224489
 30
0.0
 11
168.860182
 21
106.224489
 31
0.0
  0
ARC
  8
62
  5
51F3
 10
122.860182
 20
112.680809
 30
0.0
 40
6.45632
 50
180.0
 51
270.0
  0
LINE
  8
62
  5
51F4
 10
116.403862
 20
112.680809
 30
0.0
 11
116.403862
 21
143.680809
 31
0.0
  0
LINE
  8
33
  6
DASHDOT
  5
251BE
 10
260.75
 20
143.680809
 30
0.0
 11
285.25
 21
143.680809
 31
0.0
  0
LINE
  8
34
  5
251C0
 10
281.75
 20
164.180809
 30
0.0
 11
281.75
 21
143.680809
 31
0.0
  0
ARC
  8
31
  5
251C2
 10
282.75
 20
107.452842
 30
0.0
 40
2.0
 50
271.5
 51
0.0
  0
LINE
  8
31
  5
251C4
 10
264.75
 20
104.780809
 30
0.0
 11
264.75
 21
107.128444
 31
0.0
  0
LINE
  8
31
  5
251C5
 10
270.042147
 20
105.119389
 30
0.0
 11
282.802354
 21
105.453527
 31
0.0
  0
ARC
  8
31
  5
251C6
 10
270.05
 20
104.819492
 30
0.0
 40
0.3
 50
91.5
 51
180.0
  0
ARC
  8
31
  5
251C7
 10
269.25
 20
104.298817
 30
0.0
 40
0.5
 50
271.5
 51
0.0
  0
LINE
  8
31
  5
251C8
 10
269.75
 20
104.298817
 30
0.0
 11
269.75
 21
104.819492
 31
0.0
  0
LINE
  8
31
  5
251C9
 10
264.75
 20
103.680809
 30
0.0
 11
264.75
 21
104.780809
 31
0.0
  0
LINE
  8
31
  5
251CB
 10
264.75
 20
103.680809
 30
0.0
 11
269.263088
 21
103.798989
 31
0.0
  0
LINE
  8
31
  5
251CC
 10
262.75
 20
107.154627
 30
0.0
 11
262.75
 21
143.680809
 31
0.0
  0
LINE
  8
31
  5
251D0
 10
262.75
 20
107.163354
 30
0.0
 11
264.75
 21
107.128444
 31
0.0
  0
LINE
  8
31
  5
251D2
 10
284.75
 20
107.452842
 30
0.0
 11
284.75
 21
143.680809
 31
0.0
  0
LINE
  8
31
  5
251D3
 10
269.75
 20
104.819492
 30
0.0
 11
269.75
 21
143.680809
 31
0.0
  0
LINE
  8
31
  5
251D4
 10
264.75
 20
107.128444
 30
0.0
 11
264.75
 21
143.680809
 31
0.0
  0
LINE
  8
52
  5
26066
 10
-76.4
 20
163.680809
 30
0.0
 11
-76.4
 21
143.680809
 31
0.0
  0
LINE
  8
52
  5
26067
 10
-78.9
 20
163.680809
 30
0.0
 11
-78.9
 21
143.680809
 31
0.0
  0
LINE
  8
51
  5
26068
 10
-75.5
 20
163.680809
 30
0.0
 11
-75.5
 21
143.680809
 31
0.0
  0
LINE
  8
51
  5
26069
 10
-80.0
 20
173.680809
 30
0.0
 11
-80.0
 21
143.680809
 31
0.0
  0
LINE
  8
51
  5
2606A
 10
-70.0
 20
183.680809
 30
0.0
 11
-25.0
 21
183.680809
 31
0.0
  0
LINE
  8
52
  5
2606B
 10
-60.0
 20
180.080809
 30
0.0
 11
-25.0
 21
180.080809
 31
0.0
  0
LINE
  8
51
  5
2606C
 10
-60.0
 20
179.180809
 30
0.0
 11
-25.0
 21
179.180809
 31
0.0
  0
LINE
  8
52
  5
2606D
 10
-60.0
 20
182.580809
 30
0.0
 11
-25.0
 21
182.580809
 31
0.0
  0
ARC
  8
52
  5
2606E
 10
-74.9
 20
163.680809
 30
0.0
 40
1.5
 50
90.0
 51
180.0
  0
ARC
  8
52
  5
2606F
 10
-75.1
 20
163.680809
 30
0.0
 40
3.8
 50
90.0
 51
180.0
  0
ARC
  8
52
  5
26070
 10
-69.95
 20
173.630809
 30
0.0
 40
5.5
 50
90.0
 51
180.0
  0
ARC
  8
51
  5
26071
 10
-70.0
 20
173.680809
 30
0.0
 40
10.0
 50
90.0
 51
180.0
  0
LINE
  8
52
  5
26072
 10
-64.55
 20
178.630809
 30
0.0
 11
-64.55
 21
173.730809
 31
0.0
  0
LINE
  8
52
  5
26073
 10
-63.8
 20
173.680809
 30
0.0
 11
-63.8
 21
178.780809
 31
0.0
  0
ARC
  8
52
  5
26074
 10
-70.0
 20
173.680809
 30
0.0
 40
5.15
 50
314.867683
 51
45.132317
  0
LINE
  8
52
  5
26075
 10
-61.5
 20
173.680809
 30
0.0
 11
-61.5
 21
178.580809
 31
0.0
  0
LINE
  8
51
  5
26076
 10
-60.5
 20
173.680809
 30
0.0
 11
-60.5
 21
178.680809
 31
0.0
  0
ARC
  8
52
  5
26077
 10
-70.0
 20
173.680809
 30
0.0
 40
5.15
 50
134.867683
 51
225.132317
  0
ARC
  8
52
  5
26078
 10
-60.0
 20
178.780809
 30
0.0
 40
3.8
 50
90.0
 51
180.0
  0
ARC
  8
51
  5
26079
 10
-60.0
 20
178.680809
 30
0.0
 40
0.5
 50
90.0
 51
180.0
  0
ARC
  8
52
  5
2607A
 10
-60.0
 20
178.580809
 30
0.0
 40
1.5
 50
90.0
 51
180.0
  0
LINE
  8
52
  5
2607B
 10
-65.05
 20
179.130809
 30
0.0
 11
-69.95
 21
179.130809
 31
0.0
  0
LINE
  8
52
  5
2607C
 10
-66.36682
 20
177.330809
 30
0.0
 11
-73.63318
 21
177.330809
 31
0.0
  0
ARC
  8
52
  5
2607D
 10
-65.05
 20
178.630809
 30
0.0
 40
0.5
 50
360.0
 51
90.0
  0
ARC
  8
52
  5
2607E
 10
-70.05
 20
173.730809
 30
0.0
 40
5.5
 50
270.0
 51
0.0
  0
ARC
  8
52
  5
2607F
 10
-70.0
 20
173.680809
 30
0.0
 40
6.2
 50
270.0
 51
0.0
  0
ARC
  8
52
  5
26080
 10
-70.0
 20
173.680809
 30
0.0
 40
8.5
 50
270.0
 51
0.0
  0
ARC
  8
51
  5
26081
 10
-70.0
 20
173.680809
 30
0.0
 40
9.5
 50
270.0
 51
360.0
  0
LINE
  8
52
  5
26082
 10
-75.45
 20
173.630809
 30
0.0
 11
-75.45
 21
168.730809
 31
0.0
  0
LINE
  8
52
  5
26083
 10
-66.36682
 20
170.030809
 30
0.0
 11
-73.63318
 21
170.030809
 31
0.0
  0
ARC
  8
51
  5
26084
 10
-75.0
 20
163.680809
 30
0.0
 40
0.5
 50
90.0
 51
180.0
  0
ARC
  8
52
  5
26085
 10
-74.95
 20
168.730809
 30
0.0
 40
0.5
 50
180.0
 51
270.0
  0
LINE
  8
52
  5
26086
 10
-70.05
 20
168.230809
 30
0.0
 11
-74.95
 21
168.230809
 31
0.0
  0
LINE
  8
52
  5
26087
 10
-70.0
 20
167.480809
 30
0.0
 11
-75.1
 21
167.480809
 31
0.0
  0
LINE
  8
52
  5
26088
 10
-70.0
 20
165.180809
 30
0.0
 11
-74.9
 21
165.180809
 31
0.0
  0
LINE
  8
51
  5
26089
 10
-70.0
 20
164.180809
 30
0.0
 11
-75.0
 21
164.180809
 31
0.0
  0
LINE
  8
52
  5
27142
 10
26.4
 20
163.680809
 30
0.0
 11
26.4
 21
143.680809
 31
0.0
  0
LINE
  8
51
  5
27143
 10
25.5
 20
163.680809
 30
0.0
 11
25.5
 21
143.680809
 31
0.0
  0
LINE
  8
51
  5
27144
 10
30.0
 20
173.680809
 30
0.0
 11
30.0
 21
143.680809
 31
0.0
  0
LINE
  8
52
  5
27145
 10
28.9
 20
163.680809
 30
0.0
 11
28.9
 21
143.680809
 31
0.0
  0
LINE
  8
51
  5
27146
 10
20.0
 20
183.680809
 30
0.0
 11
-25.0
 21
183.680809
 31
0.0
  0
LINE
  8
52
  5
27147
 10
10.0
 20
182.580809
 30
0.0
 11
-25.0
 21
182.580809
 31
0.0
  0
LINE
  8
51
  5
27148
 10
10.0
 20
179.180809
 30
0.0
 11
-25.0
 21
179.180809
 31
0.0
  0
LINE
  8
52
  5
27149
 10
10.0
 20
180.080809
 30
0.0
 11
-25.0
 21
180.080809
 31
0.0
  0
ARC
  8
52
  5
2714A
 10
10.0
 20
178.580809
 30
0.0
 40
1.5
 50
0.0
 51
90.0
  0
ARC
  8
51
  5
2714C
 10
20.0
 20
173.680809
 30
0.0
 40
10.0
 50
0.0
 51
90.0
  0
ARC
  8
52
  5
2714D
 10
19.95
 20
173.630809
 30
0.0
 40
5.5
 50
0.0
 51
90.0
  0
ARC
  8
52
  5
2714E
 10
10.0
 20
178.780809
 30
0.0
 40
3.8
 50
0.0
 51
90.0
  0
LINE
  8
51
  5
2714F
 10
20.0
 20
164.180809
 30
0.0
 11
25.0
 21
164.180809
 31
0.0
  0
LINE
  8
52
  5
27150
 10
20.0
 20
165.180809
 30
0.0
 11
24.9
 21
165.180809
 31
0.0
  0
LINE
  8
52
  5
27151
 10
20.0
 20
167.480809
 30
0.0
 11
25.1
 21
167.480809
 31
0.0
  0
LINE
  8
52
  5
27152
 10
20.05
 20
168.230809
 30
0.0
 11
24.95
 21
168.230809
 31
0.0
  0
LINE
  8
52
  5
27153
 10
16.36682
 20
170.030809
 30
0.0
 11
23.63318
 21
170.030809
 31
0.0
  0
LINE
  8
52
  5
27154
 10
16.36682
 20
177.330809
 30
0.0
 11
23.63318
 21
177.330809
 31
0.0
  0
ARC
  8
52
  5
27155
 10
25.1
 20
163.680809
 30
0.0
 40
3.8
 50
0.0
 51
90.0
  0
ARC
  8
51
  5
27156
 10
25.0
 20
163.680809
 30
0.0
 40
0.5
 50
0.0
 51
90.0
  0
ARC
  8
52
  5
27157
 10
24.9
 20
163.680809
 30
0.0
 40
1.5
 50
0.0
 51
90.0
  0
ARC
  8
52
  5
27158
 10
24.95
 20
168.730809
 30
0.0
 40
0.5
 50
270.0
 51
0.0
  0
LINE
  8
52
  5
27159
 10
25.45
 20
173.630809
 30
0.0
 11
25.45
 21
168.730809
 31
0.0
  0
ARC
  8
52
  5
2715A
 10
20.0
 20
173.680809
 30
0.0
 40
5.15
 50
314.867683
 51
45.132317
  0
ARC
  8
51
  5
2715B
 10
20.0
 20
173.680809
 30
0.0
 40
9.5
 50
180.0
 51
270.0
  0
ARC
  8
52
  5
2715C
 10
20.0
 20
173.680809
 30
0.0
 40
8.5
 50
180.0
 51
270.0
  0
ARC
  8
52
  5
2715D
 10
20.0
 20
173.680809
 30
0.0
 40
6.2
 50
180.0
 51
270.0
  0
ARC
  8
52
  5
2715E
 10
20.05
 20
173.730809
 30
0.0
 40
5.5
 50
180.0
 51
270.0
  0
LINE
  8
52
  5
2715F
 10
15.05
 20
179.130809
 30
0.0
 11
19.95
 21
179.130809
 31
0.0
  0
ARC
  8
52
  5
27160
 10
20.0
 20
173.680809
 30
0.0
 40
5.15
 50
134.867683
 51
225.132317
  0
ARC
  8
51
  5
27161
 10
10.0
 20
178.680809
 30
0.0
 40
0.5
 50
0.0
 51
90.0
  0
LINE
  8
51
  5
27162
 10
10.5
 20
173.680809
 30
0.0
 11
10.5
 21
178.680809
 31
0.0
  0
LINE
  8
52
  5
27163
 10
11.5
 20
173.680809
 30
0.0
 11
11.5
 21
178.580809
 31
0.0
  0
LINE
  8
52
  5
27164
 10
13.8
 20
173.680809
 30
0.0
 11
13.8
 21
178.780809
 31
0.0
  0
ARC
  8
52
  5
27165
 10
15.05
 20
178.630809
 30
0.0
 40
0.5
 50
90.0
 51
180.0
  0
LINE
  8
52
  5
27166
 10
14.55
 20
178.630809
 30
0.0
 11
14.55
 21
173.730809
 31
0.0
  0
LINE
  8
52
  5
27167
 10
-76.4
 20
123.680809
 30
0.0
 11
-76.4
 21
143.680809
 31
0.0
  0
LINE
  8
51
  5
27168
 10
-75.5
 20
123.680809
 30
0.0
 11
-75.5
 21
143.680809
 31
0.0
  0
LINE
  8
51
  5
27169
 10
-80.0
 20
113.680809
 30
0.0
 11
-80.0
 21
143.680809
 31
0.0
  0
LINE
  8
52
  5
2716A
 10
-78.9
 20
123.680809
 30
0.0
 11
-78.9
 21
143.680809
 31
0.0
  0
ARC
  8
52
  5
2716B
 10
-60.0
 20
108.780809
 30
0.0
 40
1.5
 50
180.0
 51
270.0
  0
ARC
  8
51
  5
2716D
 10
-70.0
 20
113.680809
 30
0.0
 40
10.0
 50
180.0
 51
270.0
  0
ARC
  8
52
  5
2716E
 10
-69.95
 20
113.730809
 30
0.0
 40
5.5
 50
180.0
 51
270.0
  0
ARC
  8
52
  5
2716F
 10
-60.0
 20
108.580809
 30
0.0
 40
3.8
 50
180.0
 51
270.0
  0
LINE
  8
51
  5
27170
 10
-70.0
 20
123.180809
 30
0.0
 11
-75.0
 21
123.180809
 31
0.0
  0
LINE
  8
52
  5
27171
 10
-70.0
 20
122.180809
 30
0.0
 11
-74.9
 21
122.180809
 31
0.0
  0
LINE
  8
52
  5
27172
 10
-70.0
 20
119.880809
 30
0.0
 11
-75.1
 21
119.880809
 31
0.0
  0
LINE
  8
52
  5
27173
 10
-70.05
 20
119.130809
 30
0.0
 11
-74.95
 21
119.130809
 31
0.0
  0
LINE
  8
52
  5
27174
 10
-66.36682
 20
117.330809
 30
0.0
 11
-73.63318
 21
117.330809
 31
0.0
  0
LINE
  8
52
  5
27175
 10
-66.36682
 20
110.030809
 30
0.0
 11
-73.63318
 21
110.030809
 31
0.0
  0
ARC
  8
52
  5
27177
 10
-75.1
 20
123.680809
 30
0.0
 40
3.8
 50
180.0
 51
270.0
  0
ARC
  8
51
  5
27178
 10
-75.0
 20
123.680809
 30
0.0
 40
0.5
 50
180.0
 51
270.0
  0
ARC
  8
52
  5
27179
 10
-74.9
 20
123.680809
 30
0.0
 40
1.5
 50
180.0
 51
270.0
  0
ARC
  8
52
  5
2717A
 10
-74.95
 20
118.630809
 30
0.0
 40
0.5
 50
90.0
 51
180.0
  0
LINE
  8
52
  5
2717B
 10
-75.45
 20
113.730809
 30
0.0
 11
-75.45
 21
118.630809
 31
0.0
  0
ARC
  8
52
  5
2717C
 10
-70.0
 20
113.680809
 30
0.0
 40
5.15
 50
134.867683
 51
225.132317
  0
ARC
  8
51
  5
2717D
 10
-70.0
 20
113.680809
 30
0.0
 40
9.5
 50
0.0
 51
90.0
  0
ARC
  8
52
  5
2717E
 10
-70.0
 20
113.680809
 30
0.0
 40
8.5
 50
0.0
 51
90.0
  0
ARC
  8
52
  5
2717F
 10
-70.0
 20
113.680809
 30
0.0
 40
6.2
 50
0.0
 51
90.0
  0
ARC
  8
52
  5
27180
 10
-70.05
 20
113.630809
 30
0.0
 40
5.5
 50
0.0
 51
90.0
  0
LINE
  8
52
  5
27181
 10
-65.05
 20
108.230809
 30
0.0
 11
-69.95
 21
108.230809
 31
0.0
  0
ARC
  8
52
  5
27182
 10
-70.0
 20
113.680809
 30
0.0
 40
5.15
 50
314.867683
 51
45.132317
  0
ARC
  8
51
  5
27183
 10
-60.0
 20
108.680809
 30
0.0
 40
0.5
 50
180.0
 51
270.0
  0
LINE
  8
51
  5
27184
 10
-60.5
 20
113.680809
 30
0.0
 11
-60.5
 21
108.680809
 31
0.0
  0
LINE
  8
52
  5
27185
 10
-61.5
 20
113.680809
 30
0.0
 11
-61.5
 21
108.780809
 31
0.0
  0
LINE
  8
52
  5
27186
 10
-63.8
 20
113.680809
 30
0.0
 11
-63.8
 21
108.580809
 31
0.0
  0
ARC
  8
52
  5
27187
 10
-65.05
 20
108.730809
 30
0.0
 40
0.5
 50
270.0
 51
0.0
  0
LINE
  8
52
  5
27188
 10
-64.55
 20
108.730809
 30
0.0
 11
-64.55
 21
113.630809
 31
0.0
  0
LINE
  8
51
  5
27189
 10
-70.0
 20
103.680809
 30
0.0
 11
-25.0
 21
103.680809
 31
0.0
  0
LINE
  8
52
  5
2718A
 10
-60.0
 20
104.780809
 30
0.0
 11
-25.0
 21
104.780809
 31
0.0
  0
LINE
  8
51
  5
2718B
 10
-60.0
 20
108.180809
 30
0.0
 11
-25.0
 21
108.180809
 31
0.0
  0
LINE
  8
52
  5
2718C
 10
-60.0
 20
107.280809
 30
0.0
 11
-25.0
 21
107.280809
 31
0.0
  0
LINE
  8
51
  5
2718D
 10
20.0
 20
103.680809
 30
0.0
 11
-25.0
 21
103.680809
 31
0.0
  0
LINE
  8
52
  5
2718E
 10
10.0
 20
107.280809
 30
0.0
 11
-25.0
 21
107.280809
 31
0.0
  0
LINE
  8
51
  5
2718F
 10
10.0
 20
108.180809
 30
0.0
 11
-25.0
 21
108.180809
 31
0.0
  0
LINE
  8
52
  5
27190
 10
10.0
 20
104.780809
 30
0.0
 11
-25.0
 21
104.780809
 31
0.0
  0
LINE
  8
52
  5
27191
 10
15.05
 20
108.230809
 30
0.0
 11
19.95
 21
108.230809
 31
0.0
  0
ARC
  8
52
  5
27192
 10
20.05
 20
113.630809
 30
0.0
 40
5.5
 50
90.0
 51
180.0
  0
ARC
  8
52
  5
27193
 10
20.0
 20
113.680809
 30
0.0
 40
6.2
 50
90.0
 51
180.0
  0
ARC
  8
52
  5
27194
 10
20.0
 20
113.680809
 30
0.0
 40
8.5
 50
90.0
 51
180.0
  0
ARC
  8
51
  5
27195
 10
20.0
 20
113.680809
 30
0.0
 40
9.5
 50
90.0
 51
180.0
  0
LINE
  8
52
  5
27196
 10
16.36682
 20
110.030809
 30
0.0
 11
23.63318
 21
110.030809
 31
0.0
  0
LINE
  8
52
  5
27197
 10
16.36682
 20
117.330809
 30
0.0
 11
23.63318
 21
117.330809
 31
0.0
  0
ARC
  8
52
  5
27198
 10
10.0
 20
108.580809
 30
0.0
 40
3.8
 50
270.0
 51
0.0
  0
ARC
  8
52
  5
27199
 10
10.0
 20
108.780809
 30
0.0
 40
1.5
 50
270.0
 51
0.0
  0
LINE
  8
52
  5
2719A
 10
11.5
 20
113.680809
 30
0.0
 11
11.5
 21
108.780809
 31
0.0
  0
LINE
  8
51
  5
2719B
 10
10.5
 20
113.680809
 30
0.0
 11
10.5
 21
108.680809
 31
0.0
  0
ARC
  8
51
  5
2719C
 10
10.0
 20
108.680809
 30
0.0
 40
0.5
 50
270.0
 51
360.0
  0
LINE
  8
52
  5
2719D
 10
14.55
 20
108.730809
 30
0.0
 11
14.55
 21
113.630809
 31
0.0
  0
ARC
  8
52
  5
2719E
 10
15.05
 20
108.730809
 30
0.0
 40
0.5
 50
180.0
 51
270.0
  0
LINE
  8
52
  5
2719F
 10
13.8
 20
113.680809
 30
0.0
 11
13.8
 21
108.580809
 31
0.0
  0
ARC
  8
52
  5
271A0
 10
20.0
 20
113.680809
 30
0.0
 40
5.15
 50
134.867683
 51
225.132317
  0
ARC
  8
51
  5
271A2
 10
20.0
 20
113.680809
 30
0.0
 40
10.0
 50
270.0
 51
0.0
  0
LINE
  8
52
  5
271A3
 10
28.9
 20
123.680809
 30
0.0
 11
28.9
 21
143.680809
 31
0.0
  0
LINE
  8
51
  5
271A4
 10
30.0
 20
113.680809
 30
0.0
 11
30.0
 21
143.680809
 31
0.0
  0
LINE
  8
51
  5
271A5
 10
25.5
 20
123.680809
 30
0.0
 11
25.5
 21
143.680809
 31
0.0
  0
LINE
  8
52
  5
271A6
 10
26.4
 20
123.680809
 30
0.0
 11
26.4
 21
143.680809
 31
0.0
  0
ARC
  8
52
  5
271A7
 10
19.95
 20
113.730809
 30
0.0
 40
5.5
 50
270.0
 51
360.0
  0
ARC
  8
52
  5
271A8
 10
25.1
 20
123.680809
 30
0.0
 40
3.8
 50
270.0
 51
360.0
  0
ARC
  8
52
  5
271A9
 10
24.9
 20
123.680809
 30
0.0
 40
1.5
 50
270.0
 51
0.0
  0
ARC
  8
51
  5
271AA
 10
25.0
 20
123.680809
 30
0.0
 40
0.5
 50
270.0
 51
360.0
  0
LINE
  8
52
  5
271AB
 10
20.0
 20
119.880809
 30
0.0
 11
25.1
 21
119.880809
 31
0.0
  0
LINE
  8
52
  5
271AC
 10
20.0
 20
122.180809
 30
0.0
 11
24.9
 21
122.180809
 31
0.0
  0
LINE
  8
51
  5
271AD
 10
20.0
 20
123.180809
 30
0.0
 11
25.0
 21
123.180809
 31
0.0
  0
ARC
  8
52
  5
271AE
 10
20.0
 20
113.680809
 30
0.0
 40
5.15
 50
314.867683
 51
45.132317
  0
LINE
  8
52
  5
271AF
 10
25.45
 20
113.730809
 30
0.0
 11
25.45
 21
118.630809
 31
0.0
  0
ARC
  8
52
  5
271B0
 10
24.95
 20
118.630809
 30
0.0
 40
0.5
 50
360.0
 51
90.0
  0
LINE
  8
52
  5
271B1
 10
20.05
 20
119.130809
 30
0.0
 11
24.95
 21
119.130809
 31
0.0
  0
ARC
  8
52
  5
271B6
 10
-70.0
 20
173.680809
 30
0.0
 40
8.3
 50
107.0
 51
163.0
  0
LINE
  8
52
  5
271B7
 10
25.108012
 20
111.821645
 30
0.0
 11
27.235633
 21
111.047254
 31
0.0
  0
LINE
  8
52
  5
271B8
 10
21.859164
 20
108.572797
 30
0.0
 11
22.633555
 21
106.445176
 31
0.0
  0
ARC
  8
52
  5
271B9
 10
20.0
 20
113.680809
 30
0.0
 40
7.7
 50
290.0
 51
340.0
  0
LINE
  8
61
  5
273B3
 10
122.860182
 20
104.980809
 30
0.0
 11
168.860182
 21
104.980809
 31
0.0
  0
ARC
  8
61
  5
273B4
 10
122.860182
 20
112.680809
 30
0.0
 40
7.7
 50
180.0
 51
270.0
  0
LINE
  8
61
  5
273B5
 10
115.160182
 20
112.680809
 30
0.0
 11
115.160182
 21
143.680809
 31
0.0
  0
LINE
  8
61
  5
273B6
 10
122.860182
 20
182.380809
 30
0.0
 11
168.860182
 21
182.380809
 31
0.0
  0
LINE
  8
61
  5
273B7
 10
122.860182
 20
183.680809
 30
0.0
 11
168.860182
 21
183.680809
 31
0.0
  0
LINE
  8
62
  5
273B8
 10
122.860182
 20
181.13713
 30
0.0
 11
168.860182
 21
181.13713
 31
0.0
  0
LINE
  8
61
  5
273B9
 10
115.160182
 20
174.680809
 30
0.0
 11
115.160182
 21
143.680809
 31
0.0
  0
ARC
  8
61
  5
273BA
 10
123.860182
 20
173.680809
 30
0.0
 40
5.15
 50
314.867683
 51
45.132317
  0
ARC
  8
61
  5
273BB
 10
123.860182
 20
173.680809
 30
0.0
 40
5.15
 50
134.867683
 51
225.132317
  0
CIRCLE
  8
61
  5
273BC
 10
123.860182
 20
173.680809
 30
0.0
 40
5.5
  0
LINE
  8
61
  5
273BE
 10
113.860182
 20
174.680809
 30
0.0
 11
113.860182
 21
143.680809
 31
0.0
  0
LINE
  8
62
  5
273BF
 10
116.403862
 20
174.680809
 30
0.0
 11
116.403862
 21
143.680809
 31
0.0
  0
ARC
  8
61
  5
273C0
 10
122.860182
 20
174.680809
 30
0.0
 40
7.7
 50
90.0
 51
180.0
  0
ARC
  8
61
  5
273C1
 10
122.860182
 20
174.680809
 30
0.0
 40
9.0
 50
90.0
 51
180.0
  0
ARC
  8
62
  5
273C2
 10
122.860182
 20
174.680809
 30
0.0
 40
6.45632
 50
90.0
 51
180.0
  0
LINE
  8
61
  5
273C4
 10
127.493363
 20
177.330809
 30
0.0
 11
120.227002
 21
177.330809
 31
0.0
  0
LINE
  8
61
  5
273C5
 10
127.493363
 20
170.030809
 30
0.0
 11
120.227002
 21
170.030809
 31
0.0
  0
LINE
  8
62
  5
273C6
 10
214.860182
 20
181.13713
 30
0.0
 11
168.860182
 21
181.13713
 31
0.0
  0
LINE
  8
61
  5
273C7
 10
214.860182
 20
183.680809
 30
0.0
 11
168.860182
 21
183.680809
 31
0.0
  0
LINE
  8
61
  5
273C8
 10
214.860182
 20
182.380809
 30
0.0
 11
168.860182
 21
182.380809
 31
0.0
  0
LINE
  8
61
  5
273C9
 10
214.860182
 20
104.980809
 30
0.0
 11
168.860182
 21
104.980809
 31
0.0
  0
LINE
  8
61
  5
273CA
 10
214.860182
 20
103.680809
 30
0.0
 11
168.860182
 21
103.680809
 31
0.0
  0
LINE
  8
62
  5
273CB
 10
214.860182
 20
106.224489
 30
0.0
 11
168.860182
 21
106.224489
 31
0.0
  0
LINE
  8
63
  6
DASHDOT
  5
273CC
 10
168.860182
 20
143.680809
 30
0.0
 11
226.860182
 21
143.680809
 31
0.0
  0
LINE
  8
61
  5
273CD
 10
222.560182
 20
112.680809
 30
0.0
 11
222.560182
 21
143.680809
 31
0.0
  0
ARC
  8
61
  5
273CE
 10
213.860182
 20
113.680809
 30
0.0
 40
5.15
 50
134.867683
 51
225.132317
  0
ARC
  8
61
  5
273CF
 10
213.860182
 20
113.680809
 30
0.0
 40
5.15
 50
314.867683
 51
45.132317
  0
CIRCLE
  8
61
  5
273D0
 10
213.860182
 20
113.680809
 30
0.0
 40
5.5
  0
LINE
  8
61
  5
273D2
 10
223.860182
 20
112.680809
 30
0.0
 11
223.860182
 21
143.680809
 31
0.0
  0
LINE
  8
62
  5
273D3
 10
221.316502
 20
112.680809
 30
0.0
 11
221.316502
 21
143.680809
 31
0.0
  0
ARC
  8
61
  5
273D4
 10
214.860182
 20
112.680809
 30
0.0
 40
7.7
 50
270.0
 51
0.0
  0
ARC
  8
61
  5
273D5
 10
214.860182
 20
112.680809
 30
0.0
 40
9.0
 50
270.0
 51
0.0
  0
ARC
  8
62
  5
273D6
 10
214.860182
 20
112.680809
 30
0.0
 40
6.45632
 50
270.0
 51
0.0
  0
LINE
  8
61
  5
273D8
 10
210.227002
 20
110.030809
 30
0.0
 11
217.493363
 21
110.030809
 31
0.0
  0
LINE
  8
62
  5
273D9
 10
221.316502
 20
174.680809
 30
0.0
 11
221.316502
 21
143.680809
 31
0.0
  0
LINE
  8
61
  5
273DA
 10
223.860182
 20
174.680809
 30
0.0
 11
223.860182
 21
143.680809
 31
0.0
  0
LINE
  8
61
  5
273DC
 10
222.560182
 20
174.680809
 30
0.0
 11
222.560182
 21
143.680809
 31
0.0
  0
LINE
  8
61
  5
273DD
 10
210.227002
 20
117.330809
 30
0.0
 11
217.493363
 21
117.330809
 31
0.0
  0
LINE
  8
61
  5
273DE
 10
210.227002
 20
170.030809
 30
0.0
 11
217.493363
 21
170.030809
 31
0.0
  0
LINE
  8
61
  5
273DF
 10
210.227002
 20
177.330809
 30
0.0
 11
217.493363
 21
177.330809
 31
0.0
  0
ARC
  8
62
  5
273E1
 10
214.860182
 20
174.680809
 30
0.0
 40
6.45632
 50
0.0
 51
90.0
  0
ARC
  8
61
  5
273E2
 10
214.860182
 20
174.680809
 30
0.0
 40
9.0
 50
0.0
 51
90.0
  0
ARC
  8
61
  5
273E3
 10
214.860182
 20
174.680809
 30
0.0
 40
7.7
 50
0.0
 51
90.0
  0
CIRCLE
  8
61
  5
273E4
 10
213.860182
 20
173.680809
 30
0.0
 40
5.5
  0
ARC
  8
61
  5
273E5
 10
213.860182
 20
173.680809
 30
0.0
 40
5.15
 50
314.867683
 51
45.132317
  0
ARC
  8
61
  5
273E6
 10
213.860182
 20
173.680809
 30
0.0
 40
5.15
 50
134.867683
 51
225.132317
  0
LINE
  8
63
  6
DASHDOT
  5
273E7
 10
168.860182
 20
187.680809
 30
0.0
 11
168.860182
 21
143.680809
 31
0.0
  0
LINE
  8
34
  5
2A5F5
 10
262.75
 20
164.180809
 30
0.0
 11
281.75
 21
164.180809
 31
0.0
  0
LINE
  8
52
  5
2ABE9
 10
-71.589761
 20
178.880684
 30
0.0
 11
-72.426685
 21
181.618139
 31
0.0
  0
LINE
  8
52
  5
2ABEA
 10
-75.199875
 20
175.270571
 30
0.0
 11
-77.937329
 21
176.107495
 31
0.0
  0
LINE
  8
34
  5
2C6AE
 10
281.75
 20
123.180809
 30
0.0
 11
281.75
 21
143.680809
 31
0.0
  0
LINE
  8
34
  5
2C6B1
 10
262.75
 20
123.180809
 30
0.0
 11
281.75
 21
123.180809
 31
0.0
  0
LINE
  8
31
  5
2C6B2
 10
262.75
 20
180.206992
 30
0.0
 11
262.75
 21
143.680809
 31
0.0
  0
LINE
  8
31
  5
2C6B3
 10
284.75
 20
179.908777
 30
0.0
 11
284.75
 21
143.680809
 31
0.0
  0
LINE
  8
31
  5
2C6B4
 10
269.75
 20
182.542127
 30
0.0
 11
269.75
 21
143.680809
 31
0.0
  0
LINE
  8
31
  5
2C6B5
 10
264.75
 20
180.233175
 30
0.0
 11
264.75
 21
143.680809
 31
0.0
  0
LINE
  8
31
  5
2C6B6
 10
270.042147
 20
182.24223
 30
0.0
 11
282.802354
 21
181.908092
 31
0.0
  0
LINE
  8
31
  5
2C6B7
 10
264.75
 20
182.580809
 30
0.0
 11
264.75
 21
180.233175
 31
0.0
  0
ARC
  8
31
  5
2C6B8
 10
270.05
 20
182.542127
 30
0.0
 40
0.3
 50
180.0
 51
268.5
  0
ARC
  8
31
  5
2C6B9
 10
269.25
 20
183.062801
 30
0.0
 40
0.5
 50
0.0
 51
88.5
  0
LINE
  8
31
  5
2C6BA
 10
269.75
 20
183.062801
 30
0.0
 11
269.75
 21
182.542127
 31
0.0
  0
LINE
  8
31
  5
2C6BB
 10
264.75
 20
183.680809
 30
0.0
 11
264.75
 21
182.580809
 31
0.0
  0
LINE
  8
31
  5
2C6BC
 10
264.75
 20
183.680809
 30
0.0
 11
269.263088
 21
183.56263
 31
0.0
  0
LINE
  8
31
  5
2C6BD
 10
262.75
 20
180.198264
 30
0.0
 11
264.75
 21
180.233175
 31
0.0
  0
ARC
  8
31
  5
2C6BE
 10
282.75
 20
179.908777
 30
0.0
 40
2.0
 50
0.0
 51
88.5
  0
LINE
  8
21
  5
2C6BF
 10
117.307817
 20
212.25
 30
0.0
 11
168.860182
 21
212.25
 31
0.0
  0
LINE
  8
21
  5
2C6C0
 10
114.998865
 20
217.25
 30
0.0
 11
168.860182
 21
217.25
 31
0.0
  0
LINE
  8
21
  5
2C6C1
 10
117.632214
 20
232.25
 30
0.0
 11
168.860182
 21
232.25
 31
0.0
  0
LINE
  8
21
  5
2C6C2
 10
117.334
 20
210.25
 30
0.0
 11
168.860182
 21
210.25
 31
0.0
  0
LINE
  8
24
  5
2C6C3
 10
133.360182
 20
229.25
 30
0.0
 11
168.860182
 21
229.25
 31
0.0
  0
LINE
  8
21
  5
2C6C4
 10
115.298762
 20
217.542147
 30
0.0
 11
115.6329
 21
230.302354
 31
0.0
  0
LINE
  8
21
  5
2C6C6
 10
113.860182
 20
212.25
 30
0.0
 11
114.960182
 21
212.25
 31
0.0
  0
LINE
  8
21
  5
2C6C7
 10
114.47819
 20
217.25
 30
0.0
 11
114.998865
 21
217.25
 31
0.0
  0
LINE
  8
21
  5
2C6C8
 10
113.860182
 20
212.25
 30
0.0
 11
113.978361
 21
216.763088
 31
0.0
  0
ARC
  8
21
  5
2C6C9
 10
114.47819
 20
216.75
 30
0.0
 40
0.5
 50
90.0
 51
178.5
  0
LINE
  8
21
  5
2C6CA
 10
117.342727
 20
210.25
 30
0.0
 11
117.307817
 21
212.25
 31
0.0
  0
ARC
  8
21
  5
2C6CB
 10
114.998865
 20
217.55
 30
0.0
 40
0.3
 50
270.0
 51
358.5
  0
LINE
  8
21
  5
2C6CC
 10
114.960182
 20
212.25
 30
0.0
 11
117.307817
 21
212.25
 31
0.0
  0
ARC
  8
21
  5
2C6CE
 10
117.632214
 20
230.25
 30
0.0
 40
2.0
 50
90.0
 51
178.5
  0
LINE
  8
24
  5
2C6CF
 10
133.360182
 20
210.25
 30
0.0
 11
133.360182
 21
229.25
 31
0.0
  0
LINE
  8
24
  5
2C6D0
 10
204.360182
 20
229.25
 30
0.0
 11
168.860182
 21
229.25
 31
0.0
  0
LINE
  8
21
  5
2C6D1
 10
220.386365
 20
210.25
 30
0.0
 11
168.860182
 21
210.25
 31
0.0
  0
LINE
  8
21
  5
2C6D2
 10
220.08815
 20
232.25
 30
0.0
 11
168.860182
 21
232.25
 31
0.0
  0
LINE
  8
21
  5
2C6D3
 10
222.7215
 20
217.25
 30
0.0
 11
168.860182
 21
217.25
 31
0.0
  0
LINE
  8
21
  5
2C6D4
 10
220.412547
 20
212.25
 30
0.0
 11
168.860182
 21
212.25
 31
0.0
  0
LINE
  8
23
  6
DASHDOT
  5
2C6D5
 10
168.860182
 20
208.25
 30
0.0
 11
168.860182
 21
232.75
 31
0.0
  0
LINE
  8
21
  5
2C6D7
 10
222.421602
 20
217.542147
 30
0.0
 11
222.087465
 21
230.302354
 31
0.0
  0
LINE
  8
21
  5
2C6D9
 10
222.760182
 20
212.25
 30
0.0
 11
220.412547
 21
212.25
 31
0.0
  0
ARC
  8
21
  5
2C6DA
 10
222.7215
 20
217.55
 30
0.0
 40
0.3
 50
181.5
 51
270.0
  0
ARC
  8
21
  5
2C6DB
 10
223.242174
 20
216.75
 30
0.0
 40
0.5
 50
1.5
 51
90.0
  0
LINE
  8
21
  5
2C6DC
 10
223.242174
 20
217.25
 30
0.0
 11
222.7215
 21
217.25
 31
0.0
  0
LINE
  8
21
  5
2C6DD
 10
223.860182
 20
212.25
 30
0.0
 11
222.760182
 21
212.25
 31
0.0
  0
LINE
  8
21
  5
2C6DE
 10
223.860182
 20
212.25
 30
0.0
 11
223.742003
 21
216.763088
 31
0.0
  0
LINE
  8
21
  5
2C6DF
 10
220.377637
 20
210.25
 30
0.0
 11
220.412547
 21
212.25
 31
0.0
  0
LINE
  8
24
  5
2C6E0
 10
204.360182
 20
210.25
 30
0.0
 11
204.360182
 21
229.25
 31
0.0
  0
ARC
  8
21
  5
2C6E1
 10
220.08815
 20
230.25
 30
0.0
 40
2.0
 50
1.5
 51
90.0
  0
LINE
  8
14
  5
2C6E2
 10
204.360182
 20
58.111619
 30
0.0
 11
168.860182
 21
58.111619
 31
0.0
  0
LINE
  8
11
  5
2C6E3
 10
220.412547
 20
75.111619
 30
0.0
 11
168.860182
 21
75.111619
 31
0.0
  0
LINE
  8
11
  5
2C6E4
 10
222.7215
 20
70.111619
 30
0.0
 11
168.860182
 21
70.111619
 31
0.0
  0
LINE
  8
11
  5
2C6E5
 10
220.08815
 20
55.111619
 30
0.0
 11
168.860182
 21
55.111619
 31
0.0
  0
LINE
  8
11
  5
2C6E6
 10
220.386365
 20
77.111619
 30
0.0
 11
168.860182
 21
77.111619
 31
0.0
  0
LINE
  8
11
  5
2C6E8
 10
222.421602
 20
69.819472
 30
0.0
 11
222.087465
 21
57.059265
 31
0.0
  0
LINE
  8
11
  5
2C6E9
 10
223.860182
 20
75.111619
 30
0.0
 11
222.760182
 21
75.111619
 31
0.0
  0
LINE
  8
11
  5
2C6EA
 10
223.242174
 20
70.111619
 30
0.0
 11
222.7215
 21
70.111619
 31
0.0
  0
LINE
  8
11
  5
2C6EB
 10
223.860182
 20
75.111619
 30
0.0
 11
223.742003
 21
70.59853
 31
0.0
  0
ARC
  8
11
  5
2C6EC
 10
223.242174
 20
70.611619
 30
0.0
 40
0.5
 50
270.0
 51
358.5
  0
LINE
  8
11
  5
2C6ED
 10
220.377637
 20
77.111619
 30
0.0
 11
220.412547
 21
75.111619
 31
0.0
  0
ARC
  8
11
  5
2C6EE
 10
222.7215
 20
69.811619
 30
0.0
 40
0.3
 50
90.0
 51
178.5
  0
LINE
  8
11
  5
2C6EF
 10
222.760182
 20
75.111619
 30
0.0
 11
220.412547
 21
75.111619
 31
0.0
  0
ARC
  8
11
  5
2C6F1
 10
220.08815
 20
57.111619
 30
0.0
 40
2.0
 50
270.0
 51
358.5
  0
LINE
  8
14
  5
2C6F2
 10
204.360182
 20
77.111619
 30
0.0
 11
204.360182
 21
58.111619
 31
0.0
  0
LINE
  8
11
  5
2C6F3
 10
117.334
 20
77.111619
 30
0.0
 11
168.860182
 21
77.111619
 31
0.0
  0
LINE
  8
11
  5
2C6F4
 10
117.632214
 20
55.111619
 30
0.0
 11
168.860182
 21
55.111619
 31
0.0
  0
LINE
  8
11
  5
2C6F5
 10
114.998865
 20
70.111619
 30
0.0
 11
168.860182
 21
70.111619
 31
0.0
  0
LINE
  8
11
  5
2C6F6
 10
117.307817
 20
75.111619
 30
0.0
 11
168.860182
 21
75.111619
 31
0.0
  0
LINE
  8
14
  5
2C6F7
 10
133.360182
 20
58.111619
 30
0.0
 11
168.860182
 21
58.111619
 31
0.0
  0
LINE
  8
13
  6
DASHDOT
  5
2C6F8
 10
168.860182
 20
79.111619
 30
0.0
 11
168.860182
 21
54.611619
 31
0.0
  0
LINE
  8
14
  5
2C6FB
 10
133.360182
 20
77.111619
 30
0.0
 11
133.360182
 21
58.111619
 31
0.0
  0
LINE
  8
11
  5
2C6FC
 10
115.298762
 20
69.819472
 30
0.0
 11
115.6329
 21
57.059265
 31
0.0
  0
ARC
  8
11
  5
2C6FD
 10
114.47819
 20
70.611619
 30
0.0
 40
0.5
 50
181.5
 51
270.0
  0
LINE
  8
11
  5
2C6FE
 10
113.860182
 20
75.111619
 30
0.0
 11
113.978361
 21
70.59853
 31
0.0
  0
LINE
  8
11
  5
2C6FF
 10
114.960182
 20
75.111619
 30
0.0
 11
117.307817
 21
75.111619
 31
0.0
  0
ARC
  8
11
  5
2C700
 10
114.998865
 20
69.811619
 30
0.0
 40
0.3
 50
1.5
 51
90.0
  0
LINE
  8
11
  5
2C701
 10
117.342727
 20
77.111619
 30
0.0
 11
117.307817
 21
75.111619
 31
0.0
  0
LINE
  8
11
  5
2C702
 10
114.47819
 20
70.111619
 30
0.0
 11
114.998865
 21
70.111619
 31
0.0
  0
LINE
  8
11
  5
2C703
 10
113.860182
 20
75.111619
 30
0.0
 11
114.960182
 21
75.111619
 31
0.0
  0
ARC
  8
11
  5
2C704
 10
117.632214
 20
57.111619
 30
0.0
 40
2.0
 50
181.5
 51
270.0
  0
LINE
  8
41
  5
2C705
 10
72.970364
 20
180.233175
 30
0.0
 11
72.970364
 21
143.680809
 31
0.0
  0
LINE
  8
41
  5
2C706
 10
67.970364
 20
182.542127
 30
0.0
 11
67.970364
 21
143.680809
 31
0.0
  0
LINE
  8
41
  5
2C707
 10
52.970364
 20
179.908777
 30
0.0
 11
52.970364
 21
143.680809
 31
0.0
  0
LINE
  8
41
  5
2C708
 10
74.970364
 20
180.206992
 30
0.0
 11
74.970364
 21
143.680809
 31
0.0
  0
LINE
  8
41
  5
2C709
 10
67.678217
 20
182.24223
 30
0.0
 11
54.91801
 21
181.908092
 31
0.0
  0
LINE
  8
41
  5
2C70A
 10
72.970364
 20
183.680809
 30
0.0
 11
68.457276
 21
183.56263
 31
0.0
  0
LINE
  8
41
  5
2C70B
 10
74.970364
 20
180.198264
 30
0.0
 11
72.970364
 21
180.233175
 31
0.0
  0
LINE
  8
41
  5
2C70C
 10
72.970364
 20
183.680809
 30
0.0
 11
72.970364
 21
182.580809
 31
0.0
  0
LINE
  8
41
  5
2C70D
 10
72.970364
 20
182.580809
 30
0.0
 11
72.970364
 21
180.233175
 31
0.0
  0
LINE
  8
41
  5
2C70E
 10
67.970364
 20
183.062801
 30
0.0
 11
67.970364
 21
182.542127
 31
0.0
  0
ARC
  8
41
  5
2C70F
 10
68.470364
 20
183.062801
 30
0.0
 40
0.5
 50
91.5
 51
180.0
  0
ARC
  8
41
  5
2C710
 10
67.670364
 20
182.542127
 30
0.0
 40
0.3
 50
271.5
 51
0.0
  0
ARC
  8
41
  5
2C711
 10
54.970364
 20
179.908777
 30
0.0
 40
2.0
 50
91.5
 51
180.0
  0
LINE
  8
43
  6
DASHDOT
  5
2C713
 10
76.970364
 20
143.680809
 30
0.0
 11
52.470364
 21
143.680809
 31
0.0
  0
LINE
  8
41
  5
2C715
 10
67.678217
 20
105.119389
 30
0.0
 11
54.91801
 21
105.453527
 31
0.0
  0
LINE
  8
41
  5
2C716
 10
74.970364
 20
107.154627
 30
0.0
 11
74.970364
 21
143.680809
 31
0.0
  0
LINE
  8
41
  5
2C717
 10
67.970364
 20
104.819492
 30
0.0
 11
67.970364
 21
143.680809
 31
0.0
  0
LINE
  8
41
  5
2C718
 10
72.970364
 20
107.128444
 30
0.0
 11
72.970364
 21
143.680809
 31
0.0
  0
LINE
  8
41
  5
2C71B
 10
72.970364
 20
103.680809
 30
0.0
 11
68.457276
 21
103.798989
 31
0.0
  0
LINE
  8
41
  5
2C71C
 10
72.970364
 20
104.780809
 30
0.0
 11
72.970364
 21
107.128444
 31
0.0
  0
LINE
  8
41
  5
2C71D
 10
74.970364
 20
107.163354
 30
0.0
 11
72.970364
 21
107.128444
 31
0.0
  0
LINE
  8
41
  5
2C71E
 10
72.970364
 20
103.680809
 30
0.0
 11
72.970364
 21
104.780809
 31
0.0
  0
ARC
  8
41
  5
2C71F
 10
67.670364
 20
104.819492
 30
0.0
 40
0.3
 50
360.0
 51
88.5
  0
ARC
  8
41
  5
2C720
 10
68.470364
 20
104.298817
 30
0.0
 40
0.5
 50
180.0
 51
268.5
  0
LINE
  8
41
  5
2C721
 10
67.970364
 20
104.298817
 30
0.0
 11
67.970364
 21
104.819492
 31
0.0
  0
LINE
  8
44
  5
2C722
 10
55.970364
 20
123.180809
 30
0.0
 11
55.970364
 21
143.680809
 31
0.0
  0
LINE
  8
41
  5
2C723
 10
52.970364
 20
107.452842
 30
0.0
 11
52.970364
 21
143.680809
 31
0.0
  0
LINE
  8
44
  5
2C724
 10
55.970364
 20
164.180809
 30
0.0
 11
55.970364
 21
143.680809
 31
0.0
  0
LINE
  8
44
  5
2C725
 10
74.970364
 20
164.180809
 30
0.0
 11
55.970364
 21
164.180809
 31
0.0
  0
LINE
  8
44
  5
2C726
 10
74.970364
 20
123.180809
 30
0.0
 11
55.970364
 21
123.180809
 31
0.0
  0
ARC
  8
41
  5
2C727
 10
54.970364
 20
107.452842
 30
0.0
 40
2.0
 50
180.0
 51
268.5
  0
TEXT
  8
L20
  5
2C728
 10
-61.780778
 20
216.562458
 30
0.0
 40
5.2
  1
FIBOX PICCOLO B 110x80x20 COVER
  0
LINE
  8
64
  5
2C72F
 10
219.360182
 20
163.680809
 30
0.0
 11
219.360182
 21
143.680809
 31
0.0
  0
LINE
  8
64
  5
2C730
 10
118.360182
 20
163.680809
 30
0.0
 11
118.360182
 21
143.680809
 31
0.0
  0
ARC
  8
64
  5
2C731
 10
213.860182
 20
113.680809
 30
0.0
 40
9.5
 50
90.0
 51
180.0
  0
ARC
  8
64
  5
2C732
 10
123.860182
 20
113.680809
 30
0.0
 40
9.5
 50
0.0
 51
90.0
  0
LINE
  8
64
  5
2C733
 10
118.360182
 20
123.680809
 30
0.0
 11
118.360182
 21
143.680809
 31
0.0
  0
LINE
  8
64
  5
2C734
 10
123.860182
 20
123.180809
 30
0.0
 11
118.860182
 21
123.180809
 31
0.0
  0
ARC
  8
64
  5
2C735
 10
118.860182
 20
123.680809
 30
0.0
 40
0.5
 50
180.0
 51
270.0
  0
LINE
  8
64
  5
2C736
 10
133.860182
 20
108.180809
 30
0.0
 11
168.860182
 21
108.180809
 31
0.0
  0
LINE
  8
64
  5
2C737
 10
133.360182
 20
113.680809
 30
0.0
 11
133.360182
 21
108.680809
 31
0.0
  0
ARC
  8
64
  5
2C738
 10
133.860182
 20
108.680809
 30
0.0
 40
0.5
 50
180.0
 51
270.0
  0
LINE
  8
64
  5
2C739
 10
203.860182
 20
108.180809
 30
0.0
 11
168.860182
 21
108.180809
 31
0.0
  0
ARC
  8
64
  5
2C73A
 10
203.860182
 20
108.680809
 30
0.0
 40
0.5
 50
270.0
 51
360.0
  0
LINE
  8
64
  5
2C73B
 10
204.360182
 20
113.680809
 30
0.0
 11
204.360182
 21
108.680809
 31
0.0
  0
LINE
  8
64
  5
2C73C
 10
219.360182
 20
123.680809
 30
0.0
 11
219.360182
 21
143.680809
 31
0.0
  0
LINE
  8
64
  5
2C73D
 10
213.860182
 20
123.180809
 30
0.0
 11
218.860182
 21
123.180809
 31
0.0
  0
ARC
  8
64
  5
2C73E
 10
218.860182
 20
123.680809
 30
0.0
 40
0.5
 50
270.0
 51
360.0
  0
ARC
  8
64
  5
2C73F
 10
213.860182
 20
173.680809
 30
0.0
 40
9.5
 50
180.0
 51
270.0
  0
ARC
  8
64
  5
2C740
 10
123.860182
 20
173.680809
 30
0.0
 40
9.5
 50
270.0
 51
360.0
  0
LINE
  8
64
  5
2C741
 10
123.860182
 20
164.180809
 30
0.0
 11
118.860182
 21
164.180809
 31
0.0
  0
ARC
  8
64
  5
2C742
 10
118.860182
 20
163.680809
 30
0.0
 40
0.5
 50
90.0
 51
180.0
  0
LINE
  8
64
  5
2C743
 10
133.860182
 20
179.180809
 30
0.0
 11
168.860182
 21
179.180809
 31
0.0
  0
LINE
  8
64
  5
2C744
 10
133.360182
 20
173.680809
 30
0.0
 11
133.360182
 21
178.680809
 31
0.0
  0
ARC
  8
64
  5
2C745
 10
133.860182
 20
178.680809
 30
0.0
 40
0.5
 50
90.0
 51
180.0
  0
LINE
  8
64
  5
2C746
 10
203.860182
 20
179.180809
 30
0.0
 11
168.860182
 21
179.180809
 31
0.0
  0
LINE
  8
64
  5
2C747
 10
204.360182
 20
173.680809
 30
0.0
 11
204.360182
 21
178.680809
 31
0.0
  0
ARC
  8
64
  5
2C748
 10
203.860182
 20
178.680809
 30
0.0
 40
0.5
 50
0.0
 51
90.0
  0
LINE
  8
64
  5
2C749
 10
213.860182
 20
164.180809
 30
0.0
 11
218.860182
 21
164.180809
 31
0.0
  0
ARC
  8
64
  5
2C74A
 10
218.860182
 20
163.680809
 30
0.0
 40
0.5
 50
0.0
 51
90.0
  0
ENDBLK
  8
0
  5
2C74C
  0
ENDSEC
  0
SECTION
  2
ENTITIES
  0
VIEWPORT
  8
0
  5
1
 67
     1
 68
     1
 10
210.0
 20
152.094241
 30
0.0
 40
420.0
 41
304.188482
 69
     1
1001
ACAD
1000
MVIEW
1002
{
1070
    16
1010
0.0
1020
0.0
1030
0.0
1010
0.0
1020
0.0
1030
1.0
1040
0.0
1040
304.188482
1040
210.0
1040
152.094241
1040
50.0
1040
0.0
1040
0.0
1070
     0
1070
   100
1070
     1
1070
     1
1070
     1
1070
     0
1070
     0
1070
     0
1040
0.0
1040
0.0
1040
0.0
1040
1.0
1040
1.0
1040
0.0
1040
0.0
1070
     0
1002
{
1002
}
1002
}
  0
INSERT
  8
L1
  5
2C74D
  2
PICB20C
 10
0.0
 20
0.0
 30
0.0
  0
ENDSEC
  0
EOF
