  0
SECTION
  2
HEADER
  9
$ACADVER
  1
AC1015
  9
$ACADMAINTVER
 70
     6
  9
$DWGCODEPAGE
  3
ANSI_1252
  9
$INSBASE
 10
0.0
 20
0.0
 30
0.0
  9
$EXTMIN
 10
0.0
 20
0.0
 30
0.0
  9
$EXTMAX
 10
420.0
 20
297.0
 30
0.0
  9
$LIMMIN
 10
0.0
 20
0.0
  9
$LIMMAX
 10
420.0
 20
297.0
  9
$ORTHOMODE
 70
     0
  9
$REGENMODE
 70
     1
  9
$FILLMODE
 70
     1
  9
$QTEXTMODE
 70
     0
  9
$MIRRTEXT
 70
     1
  9
$LTSCALE
 40
1.0
  9
$ATTMODE
 70
     1
  9
$TEXTSIZE
 40
3.5
  9
$TRACEWID
 40
1.0
  9
$TEXTSTYLE
  7
Standard
  9
$CLAYER
  8
0
  9
$CELTYPE
  6
ByLayer
  9
$CECOLOR
 62
   256
  9
$CELTSCALE
 40
1.0
  9
$DISPSILH
 70
     0
  9
$DIMSCALE
 40
1.0
  9
$DIMASZ
 40
6.0
  9
$DIMEXO
 40
1.0
  9
$DIMDLI
 40
3.75
  9
$DIMRND
 40
0.0
  9
$DIMDLE
 40
0.0
  9
$DIMEXE
 40
1.0
  9
$DIMTP
 40
0.0
  9
$DIMTM
 40
0.0
  9
$DIMTXT
 40
3.5
  9
$DIMCEN
 40
2.5
  9
$DIMTSZ
 40
0.0
  9
$DIMTOL
 70
     0
  9
$DIMLIM
 70
     0
  9
$DIMTIH
 70
     1
  9
$DIMTOH
 70
     1
  9
$DIMSE1
 70
     0
  9
$DIMSE2
 70
     0
  9
$DIMTAD
 70
     1
  9
$DIMZIN
 70
     0
  9
$DIMBLK
  1

  9
$DIMASO
 70
     1
  9
$DIMSHO
 70
     1
  9
$DIMPOST
  1

  9
$DIMAPOST
  1

  9
$DIMALT
 70
     0
  9
$DIMALTD
 70
     3
  9
$DIMALTF
 40
0.0393700787
  9
$DIMLFAC
 40
2.0
  9
$DIMTOFL
 70
     1
  9
$DIMTVP
 40
0.0
  9
$DIMTIX
 70
     0
  9
$DIMSOXD
 70
     0
  9
$DIMSAH
 70
     0
  9
$DIMBLK1
  1

  9
$DIMBLK2
  1

  9
$DIMSTYLE
  2
ISO-25
  9
$DIMCLRD
 70
     0
  9
$DIMCLRE
 70
     0
  9
$DIMCLRT
 70
     0
  9
$DIMTFAC
 40
1.0
  9
$DIMGAP
 40
1.524
  9
$DIMJUST
 70
     0
  9
$DIMSD1
 70
     0
  9
$DIMSD2
 70
     0
  9
$DIMTOLJ
 70
     0
  9
$DIMTZIN
 70
     0
  9
$DIMALTZ
 70
     0
  9
$DIMALTTZ
 70
     0
  9
$DIMUPT
 70
     0
  9
$DIMDEC
 70
     2
  9
$DIMTDEC
 70
     2
  9
$DIMALTU
 70
     2
  9
$DIMALTTD
 70
     3
  9
$DIMTXSTY
  7
Standard
  9
$DIMAUNIT
 70
     0
  9
$DIMADEC
 70
     2
  9
$DIMALTRND
 40
0.0
  9
$DIMAZIN
 70
     0
  9
$DIMDSEP
 70
    44
  9
$DIMATFIT
 70
     3
  9
$DIMFRAC
 70
     0
  9
$DIMLDRBLK
  1

  9
$DIMLUNIT
 70
     2
  9
$DIMLWD
 70
    -2
  9
$DIMLWE
 70
    -2
  9
$DIMTMOVE
 70
     0
  9
$LUNITS
 70
     2
  9
$LUPREC
 70
     2
  9
$SKETCHINC
 40
1.0
  9
$FILLETRAD
 40
10.0
  9
$AUNITS
 70
     0
  9
$AUPREC
 70
     2
  9
$MENU
  1
.
  9
$ELEVATION
 40
0.0
  9
$PELEVATION
 40
0.0
  9
$THICKNESS
 40
0.0
  9
$LIMCHECK
 70
     0
  9
$CHAMFERA
 40
0.0
  9
$CHAMFERB
 40
0.0
  9
$CHAMFERC
 40
0.0
  9
$CHAMFERD
 40
0.0
  9
$SKPOLY
 70
     0
  9
$TDCREATE
 40
2456937.553731285
  9
$TDUCREATE
 40
2456937.428731285
  9
$TDUPDATE
 40
2456937.553732164
  9
$TDUUPDATE
 40
2456937.428732164
  9
$TDINDWG
 40
0.0000000116
  9
$TDUSRTIMER
 40
0.0000000116
  9
$USRTIMER
 70
     1
  9
$ANGBASE
 50
0.0
  9
$ANGDIR
 70
     0
  9
$PDMODE
 70
     0
  9
$PDSIZE
 40
-1.0
  9
$PLINEWID
 40
0.0
  9
$SPLFRAME
 70
     0
  9
$SPLINETYPE
 70
     6
  9
$SPLINESEGS
 70
     8
  9
$HANDSEED
  5
1EF
  9
$SURFTAB1
 70
     6
  9
$SURFTAB2
 70
     6
  9
$SURFTYPE
 70
     6
  9
$SURFU
 70
     6
  9
$SURFV
 70
     6
  9
$UCSBASE
  2

  9
$UCSNAME
  2

  9
$UCSORG
 10
0.0
 20
0.0
 30
0.0
  9
$UCSXDIR
 10
1.0
 20
0.0
 30
0.0
  9
$UCSYDIR
 10
0.0
 20
1.0
 30
0.0
  9
$UCSORTHOREF
  2

  9
$UCSORTHOVIEW
 70
     0
  9
$UCSORGTOP
 10
0.0
 20
0.0
 30
0.0
  9
$UCSORGBOTTOM
 10
0.0
 20
0.0
 30
0.0
  9
$UCSORGLEFT
 10
0.0
 20
0.0
 30
0.0
  9
$UCSORGRIGHT
 10
0.0
 20
0.0
 30
0.0
  9
$UCSORGFRONT
 10
0.0
 20
0.0
 30
0.0
  9
$UCSORGBACK
 10
0.0
 20
0.0
 30
0.0
  9
$PUCSBASE
  2

  9
$PUCSNAME
  2

  9
$PUCSORG
 10
0.0
 20
0.0
 30
0.0
  9
$PUCSXDIR
 10
1.0
 20
0.0
 30
0.0
  9
$PUCSYDIR
 10
0.0
 20
1.0
 30
0.0
  9
$PUCSORTHOREF
  2

  9
$PUCSORTHOVIEW
 70
     0
  9
$PUCSORGTOP
 10
0.0
 20
0.0
 30
0.0
  9
$PUCSORGBOTTOM
 10
0.0
 20
0.0
 30
0.0
  9
$PUCSORGLEFT
 10
0.0
 20
0.0
 30
0.0
  9
$PUCSORGRIGHT
 10
0.0
 20
0.0
 30
0.0
  9
$PUCSORGFRONT
 10
0.0
 20
0.0
 30
0.0
  9
$PUCSORGBACK
 10
0.0
 20
0.0
 30
0.0
  9
$USERI1
 70
     0
  9
$USERI2
 70
     0
  9
$USERI3
 70
     0
  9
$USERI4
 70
     0
  9
$USERI5
 70
     0
  9
$USERR1
 40
0.0
  9
$USERR2
 40
0.0
  9
$USERR3
 40
0.0
  9
$USERR4
 40
0.0
  9
$USERR5
 40
0.0
  9
$WORLDVIEW
 70
     1
  9
$SHADEDGE
 70
     3
  9
$SHADEDIF
 70
    70
  9
$TILEMODE
 70
     1
  9
$MAXACTVP
 70
    64
  9
$PINSBASE
 10
0.0
 20
0.0
 30
0.0
  9
$PLIMCHECK
 70
     0
  9
$PEXTMIN
 10
1.0000000000E+20
 20
1.0000000000E+20
 30
1.0000000000E+20
  9
$PEXTMAX
 10
-1.0000000000E+20
 20
-1.0000000000E+20
 30
-1.0000000000E+20
  9
$PLIMMIN
 10
0.0
 20
0.0
  9
$PLIMMAX
 10
420.0
 20
297.0
  9
$UNITMODE
 70
     0
  9
$VISRETAIN
 70
     1
  9
$PLINEGEN
 70
     0
  9
$PSLTSCALE
 70
     1
  9
$TREEDEPTH
 70
  3020
  9
$CMLSTYLE
  2
Standard
  9
$CMLJUST
 70
     0
  9
$CMLSCALE
 40
20.0
  9
$PROXYGRAPHICS
 70
     1
  9
$MEASUREMENT
 70
     1
  9
$CELWEIGHT
370
    -1
  9
$ENDCAPS
280
     0
  9
$JOINSTYLE
280
     0
  9
$LWDISPLAY
290
     1
  9
$INSUNITS
 70
     4
  9
$HYPERLINKBASE
  1

  9
$STYLESHEET
  1

  9
$XEDIT
290
     1
  9
$CEPSNTYPE
380
     0
  9
$PSTYLEMODE
290
     1
  9
$FINGERPRINTGUID
  2
{6E670DD0-04D1-4D7A-9724-FCC8EDE8497C}
  9
$VERSIONGUID
  2
{FAEB1C32-E019-11D5-929B-00C0DF256EC4}
  9
$EXTNAMES
290
     1
  9
$PSVPSCALE
 40
0.0
  9
$OLESTARTUP
290
     0
  0
ENDSEC
  0
SECTION
  2
CLASSES
  0
CLASS
  1
ACDBDICTIONARYWDFLT
  2
AcDbDictionaryWithDefault
  3
ObjectDBX Classes
 90
        0
280
     0
281
     0
  0
CLASS
  1
VISUALSTYLE
  2
AcDbVisualStyle
  3
ObjectDBX Classes
 90
     4095
280
     0
281
     0
  0
CLASS
  1
MATERIAL
  2
AcDbMaterial
  3
ObjectDBX Classes
 90
     1153
280
     0
281
     0
  0
CLASS
  1
SCALE
  2
AcDbScale
  3
ObjectDBX Classes
 90
     1153
280
     0
281
     0
  0
CLASS
  1
SUN
  2
AcDbSun
  3
SCENEOE
 90
     1153
280
     0
281
     0
  0
CLASS
  1
ACDBPLACEHOLDER
  2
AcDbPlaceHolder
  3
ObjectDBX Classes
 90
        0
280
     0
281
     0
  0
CLASS
  1
LAYOUT
  2
AcDbLayout
  3
ObjectDBX Classes
 90
        0
280
     0
281
     0
  0
ENDSEC
  0
SECTION
  2
TABLES
  0
TABLE
  2
VPORT
  5
8
330
0
100
AcDbSymbolTable
 70
     1
  0
VPORT
  5
29
330
8
100
AcDbSymbolTableRecord
100
AcDbViewportTableRecord
  2
*Active
 70
     0
 10
0.0
 20
0.0
 11
1.0
 21
1.0
 12
210.0
 22
148.5
 13
0.0
 23
0.0
 14
10.0
 24
10.0
 15
10.0
 25
10.0
 16
0.0
 26
0.0
 36
1.0
 17
0.0
 27
0.0
 37
0.0
 40
297.0
 41
1.4141414141
 42
50.0
 43
0.0
 44
0.0
 50
0.0
 51
0.0
 71
     0
 72
  2000
 73
     1
 74
     3
 75
     0
 76
     0
 77
     0
 78
     0
281
     0
 65
     1
110
0.0
120
0.0
130
0.0
111
1.0
121
0.0
131
0.0
112
0.0
122
1.0
132
0.0
 79
     0
146
0.0
  0
ENDTAB
  0
TABLE
  2
LTYPE
  5
5
330
0
100
AcDbSymbolTable
 70
     6
  0
LTYPE
  5
14
330
5
100
AcDbSymbolTableRecord
100
AcDbLinetypeTableRecord
  2
ByBlock
 70
     0
  3

 72
    65
 73
     0
 40
0.0
  0
LTYPE
  5
15
330
5
100
AcDbSymbolTableRecord
100
AcDbLinetypeTableRecord
  2
ByLayer
 70
     0
  3

 72
    65
 73
     0
 40
0.0
  0
LTYPE
  5
16
330
5
100
AcDbSymbolTableRecord
100
AcDbLinetypeTableRecord
  2
Continuous
 70
     0
  3
Solid line
 72
    65
 73
     0
 40
0.0
  0
LTYPE
  5
6A
330
5
100
AcDbSymbolTableRecord
100
AcDbLinetypeTableRecord
  2
HIDDEN
 70
     0
  3
Hidden __ __ __ __ __ __ __ __ __ __ __ __ __ __
 72
    65
 73
     2
 40
1.905
 49
1.27
 74
     0
 49
-0.635
 74
     0
  0
LTYPE
  5
6B
330
5
100
AcDbSymbolTableRecord
100
AcDbLinetypeTableRecord
  2
PHANTOM
 70
     0
  3
Phantom ______  __  __  ______  __  __  ______
 72
    65
 73
     6
 40
12.7
 49
6.35
 74
     0
 49
-1.27
 74
     0
 49
1.27
 74
     0
 49
-1.27
 74
     0
 49
1.27
 74
     0
 49
-1.27
 74
     0
  0
LTYPE
  5
6C
330
5
100
AcDbSymbolTableRecord
100
AcDbLinetypeTableRecord
  2
CENTER
 70
     0
  3
Center ____ _ ____ _ ____ _ ____ _ ____ _ ____
 72
    65
 73
     4
 40
10.16
 49
6.35
 74
     0
 49
-1.27
 74
     0
 49
1.27
 74
     0
 49
-1.27
 74
     0
  0
LTYPE
  5
6D
330
5
100
AcDbSymbolTableRecord
100
AcDbLinetypeTableRecord
  2
CENTERX2
 70
     0
  3
Center (2x) ________  __  ________  __  _____
 72
    65
 73
     4
 40
20.32
 49
12.7
 74
     0
 49
-2.54
 74
     0
 49
2.54
 74
     0
 49
-2.54
 74
     0
  0
LTYPE
  5
6E
330
5
100
AcDbSymbolTableRecord
100
AcDbLinetypeTableRecord
  2
DOT2
 70
     0
  3
Dot (.5x) ........................................
 72
    65
 73
     2
 40
0.635
 49
0.0
 74
     0
 49
-0.635
 74
     0
  0
ENDTAB
  0
TABLE
  2
LAYER
  5
2
330
0
100
AcDbSymbolTable
 70
     1
  0
LAYER
  5
10
330
2
100
AcDbSymbolTableRecord
100
AcDbLayerTableRecord
  2
0
 70
     0
 62
     7
  6
Continuous
370
    -3
390
F
  0
ENDTAB
  0
TABLE
  2
STYLE
  5
3
330
0
100
AcDbSymbolTable
 70
     1
  0
STYLE
  5
11
330
3
100
AcDbSymbolTableRecord
100
AcDbTextStyleTableRecord
  2
Standard
 70
     0
 40
0.0
 41
1.0
 50
0.0
 71
     0
 42
3.5
  3
txt
  4

  0
ENDTAB
  0
TABLE
  2
VIEW
  5
6
330
0
100
AcDbSymbolTable
 70
     0
  0
ENDTAB
  0
TABLE
  2
UCS
  5
7
330
0
100
AcDbSymbolTable
 70
     0
  0
ENDTAB
  0
TABLE
  2
APPID
  5
9
330
0
100
AcDbSymbolTable
 70
     1
  0
APPID
  5
12
330
9
100
AcDbSymbolTableRecord
100
AcDbRegAppTableRecord
  2
ACAD
 70
     0
  0
ENDTAB
  0
TABLE
  2
DIMSTYLE
  5
A
330
0
100
AcDbSymbolTable
 70
     1
100
AcDbDimStyleTable
  0
DIMSTYLE
105
27
330
A
100
AcDbSymbolTableRecord
100
AcDbDimStyleTableRecord
  2
ISO-25
 70
     0
 41
2.5
 42
0.625
 43
3.75
 44
1.25
 73
     0
 74
     0
 77
     1
 78
     8
140
2.5
141
2.5
143
0.0393700787
147
0.625
171
     3
172
     1
178
     0
271
     2
272
     2
274
     3
278
    44
283
     0
284
     8
340
11
  0
ENDTAB
  0
TABLE
  2
BLOCK_RECORD
  5
1
330
0
100
AcDbSymbolTable
 70
     1
  0
BLOCK_RECORD
  5
1F
330
1
100
AcDbSymbolTableRecord
100
AcDbBlockTableRecord
  2
*Model_Space
340
22
  0
BLOCK_RECORD
  5
1B
330
1
100
AcDbSymbolTableRecord
100
AcDbBlockTableRecord
  2
*Paper_Space
340
1E
  0
BLOCK_RECORD
  5
23
330
1
100
AcDbSymbolTableRecord
100
AcDbBlockTableRecord
  2
*Paper_Space0
340
26
  0
ENDTAB
  0
ENDSEC
  0
SECTION
  2
BLOCKS
  0
BLOCK
  5
20
330
1F
100
AcDbEntity
  8
0
100
AcDbBlockBegin
  2
*Model_Space
 70
     0
 10
0.0
 20
0.0
 30
0.0
  3
*Model_Space
  1
*Model_Space
  0
ENDBLK
  5
21
330
1F
100
AcDbEntity
  8
0
100
AcDbBlockEnd
  0
BLOCK
  5
1C
330
1B
100
AcDbEntity
 67
     1
  8
0
100
AcDbBlockBegin
  2
*Paper_Space
 70
     0
 10
0.0
 20
0.0
 30
0.0
  3
*Paper_Space
  1
*Paper_Space
  0
ENDBLK
  5
1D
330
1B
100
AcDbEntity
 67
     1
  8
0
100
AcDbBlockEnd
  0
BLOCK
  5
24
330
23
100
AcDbEntity
  8
0
100
AcDbBlockBegin
  2
*Paper_Space0
 70
     0
 10
0.0
 20
0.0
 30
0.0
  3
*Paper_Space0
  1
*Paper_Space0
  0
ENDBLK
  5
25
330
23
100
AcDbEntity
  8
0
100
AcDbBlockEnd
  0
ENDSEC
  0
SECTION
  2
ENTITIES
  0
SPLINE
  5
6F
330
1F
100
AcDbEntity
  8
0
  6
Continuous
 62
     7
370
    15
100
AcDbSpline
210
0.0
220
0.0
230
1.0
 70
     8
 71
     3
 72
    46
 73
    42
 74
     0
 42
0.000000001
 43
0.00000001
 40
0.0
 40
0.0
 40
0.0
 40
0.0
 40
0.0202303947200481
 40
0.0403872847212443
 40
0.0604677885120274
 40
0.080469144518663
 40
0.100388783356124
 40
0.1202251270693065
 40
0.139978668758226
 40
0.1596501067171351
 40
0.1792400462544345
 40
0.1987490523157689
 40
0.2181776990521297
 40
0.237526609655889
 40
0.2567961725096211
 40
0.2759862981752727
 40
0.2950967798936958
 40
0.3141273736722502
 40
0.3330778465131114
 40
0.3519480216744055
 40
0.3707378231782918
 40
0.3894473294728821
 40
0.4080766249758807
 40
0.4266257074914072
 40
0.4450945276988753
 40
0.4634830304930549
 40
0.4817911937343043
 40
0.5000190645582758
 40
0.5365756652646528
 40
0.5734497344446252
 40
0.6106409157554243
 40
0.648149286921811
 40
0.68597511484892
 40
0.7241170792603958
 40
0.7625733553866763
 40
0.8013442035214495
 40
0.8404338553980439
 40
0.8798469147154842
 40
0.919587636007789
 40
0.9596458866973387
 40
1.0
 40
1.0
 40
1.0
 40
1.0
 10
144.6943856098783
 20
183.6273928499557
 30
0.0
 10
144.6938885554019
 20
183.680344466128
 30
0.0
 10
144.692896252437
 20
183.7860553051103
 30
0.0
 10
144.6850636010054
 20
183.9441654150143
 30
0.0
 10
144.6726641337604
 20
184.1013618686433
 30
0.0
 10
144.6553078345273
 20
184.2574718538107
 30
0.0
 10
144.6331795708516
 20
184.4123287021547
 30
0.0
 10
144.6063133677949
 20
184.5657766107401
 30
0.0
 10
144.5748182024494
 20
184.7176776338186
 30
0.0
 10
144.5387871498422
 20
184.8679038232611
 30
0.0
 10
144.4983156670462
 20
185.0163315338561
 30
0.0
 10
144.4534968603491
 20
185.1628403199227
 30
0.0
 10
144.4044236300844
 20
185.3073132285179
 30
0.0
 10
144.351185377308
 20
185.4496347234161
 30
0.0
 10
144.293882397064
 20
185.5896942334782
 30
0.0
 10
144.2326321737982
 20
185.7273900165206
 30
0.0
 10
144.1675472867069
 20
185.8626212142953
 30
0.0
 10
144.098739536802
 20
185.9952902369064
 30
0.0
 10
144.0263185292863
 20
186.1253022251946
 30
0.0
 10
143.9503929345589
 20
186.2525657317479
 30
0.0
 10
143.8710669218313
 20
186.3769904711714
 30
0.0
 10
143.7884552931258
 20
186.4984964114927
 30
0.0
 10
143.7026860705826
 20
186.6170171684877
 30
0.0
 10
143.6138816731074
 20
186.732487058134
 30
0.0
 10
143.5221630595271
 20
186.8448434124098
 30
0.0
 10
143.4276490391399
 20
186.9540252766523
 30
0.0
 10
143.3304552894427
 20
187.0599757838121
 30
0.0
 10
143.1971169223076
 20
187.1971928850579
 30
0.0
 10
143.0225587181315
 20
187.3619721633338
 30
0.0
 10
142.8007999009362
 20
187.5483745026932
 30
0.0
 10
142.5665955266024
 20
187.7230927286227
 30
0.0
 10
142.3204441915498
 20
187.8851170528136
 30
0.0
 10
142.0629715025783
 20
188.03352501468
 30
0.0
 10
141.7949059403261
 20
188.1674684069436
 30
0.0
 10
141.5170004501892
 20
188.2860438102024
 30
0.0
 10
141.2300607847241
 20
188.3883489206411
 30
0.0
 10
140.9350017924988
 20
188.4736125379212
 30
0.0
 10
140.6327705036732
 20
188.5412114784086
 30
0.0
 10
140.3244089183179
 20
188.589857812927
 30
0.0
 10
140.0111351244734
 20
188.6207652824584
 30
0.0
 10
139.8006357159211
 20
188.6246576833867
 30
0.0
 10
139.6949987645727
 20
188.6266110445402
 30
0.0
  0
SPLINE
  5
70
330
1F
100
AcDbEntity
  8
0
  6
Continuous
 62
     7
370
    15
100
AcDbSpline
210
0.0
220
0.0
230
1.0
 70
    24
 71
     3
 72
    14
 73
    10
 74
     0
 42
0.000000001
 43
0.00000001
 40
0.0
 40
0.0
 40
0.0
 40
0.0
 40
0.25
 40
0.25
 40
0.5
 40
0.5
 40
0.75
 40
0.75
 40
1.0
 40
1.0
 40
1.0
 40
1.0
 10
144.6944174577855
 20
183.6273928532506
 30
0.0
 10
144.6910288360713
 20
183.6273928532506
 30
0.0
 10
144.6494794380685
 20
183.6273928532506
 30
0.0
 10
144.4961863491842
 20
183.6273928532506
 30
0.0
 10
144.3845003457268
 20
183.6273928532506
 30
0.0
 10
144.1075196750026
 20
183.6273928532506
 30
0.0
 10
143.9423292414071
 20
183.6273928532506
 30
0.0
 10
143.5829086916185
 20
183.6273928532506
 30
0.0
 10
143.3888138329628
 20
183.6273928532506
 30
0.0
 10
143.1946459048183
 20
183.6273928532506
 30
0.0
  0
SPLINE
  5
71
330
1F
100
AcDbEntity
  8
0
  6
Continuous
 62
     7
370
    15
100
AcDbSpline
210
0.0
220
0.0
230
1.0
 70
     8
 71
     3
 72
    25
 73
    21
 74
     0
 42
0.000000001
 43
0.00000001
 40
0.0
 40
0.0
 40
0.0
 40
0.0
 40
0.0251008886021415
 40
0.0501055299606228
 40
0.0750524329956071
 40
0.0999803742128229
 40
0.1249282185353777
 40
0.1874771351902154
 40
0.2499874700815751
 40
0.3124601480061397
 40
0.3750530888486512
 40
0.4999761634323915
 40
0.6249137410298526
 40
0.6874673950665671
 40
0.7499998777142505
 40
0.8124685334334432
 40
0.8750769666338715
 40
0.9166187596059701
 40
0.9581998748823715
 40
1.0
 40
1.0
 40
1.0
 40
1.0
 10
143.1946459048183
 20
183.6273928554506
 30
0.0
 10
143.1941261322688
 20
183.6733602225606
 30
0.0
 10
143.1930885801939
 20
183.7651186987824
 30
0.0
 10
143.1847341008855
 20
183.9023533814767
 30
0.0
 10
143.1713933208172
 20
184.0388484689819
 30
0.0
 10
143.1525887528201
 20
184.1746083251478
 30
0.0
 10
143.1163192337195
 20
184.3772963745039
 30
0.0
 10
143.0495081327752
 20
184.6442427680171
 30
0.0
 10
142.933741680893
 20
184.9681054879119
 30
0.0
 10
142.786851473459
 20
185.2792466092935
 30
0.0
 10
142.5511187034408
 20
185.6723809012653
 30
0.0
 10
142.1858842727974
 20
186.117894747623
 30
0.0
 10
141.7404563745798
 20
186.483122454158
 30
0.0
 10
141.3472949671385
 20
186.7189311800132
 30
0.0
 10
141.0362026805915
 20
186.8658404936861
 30
0.0
 10
140.7122073959342
 20
186.9816504576357
 30
0.0
 10
140.4157268858715
 20
187.0559637795465
 30
0.0
 10
140.1522830932475
 20
187.099361968554
 30
0.0
 10
139.9244497162925
 20
187.1225629485664
 30
0.0
 10
139.7717362594139
 20
187.1254250026877
 30
0.0
 10
139.6951789717733
 20
187.1268597884956
 30
0.0
  0
SPLINE
  5
72
330
1F
100
AcDbEntity
  8
0
  6
Continuous
 62
     7
370
    15
100
AcDbSpline
210
0.0
220
0.0
230
1.0
 70
     8
 71
     3
 72
    14
 73
    10
 74
     0
 42
0.000000001
 43
0.00000001
 40
0.0
 40
0.0
 40
0.0
 40
0.0
 40
0.25
 40
0.25
 40
0.5
 40
0.5
 40
0.75
 40
0.75
 40
1.0
 40
1.0
 40
1.0
 40
1.0
 10
139.6951789717733
 20
187.1268597884956
 30
0.0
 10
139.6951639546438
 20
187.32102771664
 30
0.0
 10
139.6951489375142
 20
187.5151225752957
 30
0.0
 10
139.695118903255
 20
187.8745431250843
 30
0.0
 10
139.6951038861254
 20
188.0397335586799
 30
0.0
 10
139.6950738518663
 20
188.3167142294041
 30
0.0
 10
139.6950588347367
 20
188.4284002328615
 30
0.0
 10
139.6950288004775
 20
188.5816933217458
 30
0.0
 10
139.6950137833479
 20
188.6232427197485
 30
0.0
 10
139.6949987662183
 20
188.6266313414628
 30
0.0
  0
SPLINE
  5
73
330
1F
100
AcDbEntity
  8
0
  6
Continuous
 62
     7
370
    15
100
AcDbSpline
210
0.0
220
0.0
230
1.0
 70
     8
 71
     3
 72
    25
 73
    21
 74
     0
 42
0.000000001
 43
0.00000001
 40
0.0
 40
0.0
 40
0.0
 40
0.0
 40
0.0251008886021415
 40
0.0501055299606228
 40
0.0750524329956071
 40
0.0999803742128229
 40
0.1249282185353777
 40
0.1874771351902154
 40
0.2499874700815751
 40
0.3124601480061397
 40
0.3750530888486512
 40
0.4999761634323915
 40
0.6249137410298526
 40
0.6874673950665671
 40
0.7499998777142505
 40
0.8124685334334432
 40
0.8750769666338715
 40
0.9166187596059701
 40
0.9581998748823715
 40
1.0
 40
1.0
 40
1.0
 40
1.0
 10
70.00876099070334
 20
187.1268597884956
 30
0.0
 10
69.96279362359329
 20
187.1263400159461
 30
0.0
 10
69.87103514737156
 20
187.1253024638712
 30
0.0
 10
69.7338004646772
 20
187.1169479845628
 30
0.0
 10
69.59730537717202
 20
187.1036072044945
 30
0.0
 10
69.46154552100612
 20
187.0848026364974
 30
0.0
 10
69.25885747165
 20
187.0485331173967
 30
0.0
 10
68.99191107813678
 20
186.9817220164525
 30
0.0
 10
68.66804835824209
 20
186.8659555645702
 30
0.0
 10
68.35690723686047
 20
186.7190653571362
 30
0.0
 10
67.96377294488865
 20
186.4833325871181
 30
0.0
 10
67.51825909853093
 20
186.1180981564746
 30
0.0
 10
67.15303139199594
 20
185.672670258257
 30
0.0
 10
66.91722266614074
 20
185.2795088508158
 30
0.0
 10
66.77031335246781
 20
184.9684165642688
 30
0.0
 10
66.65450338851822
 20
184.6444212796114
 30
0.0
 10
66.58019006660746
 20
184.3479407695488
 30
0.0
 10
66.53679187759994
 20
184.0844969769248
 30
0.0
 10
66.51359089758752
 20
183.8566635999697
 30
0.0
 10
66.51072884346624
 20
183.7039501430911
 30
0.0
 10
66.50929405765834
 20
183.6273928554506
 30
0.0
  0
SPLINE
  5
74
330
1F
100
AcDbEntity
  8
0
  6
Continuous
 62
     7
370
    15
100
AcDbSpline
210
0.0
220
0.0
230
1.0
 70
     8
 71
     3
 72
    14
 73
    10
 74
     0
 42
0.000000001
 43
0.00000001
 40
0.0
 40
0.0
 40
0.0
 40
0.0
 40
0.25
 40
0.25
 40
0.5
 40
0.5
 40
0.75
 40
0.75
 40
1.0
 40
1.0
 40
1.0
 40
1.0
 10
66.50929405765834
 20
183.6273928554506
 30
0.0
 10
66.31512612951394
 20
183.627377838321
 30
0.0
 10
66.12103127085818
 20
183.6273628211914
 30
0.0
 10
65.76161072106962
 20
183.6273327869322
 30
0.0
 10
65.59642028747406
 20
183.6273177698027
 30
0.0
 10
65.31943961674988
 20
183.6272877355435
 30
0.0
 10
65.20775361329245
 20
183.6272727184139
 30
0.0
 10
65.05446052440814
 20
183.6272426841548
 30
0.0
 10
65.01291112640538
 20
183.6272276670252
 30
0.0
 10
65.00952250469116
 20
183.6272126498956
 30
0.0
  0
SPLINE
  5
75
330
1F
100
AcDbEntity
  8
0
  6
Continuous
 62
     7
370
    15
100
AcDbSpline
210
0.0
220
0.0
230
1.0
 70
     8
 71
     3
 72
    46
 73
    42
 74
     0
 42
0.000000001
 43
0.00000001
 40
0.0
 40
0.0
 40
0.0
 40
0.0
 40
0.0202303946841248
 40
0.0403872846522571
 40
0.0604677884128466
 40
0.0804691443921693
 40
0.1003887832052169
 40
0.1202251268968675
 40
0.1399786685671265
 40
0.1596501065102479
 40
0.1792400460346293
 40
0.1987490520859104
 40
0.2181776988150884
 40
0.2375266094145265
 40
0.2567961722668122
 40
0.2759862979338939
 40
0.2950967796566217
 40
0.31412737344236
 40
0.3330778462932797
 40
0.3519480214675069
 40
0.3707378229872017
 40
0.389447329300472
 40
0.4080766248250238
 40
0.4266257073649786
 40
0.4450945275997464
 40
0.4634830304241009
 40
0.4817911936983986
 40
0.5000190645582909
 40
0.5365756651956682
 40
0.5734497343181392
 40
0.6106409155829381
 40
0.6481492867148226
 40
0.6859751146189302
 40
0.7241170790189185
 40
0.7625733551452195
 40
0.8013442032914944
 40
0.8404338551910607
 40
0.879846914542962
 40
0.9195876358812475
 40
0.9596458866283298
 40
1.0
 40
1.0
 40
1.0
 40
1.0
 10
70.00876099619826
 20
188.6265994935555
 30
0.0
 10
69.95580938012
 20
188.6261024390809
 30
0.0
 10
69.85009854131823
 20
188.6251101361194
 30
0.0
 10
69.69198843167304
 20
188.6172774847141
 30
0.0
 10
69.53479197827886
 20
188.6048780175084
 30
0.0
 10
69.37868199332155
 20
188.5875217183266
 30
0.0
 10
69.22382514516266
 20
188.565393454712
 30
0.0
 10
69.07037723673703
 20
188.5385272517235
 30
0.0
 10
68.91847621379311
 20
188.5070320864512
 30
0.0
 10
68.76825002445989
 20
188.4710010339197
 30
0.0
 10
68.61982231394929
 20
188.4305295512002
 30
0.0
 10
68.4733135279424
 20
188.3857107445779
 30
0.0
 10
68.32884061938265
 20
188.3366375143843
 30
0.0
 10
68.18651912449616
 20
188.2833992616734
 30
0.0
 10
68.04645961442279
 20
188.226096281487
 30
0.0
 10
67.90876383134677
 20
188.164846058269
 30
0.0
 10
67.77353263351725
 20
188.0997611712138
 30
0.0
 10
67.64086361083082
 20
188.0309534213314
 30
0.0
 10
67.51085162244806
 20
187.9585324138231
 30
0.0
 10
67.383588115782
 20
187.8826068190865
 30
0.0
 10
67.25916337622897
 20
187.8032808063311
 30
0.0
 10
67.13765743576275
 20
187.7206691775778
 30
0.0
 10
67.01913667860876
 20
187.6348999549654
 30
0.0
 10
66.90366678879109
 20
187.5460955573983
 30
0.0
 10
66.79131043433297
 20
187.4543769437023
 30
0.0
 10
66.68212856989875
 20
187.3598629231743
 30
0.0
 10
66.57617806253971
 20
187.2626691733104
 30
0.0
 10
66.43896096129009
 20
187.1293308061791
 30
0.0
 10
66.27418168316804
 20
186.9547726021849
 30
0.0
 10
66.08777934406562
 20
186.7330137853643
 30
0.0
 10
65.91306111829765
 20
186.4988094113614
 30
0.0
 10
65.75103679418218
 20
186.2526580765841
 30
0.0
 10
65.60262883231792
 20
185.9951853878202
 30
0.0
 10
65.46868543999555
 20
185.7271198256983
 30
0.0
 10
65.35011003663118
 20
185.4492143356064
 30
0.0
 10
65.24780492605566
 20
185.162274670094
 30
0.0
 10
65.1625413086242
 20
184.8672156777243
 30
0.0
 10
65.09494236798741
 20
184.5649843886542
 30
0.0
 10
65.04629603334033
 20
184.256622802953
 30
0.0
 10
65.0153885637147
 20
183.9433490086627
 30
0.0
 10
65.0114961627738
 20
183.7328495997791
 30
0.0
 10
65.00954280161375
 20
183.6272126482499
 30
0.0
  0
SPLINE
  5
76
330
1F
100
AcDbEntity
  8
0
  6
Continuous
 62
     7
370
    15
100
AcDbSpline
210
0.0
220
0.0
230
1.0
 70
    24
 71
     3
 72
    14
 73
    10
 74
     0
 42
0.000000001
 43
0.00000001
 40
0.0
 40
0.0
 40
0.0
 40
0.0
 40
0.25
 40
0.25
 40
0.5
 40
0.5
 40
0.75
 40
0.75
 40
1.0
 40
1.0
 40
1.0
 40
1.0
 10
70.00876099070332
 20
187.1268597884956
 30
0.0
 10
70.00876097844463
 20
187.302085502354
 30
0.0
 10
70.00876096524092
 20
187.4908199609079
 30
0.0
 10
70.00876093966014
 20
187.8564734265208
 30
0.0
 10
70.00876092735882
 20
188.0323091982405
 30
0.0
 10
70.00876090694543
 20
188.3241000584429
 30
0.0
 10
70.0087608988992
 20
188.4391138797072
 30
0.0
 10
70.00876088844038
 20
188.5886128129978
 30
0.0
 10
70.00876088599678
 20
188.6235414708927
 30
0.0
 10
70.0087608857828
 20
188.6265994935403
 30
0.0
  0
SPLINE
  5
77
330
1F
100
AcDbEntity
  8
0
  6
Continuous
 62
     7
370
    15
100
AcDbSpline
210
0.0
220
0.0
230
1.0
 70
     8
 71
     3
 72
    25
 73
    21
 74
     0
 42
0.000000001
 43
0.00000001
 40
0.0
 40
0.0
 40
0.0
 40
0.0
 40
0.0251008886021415
 40
0.0501055299606228
 40
0.0750524329956071
 40
0.0999803742128229
 40
0.1249282185353777
 40
0.1874771351902154
 40
0.2499874700815751
 40
0.3124601480061397
 40
0.3750530888486512
 40
0.4999761634323915
 40
0.6249137410298526
 40
0.6874673950665671
 40
0.7499998777142505
 40
0.8124685334334432
 40
0.8750769666338715
 40
0.9166187596059701
 40
0.9581998748823715
 40
1.0
 40
1.0
 40
1.0
 40
1.0
 10
139.6951789717733
 20
110.4415079413356
 30
0.0
 10
139.7411463388834
 20
110.4420277138851
 30
0.0
 10
139.8329048151051
 20
110.44306526596
 30
0.0
 10
139.9701394977995
 20
110.4514197452684
 30
0.0
 10
140.1066345853047
 20
110.4647605253367
 30
0.0
 10
140.2423944414706
 20
110.4835650933338
 30
0.0
 10
140.4450824908267
 20
110.5198346124345
 30
0.0
 10
140.7120288843399
 20
110.5866457133787
 30
0.0
 10
141.0358916042346
 20
110.7024121652609
 30
0.0
 10
141.3470327256162
 20
110.8493023726949
 30
0.0
 10
141.740167017588
 20
111.0850351427131
 30
0.0
 10
142.1856808639457
 20
111.4502695733565
 30
0.0
 10
142.5509085704807
 20
111.8956974715742
 30
0.0
 10
142.7867172963359
 20
112.2888588790154
 30
0.0
 10
142.9336266100088
 20
112.5999511655624
 30
0.0
 10
143.0494365739585
 20
112.9239464502197
 30
0.0
 10
143.1237498958692
 20
113.2204269602824
 30
0.0
 10
143.1671480848767
 20
113.4838707529064
 30
0.0
 10
143.1903490648891
 20
113.7117041298614
 30
0.0
 10
143.1932111190104
 20
113.86441758674
 30
0.0
 10
143.1946459048183
 20
113.9409748743806
 30
0.0
  0
SPLINE
  5
78
330
1F
100
AcDbEntity
  8
0
  6
Continuous
 62
     7
370
    15
100
AcDbSpline
210
0.0
220
0.0
230
1.0
 70
     8
 71
     3
 72
    14
 73
    10
 74
     0
 42
0.000000001
 43
0.00000001
 40
0.0
 40
0.0
 40
0.0
 40
0.0
 40
0.25
 40
0.25
 40
0.5
 40
0.5
 40
0.75
 40
0.75
 40
1.0
 40
1.0
 40
1.0
 40
1.0
 10
143.1946459048183
 20
113.9409748743806
 30
0.0
 10
143.3888138329627
 20
113.9409898915102
 30
0.0
 10
143.5829086916185
 20
113.9410049086398
 30
0.0
 10
143.942329241407
 20
113.9410349428989
 30
0.0
 10
144.1075196750026
 20
113.9410499600285
 30
0.0
 10
144.3845003457268
 20
113.9410799942876
 30
0.0
 10
144.4961863491842
 20
113.9410950114172
 30
0.0
 10
144.6494794380685
 20
113.9411250456764
 30
0.0
 10
144.6910288360713
 20
113.941140062806
 30
0.0
 10
144.6944174577855
 20
113.9411550799356
 30
0.0
  0
SPLINE
  5
79
330
1F
100
AcDbEntity
  8
0
  6
Continuous
 62
     7
370
    15
100
AcDbSpline
210
0.0
220
0.0
230
1.0
 70
     8
 71
     3
 72
    46
 73
    42
 74
     0
 42
0.000000001
 43
0.00000001
 40
0.0
 40
0.0
 40
0.0
 40
0.0
 40
0.0202303946841248
 40
0.0403872846522571
 40
0.0604677884128466
 40
0.0804691443921693
 40
0.1003887832052169
 40
0.1202251268968675
 40
0.1399786685671265
 40
0.1596501065102479
 40
0.1792400460346293
 40
0.1987490520859104
 40
0.2181776988150884
 40
0.2375266094145265
 40
0.2567961722668122
 40
0.2759862979338939
 40
0.2950967796566217
 40
0.31412737344236
 40
0.3330778462932797
 40
0.3519480214675069
 40
0.3707378229872017
 40
0.389447329300472
 40
0.4080766248250238
 40
0.4266257073649786
 40
0.4450945275997464
 40
0.4634830304241009
 40
0.4817911936983986
 40
0.5000190645582909
 40
0.5365756651956682
 40
0.5734497343181392
 40
0.6106409155829381
 40
0.6481492867148226
 40
0.6859751146189302
 40
0.7241170790189185
 40
0.7625733551452195
 40
0.8013442032914944
 40
0.8404338551910607
 40
0.879846914542962
 40
0.9195876358812475
 40
0.9596458866283298
 40
1.0
 40
1.0
 40
1.0
 40
1.0
 10
139.6951789662784
 20
108.9417682362757
 30
0.0
 10
139.7481305823567
 20
108.9422652907503
 30
0.0
 10
139.8538414211584
 20
108.9432575937118
 30
0.0
 10
140.0119515308037
 20
108.9510902451171
 30
0.0
 10
140.1691479841978
 20
108.9634897123228
 30
0.0
 10
140.3252579691551
 20
108.9808460115046
 30
0.0
 10
140.480114817314
 20
109.0029742751192
 30
0.0
 10
140.6335627257396
 20
109.0298404781077
 30
0.0
 10
140.7854637486836
 20
109.06133564338
 30
0.0
 10
140.9356899380168
 20
109.0973666959114
 30
0.0
 10
141.0841176485274
 20
109.137838178631
 30
0.0
 10
141.2306264345343
 20
109.1826569852533
 30
0.0
 10
141.375099343094
 20
109.2317302154468
 30
0.0
 10
141.5174208379805
 20
109.2849684681577
 30
0.0
 10
141.6574803480539
 20
109.3422714483442
 30
0.0
 10
141.7951761311299
 20
109.4035216715621
 30
0.0
 10
141.9304073289594
 20
109.4686065586174
 30
0.0
 10
142.0630763516459
 20
109.5374143084997
 30
0.0
 10
142.1930883400286
 20
109.609835316008
 30
0.0
 10
142.3203518466947
 20
109.6857609107447
 30
0.0
 10
142.4447765862477
 20
109.7650869235
 30
0.0
 10
142.5662825267139
 20
109.8476985522534
 30
0.0
 10
142.6848032838679
 20
109.9334677748657
 30
0.0
 10
142.8002731736856
 20
110.0222721724329
 30
0.0
 10
142.9126295281437
 20
110.1139907861288
 30
0.0
 10
143.0218113925779
 20
110.2085048066568
 30
0.0
 10
143.127761899937
 20
110.3056985565208
 30
0.0
 10
143.2649790011866
 20
110.4390369236521
 30
0.0
 10
143.4297582793087
 20
110.6135951276463
 30
0.0
 10
143.6161606184111
 20
110.8353539444669
 30
0.0
 10
143.790878844179
 20
111.0695583184698
 30
0.0
 10
143.9529031682945
 20
111.3157096532471
 30
0.0
 10
144.1013111301588
 20
111.573182342011
 30
0.0
 10
144.2352545224811
 20
111.8412479041329
 30
0.0
 10
144.3538299258455
 20
112.1191533942248
 30
0.0
 10
144.456135036421
 20
112.4060930597372
 30
0.0
 10
144.5413986538525
 20
112.7011520521069
 30
0.0
 10
144.6089975944893
 20
113.003383341177
 30
0.0
 10
144.6576439291364
 20
113.3117449268781
 30
0.0
 10
144.688551398762
 20
113.6250187211684
 30
0.0
 10
144.6924437997029
 20
113.8355181300521
 30
0.0
 10
144.6943971608629
 20
113.9411550815813
 30
0.0
  0
SPLINE
  5
7A
330
1F
100
AcDbEntity
  8
0
  6
Continuous
 62
     7
370
    15
100
AcDbSpline
210
0.0
220
0.0
230
1.0
 70
    24
 71
     3
 72
    14
 73
    10
 74
     0
 42
0.000000001
 43
0.00000001
 40
0.0
 40
0.0
 40
0.0
 40
0.0
 40
0.25
 40
0.25
 40
0.5
 40
0.5
 40
0.75
 40
0.75
 40
1.0
 40
1.0
 40
1.0
 40
1.0
 10
139.6951789717734
 20
110.4415079413356
 30
0.0
 10
139.6951789840321
 20
110.2662822274771
 30
0.0
 10
139.6951789972358
 20
110.0775477689233
 30
0.0
 10
139.6951790228165
 20
109.7118943033104
 30
0.0
 10
139.6951790351179
 20
109.5360585315907
 30
0.0
 10
139.6951790555312
 20
109.2442676713883
 30
0.0
 10
139.6951790635775
 20
109.129253850124
 30
0.0
 10
139.6951790740363
 20
108.9797549168334
 30
0.0
 10
139.6951790764799
 20
108.9448262589385
 30
0.0
 10
139.6951790766939
 20
108.9417682362909
 30
0.0
  0
SPLINE
  5
7B
330
1F
100
AcDbEntity
  8
0
  6
Continuous
 62
     7
370
    15
100
AcDbSpline
210
0.0
220
0.0
230
1.0
 70
     8
 71
     3
 72
    46
 73
    42
 74
     0
 42
0.000000001
 43
0.00000001
 40
0.0
 40
0.0
 40
0.0
 40
0.0
 40
0.0202303947200481
 40
0.0403872847212443
 40
0.0604677885120274
 40
0.080469144518663
 40
0.100388783356124
 40
0.1202251270693065
 40
0.139978668758226
 40
0.1596501067171351
 40
0.1792400462544345
 40
0.1987490523157689
 40
0.2181776990521297
 40
0.237526609655889
 40
0.2567961725096211
 40
0.2759862981752727
 40
0.2950967798936958
 40
0.3141273736722502
 40
0.3330778465131114
 40
0.3519480216744055
 40
0.3707378231782918
 40
0.3894473294728821
 40
0.4080766249758807
 40
0.4266257074914072
 40
0.4450945276988753
 40
0.4634830304930549
 40
0.4817911937343043
 40
0.5000190645582758
 40
0.5365756652646528
 40
0.5734497344446252
 40
0.6106409157554243
 40
0.648149286921811
 40
0.68597511484892
 40
0.7241170792603958
 40
0.7625733553866763
 40
0.8013442035214495
 40
0.8404338553980439
 40
0.8798469147154842
 40
0.919587636007789
 40
0.9596458866973387
 40
1.0
 40
1.0
 40
1.0
 40
1.0
 10
65.00955435259844
 20
113.9409748798755
 30
0.0
 10
65.01005140707483
 20
113.8880232637032
 30
0.0
 10
65.01104371003963
 20
113.7823124247208
 30
0.0
 10
65.01887636147131
 20
113.6242023148169
 30
0.0
 10
65.03127582871629
 20
113.4670058611879
 30
0.0
 10
65.04863212794938
 20
113.3108958760204
 30
0.0
 10
65.07076039162504
 20
113.1560390276765
 30
0.0
 10
65.09762659468177
 20
113.0025911190911
 30
0.0
 10
65.12912176002722
 20
112.8506900960126
 30
0.0
 10
65.1651528126345
 20
112.70046390657
 30
0.0
 10
65.2056242954305
 20
112.552036195975
 30
0.0
 10
65.25044310212756
 20
112.4055274099084
 30
0.0
 10
65.29951633239232
 20
112.2610545013133
 30
0.0
 10
65.35275458516873
 20
112.1187330064151
 30
0.0
 10
65.41005756541273
 20
111.978673496353
 30
0.0
 10
65.47130778867849
 20
111.8409777133106
 30
0.0
 10
65.53639267576975
 20
111.7057465155359
 30
0.0
 10
65.60520042567472
 20
111.5730774929247
 30
0.0
 10
65.67762143319042
 20
111.4430655046366
 30
0.0
 10
65.75354702791772
 20
111.3158019980832
 30
0.0
 10
65.83287304064537
 20
111.1913772586598
 30
0.0
 10
65.91548466935092
 20
111.0698713183385
 30
0.0
 10
66.00125389189407
 20
110.9513505613435
 30
0.0
 10
66.09005828936934
 20
110.8358806716972
 30
0.0
 10
66.18177690294954
 20
110.7235243174214
 30
0.0
 10
66.27629092333679
 20
110.6143424531788
 30
0.0
 10
66.37348467303394
 20
110.5083919460191
 30
0.0
 10
66.50682304016908
 20
110.3711748447732
 30
0.0
 10
66.68138124434512
 20
110.2063955664974
 30
0.0
 10
66.90314006154046
 20
110.019993227138
 30
0.0
 10
67.13734443587431
 20
109.8452750012085
 30
0.0
 10
67.38349577092688
 20
109.6832506770176
 30
0.0
 10
67.64096845989836
 20
109.5348427151512
 30
0.0
 10
67.90903402215056
 20
109.4008993228875
 30
0.0
 10
68.18693951228744
 20
109.2823239196287
 30
0.0
 10
68.47387917775261
 20
109.18001880919
 30
0.0
 10
68.7689381699779
 20
109.0947551919099
 30
0.0
 10
69.07116945880348
 20
109.0271562514226
 30
0.0
 10
69.37953104415881
 20
108.9785099169041
 30
0.0
 10
69.69280483800327
 20
108.9476024473727
 30
0.0
 10
69.90330424655552
 20
108.9437100464445
 30
0.0
 10
70.00894119790401
 20
108.941756685291
 30
0.0
  0
SPLINE
  5
7C
330
1F
100
AcDbEntity
  8
0
  6
Continuous
 62
     7
370
    15
100
AcDbSpline
210
0.0
220
0.0
230
1.0
 70
    24
 71
     3
 72
    14
 73
    10
 74
     0
 42
0.000000001
 43
0.00000001
 40
0.0
 40
0.0
 40
0.0
 40
0.0
 40
0.25
 40
0.25
 40
0.5
 40
0.5
 40
0.75
 40
0.75
 40
1.0
 40
1.0
 40
1.0
 40
1.0
 10
66.50929405765832
 20
113.9409748743806
 30
0.0
 10
66.33406834379994
 20
113.9409748621219
 30
0.0
 10
66.14533388524599
 20
113.9409748489182
 30
0.0
 10
65.77968041963312
 20
113.9409748233374
 30
0.0
 10
65.60384464791346
 20
113.9409748110361
 30
0.0
 10
65.31205378771106
 20
113.9409747906227
 30
0.0
 10
65.19703996644677
 20
113.9409747825764
 30
0.0
 10
65.04754103315616
 20
113.9409747721177
 30
0.0
 10
65.01261237526124
 20
113.9409747696741
 30
0.0
 10
65.00955435261368
 20
113.9409747694601
 30
0.0
  0
SPLINE
  5
7D
330
1F
100
AcDbEntity
  8
0
  6
Continuous
 62
     7
370
    15
100
AcDbSpline
210
0.0
220
0.0
230
1.0
 70
     8
 71
     3
 72
    25
 73
    21
 74
     0
 42
0.000000001
 43
0.00000001
 40
0.0
 40
0.0
 40
0.0
 40
0.0
 40
0.0251008886021415
 40
0.0501055299606228
 40
0.0750524329956071
 40
0.0999803742128229
 40
0.1249282185353777
 40
0.1874771351902154
 40
0.2499874700815751
 40
0.3124601480061397
 40
0.3750530888486512
 40
0.4999761634323915
 40
0.6249137410298526
 40
0.6874673950665671
 40
0.7499998777142505
 40
0.8124685334334432
 40
0.8750769666338715
 40
0.9166187596059701
 40
0.9581998748823715
 40
1.0
 40
1.0
 40
1.0
 40
1.0
 10
66.50929405765834
 20
113.9409748743806
 30
0.0
 10
66.50981383020783
 20
113.8950075072705
 30
0.0
 10
66.51085138228277
 20
113.8032490310488
 30
0.0
 10
66.51920586159113
 20
113.6660143483544
 30
0.0
 10
66.53254664165944
 20
113.5295192608493
 30
0.0
 10
66.55135120965657
 20
113.3937594046834
 30
0.0
 10
66.58762072875723
 20
113.1910713553272
 30
0.0
 10
66.65443182970147
 20
112.924124961814
 30
0.0
 10
66.7701982815837
 20
112.6002622419193
 30
0.0
 10
66.9170884890177
 20
112.2891211205377
 30
0.0
 10
67.15282125903582
 20
111.8959868285659
 30
0.0
 10
67.51805568967927
 20
111.4504729822082
 30
0.0
 10
67.9634835878969
 20
111.0852452756732
 30
0.0
 10
68.35664499533817
 20
110.849436549818
 30
0.0
 10
68.66773728188515
 20
110.702527236145
 30
0.0
 10
68.99173256654248
 20
110.5867172721955
 30
0.0
 10
69.28821307660517
 20
110.5124039502847
 30
0.0
 10
69.55165686922918
 20
110.4690057612772
 30
0.0
 10
69.77949024618418
 20
110.4458047812648
 30
0.0
 10
69.9322037030628
 20
110.4429427271435
 30
0.0
 10
70.00876099070334
 20
110.4415079413356
 30
0.0
  0
SPLINE
  5
7E
330
1F
100
AcDbEntity
  8
0
  6
Continuous
 62
     7
370
    15
100
AcDbSpline
210
0.0
220
0.0
230
1.0
 70
     8
 71
     3
 72
    14
 73
    10
 74
     0
 42
0.000000001
 43
0.00000001
 40
0.0
 40
0.0
 40
0.0
 40
0.0
 40
0.25
 40
0.25
 40
0.5
 40
0.5
 40
0.75
 40
0.75
 40
1.0
 40
1.0
 40
1.0
 40
1.0
 10
70.00876099070334
 20
110.4415079413356
 30
0.0
 10
70.00877600783292
 20
110.2473400131912
 30
0.0
 10
70.0087910249625
 20
110.0532451545354
 30
0.0
 10
70.00882105922169
 20
109.6938246047469
 30
0.0
 10
70.00883607635124
 20
109.5286341711513
 30
0.0
 10
70.00886611061041
 20
109.2516535004271
 30
0.0
 10
70.00888112774
 20
109.1399674969697
 30
0.0
 10
70.00891116199915
 20
108.9866744080854
 30
0.0
 10
70.00892617912874
 20
108.9451250100826
 30
0.0
 10
70.00894119625833
 20
108.9417363883684
 30
0.0
  0
LINE
  5
7F
330
1F
100
AcDbEntity
  8
0
  6
Continuous
 62
     7
370
    15
100
AcDbLine
 10
70.0089411963
 20
108.9417363884
 30
0.0
 11
139.6951789696
 21
108.9417363884
 31
0.0
  0
LINE
  5
80
330
1F
100
AcDbEntity
  8
0
  6
Continuous
 62
     7
370
    15
100
AcDbLine
 10
70.0087609907
 20
110.4415079413
 30
0.0
 11
139.6951789718
 21
110.4415079413
 31
0.0
  0
LINE
  5
81
330
1F
100
AcDbEntity
  8
0
  6
Continuous
 62
     7
370
    15
100
AcDbLine
 10
139.6949987662
 20
188.6266313415
 30
0.0
 11
70.0087609929
 21
188.6266313415
 31
0.0
  0
LINE
  5
82
330
1F
100
AcDbEntity
  8
0
  6
Continuous
 62
     7
370
    15
100
AcDbLine
 10
139.6951789718
 20
187.1268597885
 30
0.0
 11
70.0087609907
 21
187.1268597885
 31
0.0
  0
LINE
  5
83
330
1F
100
AcDbEntity
  8
0
  6
Continuous
 62
     7
370
    15
100
AcDbLine
 10
66.5092940577
 20
183.6273928555
 30
0.0
 11
66.5092940577
 21
113.9409748744
 31
0.0
  0
LINE
  5
84
330
1F
100
AcDbEntity
  8
0
  6
Continuous
 62
     7
370
    15
100
AcDbLine
 10
143.1946459048
 20
113.9409748744
 30
0.0
 11
143.1946459048
 21
183.6273928555
 31
0.0
  0
CIRCLE
  5
85
330
1F
100
AcDbEntity
  8
0
  6
Continuous
 62
     7
370
    15
100
AcDbCircle
 10
69.8519699812
 20
183.7841838649
 30
0.0
 40
2.599999999999994
  0
CIRCLE
  5
86
330
1F
100
AcDbEntity
  8
0
  6
Continuous
 62
     7
370
    15
100
AcDbCircle
 10
139.8519699812
 20
183.7841838649
 30
0.0
 40
2.599999999999994
  0
CIRCLE
  5
87
330
1F
100
AcDbEntity
  8
0
  6
Continuous
 62
     7
370
    15
100
AcDbCircle
 10
139.8519699812
 20
113.7841838649
 30
0.0
 40
2.599999999999994
  0
CIRCLE
  5
88
330
1F
100
AcDbEntity
  8
0
  6
Continuous
 62
     7
370
    15
100
AcDbCircle
 10
69.8519699812
 20
113.7841838649
 30
0.0
 40
2.599999999999994
  0
LINE
  5
89
330
1F
100
AcDbEntity
  8
0
  6
Continuous
 62
     7
370
    15
100
AcDbLine
 10
65.0095225047
 20
183.6272126499
 30
0.0
 11
65.0095225047
 21
113.9409748766
 31
0.0
  0
LINE
  5
8A
330
1F
100
AcDbEntity
  8
0
  6
Continuous
 62
     7
370
    15
100
AcDbLine
 10
144.6944174578
 20
113.9411550851
 30
0.0
 11
144.6944174578
 21
183.6273928533
 31
0.0
  0
ELLIPSE
  5
8B
330
1F
100
AcDbEntity
  8
0
  6
Continuous
 62
     7
370
    15
100
AcDbEllipse
 10
139.851208341
 20
183.7834222247
 30
0.0
 11
3.536610945847911
 21
3.536610945847883
 31
0.0
210
0.0
220
0.0
230
1.0
 40
0.9996954599
 41
5.497939437029883
 42
7.068431177329311
  0
LINE
  5
8C
330
1F
100
AcDbEntity
  8
0
  6
Continuous
 62
     7
370
    15
100
AcDbLine
 10
144.8519699812
 20
183.7849453891
 30
0.0
 11
144.6944174527
 21
183.6273928584
 31
0.0
  0
LINE
  5
8D
330
1F
100
AcDbEntity
  8
0
  6
Continuous
 62
     7
370
    15
100
AcDbLine
 10
139.6949987662
 20
188.6266313415
 30
0.0
 11
139.8527315055
 21
188.7841838649
 31
0.0
  0
ELLIPSE
  5
8E
330
1F
100
AcDbEntity
  8
0
  6
Continuous
 62
     7
370
    15
100
AcDbEllipse
 10
69.8527316215
 20
183.7834222247
 30
0.0
 11
-3.536610945847911
 21
3.536610945847883
 31
0.0
210
0.0
220
0.0
230
1.0
 40
0.9996954599
 41
5.49793943702974
 42
7.068431177329304
  0
LINE
  5
8F
330
1F
100
AcDbEntity
  8
0
  6
Continuous
 62
     7
370
    15
100
AcDbLine
 10
70.0087609907
 20
188.6266313312
 30
0.0
 11
69.851208457
 21
188.7841838649
 31
0.0
  0
LINE
  5
90
330
1F
100
AcDbEntity
  8
0
  6
Continuous
 62
     7
370
    15
100
AcDbLine
 10
65.0095225047
 20
183.6272126499
 30
0.0
 11
64.8519699812
 21
183.7849453891
 31
0.0
  0
ELLIPSE
  5
91
330
1F
100
AcDbEntity
  8
0
  6
Continuous
 62
     7
370
    15
100
AcDbEllipse
 10
139.851208341
 20
113.7849455051
 30
0.0
 11
3.536610945847912
 21
-3.536610945847898
 31
0.0
210
0.0
220
0.0
230
1.0
 40
0.9996954599
 41
5.497939436809943
 42
7.068431177329308
  0
LINE
  5
92
330
1F
100
AcDbEntity
  8
0
  6
Continuous
 62
     7
370
    15
100
AcDbLine
 10
139.6951789696
 20
108.9417363986
 30
0.0
 11
139.8527315044
 21
108.7841838649
 31
0.0
  0
LINE
  5
93
330
1F
100
AcDbEntity
  8
0
  6
Continuous
 62
     7
370
    15
100
AcDbLine
 10
144.6944174527
 20
113.9411550851
 30
0.0
 11
144.8519699812
 21
113.7834223407
 31
0.0
  0
ELLIPSE
  5
94
330
1F
100
AcDbEntity
  8
0
  6
Continuous
 62
     7
370
    15
100
AcDbEllipse
 10
69.8527316215
 20
113.7849455051
 30
0.0
 11
-3.536610945847912
 21
-3.536610945847898
 31
0.0
210
0.0
220
0.0
230
1.0
 40
0.9996954599
 41
5.497939436809943
 42
7.068431177329311
  0
LINE
  5
95
330
1F
100
AcDbEntity
  8
0
  6
Continuous
 62
     7
370
    15
100
AcDbLine
 10
65.0095225149
 20
113.9409748766
 30
0.0
 11
64.8519699812
 21
113.7834223418
 31
0.0
  0
LINE
  5
96
330
1F
100
AcDbEntity
  8
0
  6
Continuous
 62
     7
370
    15
100
AcDbLine
 10
70.0089411963
 20
108.9417363884
 30
0.0
 11
69.851208457
 21
108.7841838649
 31
0.0
  0
LINE
  5
97
330
1F
100
AcDbEntity
  8
0
  6
Continuous
 62
     7
370
    15
100
AcDbLine
 10
144.8519699812
 20
113.7834223407
 30
0.0
 11
144.8519699812
 21
183.7849453891
 31
0.0
  0
LINE
  5
98
330
1F
100
AcDbEntity
  8
0
  6
Continuous
 62
     7
370
    15
100
AcDbLine
 10
139.8527315055
 20
188.7841838649
 30
0.0
 11
69.851208457
 21
188.7841838649
 31
0.0
  0
LINE
  5
99
330
1F
100
AcDbEntity
  8
0
  6
Continuous
 62
     7
370
    15
100
AcDbLine
 10
69.851208457
 20
108.7841838649
 30
0.0
 11
139.8527315044
 21
108.7841838649
 31
0.0
  0
LINE
  5
9A
330
1F
100
AcDbEntity
  8
0
  6
Continuous
 62
     7
370
    15
100
AcDbLine
 10
64.8519699812
 20
183.7849453891
 30
0.0
 11
64.8519699812
 21
113.7834223418
 31
0.0
  0
CIRCLE
  5
9B
330
1F
100
AcDbEntity
  8
0
  6
Continuous
 62
     7
370
    15
100
AcDbCircle
 10
139.8519699812
 20
113.7841838649
 30
0.0
 40
1.674999999999997
  0
CIRCLE
  5
9C
330
1F
100
AcDbEntity
  8
0
  6
Continuous
 62
     7
370
    15
100
AcDbCircle
 10
69.8519699812
 20
113.7841838649
 30
0.0
 40
1.674999999999997
  0
CIRCLE
  5
9D
330
1F
100
AcDbEntity
  8
0
  6
Continuous
 62
     7
370
    15
100
AcDbCircle
 10
69.8519699812
 20
183.7841838649
 30
0.0
 40
1.674999999999983
  0
CIRCLE
  5
9E
330
1F
100
AcDbEntity
  8
0
  6
Continuous
 62
     7
370
    15
100
AcDbCircle
 10
139.8519699812
 20
183.7841838649
 30
0.0
 40
1.674999999999983
  0
SPLINE
  5
9F
330
1F
100
AcDbEntity
  8
0
  6
Continuous
 62
     7
370
    15
100
AcDbSpline
210
0.0
220
0.0
230
1.0
 70
     8
 71
     3
 72
    11
 73
     7
 74
     0
 42
0.000000001
 43
0.00000001
 40
0.0
 40
0.0
 40
0.0
 40
0.0
 40
0.2499140229956321
 40
0.4998617797761024
 40
0.7498916192581621
 40
1.0
 40
1.0
 40
1.0
 40
1.0
 10
30.99756395980457
 20
113.9765708849308
 30
0.0
 10
30.99763225232386
 20
113.6017932036448
 30
0.0
 10
30.99776884658067
 20
112.8521872529965
 30
0.0
 10
30.99797493263008
 20
111.8278641923271
 30
0.0
 10
30.99818178959864
 20
110.9676818820099
 30
0.0
 10
30.99832045828501
 20
110.623643460022
 30
0.0
 10
30.9983898035164
 20
110.4515972352847
 30
0.0
  0
SPLINE
  5
A0
330
1F
100
AcDbEntity
  8
0
  6
Continuous
 62
     7
370
    15
100
AcDbSpline
210
0.0
220
0.0
230
1.0
 70
     8
 71
     3
 72
     9
 73
     5
 74
     0
 42
0.000000001
 43
0.00000001
 40
0.0
 40
0.0
 40
0.0
 40
0.0
 40
0.4841166453621339
 40
1.0
 40
1.0
 40
1.0
 40
1.0
 10
30.99756369703596
 20
110.1761460427982
 30
0.0
 10
31.01929877994123
 20
110.0935247049971
 30
0.0
 10
31.06419515587353
 20
109.9228605921379
 30
0.0
 10
31.15929406056196
 20
109.9448548593134
 30
0.0
 10
31.20835400253501
 20
109.9562013356468
 30
0.0
  0
SPLINE
  5
A1
330
1F
100
AcDbEntity
  8
0
  6
Continuous
 62
     7
370
    15
100
AcDbSpline
210
0.0
220
0.0
230
1.0
 70
     8
 71
     3
 72
    11
 73
     7
 74
     0
 42
0.000000001
 43
0.00000001
 40
0.0
 40
0.0
 40
0.0
 40
0.0
 40
0.2554160064710413
 40
0.5148622631534993
 40
0.7663736988044222
 40
1.0
 40
1.0
 40
1.0
 40
1.0
 10
31.07452866643995
 20
109.979287635011
 30
0.0
 10
31.14203542506985
 20
109.8442341131057
 30
0.0
 10
31.2781141423224
 20
109.57199603807
 30
0.0
 10
31.62666441076579
 20
109.2688576040023
 30
0.0
 10
32.03169020895344
 20
109.0732770550593
 30
0.0
 10
32.3209761610257
 20
109.0470616440102
 30
0.0
 10
32.46028671519903
 20
109.0344371684178
 30
0.0
  0
SPLINE
  5
A2
330
1F
100
AcDbEntity
  8
0
  6
Continuous
 62
     7
370
    15
100
AcDbSpline
210
0.0
220
0.0
230
1.0
 70
     8
 71
     3
 72
     9
 73
     5
 74
     0
 42
0.000000001
 43
0.00000001
 40
0.0
 40
0.0
 40
0.0
 40
0.0
 40
0.9321425404163821
 40
1.0
 40
1.0
 40
1.0
 40
1.0
 10
31.07452866643995
 20
110.5695306054703
 30
0.0
 10
31.04026881757179
 20
110.5067271174505
 30
0.0
 10
31.0035149442287
 20
110.4393517051108
 30
0.0
 10
30.99542950294892
 20
110.4637097889197
 30
0.0
 10
30.99488084544406
 20
110.4653626666073
 30
0.0
  0
SPLINE
  5
A3
330
1F
100
AcDbEntity
  8
0
  6
Continuous
 62
     7
370
    15
100
AcDbSpline
210
0.0
220
0.0
230
1.0
 70
     8
 71
     3
 72
     9
 73
     5
 74
     0
 42
0.000000001
 43
0.00000001
 40
0.0
 40
0.0
 40
0.0
 40
0.0
 40
0.0674676976132053
 40
1.0
 40
1.0
 40
1.0
 40
1.0
 10
30.99489184392489
 20
187.1030840854698
 30
0.0
 10
30.99543735695439
 20
187.1047267790951
 30
0.0
 10
31.00352290083387
 20
187.1290746327122
 30
0.0
 10
31.04026524429606
 20
187.0617326783041
 30
0.0
 10
31.07452866643995
 20
186.9989341305128
 30
0.0
  0
SPLINE
  5
A4
330
1F
100
AcDbEntity
  8
0
  6
Continuous
 62
     7
370
    15
100
AcDbSpline
210
0.0
220
0.0
230
1.0
 70
     8
 71
     3
 72
    11
 73
     7
 74
     0
 42
0.000000001
 43
0.00000001
 40
0.0
 40
0.0
 40
0.0
 40
0.0
 40
0.2336263201148079
 40
0.4851377479790547
 40
0.7445839929617589
 40
0.9999999999999999
 40
0.9999999999999999
 40
0.9999999999999999
 40
0.9999999999999999
 10
32.46028671519903
 20
188.5339585820584
 30
0.0
 10
32.32097616452818
 20
188.5213328458637
 30
0.0
 10
32.03169023651731
 20
188.4951148186264
 30
0.0
 10
31.62666441079907
 20
188.2995299441136
 30
0.0
 10
31.27811413506534
 20
187.9963869788342
 30
0.0
 10
31.14203542373934
 20
187.7241460049529
 30
0.0
 10
31.07452866643995
 20
187.5890910417506
 30
0.0
  0
SPLINE
  5
A5
330
1F
100
AcDbEntity
  8
0
  6
Continuous
 62
     7
370
    15
100
AcDbSpline
210
0.0
220
0.0
230
1.0
 70
     8
 71
     3
 72
     9
 73
     5
 74
     0
 42
0.000000001
 43
0.00000001
 40
0.0
 40
0.0
 40
0.0
 40
0.0
 40
0.5159026893255293
 40
1.0
 40
1.0
 40
1.0
 40
1.0
 10
31.20834049305595
 20
187.6122204097855
 30
0.0
 10
31.15928428059221
 20
187.6235577326007
 30
0.0
 10
31.06419616905733
 20
187.6455334327663
 30
0.0
 10
31.01929842257339
 20
187.4748541630328
 30
0.0
 10
30.99756354424517
 20
187.392228787567
 30
0.0
  0
SPLINE
  5
A6
330
1F
100
AcDbEntity
  8
0
  6
Continuous
 62
     7
370
    15
100
AcDbSpline
210
0.0
220
0.0
230
1.0
 70
     8
 71
     3
 72
    11
 73
     7
 74
     0
 42
0.000000001
 43
0.00000001
 40
0.0
 40
0.0
 40
0.0
 40
0.0
 40
0.2501058404725391
 40
0.5001338768836073
 40
0.7500812392288541
 40
1.0
 40
1.0
 40
1.0
 40
1.0
 10
30.99838995496198
 20
187.1168357961909
 30
0.0
 10
30.99832059686514
 20
186.9448024596048
 30
0.0
 10
30.99818190224768
 20
186.6007893033447
 30
0.0
 10
30.99797500725296
 20
185.7406390318523
 30
0.0
 10
30.99776888138958
 20
184.7163276196047
 30
0.0
 10
30.99763226438239
 20
183.9667103123338
 30
0.0
 10
30.9975639597873
 20
183.5919231046756
 30
0.0
  0
LINE
  5
A7
330
1F
100
AcDbEntity
  8
0
  6
Continuous
 62
     7
370
    15
100
AcDbLine
 10
43.973916017
 20
123.6591838649
 30
0.0
 11
41.4738710031
 21
123.6591838649
 31
0.0
  0
LINE
  5
A8
330
1F
100
AcDbEntity
  8
0
  6
Continuous
 62
     7
370
    15
100
AcDbLine
 10
41.4738710031
 20
118.9091838649
 30
0.0
 11
43.973916017
 21
118.9091838649
 31
0.0
  0
LINE
  5
A9
330
1F
100
AcDbEntity
  8
0
  6
Continuous
 62
     7
370
    15
100
AcDbLine
 10
43.973916017
 20
118.9091838649
 30
0.0
 11
44.2238710031
 21
119.1591435885
 31
0.0
  0
LINE
  5
AA
330
1F
100
AcDbEntity
  8
0
  6
Continuous
 62
     7
370
    15
100
AcDbLine
 10
44.2238710031
 20
123.4092241413
 30
0.0
 11
43.973916017
 21
123.6591838649
 31
0.0
  0
LINE
  5
AB
330
1F
100
AcDbEntity
  8
0
  6
Continuous
 62
     7
370
    15
100
AcDbLine
 10
43.973916017
 20
178.6591838649
 30
0.0
 11
41.4738710031
 21
178.6591838649
 31
0.0
  0
LINE
  5
AC
330
1F
100
AcDbEntity
  8
0
  6
Continuous
 62
     7
370
    15
100
AcDbLine
 10
41.4738710031
 20
173.9091838649
 30
0.0
 11
43.973916017
 21
173.9091838649
 31
0.0
  0
LINE
  5
AD
330
1F
100
AcDbEntity
  8
0
  6
Continuous
 62
     7
370
    15
100
AcDbLine
 10
43.973916017
 20
173.9091838649
 30
0.0
 11
44.2238710031
 21
174.1591435885
 31
0.0
  0
LINE
  5
AE
330
1F
100
AcDbEntity
  8
0
  6
Continuous
 62
     7
370
    15
100
AcDbLine
 10
44.2238710031
 20
178.4092241413
 30
0.0
 11
43.973916017
 21
178.6591838649
 31
0.0
  0
SPLINE
  5
AF
330
1F
100
AcDbEntity
  8
0
  6
Continuous
 62
     7
370
    15
100
AcDbSpline
210
0.0
220
0.0
230
1.0
 70
     8
 71
     3
 72
     9
 73
     5
 74
     0
 42
0.000000001
 43
0.00000001
 40
0.0
 40
0.0
 40
0.0
 40
0.0
 40
0.9713695804437212
 40
1.0
 40
1.0
 40
1.0
 40
1.0
 10
30.99756354424525
 20
110.1761389422637
 30
0.0
 10
31.01535200109148
 20
110.0783652866241
 30
0.0
 10
31.0336647599058
 20
109.9777098228252
 30
0.0
 10
31.0769906766695
 20
109.9730669938603
 30
0.0
 10
31.07823111584411
 20
109.9729340677191
 30
0.0
  0
SPLINE
  5
B0
330
1F
100
AcDbEntity
  8
0
  6
Continuous
 62
     7
370
    15
100
AcDbSpline
210
0.0
220
0.0
230
1.0
 70
     8
 71
     3
 72
    11
 73
     7
 74
     0
 42
0.000000001
 43
0.00000001
 40
0.0
 40
0.0
 40
0.0
 40
0.0
 40
0.2554160070382412
 40
0.5148622520209447
 40
0.7663736798851922
 40
0.9999999999999999
 40
0.9999999999999999
 40
0.9999999999999999
 40
0.9999999999999999
 10
31.07452866643995
 20
109.9792766880806
 30
0.0
 10
31.14203542373934
 20
109.8442217248783
 30
0.0
 10
31.27811413506534
 20
109.5719807509971
 30
0.0
 10
31.62666441079907
 20
109.2688377857176
 30
0.0
 10
32.03169023651731
 20
109.0732529112048
 30
0.0
 10
32.32097616452818
 20
109.0470348839676
 30
0.0
 10
32.46028671519903
 20
109.0344091477728
 30
0.0
  0
LINE
  5
B1
330
1F
100
AcDbEntity
  8
0
  6
Continuous
 62
     7
370
    15
100
AcDbLine
 10
41.4738710031
 20
183.7849453891
 30
0.0
 11
41.4738710031
 21
188.7841838649
 31
0.0
  0
LINE
  5
B2
330
1F
100
AcDbEntity
  8
0
  6
Continuous
 62
     7
370
    15
100
AcDbLine
 10
41.4738710031
 20
183.7849453891
 30
0.0
 11
32.4476926865
 21
183.6273928584
 31
0.0
  0
SPLINE
  5
B3
330
1F
100
AcDbEntity
  8
0
  6
Continuous
 62
     7
370
    15
100
AcDbSpline
210
0.0
220
0.0
230
1.0
 70
     8
 71
     3
 72
     9
 73
     5
 74
     0
 42
0.000000001
 43
0.00000001
 40
0.0
 40
0.0
 40
0.0
 40
0.0
 40
0.464340960321887
 40
1.0
 40
1.0
 40
1.0
 40
1.0
 10
32.4430775910845
 20
188.5309657734496
 30
0.0
 10
32.4437251346035
 20
188.557479130578
 30
0.0
 10
32.4451196777826
 20
188.6145780285731
 30
0.0
 10
32.44679537655215
 20
188.6224269776775
 30
0.0
 10
32.44769297974582
 20
188.6266313382174
 30
0.0
  0
LINE
  5
B4
330
1F
100
AcDbEntity
  8
0
  6
Continuous
 62
     7
370
    15
100
AcDbLine
 10
32.4476929797
 20
188.6266313415
 30
0.0
 11
41.4738710031
 21
188.7841838649
 31
0.0
  0
LINE
  5
B5
330
1F
100
AcDbEntity
  8
0
  6
Continuous
 62
     7
370
    15
100
AcDbLine
 10
41.4738710031
 20
113.7834223407
 30
0.0
 11
41.4738710031
 21
183.7849453891
 31
0.0
  0
LINE
  5
B6
330
1F
100
AcDbEntity
  8
0
  6
Continuous
 62
     7
370
    15
100
AcDbLine
 10
32.4476926866
 20
113.9411550851
 30
0.0
 11
41.4738710031
 21
113.7834223407
 31
0.0
  0
LINE
  5
B7
330
1F
100
AcDbEntity
  8
0
  6
Continuous
 62
     7
370
    15
100
AcDbLine
 10
32.4476929797
 20
113.9411550851
 30
0.0
 11
32.4476929797
 21
183.6273928533
 31
0.0
  0
LINE
  5
B8
330
1F
100
AcDbEntity
  8
0
  6
Continuous
 62
     7
370
    15
100
AcDbLine
 10
41.4738710031
 20
108.7841838649
 30
0.0
 11
41.4738710031
 21
113.7834223407
 31
0.0
  0
LINE
  5
B9
330
1F
100
AcDbEntity
  8
0
  6
Continuous
 62
     7
370
    15
100
AcDbLine
 10
32.4476923935
 20
108.9417363986
 30
0.0
 11
41.4738710031
 21
108.7841838649
 31
0.0
  0
LINE
  5
BA
330
1F
100
AcDbEntity
  8
0
  6
Continuous
 62
     7
370
    15
100
AcDbLine
 10
32.4476923935
 20
108.9417363986
 30
0.0
 11
32.4431339905
 21
109.0401342258
 31
0.0
  0
LINE
  5
BB
330
1F
100
AcDbEntity
  8
0
  6
Continuous
 62
     7
370
    15
100
AcDbLine
 10
30.9738710031
 20
110.4415079413
 30
0.0
 11
30.9738710031
 21
110.507992339
 31
0.0
  0
LINE
  5
BC
330
1F
100
AcDbEntity
  8
0
  6
Continuous
 62
     7
370
    15
100
AcDbLine
 10
30.9738710031
 20
113.9409748744
 30
0.0
 11
31.0240360778
 21
113.9409951091
 31
0.0
  0
LINE
  5
BD
330
1F
100
AcDbEntity
  8
0
  6
Continuous
 62
     7
370
    15
100
AcDbLine
 10
30.9738710031
 20
110.4415079413
 30
0.0
 11
31.0268932881
 21
110.1718739685
 31
0.0
  0
LINE
  5
BE
330
1F
100
AcDbEntity
  8
0
  6
Continuous
 62
     7
370
    15
100
AcDbLine
 10
31.0240371764
 20
183.6273928533
 30
0.0
 11
30.9738710031
 21
183.6273928533
 31
0.0
  0
LINE
  5
BF
330
1F
100
AcDbEntity
  8
0
  6
Continuous
 62
     7
370
    15
100
AcDbLine
 10
30.9738710031
 20
187.0603741771
 30
0.0
 11
30.9738710031
 21
187.1268597885
 31
0.0
  0
LINE
  5
C0
330
1F
100
AcDbEntity
  8
0
  6
Continuous
 62
     7
370
    15
100
AcDbLine
 10
30.9738710031
 20
187.1268597885
 30
0.0
 11
31.026900306
 21
187.3965294492
 31
0.0
  0
LINE
  5
C1
330
1F
100
AcDbEntity
  8
0
  6
Continuous
 62
     7
370
    15
100
AcDbLine
 10
30.9738710031
 20
113.9409748744
 30
0.0
 11
30.9738710031
 21
183.6273928555
 31
0.0
  0
LINE
  5
C2
330
1F
100
AcDbEntity
  8
0
  6
Continuous
 62
     7
370
    15
100
AcDbLine
 10
43.973916017
 20
118.9091838649
 30
0.0
 11
43.973916017
 21
123.6591838649
 31
0.0
  0
LINE
  5
C3
330
1F
100
AcDbEntity
  8
0
  6
Continuous
 62
     7
370
    15
100
AcDbLine
 10
44.2238710031
 20
119.1591435885
 30
0.0
 11
44.2238710031
 21
123.4092241413
 31
0.0
  0
LINE
  5
C4
330
1F
100
AcDbEntity
  8
0
  6
Continuous
 62
     7
370
    15
100
AcDbLine
 10
43.973916017
 20
173.9091838649
 30
0.0
 11
43.973916017
 21
178.6591838649
 31
0.0
  0
LINE
  5
C5
330
1F
100
AcDbEntity
  8
0
  6
Continuous
 62
     7
370
    15
100
AcDbLine
 10
44.2238710031
 20
174.1591435885
 30
0.0
 11
44.2238710031
 21
178.4092241413
 31
0.0
  0
SPLINE
  5
C6
330
1F
100
AcDbEntity
  8
0
  6
Continuous
 62
     8
370
    15
100
AcDbSpline
210
0.0
220
0.0
230
1.0
 70
     8
 71
     3
 72
    15
 73
    11
 74
     0
 42
0.000000001
 43
0.00000001
 40
0.0
 40
0.0
 40
0.0
 40
0.0
 40
0.148360803580127
 40
0.2928229260872938
 40
0.4333865946616574
 40
0.5700520912557139
 40
0.7060448038088273
 40
0.8463883688634052
 40
0.9910828909158561
 40
1.0
 40
1.0
 40
1.0
 40
1.0
 10
32.4476923934507
 20
183.6273928532506
 30
0.0
 10
32.44599563525503
 20
183.9680584506999
 30
0.0
 10
32.44264670691458
 20
184.6404375067252
 30
0.0
 10
32.43921434427629
 20
185.5945177236389
 30
0.0
 10
32.43723371078877
 20
186.4481109026312
 30
0.0
 10
32.4366733406864
 20
187.1816082791989
 30
0.0
 10
32.43721086789163
 20
187.7910928494319
 30
0.0
 10
32.43918532077533
 20
188.249753431297
 30
0.0
 10
32.44140329767772
 20
188.4749870167038
 30
0.0
 10
32.44298573128834
 20
188.5278945093789
 30
0.0
 10
32.4430775910845
 20
188.5309657734496
 30
0.0
  0
SPLINE
  5
C7
330
1F
100
AcDbEntity
  8
0
  6
Continuous
 62
     8
370
    15
100
AcDbSpline
210
0.0
220
0.0
230
1.0
 70
     8
 71
     3
 72
    15
 73
    11
 74
     0
 42
0.000000001
 43
0.00000001
 40
0.0
 40
0.0
 40
0.0
 40
0.0
 40
0.0082243584539543
 40
0.1526879318060788
 40
0.2932531077632253
 40
0.4299202506867719
 40
0.5665616582341894
 40
0.7071218732124616
 40
0.8516012487930115
 40
1.0
 40
1.0
 40
1.0
 40
1.0
 10
32.44313399045431
 20
109.0401342258346
 30
0.0
 10
32.44304426077592
 20
109.0419672619515
 30
0.0
 10
32.44137839965223
 20
109.0759981830484
 30
0.0
 10
32.43928254968225
 20
109.3238173249628
 30
0.0
 10
32.43721759760319
 20
109.7732212027821
 30
0.0
 10
32.43667161194256
 20
110.3860368016981
 30
0.0
 10
32.43723328237682
 20
111.1200387535505
 30
0.0
 10
32.43921182560576
 20
111.9737609098954
 30
0.0
 10
32.442643866702
 20
112.9278928207524
 30
0.0
 10
32.4459949934978
 20
113.6004010967727
 30
0.0
 10
32.44769297974582
 20
113.9411550801187
 30
0.0
  0
SPLINE
  5
C8
330
1F
100
AcDbEntity
  8
0
  6
Continuous
 62
     8
370
    15
100
AcDbSpline
210
0.0
220
0.0
230
1.0
 70
     8
 71
     3
 72
    11
 73
     7
 74
     0
 42
0.000000001
 43
0.00000001
 40
0.0
 40
0.0
 40
0.0
 40
0.0
 40
0.1551322409708159
 40
0.4367548273138779
 40
0.7183774136569396
 40
1.0
 40
1.0
 40
1.0
 40
1.0
 10
31.02403607775608
 20
113.9409951091416
 30
0.0
 10
31.03847413370113
 20
113.9410033813509
 30
0.0
 10
31.07912261909378
 20
113.9410266706897
 30
0.0
 10
31.3833907401478
 20
113.9410649771581
 30
0.0
 10
31.86486250389002
 20
113.9411100285469
 30
0.0
 10
32.25341615442198
 20
113.941140062806
 30
0.0
 10
32.44769297968797
 20
113.9411550799356
 30
0.0
  0
SPLINE
  5
C9
330
1F
100
AcDbEntity
  8
0
  6
Continuous
 62
     8
370
    15
100
AcDbSpline
210
0.0
220
0.0
230
1.0
 70
    24
 71
     3
 72
    11
 73
     7
 74
     0
 42
0.000000001
 43
0.00000001
 40
0.0
 40
0.0
 40
0.0
 40
0.0
 40
0.2816233665079539
 40
0.5632467330159093
 40
0.8448700995238648
 40
1.0
 40
1.0
 40
1.0
 40
1.0
 10
32.44769297968797
 20
183.6273928532506
 30
0.0
 10
32.25341614516746
 20
183.6273928532506
 30
0.0
 10
31.86486247612644
 20
183.6273928532506
 30
0.0
 10
31.38339085120211
 20
183.6273928532506
 30
0.0
 10
31.07912345495186
 20
183.6273928532506
 30
0.0
 10
31.03847504080384
 20
183.6273928532506
 30
0.0
 10
31.02403717641226
 20
183.6273928532506
 30
0.0
  0
SPLINE
  5
CA
330
1F
100
AcDbEntity
  8
0
  6
Continuous
 62
     7
370
    15
100
AcDbSpline
210
0.0
220
0.0
230
1.0
 70
     8
 71
     3
 72
    11
 73
     7
 74
     0
 42
0.000000001
 43
0.00000001
 40
0.0
 40
0.0
 40
0.0
 40
0.0
 40
0.2499140229956311
 40
0.4998617797761056
 40
0.7498916192581652
 40
1.0
 40
1.0
 40
1.0
 40
1.0
 10
70.04435700125347
 20
220.3651189670246
 30
0.0
 10
69.66957931996751
 20
220.3650506745053
 30
0.0
 10
68.91997336931922
 20
220.3649140802485
 30
0.0
 10
67.89565030864983
 20
220.3647079941991
 30
0.0
 10
67.03546799833268
 20
220.3645011372305
 30
0.0
 10
66.69142957634473
 20
220.3643624685442
 30
0.0
 10
66.51938335160739
 20
220.3642931233128
 30
0.0
  0
SPLINE
  5
CB
330
1F
100
AcDbEntity
  8
0
  6
Continuous
 62
     7
370
    15
100
AcDbSpline
210
0.0
220
0.0
230
1.0
 70
     8
 71
     3
 72
     9
 73
     5
 74
     0
 42
0.000000001
 43
0.00000001
 40
0.0
 40
0.0
 40
0.0
 40
0.0
 40
0.4841166453621529
 40
1.0
 40
1.0
 40
1.0
 40
1.0
 10
66.24393215912069
 20
220.3651192297932
 30
0.0
 10
66.16131082131963
 20
220.3433841468879
 30
0.0
 10
65.9906467084605
 20
220.2984877709556
 30
0.0
 10
66.01264097563613
 20
220.2033888662672
 30
0.0
 10
66.02398745196949
 20
220.1543289242942
 30
0.0
  0
SPLINE
  5
CC
330
1F
100
AcDbEntity
  8
0
  6
Continuous
 62
     7
370
    15
100
AcDbSpline
210
0.0
220
0.0
230
1.0
 70
     8
 71
     3
 72
    11
 73
     7
 74
     0
 42
0.000000001
 43
0.00000001
 40
0.0
 40
0.0
 40
0.0
 40
0.0
 40
0.255416006471044
 40
0.5148622631535017
 40
0.7663736988044212
 40
1.0
 40
1.0
 40
1.0
 40
1.0
 10
66.0470737513337
 20
220.2881542603893
 30
0.0
 10
65.91202022942846
 20
220.2206475017593
 30
0.0
 10
65.63978215439276
 20
220.0845687845068
 30
0.0
 10
65.33664372032503
 20
219.7360185160634
 30
0.0
 10
65.14106317138207
 20
219.3309927178758
 30
0.0
 10
65.11484776033288
 20
219.0417067658035
 30
0.0
 10
65.10222328474055
 20
218.9023962116302
 30
0.0
  0
SPLINE
  5
CD
330
1F
100
AcDbEntity
  8
0
  6
Continuous
 62
     7
370
    15
100
AcDbSpline
210
0.0
220
0.0
230
1.0
 70
     8
 71
     3
 72
     9
 73
     5
 74
     0
 42
0.000000001
 43
0.00000001
 40
0.0
 40
0.0
 40
0.0
 40
0.0
 40
0.9321425404165521
 40
1.0
 40
1.0
 40
1.0
 40
1.0
 10
66.63731672179307
 20
220.2881542603893
 30
0.0
 10
66.57451323377325
 20
220.3224141092574
 30
0.0
 10
66.50713782143363
 20
220.3591679826005
 30
0.0
 10
66.53149590524256
 20
220.3672534238803
 30
0.0
 10
66.53314878293016
 20
220.3678020813852
 30
0.0
  0
SPLINE
  5
CE
330
1F
100
AcDbEntity
  8
0
  6
Continuous
 62
     7
370
    15
100
AcDbSpline
210
0.0
220
0.0
230
1.0
 70
     8
 71
     3
 72
     9
 73
     5
 74
     0
 42
0.000000001
 43
0.00000001
 40
0.0
 40
0.0
 40
0.0
 40
0.0
 40
0.0674676976129541
 40
1.0
 40
1.0
 40
1.0
 40
1.0
 10
143.1708702017924
 20
220.3677910829043
 30
0.0
 10
143.1725128954178
 20
220.3672455698748
 30
0.0
 10
143.1968607490348
 20
220.3591600259953
 30
0.0
 10
143.1295187946268
 20
220.3224176825331
 30
0.0
 10
143.0667202468355
 20
220.2881542603893
 30
0.0
  0
SPLINE
  5
CF
330
1F
100
AcDbEntity
  8
0
  6
Continuous
 62
     7
370
    15
100
AcDbSpline
210
0.0
220
0.0
230
1.0
 70
     8
 71
     3
 72
    11
 73
     7
 74
     0
 42
0.000000001
 43
0.00000001
 40
0.0
 40
0.0
 40
0.0
 40
0.0
 40
0.2336263201148076
 40
0.4851377479790503
 40
0.7445839929617539
 40
1.0
 40
1.0
 40
1.0
 40
1.0
 10
144.6017446983812
 20
218.9023962116302
 30
0.0
 10
144.5891189621864
 20
219.041706762301
 30
0.0
 10
144.5629009349491
 20
219.3309926903119
 30
0.0
 10
144.3673160604363
 20
219.7360185160301
 30
0.0
 10
144.0641730951569
 20
220.0845687917638
 30
0.0
 10
143.7919321212756
 20
220.2206475030899
 30
0.0
 10
143.6568771580733
 20
220.2881542603893
 30
0.0
  0
SPLINE
  5
D0
330
1F
100
AcDbEntity
  8
0
  6
Continuous
 62
     7
370
    15
100
AcDbSpline
210
0.0
220
0.0
230
1.0
 70
     8
 71
     3
 72
     9
 73
     5
 74
     0
 42
0.000000001
 43
0.00000001
 40
0.0
 40
0.0
 40
0.0
 40
0.0
 40
0.5159026893255151
 40
1.0
 40
1.0
 40
1.0
 40
1.0
 10
143.6800065261082
 20
220.1543424337733
 30
0.0
 10
143.6913438489235
 20
220.203398646237
 30
0.0
 10
143.7133195490891
 20
220.2984867577718
 30
0.0
 10
143.5426402793558
 20
220.3433845042558
 30
0.0
 10
143.46001490389
 20
220.365119382584
 30
0.0
  0
SPLINE
  5
D1
330
1F
100
AcDbEntity
  8
0
  6
Continuous
 62
     7
370
    15
100
AcDbSpline
210
0.0
220
0.0
230
1.0
 70
     8
 71
     3
 72
    11
 73
     7
 74
     0
 42
0.000000001
 43
0.00000001
 40
0.0
 40
0.0
 40
0.0
 40
0.0
 40
0.2501058404725384
 40
0.5001338768836052
 40
0.7500812392288521
 40
1.0
 40
1.0
 40
1.0
 40
1.0
 10
143.1846219125136
 20
220.3642929718672
 30
0.0
 10
143.0125885759275
 20
220.3643623299641
 30
0.0
 10
142.6685754196674
 20
220.3645010245815
 30
0.0
 10
141.8084251481751
 20
220.3647079195762
 30
0.0
 10
140.7841137359275
 20
220.3649140454396
 30
0.0
 10
140.0344964286566
 20
220.3650506624468
 30
0.0
 10
139.6597092209983
 20
220.3651189670419
 30
0.0
  0
LINE
  5
D2
330
1F
100
AcDbEntity
  8
0
  6
Continuous
 62
     7
370
    15
100
AcDbLine
 10
67.4769699812
 20
207.3887669098
 30
0.0
 11
67.7269297049
 21
207.1388119237
 31
0.0
  0
LINE
  5
D3
330
1F
100
AcDbEntity
  8
0
  6
Continuous
 62
     7
370
    15
100
AcDbLine
 10
71.9770102576
 20
207.1388119237
 30
0.0
 11
72.2269699812
 21
207.3887669098
 31
0.0
  0
LINE
  5
D4
330
1F
100
AcDbEntity
  8
0
  6
Continuous
 62
     7
370
    15
100
AcDbLine
 10
72.2269699812
 20
207.3887669098
 30
0.0
 11
72.2269699812
 21
209.8888119237
 31
0.0
  0
LINE
  5
D5
330
1F
100
AcDbEntity
  8
0
  6
Continuous
 62
     7
370
    15
100
AcDbLine
 10
67.4769699812
 20
209.8888119237
 30
0.0
 11
67.4769699812
 21
207.3887669098
 31
0.0
  0
LINE
  5
D6
330
1F
100
AcDbEntity
  8
0
  6
Continuous
 62
     7
370
    15
100
AcDbLine
 10
137.4769699812
 20
207.3887669098
 30
0.0
 11
137.7269297049
 21
207.1388119237
 31
0.0
  0
LINE
  5
D7
330
1F
100
AcDbEntity
  8
0
  6
Continuous
 62
     7
370
    15
100
AcDbLine
 10
141.9770102576
 20
207.1388119237
 30
0.0
 11
142.2269699812
 21
207.3887669098
 31
0.0
  0
LINE
  5
D8
330
1F
100
AcDbEntity
  8
0
  6
Continuous
 62
     7
370
    15
100
AcDbLine
 10
142.2269699812
 20
207.3887669098
 30
0.0
 11
142.2269699812
 21
209.8888119237
 31
0.0
  0
LINE
  5
D9
330
1F
100
AcDbEntity
  8
0
  6
Continuous
 62
     7
370
    15
100
AcDbLine
 10
137.4769699812
 20
209.8888119237
 30
0.0
 11
137.4769699812
 21
207.3887669098
 31
0.0
  0
SPLINE
  5
DA
330
1F
100
AcDbEntity
  8
0
  6
Continuous
 62
     7
370
    15
100
AcDbSpline
210
0.0
220
0.0
230
1.0
 70
     8
 71
     3
 72
     9
 73
     5
 74
     0
 42
0.000000001
 43
0.00000001
 40
0.0
 40
0.0
 40
0.0
 40
0.0
 40
0.9713695804438257
 40
0.9999999999999999
 40
0.9999999999999999
 40
0.9999999999999999
 40
0.9999999999999999
 10
66.2439250585867
 20
220.365119382584
 30
0.0
 10
66.14615140294703
 20
220.3473309257378
 30
0.0
 10
66.04549593914815
 20
220.3290181669234
 30
0.0
 10
66.04085311018315
 20
220.2856922501598
 30
0.0
 10
66.04072018404197
 20
220.2844518109852
 30
0.0
  0
SPLINE
  5
DB
330
1F
100
AcDbEntity
  8
0
  6
Continuous
 62
     7
370
    15
100
AcDbSpline
210
0.0
220
0.0
230
1.0
 70
     8
 71
     3
 72
    11
 73
     7
 74
     0
 42
0.000000001
 43
0.00000001
 40
0.0
 40
0.0
 40
0.0
 40
0.0
 40
0.2554160070382461
 40
0.5148622520209497
 40
0.7663736798851923
 40
1.0
 40
1.0
 40
1.0
 40
1.0
 10
66.04706280440337
 20
220.2881542603893
 30
0.0
 10
65.91200784120105
 20
220.2206475030899
 30
0.0
 10
65.63976686731976
 20
220.0845687917638
 30
0.0
 10
65.33662390204033
 20
219.7360185160301
 30
0.0
 10
65.14103902752753
 20
219.3309926903119
 30
0.0
 10
65.11482100029029
 20
219.041706762301
 30
0.0
 10
65.10219526409551
 20
218.9023962116302
 30
0.0
  0
LINE
  5
DC
330
1F
100
AcDbEntity
  8
0
  6
Continuous
 62
     7
370
    15
100
AcDbLine
 10
139.8527315044
 20
209.8888119237
 30
0.0
 11
144.8519699812
 21
209.8888119237
 31
0.0
  0
LINE
  5
DD
330
1F
100
AcDbEntity
  8
0
  6
Continuous
 62
     7
370
    15
100
AcDbLine
 10
139.6951789696
 20
218.9149905334
 30
0.0
 11
139.8527315044
 21
209.8888119237
 31
0.0
  0
LINE
  5
DE
330
1F
100
AcDbEntity
  8
0
  6
Continuous
 62
     7
370
    15
100
AcDbLine
 10
144.5960259179
 20
218.9195503075
 30
0.0
 11
144.6944174545
 21
218.9149899471
 31
0.0
  0
LINE
  5
DF
330
1F
100
AcDbEntity
  8
0
  6
Continuous
 62
     7
370
    15
100
AcDbLine
 10
144.6944174527
 20
218.9149902403
 30
0.0
 11
144.8519699812
 21
209.8888119237
 31
0.0
  0
LINE
  5
E0
330
1F
100
AcDbEntity
  8
0
  6
Continuous
 62
     7
370
    15
100
AcDbLine
 10
69.851208457
 20
209.8888119237
 30
0.0
 11
139.8527315044
 21
209.8888119237
 31
0.0
  0
LINE
  5
E1
330
1F
100
AcDbEntity
  8
0
  6
Continuous
 62
     7
370
    15
100
AcDbLine
 10
70.0089411963
 20
218.9149899471
 30
0.0
 11
69.851208457
 21
209.8888119237
 31
0.0
  0
LINE
  5
E2
330
1F
100
AcDbEntity
  8
0
  6
Continuous
 62
     7
370
    15
100
AcDbLine
 10
70.0089411963
 20
218.9149899471
 30
0.0
 11
139.6951789696
 21
218.9149899471
 31
0.0
  0
LINE
  5
E3
330
1F
100
AcDbEntity
  8
0
  6
Continuous
 62
     7
370
    15
100
AcDbLine
 10
64.8519699812
 20
209.8888119237
 30
0.0
 11
69.851208457
 21
209.8888119237
 31
0.0
  0
LINE
  5
E4
330
1F
100
AcDbEntity
  8
0
  6
Continuous
 62
     7
370
    15
100
AcDbLine
 10
65.0095225149
 20
218.9149905334
 30
0.0
 11
64.8519699812
 21
209.8888119237
 31
0.0
  0
LINE
  5
E5
330
1F
100
AcDbEntity
  8
0
  6
Continuous
 62
     7
370
    15
100
AcDbLine
 10
65.0095225149
 20
218.9149905334
 30
0.0
 11
65.1079203421
 21
218.9195489364
 31
0.0
  0
LINE
  5
E6
330
1F
100
AcDbEntity
  8
0
  6
Continuous
 62
     7
370
    15
100
AcDbLine
 10
66.5092940577
 20
220.3888119237
 30
0.0
 11
66.2396600848
 21
220.3357896387
 31
0.0
  0
LINE
  5
E7
330
1F
100
AcDbEntity
  8
0
  6
Continuous
 62
     7
370
    15
100
AcDbLine
 10
66.5092940577
 20
220.3888119237
 30
0.0
 11
66.5757784553
 21
220.3888119237
 31
0.0
  0
LINE
  5
E8
330
1F
100
AcDbEntity
  8
0
  6
Continuous
 62
     7
370
    15
100
AcDbLine
 10
70.0087609907
 20
220.3888119237
 30
0.0
 11
70.0087812255
 21
220.3386468491
 31
0.0
  0
LINE
  5
E9
330
1F
100
AcDbEntity
  8
0
  6
Continuous
 62
     7
370
    15
100
AcDbLine
 10
143.1281602934
 20
220.3888119237
 30
0.0
 11
143.1946459048
 21
220.3888119237
 31
0.0
  0
LINE
  5
EA
330
1F
100
AcDbEntity
  8
0
  6
Continuous
 62
     7
370
    15
100
AcDbLine
 10
143.1946459048
 20
220.3888119237
 30
0.0
 11
143.4643155655
 21
220.3357826209
 31
0.0
  0
LINE
  5
EB
330
1F
100
AcDbEntity
  8
0
  6
Continuous
 62
     7
370
    15
100
AcDbLine
 10
139.6951789696
 20
220.3888119237
 30
0.0
 11
139.6951789696
 21
220.3386457504
 31
0.0
  0
LINE
  5
EC
330
1F
100
AcDbEntity
  8
0
  6
Continuous
 62
     7
370
    15
100
AcDbLine
 10
70.0087609907
 20
220.3888119237
 30
0.0
 11
139.6951789718
 21
220.3888119237
 31
0.0
  0
LINE
  5
ED
330
1F
100
AcDbEntity
  8
0
  6
Continuous
 62
     7
370
    15
100
AcDbLine
 10
67.7269297049
 20
207.1388119237
 30
0.0
 11
71.9770102576
 21
207.1388119237
 31
0.0
  0
LINE
  5
EE
330
1F
100
AcDbEntity
  8
0
  6
Continuous
 62
     7
370
    15
100
AcDbLine
 10
69.8519699812
 20
207.3887669098
 30
0.0
 11
72.2269699812
 21
207.3887669098
 31
0.0
  0
LINE
  5
EF
330
1F
100
AcDbEntity
  8
0
  6
Continuous
 62
     7
370
    15
100
AcDbLine
 10
67.4769699812
 20
207.3887669098
 30
0.0
 11
69.8519699812
 21
207.3887669098
 31
0.0
  0
LINE
  5
F0
330
1F
100
AcDbEntity
  8
0
  6
Continuous
 62
     7
370
    15
100
AcDbLine
 10
137.7269297049
 20
207.1388119237
 30
0.0
 11
141.9770102576
 21
207.1388119237
 31
0.0
  0
LINE
  5
F1
330
1F
100
AcDbEntity
  8
0
  6
Continuous
 62
     7
370
    15
100
AcDbLine
 10
139.8519699812
 20
207.3887669098
 30
0.0
 11
142.2269699812
 21
207.3887669098
 31
0.0
  0
LINE
  5
F2
330
1F
100
AcDbEntity
  8
0
  6
Continuous
 62
     7
370
    15
100
AcDbLine
 10
137.4769699812
 20
207.3887669098
 30
0.0
 11
139.8519699812
 21
207.3887669098
 31
0.0
  0
SPLINE
  5
F3
330
1F
100
AcDbEntity
  8
0
  6
Continuous
 62
     8
370
    15
100
AcDbSpline
210
0.0
220
0.0
230
1.0
 70
     8
 71
     3
 72
    15
 73
    11
 74
     0
 42
0.000000001
 43
0.00000001
 40
0.0
 40
0.0
 40
0.0
 40
0.0
 40
0.148363043491634
 40
0.2928274401752693
 40
0.4333934172460529
 40
0.5700613390674396
 40
0.7067035253660251
 40
0.8472645414296607
 40
0.9917447404317817
 40
1.0
 40
1.0
 40
1.0
 40
1.0
 10
139.6951789695733
 20
218.9149905333785
 30
0.0
 10
140.0358479700458
 20
218.9166872870997
 30
0.0
 10
140.7082339565266
 20
218.9200362076739
 30
0.0
 10
141.6622674428164
 20
218.923468660263
 30
0.0
 10
142.5160354801997
 20
218.9254490007588
 30
0.0
 10
143.2500553489924
 20
218.9260113065378
 30
0.0
 10
143.8628690798423
 20
218.9254660004414
 30
0.0
 10
144.3122879350497
 20
218.9234027024059
 30
0.0
 10
144.5601551370559
 20
218.921307482416
 30
0.0
 10
144.5941865410483
 20
218.9196404116425
 30
0.0
 10
144.5960259179425
 20
218.9195503074711
 30
0.0
  0
SPLINE
  5
F4
330
1F
100
AcDbEntity
  8
0
  6
Continuous
 62
     8
370
    15
100
AcDbSpline
210
0.0
220
0.0
230
1.0
 70
     8
 71
     3
 72
    15
 73
    11
 74
     0
 42
0.000000001
 43
0.00000001
 40
0.0
 40
0.0
 40
0.0
 40
0.0
 40
0.0082243584180263
 40
0.1526879317581756
 40
0.2932531077273025
 40
0.4299202506867972
 40
0.5665616581982705
 40
0.7071218731645658
 40
0.8516012487570916
 40
0.9999999999999999
 40
0.9999999999999999
 40
0.9999999999999999
 40
0.9999999999999999
 10
65.10792034213357
 20
218.9195489363757
 30
0.0
 10
65.1097533782424
 20
218.9196386660537
 30
0.0
 10
65.14378429932708
 20
218.9213045271771
 30
0.0
 10
65.39160344118059
 20
218.9234003771482
 30
0.0
 10
65.84100731898471
 20
218.9254653292287
 30
0.0
 10
66.45382291790453
 20
218.9260113148866
 30
0.0
 10
67.18782486971769
 20
218.9254496444497
 30
0.0
 10
68.04154702596206
 20
218.9234711012222
 30
0.0
 10
68.99567893688169
 20
218.9200390601276
 30
0.0
 10
69.6681872130126
 20
218.9166879333316
 30
0.0
 10
70.00894119644141
 20
218.9149899470834
 30
0.0
  0
SPLINE
  5
F5
330
1F
100
AcDbEntity
  8
0
  6
Continuous
 62
     8
370
    15
100
AcDbSpline
210
0.0
220
0.0
230
1.0
 70
     8
 71
     3
 72
    11
 73
     7
 74
     0
 42
0.000000001
 43
0.00000001
 40
0.0
 40
0.0
 40
0.0
 40
0.0
 40
0.1551322409708072
 40
0.4367548273138721
 40
0.7183774136569367
 40
1.0
 40
1.0
 40
1.0
 40
1.0
 10
70.00878122546433
 20
220.3386468490731
 30
0.0
 10
70.00878949767359
 20
220.3242087931281
 30
0.0
 10
70.00881278701242
 20
220.2835603077354
 30
0.0
 10
70.00885109348083
 20
219.9792921866814
 30
0.0
 10
70.00889614486958
 20
219.4978204229392
 30
0.0
 10
70.00892617912874
 20
219.1092667724072
 30
0.0
 10
70.00894119625833
 20
218.9149899471412
 30
0.0
  0
SPLINE
  5
F6
330
1F
100
AcDbEntity
  8
0
  6
Continuous
 62
     8
370
    15
100
AcDbSpline
210
0.0
220
0.0
230
1.0
 70
    24
 71
     3
 72
    11
 73
     7
 74
     0
 42
0.000000001
 43
0.00000001
 40
0.0
 40
0.0
 40
0.0
 40
0.0
 40
0.1551299004761381
 40
0.4367532669840927
 40
0.7183766334920472
 40
1.0
 40
1.0
 40
1.0
 40
1.0
 10
139.6951789695733
 20
220.338645750417
 30
0.0
 10
139.6951789695733
 20
220.3242078860254
 30
0.0
 10
139.6951789695733
 20
220.2835594718773
 30
0.0
 10
139.6951789695733
 20
219.9792920756271
 30
0.0
 10
139.6951789695733
 20
219.4978204507028
 30
0.0
 10
139.6951789695733
 20
219.1092667816617
 30
0.0
 10
139.6951789695733
 20
218.9149899471412
 30
0.0
  0
SPLINE
  5
F7
330
1F
100
AcDbEntity
  8
0
  6
Continuous
 62
     7
370
    15
100
AcDbSpline
210
0.0
220
0.0
230
1.0
 70
     8
 71
     3
 72
    11
 73
     7
 74
     0
 42
0.000000001
 43
0.00000001
 40
0.0
 40
0.0
 40
0.0
 40
0.0
 40
0.249914022995632
 40
0.4998617797761024
 40
0.7498916192581621
 40
1.0
 40
1.0
 40
1.0
 40
1.0
 10
139.6595829612232
 20
74.92977784348182
 30
0.0
 10
140.0343606425092
 20
74.9298461360011
 30
0.0
 10
140.7839665931575
 20
74.9299827302579
 30
0.0
 10
141.8082896538268
 20
74.93018881630732
 30
0.0
 10
142.668471964144
 20
74.93039567327588
 30
0.0
 10
143.0125103861319
 20
74.93053434196226
 30
0.0
 10
143.1845566108693
 20
74.93060368719365
 30
0.0
  0
SPLINE
  5
F8
330
1F
100
AcDbEntity
  8
0
  6
Continuous
 62
     7
370
    15
100
AcDbSpline
210
0.0
220
0.0
230
1.0
 70
     8
 71
     3
 72
     9
 73
     5
 74
     0
 42
0.000000001
 43
0.00000001
 40
0.0
 40
0.0
 40
0.0
 40
0.0
 40
0.4841166453621339
 40
0.9999999999999999
 40
0.9999999999999999
 40
0.9999999999999999
 40
0.9999999999999999
 10
143.4600078033558
 20
74.9297775807132
 30
0.0
 10
143.5426291411569
 20
74.95151266361846
 30
0.0
 10
143.713293254016
 20
74.99640903955078
 30
0.0
 10
143.6912989868405
 20
75.0915079442392
 30
0.0
 10
143.6799525105072
 20
75.14056788621227
 30
0.0
  0
SPLINE
  5
F9
330
1F
100
AcDbEntity
  8
0
  6
Continuous
 62
     7
370
    15
100
AcDbSpline
210
0.0
220
0.0
230
1.0
 70
     8
 71
     3
 72
    11
 73
     7
 74
     0
 42
0.000000001
 43
0.00000001
 40
0.0
 40
0.0
 40
0.0
 40
0.0
 40
0.2554160064710413
 40
0.5148622631534993
 40
0.7663736988044222
 40
1.0
 40
1.0
 40
1.0
 40
1.0
 10
143.656866211143
 20
75.0067425501172
 30
0.0
 10
143.7919197330482
 20
75.0742493087471
 30
0.0
 10
144.0641578080839
 20
75.21032802599964
 30
0.0
 10
144.3672962421516
 20
75.55887829444303
 30
0.0
 10
144.5628767910946
 20
75.96390409263068
 30
0.0
 10
144.5890922021438
 20
76.25319004470293
 30
0.0
 10
144.6017166777361
 20
76.39250059887627
 30
0.0
  0
SPLINE
  5
FA
330
1F
100
AcDbEntity
  8
0
  6
Continuous
 62
     7
370
    15
100
AcDbSpline
210
0.0
220
0.0
230
1.0
 70
     8
 71
     3
 72
     9
 73
     5
 74
     0
 42
0.000000001
 43
0.00000001
 40
0.0
 40
0.0
 40
0.0
 40
0.0
 40
0.9321425404163821
 40
1.0
 40
1.0
 40
1.0
 40
1.0
 10
143.0666232406836
 20
75.0067425501172
 30
0.0
 10
143.1294267287035
 20
74.97248270124902
 30
0.0
 10
143.1968021410431
 20
74.93572882790595
 30
0.0
 10
143.1724440572342
 20
74.92764338662616
 30
0.0
 10
143.1707911795466
 20
74.9270947291213
 30
0.0
  0
SPLINE
  5
FB
330
1F
100
AcDbEntity
  8
0
  6
Continuous
 62
     7
370
    15
100
AcDbSpline
210
0.0
220
0.0
230
1.0
 70
     8
 71
     3
 72
     9
 73
     5
 74
     0
 42
0.000000001
 43
0.00000001
 40
0.0
 40
0.0
 40
0.0
 40
0.0
 40
0.0674676976132127
 40
1.0
 40
1.0
 40
1.0
 40
1.0
 10
66.53306976068419
 20
74.92710572760214
 30
0.0
 10
66.53142706705881
 20
74.92765124063163
 30
0.0
 10
66.5070792134417
 20
74.93573678451109
 30
0.0
 10
66.57442116784978
 20
74.97247912797329
 30
0.0
 10
66.6372197156412
 20
75.0067425501172
 30
0.0
  0
SPLINE
  5
FC
330
1F
100
AcDbEntity
  8
0
  6
Continuous
 62
     7
370
    15
100
AcDbSpline
210
0.0
220
0.0
230
1.0
 70
     8
 71
     3
 72
    11
 73
     7
 74
     0
 42
0.000000001
 43
0.00000001
 40
0.0
 40
0.0
 40
0.0
 40
0.0
 40
0.2336263201148079
 40
0.4851377479790547
 40
0.7445839929617589
 40
0.9999999999999999
 40
0.9999999999999999
 40
0.9999999999999999
 40
0.9999999999999999
 10
65.10219526409551
 20
76.39250059887627
 30
0.0
 10
65.11482100029028
 20
76.25319004820543
 30
0.0
 10
65.14103902752753
 20
75.96390412019454
 30
0.0
 10
65.33662390204034
 20
75.55887829447632
 30
0.0
 10
65.63976686731979
 20
75.21032801874259
 30
0.0
 10
65.91200784120105
 20
75.07424930741658
 30
0.0
 10
66.04706280440337
 20
75.0067425501172
 30
0.0
  0
SPLINE
  5
FD
330
1F
100
AcDbEntity
  8
0
  6
Continuous
 62
     7
370
    15
100
AcDbSpline
210
0.0
220
0.0
230
1.0
 70
     8
 71
     3
 72
     9
 73
     5
 74
     0
 42
0.000000001
 43
0.00000001
 40
0.0
 40
0.0
 40
0.0
 40
0.0
 40
0.5159026893255249
 40
1.0
 40
1.0
 40
1.0
 40
1.0
 10
66.02393343636842
 20
75.14055437673318
 30
0.0
 10
66.01259611355323
 20
75.09149816426945
 30
0.0
 10
65.99062041338766
 20
74.99641005273456
 30
0.0
 10
66.1612996831211
 20
74.95151230625063
 30
0.0
 10
66.24392505858692
 20
74.9297774279224
 30
0.0
  0
SPLINE
  5
FE
330
1F
100
AcDbEntity
  8
0
  6
Continuous
 62
     7
370
    15
100
AcDbSpline
210
0.0
220
0.0
230
1.0
 70
     8
 71
     3
 72
    11
 73
     7
 74
     0
 42
0.000000001
 43
0.00000001
 40
0.0
 40
0.0
 40
0.0
 40
0.0
 40
0.2501058404725399
 40
0.5001338768836079
 40
0.7500812392288542
 40
1.0
 40
1.0
 40
1.0
 40
1.0
 10
66.51931804996305
 20
74.93060383863923
 30
0.0
 10
66.69135138654916
 20
74.93053448054238
 30
0.0
 10
67.03536454280925
 20
74.93039578592492
 30
0.0
 10
67.89551481430162
 20
74.9301888909302
 30
0.0
 10
68.91982622654922
 20
74.92998276506682
 30
0.0
 10
69.66944353382013
 20
74.92984614805962
 30
0.0
 10
70.04423074147837
 20
74.92977784346454
 30
0.0
  0
LINE
  5
FF
330
1F
100
AcDbEntity
  8
0
  6
Continuous
 62
     7
370
    15
100
AcDbLine
 10
137.4769699812
 20
87.9061299007
 30
0.0
 11
137.4769699812
 21
85.4060848868
 31
0.0
  0
LINE
  5
100
330
1F
100
AcDbEntity
  8
0
  6
Continuous
 62
     7
370
    15
100
AcDbLine
 10
142.2269699812
 20
85.4060848868
 30
0.0
 11
142.2269699812
 21
87.9061299007
 31
0.0
  0
LINE
  5
101
330
1F
100
AcDbEntity
  8
0
  6
Continuous
 62
     7
370
    15
100
AcDbLine
 10
72.2269699812
 20
87.9061299007
 30
0.0
 11
71.9770102576
 21
88.1560848868
 31
0.0
  0
LINE
  5
102
330
1F
100
AcDbEntity
  8
0
  6
Continuous
 62
     7
370
    15
100
AcDbLine
 10
67.7269297048
 20
88.1560848868
 30
0.0
 11
67.4769699812
 21
87.9061299007
 31
0.0
  0
LINE
  5
103
330
1F
100
AcDbEntity
  8
0
  6
Continuous
 62
     7
370
    15
100
AcDbLine
 10
142.2269699812
 20
87.9061299007
 30
0.0
 11
141.9770102576
 21
88.1560848868
 31
0.0
  0
LINE
  5
104
330
1F
100
AcDbEntity
  8
0
  6
Continuous
 62
     7
370
    15
100
AcDbLine
 10
137.7269297048
 20
88.1560848868
 30
0.0
 11
137.4769699812
 21
87.9061299007
 31
0.0
  0
LINE
  5
105
330
1F
100
AcDbEntity
  8
0
  6
Continuous
 62
     7
370
    15
100
AcDbLine
 10
67.4769699812
 20
87.9061299007
 30
0.0
 11
67.4769699812
 21
85.4060848868
 31
0.0
  0
LINE
  5
106
330
1F
100
AcDbEntity
  8
0
  6
Continuous
 62
     7
370
    15
100
AcDbLine
 10
72.2269699812
 20
85.4060848868
 30
0.0
 11
72.2269699812
 21
87.9061299007
 31
0.0
  0
SPLINE
  5
107
330
1F
100
AcDbEntity
  8
0
  6
Continuous
 62
     7
370
    15
100
AcDbSpline
210
0.0
220
0.0
230
1.0
 70
     8
 71
     3
 72
     9
 73
     5
 74
     0
 42
0.000000001
 43
0.00000001
 40
0.0
 40
0.0
 40
0.0
 40
0.0
 40
0.9713695804437212
 40
1.0
 40
1.0
 40
1.0
 40
1.0
 10
143.4600149038902
 20
74.92977742792249
 30
0.0
 10
143.5577885595299
 20
74.94756588476872
 30
0.0
 10
143.6584440233287
 20
74.96587864358304
 30
0.0
 10
143.6630868522936
 20
75.00920456034673
 30
0.0
 10
143.6632197784348
 20
75.01044499952135
 30
0.0
  0
SPLINE
  5
108
330
1F
100
AcDbEntity
  8
0
  6
Continuous
 62
     7
370
    15
100
AcDbSpline
210
0.0
220
0.0
230
1.0
 70
     8
 71
     3
 72
    11
 73
     7
 74
     0
 42
0.000000001
 43
0.00000001
 40
0.0
 40
0.0
 40
0.0
 40
0.0
 40
0.2554160070382412
 40
0.5148622520209447
 40
0.7663736798851922
 40
0.9999999999999999
 40
0.9999999999999999
 40
0.9999999999999999
 40
0.9999999999999999
 10
143.6568771580733
 20
75.0067425501172
 30
0.0
 10
143.7919321212756
 20
75.07424930741658
 30
0.0
 10
144.0641730951569
 20
75.21032801874259
 30
0.0
 10
144.3673160604363
 20
75.55887829447632
 30
0.0
 10
144.5629009349491
 20
75.96390412019454
 30
0.0
 10
144.5891189621864
 20
76.25319004820543
 30
0.0
 10
144.6017446983812
 20
76.39250059887627
 30
0.0
  0
LINE
  5
109
330
1F
100
AcDbEntity
  8
0
  6
Continuous
 62
     7
370
    15
100
AcDbLine
 10
144.8519699812
 20
85.4060848868
 30
0.0
 11
139.8527315055
 21
85.4060848868
 31
0.0
  0
LINE
  5
10A
330
1F
100
AcDbEntity
  8
0
  6
Continuous
 62
     7
370
    15
100
AcDbLine
 10
144.8519699812
 20
85.4060848868
 30
0.0
 11
144.6944174527
 21
76.3799065702
 31
0.0
  0
LINE
  5
10B
330
1F
100
AcDbEntity
  8
0
  6
Continuous
 62
     7
370
    15
100
AcDbLine
 10
144.6944174476
 20
76.3799062771
 30
0.0
 11
144.5960196473
 21
76.3753478768
 31
0.0
  0
LINE
  5
10C
330
1F
100
AcDbEntity
  8
0
  6
Continuous
 62
     7
370
    15
100
AcDbLine
 10
139.6949987662
 20
76.3799068634
 30
0.0
 11
139.8527315055
 21
85.4060848868
 31
0.0
  0
LINE
  5
10D
330
1F
100
AcDbEntity
  8
0
  6
Continuous
 62
     7
370
    15
100
AcDbLine
 10
139.8527315055
 20
85.4060848868
 30
0.0
 11
69.851208457
 21
85.4060848868
 31
0.0
  0
LINE
  5
10E
330
1F
100
AcDbEntity
  8
0
  6
Continuous
 62
     7
370
    15
100
AcDbLine
 10
139.6949987662
 20
76.3799068634
 30
0.0
 11
70.0087609929
 21
76.3799068634
 31
0.0
  0
LINE
  5
10F
330
1F
100
AcDbEntity
  8
0
  6
Continuous
 62
     7
370
    15
100
AcDbLine
 10
70.0087609907
 20
76.3799062771
 30
0.0
 11
69.851208457
 21
85.4060848868
 31
0.0
  0
LINE
  5
110
330
1F
100
AcDbEntity
  8
0
  6
Continuous
 62
     7
370
    15
100
AcDbLine
 10
69.851208457
 20
85.4060848868
 30
0.0
 11
64.8519699812
 21
85.4060848868
 31
0.0
  0
LINE
  5
111
330
1F
100
AcDbEntity
  8
0
  6
Continuous
 62
     7
370
    15
100
AcDbLine
 10
65.1079140445
 20
76.375346503
 30
0.0
 11
65.0095225079
 21
76.3799068634
 31
0.0
  0
LINE
  5
112
330
1F
100
AcDbEntity
  8
0
  6
Continuous
 62
     7
370
    15
100
AcDbLine
 10
65.0095225047
 20
76.3799068634
 30
0.0
 11
64.8519699812
 21
85.4060848868
 31
0.0
  0
LINE
  5
113
330
1F
100
AcDbEntity
  8
0
  6
Continuous
 62
     7
370
    15
100
AcDbLine
 10
143.4642798776
 20
74.9591071718
 30
0.0
 11
143.1946459048
 21
74.9060848868
 31
0.0
  0
LINE
  5
114
330
1F
100
AcDbEntity
  8
0
  6
Continuous
 62
     7
370
    15
100
AcDbLine
 10
143.1946459048
 20
74.9060848868
 30
0.0
 11
143.1281615072
 21
74.9060848868
 31
0.0
  0
LINE
  5
115
330
1F
100
AcDbEntity
  8
0
  6
Continuous
 62
     7
370
    15
100
AcDbLine
 10
139.6951789718
 20
74.9060848868
 30
0.0
 11
139.695158737
 21
74.9562499614
 31
0.0
  0
LINE
  5
116
330
1F
100
AcDbEntity
  8
0
  6
Continuous
 62
     7
370
    15
100
AcDbLine
 10
66.575779669
 20
74.9060848868
 30
0.0
 11
66.5092940577
 21
74.9060848868
 31
0.0
  0
LINE
  5
117
330
1F
100
AcDbEntity
  8
0
  6
Continuous
 62
     7
370
    15
100
AcDbLine
 10
66.5092940577
 20
74.9060848868
 30
0.0
 11
66.2396243969
 21
74.9591141896
 31
0.0
  0
LINE
  5
118
330
1F
100
AcDbEntity
  8
0
  6
Continuous
 62
     7
370
    15
100
AcDbLine
 10
70.0087609929
 20
74.9060848868
 30
0.0
 11
70.0087609929
 21
74.9562510601
 31
0.0
  0
LINE
  5
119
330
1F
100
AcDbEntity
  8
0
  6
Continuous
 62
     7
370
    15
100
AcDbLine
 10
139.6951789718
 20
74.9060848868
 30
0.0
 11
70.0087609907
 21
74.9060848868
 31
0.0
  0
LINE
  5
11A
330
1F
100
AcDbEntity
  8
0
  6
Continuous
 62
     7
370
    15
100
AcDbLine
 10
142.2269699812
 20
87.9061299007
 30
0.0
 11
137.4769699812
 21
87.9061299007
 31
0.0
  0
LINE
  5
11B
330
1F
100
AcDbEntity
  8
0
  6
Continuous
 62
     7
370
    15
100
AcDbLine
 10
69.8519699812
 20
88.1560848868
 30
0.0
 11
67.7269297048
 21
88.1560848868
 31
0.0
  0
LINE
  5
11C
330
1F
100
AcDbEntity
  8
0
  6
Continuous
 62
     7
370
    15
100
AcDbLine
 10
71.9770102576
 20
88.1560848868
 30
0.0
 11
69.8519699812
 21
88.1560848868
 31
0.0
  0
LINE
  5
11D
330
1F
100
AcDbEntity
  8
0
  6
Continuous
 62
     7
370
    15
100
AcDbLine
 10
72.2269699812
 20
87.9061299007
 30
0.0
 11
67.4769699812
 21
87.9061299007
 31
0.0
  0
LINE
  5
11E
330
1F
100
AcDbEntity
  8
0
  6
Continuous
 62
     7
370
    15
100
AcDbLine
 10
139.8519699812
 20
88.1560848868
 30
0.0
 11
137.7269297048
 21
88.1560848868
 31
0.0
  0
LINE
  5
11F
330
1F
100
AcDbEntity
  8
0
  6
Continuous
 62
     7
370
    15
100
AcDbLine
 10
141.9770102576
 20
88.1560848868
 30
0.0
 11
139.8519699812
 21
88.1560848868
 31
0.0
  0
SPLINE
  5
120
330
1F
100
AcDbEntity
  8
0
  6
Continuous
 62
     8
370
    15
100
AcDbSpline
210
0.0
220
0.0
230
1.0
 70
     8
 71
     3
 72
    16
 73
    12
 74
     0
 42
0.000000001
 43
0.00000001
 40
0.0
 40
0.0
 40
0.0
 40
0.0
 40
0.0082227065774374
 40
0.152657846160755
 40
0.2931952599722835
 40
0.4298352299118551
 40
0.5658025414744309
 40
0.7061198928775488
 40
0.8507873885980993
 40
0.9248485537874793
 40
0.9999999999999999
 40
0.9999999999999999
 40
0.9999999999999999
 40
0.9999999999999999
 10
144.5960196473282
 20
76.37534787679662
 30
0.0
 10
144.5941866203009
 20
76.37525814750468
 30
0.0
 10
144.5601557382181
 20
76.37359228720466
 30
0.0
 10
144.3123372492375
 20
76.37149666009286
 30
0.0
 10
143.8629335212084
 20
76.3694307758248
 30
0.0
 10
143.2510817114557
 20
76.36888895035607
 30
0.0
 10
142.5188846151375
 20
76.36943442409184
 30
0.0
 10
141.6671319104024
 20
76.37135665468419
 30
0.0
 10
140.8763394190424
 20
76.3742400490262
 30
0.0
 10
140.209632953999
 20
76.3772458857875
 30
0.0
 10
139.8673771046475
 20
76.3790155606013
 30
0.0
 10
139.6949987660353
 20
76.37990686342307
 30
0.0
  0
SPLINE
  5
121
330
1F
100
AcDbEntity
  8
0
  6
Continuous
 62
     8
370
    15
100
AcDbSpline
210
0.0
220
0.0
230
1.0
 70
     8
 71
     3
 72
    15
 73
    11
 74
     0
 42
0.000000001
 43
0.00000001
 40
0.0
 40
0.0
 40
0.0
 40
0.0
 40
0.1483630435189625
 40
0.2928274401889247
 40
0.4333934172050128
 40
0.5700613389306602
 40
0.7067035252727173
 40
0.8472645413810703
 40
0.9917447404291545
 40
1.0
 40
1.0
 40
1.0
 40
1.0
 10
70.00876099070574
 20
76.3799062770896
 30
0.0
 10
69.66809199028783
 20
76.37820952337168
 30
0.0
 10
68.9957060040072
 20
76.37486060280449
 30
0.0
 10
68.04167251823259
 20
76.3714281502289
 30
0.0
 10
67.18790448158104
 20
76.36944780974454
 30
0.0
 10
66.45388461327944
 20
76.36888550396948
 30
0.0
 10
65.8410708826341
 20
76.36943081006487
 30
0.0
 10
65.391652027427
 20
76.37149410810055
 30
0.0
 10
65.14378482542081
 20
76.37358932809053
 30
0.0
 10
65.10975342142841
 20
76.37525639886387
 30
0.0
 10
65.10791404453417
 20
76.37534650303537
 30
0.0
  0
SPLINE
  5
122
330
1F
100
AcDbEntity
  8
0
  6
Continuous
 62
     8
370
    15
100
AcDbSpline
210
0.0
220
0.0
230
1.0
 70
     8
 71
     3
 72
    11
 73
     7
 74
     0
 42
0.000000001
 43
0.00000001
 40
0.0
 40
0.0
 40
0.0
 40
0.0
 40
0.1551322409708159
 40
0.4367548273138779
 40
0.7183774136569396
 40
1.0
 40
1.0
 40
1.0
 40
1.0
 10
139.6951587370123
 20
74.95624996143333
 30
0.0
 10
139.6951504648031
 20
74.97068801737836
 30
0.0
 10
139.6951271754643
 20
75.01133650277102
 30
0.0
 10
139.6950888689958
 20
75.31560462382502
 30
0.0
 10
139.6950438176071
 20
75.79707638756726
 30
0.0
 10
139.6950137833479
 20
76.18563003809922
 30
0.0
 10
139.6949987662183
 20
76.3799068633652
 30
0.0
  0
SPLINE
  5
123
330
1F
100
AcDbEntity
  8
0
  6
Continuous
 62
     8
370
    15
100
AcDbSpline
210
0.0
220
0.0
230
1.0
 70
    24
 71
     3
 72
    11
 73
     7
 74
     0
 42
0.000000001
 43
0.00000001
 40
0.0
 40
0.0
 40
0.0
 40
0.0
 40
0.1551299004761352
 40
0.4367532669840907
 40
0.7183766334920461
 40
1.0
 40
1.0
 40
1.0
 40
1.0
 10
70.00876099290335
 20
74.95625106008949
 30
0.0
 10
70.00876099290335
 20
74.97068892448107
 30
0.0
 10
70.00876099290335
 20
75.01133733862909
 30
0.0
 10
70.00876099290335
 20
75.31560473487936
 30
0.0
 10
70.00876099290336
 20
75.79707635980368
 30
0.0
 10
70.00876099290336
 20
76.1856300288447
 30
0.0
 10
70.00876099290335
 20
76.3799068633652
 30
0.0
  0
SPLINE
  5
124
330
1F
100
AcDbEntity
  8
0
  6
Continuous
 62
     7
370
    15
100
AcDbSpline
210
0.0
220
0.0
230
1.0
 70
     8
 71
     3
 72
    11
 73
     7
 74
     0
 42
0.000000001
 43
0.00000001
 40
0.0
 40
0.0
 40
0.0
 40
0.0
 40
0.2499140229956321
 40
0.4998617797761024
 40
0.7498916192581621
 40
1.0
 40
1.0
 40
1.0
 40
1.0
 10
182.8744060214337
 20
183.5917968449004
 30
0.0
 10
182.8743377289144
 20
183.9665745261865
 30
0.0
 10
182.8742011346576
 20
184.7161804768347
 30
0.0
 10
182.8739950486082
 20
185.7405035375041
 30
0.0
 10
182.8737881916396
 20
186.6006858478213
 30
0.0
 10
182.8736495229533
 20
186.9447242698092
 30
0.0
 10
182.8735801777219
 20
187.1167704945466
 30
0.0
  0
SPLINE
  5
125
330
1F
100
AcDbEntity
  8
0
  6
Continuous
 62
     7
370
    15
100
AcDbSpline
210
0.0
220
0.0
230
1.0
 70
     8
 71
     3
 72
     9
 73
     5
 74
     0
 42
0.000000001
 43
0.00000001
 40
0.0
 40
0.0
 40
0.0
 40
0.0
 40
0.4841166453621339
 40
1.0
 40
1.0
 40
1.0
 40
1.0
 10
182.8744062842023
 20
187.392221687033
 30
0.0
 10
182.8526712012971
 20
187.4748430248341
 30
0.0
 10
182.8077748253648
 20
187.6455071376933
 30
0.0
 10
182.7126759206764
 20
187.6235128705178
 30
0.0
 10
182.6636159787033
 20
187.6121663941845
 30
0.0
  0
SPLINE
  5
126
330
1F
100
AcDbEntity
  8
0
  6
Continuous
 62
     7
370
    15
100
AcDbSpline
210
0.0
220
0.0
230
1.0
 70
     8
 71
     3
 72
    11
 73
     7
 74
     0
 42
0.000000001
 43
0.00000001
 40
0.0
 40
0.0
 40
0.0
 40
0.0
 40
0.2554160064710413
 40
0.5148622631534993
 40
0.7663736988044222
 40
1.0
 40
1.0
 40
1.0
 40
1.0
 10
182.7974413147984
 20
187.5890800948202
 30
0.0
 10
182.7299345561684
 20
187.7241336167255
 30
0.0
 10
182.5938558389159
 20
187.9963716917612
 30
0.0
 10
182.2453055704725
 20
188.2995101258289
 30
0.0
 10
181.8402797722849
 20
188.4950906747719
 30
0.0
 10
181.5509938202126
 20
188.5213060858211
 30
0.0
 10
181.4116832660393
 20
188.5339305614134
 30
0.0
  0
SPLINE
  5
127
330
1F
100
AcDbEntity
  8
0
  6
Continuous
 62
     7
370
    15
100
AcDbSpline
210
0.0
220
0.0
230
1.0
 70
     8
 71
     3
 72
     9
 73
     5
 74
     0
 42
0.000000001
 43
0.00000001
 40
0.0
 40
0.0
 40
0.0
 40
0.0
 40
0.9321425404163821
 40
1.0
 40
1.0
 40
1.0
 40
1.0
 10
182.7974413147984
 20
186.9988371243609
 30
0.0
 10
182.8317011636665
 20
187.0616406123808
 30
0.0
 10
182.8684550370096
 20
187.1290160247204
 30
0.0
 10
182.8765404782894
 20
187.1046579409115
 30
0.0
 10
182.8770891357943
 20
187.1030050632239
 30
0.0
  0
SPLINE
  5
128
330
1F
100
AcDbEntity
  8
0
  6
Continuous
 62
     7
370
    15
100
AcDbSpline
210
0.0
220
0.0
230
1.0
 70
     8
 71
     3
 72
     9
 73
     5
 74
     0
 42
0.000000001
 43
0.00000001
 40
0.0
 40
0.0
 40
0.0
 40
0.0
 40
0.0674676976132053
 40
1.0
 40
1.0
 40
1.0
 40
1.0
 10
182.8770781373134
 20
110.4652836443615
 30
0.0
 10
182.8765326242839
 20
110.4636409507361
 30
0.0
 10
182.8684470804045
 20
110.439293097119
 30
0.0
 10
182.8317047369422
 20
110.5066350515271
 30
0.0
 10
182.7974413147984
 20
110.5694335993185
 30
0.0
  0
SPLINE
  5
129
330
1F
100
AcDbEntity
  8
0
  6
Continuous
 62
     7
370
    15
100
AcDbSpline
210
0.0
220
0.0
230
1.0
 70
     8
 71
     3
 72
    11
 73
     7
 74
     0
 42
0.000000001
 43
0.00000001
 40
0.0
 40
0.0
 40
0.0
 40
0.0
 40
0.2336263201148079
 40
0.4851377479790547
 40
0.7445839929617589
 40
0.9999999999999999
 40
0.9999999999999999
 40
0.9999999999999999
 40
0.9999999999999999
 10
181.4116832660393
 20
109.0344091477728
 30
0.0
 10
181.5509938167101
 20
109.0470348839676
 30
0.0
 10
181.840279744721
 20
109.0732529112048
 30
0.0
 10
182.2453055704392
 20
109.2688377857176
 30
0.0
 10
182.593855846173
 20
109.5719807509971
 30
0.0
 10
182.729934557499
 20
109.8442217248783
 30
0.0
 10
182.7974413147984
 20
109.9792766880806
 30
0.0
  0
SPLINE
  5
12A
330
1F
100
AcDbEntity
  8
0
  6
Continuous
 62
     7
370
    15
100
AcDbSpline
210
0.0
220
0.0
230
1.0
 70
     8
 71
     3
 72
     9
 73
     5
 74
     0
 42
0.000000001
 43
0.00000001
 40
0.0
 40
0.0
 40
0.0
 40
0.0
 40
0.5159026893255293
 40
1.0
 40
1.0
 40
1.0
 40
1.0
 10
182.6636294881824
 20
109.9561473200457
 30
0.0
 10
182.7126857006461
 20
109.9448099972305
 30
0.0
 10
182.807773812181
 20
109.922834297065
 30
0.0
 10
182.8526715586649
 20
110.0935135667984
 30
0.0
 10
182.8744064369931
 20
110.1761389422642
 30
0.0
  0
SPLINE
  5
12B
330
1F
100
AcDbEntity
  8
0
  6
Continuous
 62
     7
370
    15
100
AcDbSpline
210
0.0
220
0.0
230
1.0
 70
     8
 71
     3
 72
    11
 73
     7
 74
     0
 42
0.000000001
 43
0.00000001
 40
0.0
 40
0.0
 40
0.0
 40
0.0
 40
0.2501058404725391
 40
0.5001338768836073
 40
0.7500812392288541
 40
1.0
 40
1.0
 40
1.0
 40
1.0
 10
182.8735800262763
 20
110.4515319336403
 30
0.0
 10
182.8736493843732
 20
110.6235652702265
 30
0.0
 10
182.8737880789906
 20
110.9675784264866
 30
0.0
 10
182.8739949739854
 20
111.8277286979789
 30
0.0
 10
182.8742010998487
 20
112.8520401102265
 30
0.0
 10
182.8743377168559
 20
113.6016574174974
 30
0.0
 10
182.874406021451
 20
113.9764446251557
 30
0.0
  0
LINE
  5
12C
330
1F
100
AcDbEntity
  8
0
  6
Continuous
 62
     7
370
    15
100
AcDbLine
 10
169.8980539642
 20
123.6591838649
 30
0.0
 11
169.6480989781
 21
123.4092241413
 31
0.0
  0
LINE
  5
12D
330
1F
100
AcDbEntity
  8
0
  6
Continuous
 62
     7
370
    15
100
AcDbLine
 10
169.6480989781
 20
119.1591435885
 30
0.0
 11
169.8980539642
 21
118.9091838649
 31
0.0
  0
LINE
  5
12E
330
1F
100
AcDbEntity
  8
0
  6
Continuous
 62
     7
370
    15
100
AcDbLine
 10
169.8980539642
 20
178.6591838649
 30
0.0
 11
169.6480989781
 21
178.4092241413
 31
0.0
  0
LINE
  5
12F
330
1F
100
AcDbEntity
  8
0
  6
Continuous
 62
     7
370
    15
100
AcDbLine
 10
169.6480989781
 20
174.1591435885
 30
0.0
 11
169.8980539642
 21
173.9091838649
 31
0.0
  0
LINE
  5
130
330
1F
100
AcDbEntity
  8
0
  6
Continuous
 62
     7
370
    15
100
AcDbLine
 10
169.8980539642
 20
118.9091838649
 30
0.0
 11
172.3980989781
 21
118.9091838649
 31
0.0
  0
LINE
  5
131
330
1F
100
AcDbEntity
  8
0
  6
Continuous
 62
     7
370
    15
100
AcDbLine
 10
172.3980989781
 20
123.6591838649
 30
0.0
 11
169.8980539642
 21
123.6591838649
 31
0.0
  0
LINE
  5
132
330
1F
100
AcDbEntity
  8
0
  6
Continuous
 62
     7
370
    15
100
AcDbLine
 10
169.8980539642
 20
173.9091838649
 30
0.0
 11
172.3980989781
 21
173.9091838649
 31
0.0
  0
LINE
  5
133
330
1F
100
AcDbEntity
  8
0
  6
Continuous
 62
     7
370
    15
100
AcDbLine
 10
172.3980989781
 20
178.6591838649
 30
0.0
 11
169.8980539642
 21
178.6591838649
 31
0.0
  0
SPLINE
  5
134
330
1F
100
AcDbEntity
  8
0
  6
Continuous
 62
     7
370
    15
100
AcDbSpline
210
0.0
220
0.0
230
1.0
 70
     8
 71
     3
 72
     9
 73
     5
 74
     0
 42
0.000000001
 43
0.00000001
 40
0.0
 40
0.0
 40
0.0
 40
0.0
 40
0.9713695804437212
 40
1.0
 40
1.0
 40
1.0
 40
1.0
 10
182.874406436993
 20
187.3922287875675
 30
0.0
 10
182.8566179801468
 20
187.4900024432071
 30
0.0
 10
182.8383052213325
 20
187.590657907006
 30
0.0
 10
182.7949793045688
 20
187.5953007359709
 30
0.0
 10
182.7937388653942
 20
187.5954336621121
 30
0.0
  0
SPLINE
  5
135
330
1F
100
AcDbEntity
  8
0
  6
Continuous
 62
     7
370
    15
100
AcDbSpline
210
0.0
220
0.0
230
1.0
 70
     8
 71
     3
 72
    11
 73
     7
 74
     0
 42
0.000000001
 43
0.00000001
 40
0.0
 40
0.0
 40
0.0
 40
0.0
 40
0.2554160070382412
 40
0.5148622520209447
 40
0.7663736798851922
 40
0.9999999999999999
 40
0.9999999999999999
 40
0.9999999999999999
 40
0.9999999999999999
 10
182.7974413147984
 20
187.5890910417506
 30
0.0
 10
182.729934557499
 20
187.7241460049529
 30
0.0
 10
182.593855846173
 20
187.9963869788342
 30
0.0
 10
182.2453055704392
 20
188.2995299441136
 30
0.0
 10
181.840279744721
 20
188.4951148186264
 30
0.0
 10
181.5509938167101
 20
188.5213328458637
 30
0.0
 10
181.4116832660393
 20
188.5339585820585
 30
0.0
  0
LINE
  5
136
330
1F
100
AcDbEntity
  8
0
  6
Continuous
 62
     7
370
    15
100
AcDbLine
 10
172.3980989781
 20
183.7849453891
 30
0.0
 11
172.3980989781
 21
113.7834223418
 31
0.0
  0
LINE
  5
137
330
1F
100
AcDbEntity
  8
0
  6
Continuous
 62
     7
370
    15
100
AcDbLine
 10
181.4242770016
 20
183.6272126499
 30
0.0
 11
172.3980989781
 21
183.7849453891
 31
0.0
  0
LINE
  5
138
330
1F
100
AcDbEntity
  8
0
  6
Continuous
 62
     7
370
    15
100
AcDbLine
 10
181.4242770016
 20
183.6272126499
 30
0.0
 11
181.4242770016
 21
113.9409748766
 31
0.0
  0
LINE
  5
139
330
1F
100
AcDbEntity
  8
0
  6
Continuous
 62
     7
370
    15
100
AcDbLine
 10
181.4242775878
 20
113.9409748766
 30
0.0
 11
172.3980989781
 21
113.7834223418
 31
0.0
  0
LINE
  5
13A
330
1F
100
AcDbEntity
  8
0
  6
Continuous
 62
     7
370
    15
100
AcDbLine
 10
172.3980989781
 20
113.7834223418
 30
0.0
 11
172.3980989781
 21
108.7841838649
 31
0.0
  0
LINE
  5
13B
330
1F
100
AcDbEntity
  8
0
  6
Continuous
 62
     7
370
    15
100
AcDbLine
 10
181.4288373619
 20
109.0401279282
 30
0.0
 11
181.4242770015
 21
108.9417363916
 31
0.0
  0
LINE
  5
13C
330
1F
100
AcDbEntity
  8
0
  6
Continuous
 62
     7
370
    15
100
AcDbLine
 10
181.4242770016
 20
108.9417363884
 30
0.0
 11
172.3980989781
 21
108.7841838649
 31
0.0
  0
LINE
  5
13D
330
1F
100
AcDbEntity
  8
0
  6
Continuous
 62
     7
370
    15
100
AcDbLine
 10
172.3980989781
 20
188.7841838649
 30
0.0
 11
172.3980989781
 21
183.7849453891
 31
0.0
  0
LINE
  5
13E
330
1F
100
AcDbEntity
  8
0
  6
Continuous
 62
     7
370
    15
100
AcDbLine
 10
181.4242775878
 20
188.6266313312
 30
0.0
 11
172.3980989781
 21
188.7841838649
 31
0.0
  0
LINE
  5
13F
330
1F
100
AcDbEntity
  8
0
  6
Continuous
 62
     7
370
    15
100
AcDbLine
 10
181.4242775878
 20
188.6266313312
 30
0.0
 11
181.4288359908
 21
188.5282335038
 31
0.0
  0
LINE
  5
140
330
1F
100
AcDbEntity
  8
0
  6
Continuous
 62
     7
370
    15
100
AcDbLine
 10
182.8980989781
 20
187.1268597885
 30
0.0
 11
182.8980989781
 21
187.0603753908
 31
0.0
  0
LINE
  5
141
330
1F
100
AcDbEntity
  8
0
  6
Continuous
 62
     7
370
    15
100
AcDbLine
 10
182.8980989781
 20
183.6273928555
 30
0.0
 11
182.8479339035
 21
183.6273726207
 31
0.0
  0
LINE
  5
142
330
1F
100
AcDbEntity
  8
0
  6
Continuous
 62
     7
370
    15
100
AcDbLine
 10
182.8980989781
 20
187.1268597885
 30
0.0
 11
182.8450766931
 21
187.3964937613
 31
0.0
  0
LINE
  5
143
330
1F
100
AcDbEntity
  8
0
  6
Continuous
 62
     7
370
    15
100
AcDbLine
 10
182.8980989781
 20
113.9409748766
 30
0.0
 11
182.8479328048
 21
113.9409748766
 31
0.0
  0
LINE
  5
144
330
1F
100
AcDbEntity
  8
0
  6
Continuous
 62
     7
370
    15
100
AcDbLine
 10
182.8980989781
 20
110.5079935527
 30
0.0
 11
182.8980989781
 21
110.4415079413
 31
0.0
  0
LINE
  5
145
330
1F
100
AcDbEntity
  8
0
  6
Continuous
 62
     7
370
    15
100
AcDbLine
 10
182.8980989781
 20
110.4415079413
 30
0.0
 11
182.8450696753
 21
110.1718382806
 31
0.0
  0
LINE
  5
146
330
1F
100
AcDbEntity
  8
0
  6
Continuous
 62
     7
370
    15
100
AcDbLine
 10
182.8980989781
 20
183.6273928555
 30
0.0
 11
182.8980989781
 21
113.9409748744
 31
0.0
  0
LINE
  5
147
330
1F
100
AcDbEntity
  8
0
  6
Continuous
 62
     7
370
    15
100
AcDbLine
 10
169.6480989781
 20
123.4092241413
 30
0.0
 11
169.6480989781
 21
119.1591435885
 31
0.0
  0
LINE
  5
148
330
1F
100
AcDbEntity
  8
0
  6
Continuous
 62
     7
370
    15
100
AcDbLine
 10
169.8980539642
 20
123.6591838649
 30
0.0
 11
169.8980539642
 21
118.9091838649
 31
0.0
  0
LINE
  5
149
330
1F
100
AcDbEntity
  8
0
  6
Continuous
 62
     7
370
    15
100
AcDbLine
 10
169.6480989781
 20
178.4092241413
 30
0.0
 11
169.6480989781
 21
174.1591435885
 31
0.0
  0
LINE
  5
14A
330
1F
100
AcDbEntity
  8
0
  6
Continuous
 62
     7
370
    15
100
AcDbLine
 10
169.8980539642
 20
178.6591838649
 30
0.0
 11
169.8980539642
 21
173.9091838649
 31
0.0
  0
SPLINE
  5
14B
330
1F
100
AcDbEntity
  8
0
  6
Continuous
 62
     8
370
    15
100
AcDbSpline
210
0.0
220
0.0
230
1.0
 70
     8
 71
     3
 72
    15
 73
    11
 74
     0
 42
0.000000001
 43
0.00000001
 40
0.0
 40
0.0
 40
0.0
 40
0.0
 40
0.1483630434557122
 40
0.2928274401273694
 40
0.4333934172101309
 40
0.5700613390674634
 40
0.7067035253301021
 40
0.847264541381758
 40
0.9917447403958526
 40
1.0
 40
1.0
 40
1.0
 40
1.0
 10
181.4242775877876
 20
113.9409748765806
 30
0.0
 10
181.4259743415086
 20
113.600305876191
 30
0.0
 10
181.4293232620826
 20
112.9279198898208
 30
0.0
 10
181.4327557146733
 20
111.9738864035937
 30
0.0
 10
181.4347360551705
 20
111.1201183661097
 30
0.0
 10
181.4352983609469
 20
110.3860984972779
 30
0.0
 10
181.4347530548478
 20
109.7732847664318
 30
0.0
 10
181.4326897568138
 20
109.3238659112092
 30
0.0
 10
181.4305945368249
 20
109.0759987091419
 30
0.0
 10
181.4289274660513
 20
109.0419673051376
 30
0.0
 10
181.4288373618794
 20
109.0401279282352
 30
0.0
  0
SPLINE
  5
14C
330
1F
100
AcDbEntity
  8
0
  6
Continuous
 62
     8
370
    15
100
AcDbSpline
210
0.0
220
0.0
230
1.0
 70
     8
 71
     3
 72
    15
 73
    11
 74
     0
 42
0.000000001
 43
0.00000001
 40
0.0
 40
0.0
 40
0.0
 40
0.0
 40
0.0082243587521995
 40
0.1526879320446947
 40
0.2932531079024299
 40
0.4299202506867617
 40
0.5665616582341824
 40
0.7071218732124572
 40
0.8516012487930085
 40
1.0
 40
1.0
 40
1.0
 40
1.0
 10
181.4288359908027
 20
188.5282335038112
 30
0.0
 10
181.4289257204842
 20
188.5264004676229
 30
0.0
 10
181.4305915816075
 20
188.4923695463829
 30
0.0
 10
181.4326874315709
 20
188.2445504042843
 30
0.0
 10
181.4347523836382
 20
187.7951465264961
 30
0.0
 10
181.4352983692949
 20
187.1823309278901
 30
0.0
 10
181.4347366988617
 20
186.4483289762797
 30
0.0
 10
181.4327581556325
 20
185.5946068199361
 30
0.0
 10
181.4293261145363
 20
184.6404749090788
 30
0.0
 10
181.4259749877405
 20
183.9679666330585
 30
0.0
 10
181.4242770014925
 20
183.6272126497125
 30
0.0
  0
SPLINE
  5
14D
330
1F
100
AcDbEntity
  8
0
  6
Continuous
 62
     8
370
    15
100
AcDbSpline
210
0.0
220
0.0
230
1.0
 70
     8
 71
     3
 72
    11
 73
     7
 74
     0
 42
0.000000001
 43
0.00000001
 40
0.0
 40
0.0
 40
0.0
 40
0.0
 40
0.1551322409708159
 40
0.4367548273138779
 40
0.7183774136569396
 40
1.0
 40
1.0
 40
1.0
 40
1.0
 10
182.8479339034822
 20
183.6273726206896
 30
0.0
 10
182.8334958475372
 20
183.6273643484804
 30
0.0
 10
182.7928473621445
 20
183.6273410591415
 30
0.0
 10
182.4885792410905
 20
183.6273027526731
 30
0.0
 10
182.0071074773483
 20
183.6272577012843
 30
0.0
 10
181.6185538268163
 20
183.6272276670252
 30
0.0
 10
181.4242770015503
 20
183.6272126498956
 30
0.0
  0
SPLINE
  5
14E
330
1F
100
AcDbEntity
  8
0
  6
Continuous
 62
     8
370
    15
100
AcDbSpline
210
0.0
220
0.0
230
1.0
 70
    24
 71
     3
 72
    11
 73
     7
 74
     0
 42
0.000000001
 43
0.00000001
 40
0.0
 40
0.0
 40
0.0
 40
0.0
 40
0.1551299004761352
 40
0.4367532669840907
 40
0.7183766334920461
 40
1.0
 40
1.0
 40
1.0
 40
1.0
 10
182.8479328048261
 20
113.9409748765806
 30
0.0
 10
182.8334949404345
 20
113.9409748765806
 30
0.0
 10
182.7928465262864
 20
113.9409748765806
 30
0.0
 10
182.4885791300362
 20
113.9409748765806
 30
0.0
 10
182.0071075051119
 20
113.9409748765806
 30
0.0
 10
181.6185538360708
 20
113.9409748765806
 30
0.0
 10
181.4242770015503
 20
113.9409748765806
 30
0.0
  0
CIRCLE
  5
14F
330
1F
100
AcDbEntity
  8
0
  6
Continuous
 62
     7
370
    15
100
AcDbCircle
 10
212.133358349
 20
121.2841838649
 30
0.0
 40
2.125040276375273
  0
CIRCLE
  5
150
330
1F
100
AcDbEntity
  8
0
  6
Continuous
 62
     7
370
    15
100
AcDbCircle
 10
212.133358349
 20
121.2841838649
 30
0.0
 40
2.375
  0
CIRCLE
  5
151
330
1F
100
AcDbEntity
  8
0
  6
Continuous
 62
     7
370
    15
100
AcDbCircle
 10
212.133358349
 20
176.2841838649
 30
0.0
 40
2.125040276410516
  0
CIRCLE
  5
152
330
1F
100
AcDbEntity
  8
0
  6
Continuous
 62
     7
370
    15
100
AcDbCircle
 10
212.133358349
 20
176.2841838649
 30
0.0
 40
2.375000000000028
  0
CIRCLE
  5
153
330
1F
100
AcDbEntity
  8
0
  6
Continuous
 62
     7
370
    15
100
AcDbCircle
 10
282.133358349
 20
121.2841838649
 30
0.0
 40
2.125040276375273
  0
CIRCLE
  5
154
330
1F
100
AcDbEntity
  8
0
  6
Continuous
 62
     7
370
    15
100
AcDbCircle
 10
282.133358349
 20
121.2841838649
 30
0.0
 40
2.375
  0
CIRCLE
  5
155
330
1F
100
AcDbEntity
  8
0
  6
Continuous
 62
     7
370
    15
100
AcDbCircle
 10
282.133358349
 20
176.2841838649
 30
0.0
 40
2.125040276410516
  0
CIRCLE
  5
156
330
1F
100
AcDbEntity
  8
0
  6
Continuous
 62
     7
370
    15
100
AcDbCircle
 10
282.133358349
 20
176.2841838649
 30
0.0
 40
2.375000000000028
  0
LINE
  5
157
330
1F
100
AcDbEntity
  8
0
  6
Continuous
 62
     7
370
    15
100
AcDbLine
 10
212.0174492581
 20
169.910237671
 30
0.0
 11
212.0149727047
 21
169.7740497533
 31
0.0
  0
ARC
  5
158
330
1F
100
AcDbEntity
  8
0
  6
Continuous
 62
     7
370
    15
100
AcDbCircle
 10
212.008358349
 20
169.4103203225
 30
0.0
 40
0.3637895663023878
100
AcDbArc
 50
88.9582011496
 51
180.0
  0
LINE
  5
159
330
1F
100
AcDbEntity
  8
0
  6
Continuous
 62
     7
370
    15
100
AcDbLine
 10
211.508358349
 20
169.4103203225
 30
0.0
 11
211.644568782
 21
169.4103203225
 31
0.0
  0
ARC
  5
15A
330
1F
100
AcDbEntity
  8
0
  6
Continuous
 62
     7
370
    15
100
AcDbCircle
 10
212.008358349
 20
169.4103203225
 30
0.0
 40
0.500000000002065
100
AcDbArc
 50
88.9582011496
 51
180.0
  0
LINE
  5
15B
330
1F
100
AcDbEntity
  8
0
  6
Continuous
 62
     7
370
    15
100
AcDbLine
 10
211.644568782
 20
128.1580474074
 30
0.0
 11
211.508358349
 21
128.1580474074
 31
0.0
  0
ARC
  5
15C
330
1F
100
AcDbEntity
  8
0
  6
Continuous
 62
     7
370
    15
100
AcDbCircle
 10
212.008358349
 20
128.1580474074
 30
0.0
 40
0.3637895663024229
100
AcDbArc
 50
180.0
 51
271.0417988502
  0
LINE
  5
15D
330
1F
100
AcDbEntity
  8
0
  6
Continuous
 62
     7
370
    15
100
AcDbLine
 10
212.0149727047
 20
127.7943179758
 30
0.0
 11
212.0174492581
 21
127.6581300588
 31
0.0
  0
ARC
  5
15E
330
1F
100
AcDbEntity
  8
0
  6
Continuous
 62
     7
370
    15
100
AcDbCircle
 10
212.008358349
 20
128.1580474074
 30
0.0
 40
0.5000000000019283
100
AcDbArc
 50
180.0
 51
271.0417988504
  0
LINE
  5
15F
330
1F
100
AcDbEntity
  8
0
  6
Continuous
 62
     7
370
    15
100
AcDbLine
 10
211.644568782
 20
169.4103203225
 30
0.0
 11
211.644568782
 21
128.1580474074
 31
0.0
  0
LINE
  5
160
330
1F
100
AcDbEntity
  8
0
  6
Continuous
 62
     7
370
    15
100
AcDbLine
 10
211.508358349
 20
169.4103203225
 30
0.0
 11
211.508358349
 21
128.1580474074
 31
0.0
  0
ARC
  5
161
330
1F
100
AcDbEntity
  8
0
  6
Continuous
 62
     7
370
    15
100
AcDbCircle
 10
212.133358349
 20
176.2841838649
 30
0.0
 40
6.374999999999208
100
AcDbArc
 50
268.9582011495
 51
0.0
  0
LINE
  5
162
330
1F
100
AcDbEntity
  8
0
  6
Continuous
 62
     7
370
    15
100
AcDbLine
 10
218.6445687827
 20
176.2841838649
 30
0.0
 11
218.508358349
 21
176.2841838649
 31
0.0
  0
ARC
  5
163
330
1F
100
AcDbEntity
  8
0
  6
Continuous
 62
     7
370
    15
100
AcDbCircle
 10
212.133358349
 20
176.2841838649
 30
0.0
 40
6.511210433695902
100
AcDbArc
 50
268.9582011495
 51
0.0
  0
ARC
  5
164
330
1F
100
AcDbEntity
  8
0
  6
Continuous
 62
     7
370
    15
100
AcDbCircle
 10
212.133358349
 20
121.2841838649
 30
0.0
 40
6.375
100
AcDbArc
 50
0.0
 51
91.0417988505
  0
ARC
  5
165
330
1F
100
AcDbEntity
  8
0
  6
Continuous
 62
     7
370
    15
100
AcDbCircle
 10
212.133358349
 20
121.2841838649
 30
0.0
 40
6.511210433016089
100
AcDbArc
 50
0.0
 51
91.0417988505
  0
LINE
  5
166
330
1F
100
AcDbEntity
  8
0
  6
Continuous
 62
     7
370
    15
100
AcDbLine
 10
218.508358349
 20
121.2841838649
 30
0.0
 11
218.644568782
 21
121.2841838649
 31
0.0
  0
LINE
  5
167
330
1F
100
AcDbEntity
  8
0
  6
Continuous
 62
     7
370
    15
100
AcDbLine
 10
218.644568782
 20
113.6591838649
 30
0.0
 11
218.508358349
 21
113.6591838649
 31
0.0
  0
ARC
  5
168
330
1F
100
AcDbEntity
  8
0
  6
Continuous
 62
     7
370
    15
100
AcDbCircle
 10
219.008358349
 20
113.6591838649
 30
0.0
 40
0.3637895663296149
100
AcDbArc
 50
180.0
 51
270.0
  0
LINE
  5
169
330
1F
100
AcDbEntity
  8
0
  6
Continuous
 62
     7
370
    15
100
AcDbLine
 10
219.008358349
 20
113.1591838649
 30
0.0
 11
219.008358349
 21
113.2953942979
 31
0.0
  0
ARC
  5
16A
330
1F
100
AcDbEntity
  8
0
  6
Continuous
 62
     7
370
    15
100
AcDbCircle
 10
219.008358349
 20
113.6591838649
 30
0.0
 40
0.5
100
AcDbArc
 50
180.0
 51
270.0
  0
LINE
  5
16B
330
1F
100
AcDbEntity
  8
0
  6
Continuous
 62
     7
370
    15
100
AcDbLine
 10
218.644568782
 20
121.2841838649
 30
0.0
 11
218.644568782
 21
113.6591838649
 31
0.0
  0
LINE
  5
16C
330
1F
100
AcDbEntity
  8
0
  6
Continuous
 62
     7
370
    15
100
AcDbLine
 10
218.508358349
 20
121.2841838649
 30
0.0
 11
218.508358349
 21
113.6591838649
 31
0.0
  0
LINE
  5
16D
330
1F
100
AcDbEntity
  8
0
  6
Continuous
 62
     7
370
    15
100
AcDbLine
 10
218.508358349
 20
183.9091838649
 30
0.0
 11
218.644568782
 21
183.9091838649
 31
0.0
  0
LINE
  5
16E
330
1F
100
AcDbEntity
  8
0
  6
Continuous
 62
     7
370
    15
100
AcDbLine
 10
218.644568782
 20
183.9091838649
 30
0.0
 11
218.644568782
 21
176.2841838649
 31
0.0
  0
LINE
  5
16F
330
1F
100
AcDbEntity
  8
0
  6
Continuous
 62
     7
370
    15
100
AcDbLine
 10
218.508358349
 20
183.9091838649
 30
0.0
 11
218.508358349
 21
176.2841838649
 31
0.0
  0
LINE
  5
170
330
1F
100
AcDbEntity
  8
0
  6
Continuous
 62
     7
370
    15
100
AcDbLine
 10
219.008358349
 20
184.2729734312
 30
0.0
 11
219.008358349
 21
184.4091838649
 31
0.0
  0
ARC
  5
171
330
1F
100
AcDbEntity
  8
0
  6
Continuous
 62
     7
370
    15
100
AcDbCircle
 10
219.008358349
 20
183.9091838649
 30
0.0
 40
0.3637895663296149
100
AcDbArc
 50
90.0
 51
180.0
  0
ARC
  5
172
330
1F
100
AcDbEntity
  8
0
  6
Continuous
 62
     7
370
    15
100
AcDbCircle
 10
219.008358349
 20
183.9091838649
 30
0.0
 40
0.5
100
AcDbArc
 50
90.0
 51
180.0
  0
LINE
  5
173
330
1F
100
AcDbEntity
  8
0
  6
Continuous
 62
     7
370
    15
100
AcDbLine
 10
219.008358349
 20
113.2953942979
 30
0.0
 11
275.258358349
 21
113.2953942979
 31
0.0
  0
LINE
  5
174
330
1F
100
AcDbEntity
  8
0
  6
Continuous
 62
     7
370
    15
100
AcDbLine
 10
275.258358349
 20
113.2953942979
 30
0.0
 11
275.258358349
 21
113.1591838649
 31
0.0
  0
LINE
  5
175
330
1F
100
AcDbEntity
  8
0
  6
Continuous
 62
     7
370
    15
100
AcDbLine
 10
219.008358349
 20
113.1591838649
 30
0.0
 11
275.258358349
 21
113.1591838649
 31
0.0
  0
LINE
  5
176
330
1F
100
AcDbEntity
  8
0
  6
Continuous
 62
     7
370
    15
100
AcDbLine
 10
275.258358349
 20
184.4091838649
 30
0.0
 11
275.258358349
 21
184.2729734312
 31
0.0
  0
LINE
  5
177
330
1F
100
AcDbEntity
  8
0
  6
Continuous
 62
     7
370
    15
100
AcDbLine
 10
275.258358349
 20
184.2729734312
 30
0.0
 11
219.008358349
 21
184.2729734312
 31
0.0
  0
LINE
  5
178
330
1F
100
AcDbEntity
  8
0
  6
Continuous
 62
     7
370
    15
100
AcDbLine
 10
275.258358349
 20
184.4091838649
 30
0.0
 11
219.008358349
 21
184.4091838649
 31
0.0
  0
ARC
  5
179
330
1F
100
AcDbEntity
  8
0
  6
Continuous
 62
     7
370
    15
100
AcDbCircle
 10
275.258358349
 20
113.6591838649
 30
0.0
 40
0.3637895663290465
100
AcDbArc
 50
270.0
 51
0.0
  0
LINE
  5
17A
330
1F
100
AcDbEntity
  8
0
  6
Continuous
 62
     7
370
    15
100
AcDbLine
 10
275.758358349
 20
113.6591838649
 30
0.0
 11
275.622147916
 21
113.6591838649
 31
0.0
  0
ARC
  5
17B
330
1F
100
AcDbEntity
  8
0
  6
Continuous
 62
     7
370
    15
100
AcDbCircle
 10
275.258358349
 20
113.6591838649
 30
0.0
 40
0.5
100
AcDbArc
 50
270.0
 51
0.0
  0
LINE
  5
17C
330
1F
100
AcDbEntity
  8
0
  6
Continuous
 62
     7
370
    15
100
AcDbLine
 10
275.622147916
 20
183.9091838649
 30
0.0
 11
275.758358349
 21
183.9091838649
 31
0.0
  0
ARC
  5
17D
330
1F
100
AcDbEntity
  8
0
  6
Continuous
 62
     7
370
    15
100
AcDbCircle
 10
275.258358349
 20
183.9091838649
 30
0.0
 40
0.3637895663290465
100
AcDbArc
 50
0.0
 51
90.0
  0
ARC
  5
17E
330
1F
100
AcDbEntity
  8
0
  6
Continuous
 62
     7
370
    15
100
AcDbCircle
 10
275.258358349
 20
183.9091838649
 30
0.0
 40
0.5
100
AcDbArc
 50
0.0
 51
90.0
  0
LINE
  5
17F
330
1F
100
AcDbEntity
  8
0
  6
Continuous
 62
     7
370
    15
100
AcDbLine
 10
275.758358349
 20
176.2841838649
 30
0.0
 11
275.622147916
 21
176.2841838649
 31
0.0
  0
LINE
  5
180
330
1F
100
AcDbEntity
  8
0
  6
Continuous
 62
     7
370
    15
100
AcDbLine
 10
275.622147916
 20
176.2841838649
 30
0.0
 11
275.622147916
 21
183.9091838649
 31
0.0
  0
LINE
  5
181
330
1F
100
AcDbEntity
  8
0
  6
Continuous
 62
     7
370
    15
100
AcDbLine
 10
275.758358349
 20
176.2841838649
 30
0.0
 11
275.758358349
 21
183.9091838649
 31
0.0
  0
LINE
  5
182
330
1F
100
AcDbEntity
  8
0
  6
Continuous
 62
     7
370
    15
100
AcDbLine
 10
275.622147916
 20
113.6591838649
 30
0.0
 11
275.622147916
 21
121.2841838649
 31
0.0
  0
LINE
  5
183
330
1F
100
AcDbEntity
  8
0
  6
Continuous
 62
     7
370
    15
100
AcDbLine
 10
275.6221479153
 20
121.2841838649
 30
0.0
 11
275.758358349
 21
121.2841838649
 31
0.0
  0
LINE
  5
184
330
1F
100
AcDbEntity
  8
0
  6
Continuous
 62
     7
370
    15
100
AcDbLine
 10
275.758358349
 20
113.6591838649
 30
0.0
 11
275.758358349
 21
121.2841838649
 31
0.0
  0
ARC
  5
185
330
1F
100
AcDbEntity
  8
0
  6
Continuous
 62
     7
370
    15
100
AcDbCircle
 10
282.133358349
 20
121.2841838649
 30
0.0
 40
6.374999999999321
100
AcDbArc
 50
88.9582011495
 51
180.0
  0
ARC
  5
186
330
1F
100
AcDbEntity
  8
0
  6
Continuous
 62
     7
370
    15
100
AcDbCircle
 10
282.133358349
 20
121.2841838649
 30
0.0
 40
6.511210433695873
100
AcDbArc
 50
88.9582011495
 51
180.0
  0
LINE
  5
187
330
1F
100
AcDbEntity
  8
0
  6
Continuous
 62
     7
370
    15
100
AcDbLine
 10
282.2492674399
 20
127.6581300588
 30
0.0
 11
282.2517439932
 21
127.7943179765
 31
0.0
  0
ARC
  5
188
330
1F
100
AcDbEntity
  8
0
  6
Continuous
 62
     7
370
    15
100
AcDbCircle
 10
282.133358349
 20
176.2841838649
 30
0.0
 40
6.375
100
AcDbArc
 50
180.0
 51
271.0417988505
  0
LINE
  5
189
330
1F
100
AcDbEntity
  8
0
  6
Continuous
 62
     7
370
    15
100
AcDbLine
 10
282.2517439932
 20
169.774049754
 30
0.0
 11
282.2492674399
 21
169.910237671
 31
0.0
  0
ARC
  5
18A
330
1F
100
AcDbEntity
  8
0
  6
Continuous
 62
     7
370
    15
100
AcDbCircle
 10
282.133358349
 20
176.2841838649
 30
0.0
 40
6.511210433016103
100
AcDbArc
 50
180.0
 51
271.0417988505
  0
ARC
  5
18B
330
1F
100
AcDbEntity
  8
0
  6
Continuous
 62
     7
370
    15
100
AcDbCircle
 10
282.258358349
 20
128.1580474074
 30
0.0
 40
0.3637895663021042
100
AcDbArc
 50
268.9582011496
 51
0.0
  0
LINE
  5
18C
330
1F
100
AcDbEntity
  8
0
  6
Continuous
 62
     7
370
    15
100
AcDbLine
 10
282.758358349
 20
128.1580474074
 30
0.0
 11
282.622147916
 21
128.1580474074
 31
0.0
  0
ARC
  5
18D
330
1F
100
AcDbEntity
  8
0
  6
Continuous
 62
     7
370
    15
100
AcDbCircle
 10
282.258358349
 20
128.1580474074
 30
0.0
 40
0.5000000000019366
100
AcDbArc
 50
268.9582011496
 51
0.0
  0
LINE
  5
18E
330
1F
100
AcDbEntity
  8
0
  6
Continuous
 62
     7
370
    15
100
AcDbLine
 10
282.622147916
 20
169.4103203225
 30
0.0
 11
282.758358349
 21
169.4103203225
 31
0.0
  0
ARC
  5
18F
330
1F
100
AcDbEntity
  8
0
  6
Continuous
 62
     7
370
    15
100
AcDbCircle
 10
282.258358349
 20
169.4103203225
 30
0.0
 40
0.3637895663021099
100
AcDbArc
 50
0.0
 51
91.0417988502
  0
ARC
  5
190
330
1F
100
AcDbEntity
  8
0
  6
Continuous
 62
     7
370
    15
100
AcDbCircle
 10
282.258358349
 20
169.4103203225
 30
0.0
 40
0.500000000001772
100
AcDbArc
 50
0.0
 51
91.0417988504
  0
LINE
  5
191
330
1F
100
AcDbEntity
  8
0
  6
Continuous
 62
     7
370
    15
100
AcDbLine
 10
282.622147916
 20
128.1580474074
 30
0.0
 11
282.622147916
 21
169.4103203225
 31
0.0
  0
LINE
  5
192
330
1F
100
AcDbEntity
  8
0
  6
Continuous
 62
     7
370
    15
100
AcDbLine
 10
282.758358349
 20
128.1580474074
 30
0.0
 11
282.758358349
 21
169.4103203225
 31
0.0
  0
LINE
  5
193
330
1F
100
AcDbEntity
  8
0
  6
Continuous
 62
     7
370
    15
100
AcDbLine
 10
279.008358349
 20
176.2841838649
 30
0.0
 11
279.008358349
 21
183.9091838649
 31
0.0
  0
ARC
  5
194
330
1F
100
AcDbEntity
  8
0
  6
Continuous
 62
     7
370
    15
100
AcDbCircle
 10
275.258358349
 20
183.9091838649
 30
0.0
 40
3.75
100
AcDbArc
 50
0.0
 51
90.0
  0
LINE
  5
195
330
1F
100
AcDbEntity
  8
0
  6
Continuous
 62
     7
370
    15
100
AcDbLine
 10
275.258358349
 20
187.6591838649
 30
0.0
 11
219.008358349
 21
187.6591838649
 31
0.0
  0
ARC
  5
196
330
1F
100
AcDbEntity
  8
0
  6
Continuous
 62
     7
370
    15
100
AcDbCircle
 10
219.008358349
 20
183.9091838649
 30
0.0
 40
3.75
100
AcDbArc
 50
90.0
 51
180.0
  0
LINE
  5
197
330
1F
100
AcDbEntity
  8
0
  6
Continuous
 62
     7
370
    15
100
AcDbLine
 10
215.258358349
 20
183.9091838649
 30
0.0
 11
215.258358349
 21
176.2841838649
 31
0.0
  0
ARC
  5
198
330
1F
100
AcDbEntity
  8
0
  6
Continuous
 62
     7
370
    15
100
AcDbCircle
 10
212.133358349
 20
176.2841838649
 30
0.0
 40
3.125000000000626
100
AcDbArc
 50
268.9582011495
 51
0.0
  0
ARC
  5
199
330
1F
100
AcDbEntity
  8
0
  6
Continuous
 62
     7
370
    15
100
AcDbCircle
 10
212.008358349
 20
169.4103203225
 30
0.0
 40
3.750000000000647
100
AcDbArc
 50
88.9582011496
 51
180.0
  0
LINE
  5
19A
330
1F
100
AcDbEntity
  8
0
  6
Continuous
 62
     7
370
    15
100
AcDbLine
 10
208.258358349
 20
169.4103203225
 30
0.0
 11
208.258358349
 21
128.1580474074
 31
0.0
  0
ARC
  5
19B
330
1F
100
AcDbEntity
  8
0
  6
Continuous
 62
     7
370
    15
100
AcDbCircle
 10
212.008358349
 20
128.1580474074
 30
0.0
 40
3.750000000000647
100
AcDbArc
 50
180.0
 51
271.0417988504
  0
ARC
  5
19C
330
1F
100
AcDbEntity
  8
0
  6
Continuous
 62
     7
370
    15
100
AcDbCircle
 10
212.133358349
 20
121.2841838649
 30
0.0
 40
3.125000000000612
100
AcDbArc
 50
0.0
 51
91.0417988505
  0
LINE
  5
19D
330
1F
100
AcDbEntity
  8
0
  6
Continuous
 62
     7
370
    15
100
AcDbLine
 10
215.258358349
 20
121.2841838649
 30
0.0
 11
215.258358349
 21
113.6591838649
 31
0.0
  0
ARC
  5
19E
330
1F
100
AcDbEntity
  8
0
  6
Continuous
 62
     7
370
    15
100
AcDbCircle
 10
219.008358349
 20
113.6591838649
 30
0.0
 40
3.75
100
AcDbArc
 50
180.0
 51
270.0
  0
LINE
  5
19F
330
1F
100
AcDbEntity
  8
0
  6
Continuous
 62
     7
370
    15
100
AcDbLine
 10
219.008358349
 20
109.9091838649
 30
0.0
 11
275.258358349
 21
109.9091838649
 31
0.0
  0
ARC
  5
1A0
330
1F
100
AcDbEntity
  8
0
  6
Continuous
 62
     7
370
    15
100
AcDbCircle
 10
275.258358349
 20
113.6591838649
 30
0.0
 40
3.75
100
AcDbArc
 50
270.0
 51
0.0
  0
LINE
  5
1A1
330
1F
100
AcDbEntity
  8
0
  6
Continuous
 62
     7
370
    15
100
AcDbLine
 10
279.008358349
 20
113.6591838649
 30
0.0
 11
279.008358349
 21
121.2841838649
 31
0.0
  0
ARC
  5
1A2
330
1F
100
AcDbEntity
  8
0
  6
Continuous
 62
     7
370
    15
100
AcDbCircle
 10
282.133358349
 20
121.2841838649
 30
0.0
 40
3.125000000000612
100
AcDbArc
 50
88.9582011495
 51
180.0
  0
ARC
  5
1A3
330
1F
100
AcDbEntity
  8
0
  6
Continuous
 62
     7
370
    15
100
AcDbCircle
 10
282.258358349
 20
128.1580474074
 30
0.0
 40
3.750000000000646
100
AcDbArc
 50
268.9582011496
 51
0.0
  0
LINE
  5
1A4
330
1F
100
AcDbEntity
  8
0
  6
Continuous
 62
     7
370
    15
100
AcDbLine
 10
286.008358349
 20
128.1580474074
 30
0.0
 11
286.008358349
 21
169.4103203225
 31
0.0
  0
ARC
  5
1A5
330
1F
100
AcDbEntity
  8
0
  6
Continuous
 62
     7
370
    15
100
AcDbCircle
 10
282.258358349
 20
169.4103203225
 30
0.0
 40
3.750000000000646
100
AcDbArc
 50
0.0
 51
91.0417988504
  0
ARC
  5
1A6
330
1F
100
AcDbEntity
  8
0
  6
Continuous
 62
     7
370
    15
100
AcDbCircle
 10
282.133358349
 20
176.2841838649
 30
0.0
 40
3.125000000000626
100
AcDbArc
 50
180.0
 51
271.0417988505
  0
CIRCLE
  5
1A7
330
1F
100
AcDbEntity
  8
0
  6
Continuous
 62
     7
370
    15
100
AcDbCircle
 10
282.133358349
 20
113.7841838649
 30
0.0
 40
1.674999999999997
  0
CIRCLE
  5
1A8
330
1F
100
AcDbEntity
  8
0
  6
Continuous
 62
     7
370
    15
100
AcDbCircle
 10
212.133358349
 20
113.7841838649
 30
0.0
 40
1.674999999999997
  0
CIRCLE
  5
1A9
330
1F
100
AcDbEntity
  8
0
  6
Continuous
 62
     7
370
    15
100
AcDbCircle
 10
212.133358349
 20
183.7841838649
 30
0.0
 40
1.675000000000011
  0
CIRCLE
  5
1AA
330
1F
100
AcDbEntity
  8
0
  6
Continuous
 62
     7
370
    15
100
AcDbCircle
 10
282.133358349
 20
183.7841838649
 30
0.0
 40
1.675000000000011
  0
LINE
  5
1AB
330
1F
100
AcDbEntity
  8
0
  6
Continuous
 62
     7
370
    15
100
AcDbLine
 10
287.133358349
 20
183.7849453891
 30
0.0
 11
287.133358349
 21
113.7834223418
 31
0.0
  0
ELLIPSE
  5
1AC
330
1F
100
AcDbEntity
  8
0
  6
Continuous
 62
     7
370
    15
100
AcDbEllipse
 10
282.1325967087
 20
183.7834222247
 30
0.0
 11
3.536610945847883
 21
3.536610945847883
 31
0.0
210
0.0
220
0.0
230
1.0
 40
0.9996954599
 41
5.497939437029878
 42
7.068431177329451
  0
ELLIPSE
  5
1AD
330
1F
100
AcDbEntity
  8
0
  6
Continuous
 62
     7
370
    15
100
AcDbEllipse
 10
282.1325967087
 20
113.7849455051
 30
0.0
 11
3.536610945847883
 21
-3.536610945847897
 31
0.0
210
0.0
220
0.0
230
1.0
 40
0.9996954599
 41
5.497939437029885
 42
7.068431177549242
  0
LINE
  5
1AE
330
1F
100
AcDbEntity
  8
0
  6
Continuous
 62
     7
370
    15
100
AcDbLine
 10
212.1325968247
 20
188.7841838649
 30
0.0
 11
282.1341198732
 21
188.7841838649
 31
0.0
  0
LINE
  5
1AF
330
1F
100
AcDbEntity
  8
0
  6
Continuous
 62
     7
370
    15
100
AcDbLine
 10
282.1341198732
 20
108.7841838649
 30
0.0
 11
212.1325968258
 21
108.7841838649
 31
0.0
  0
ELLIPSE
  5
1B0
330
1F
100
AcDbEntity
  8
0
  6
Continuous
 62
     7
370
    15
100
AcDbEllipse
 10
212.1341199892
 20
113.7849455051
 30
0.0
 11
-3.536610945847883
 21
-3.536610945847897
 31
0.0
210
0.0
220
0.0
230
1.0
 40
0.9996954599
 41
5.497939437029873
 42
7.068431177549245
  0
LINE
  5
1B1
330
1F
100
AcDbEntity
  8
0
  6
Continuous
 62
     7
370
    15
100
AcDbLine
 10
207.133358349
 20
113.7834223407
 30
0.0
 11
207.133358349
 21
183.7849453891
 31
0.0
  0
ELLIPSE
  5
1B2
330
1F
100
AcDbEntity
  8
0
  6
Continuous
 62
     7
370
    15
100
AcDbEllipse
 10
212.1341199892
 20
183.7834222247
 30
0.0
 11
-3.536610945847883
 21
3.536610945847883
 31
0.0
210
0.0
220
0.0
230
1.0
 40
0.9996954599
 41
5.497939437029876
 42
7.068431177329304
  0
ARC
  5
1B3
330
1F
100
AcDbEntity
  8
0
  6
Continuous
 62
     7
370
    15
100
AcDbCircle
 10
275.258358349
 20
183.9091838649
 30
0.0
 40
1.5
100
AcDbArc
 50
0.0
 51
90.0
  0
LINE
  5
1B4
330
1F
100
AcDbEntity
  8
0
  6
Continuous
 62
     7
370
    15
100
AcDbLine
 10
276.758358349
 20
176.2841838649
 30
0.0
 11
276.758358349
 21
183.9091838649
 31
0.0
  0
ARC
  5
1B5
330
1F
100
AcDbEntity
  8
0
  6
Continuous
 62
     7
370
    15
100
AcDbCircle
 10
282.133358349
 20
176.2841838649
 30
0.0
 40
5.375000000000634
100
AcDbArc
 50
180.0
 51
271.0417988504
  0
ARC
  5
1B6
330
1F
100
AcDbEntity
  8
0
  6
Continuous
 62
     7
370
    15
100
AcDbCircle
 10
282.258358349
 20
169.4103203225
 30
0.0
 40
1.500000000000638
100
AcDbArc
 50
0.0
 51
91.0417988505
  0
LINE
  5
1B7
330
1F
100
AcDbEntity
  8
0
  6
Continuous
 62
     7
370
    15
100
AcDbLine
 10
283.758358349
 20
128.1580474074
 30
0.0
 11
283.758358349
 21
169.4103203225
 31
0.0
  0
ARC
  5
1B8
330
1F
100
AcDbEntity
  8
0
  6
Continuous
 62
     7
370
    15
100
AcDbCircle
 10
282.258358349
 20
128.1580474074
 30
0.0
 40
1.500000000001263
100
AcDbArc
 50
268.9582011495
 51
0.0
  0
ARC
  5
1B9
330
1F
100
AcDbEntity
  8
0
  6
Continuous
 62
     7
370
    15
100
AcDbCircle
 10
282.133358349
 20
121.2841838649
 30
0.0
 40
5.375
100
AcDbArc
 50
88.9582011496
 51
180.0
  0
LINE
  5
1BA
330
1F
100
AcDbEntity
  8
0
  6
Continuous
 62
     7
370
    15
100
AcDbLine
 10
276.758358349
 20
113.6591838649
 30
0.0
 11
276.758358349
 21
121.2841838649
 31
0.0
  0
ARC
  5
1BB
330
1F
100
AcDbEntity
  8
0
  6
Continuous
 62
     7
370
    15
100
AcDbCircle
 10
275.258358349
 20
113.6591838649
 30
0.0
 40
1.5
100
AcDbArc
 50
270.0
 51
0.0
  0
LINE
  5
1BC
330
1F
100
AcDbEntity
  8
0
  6
Continuous
 62
     7
370
    15
100
AcDbLine
 10
219.008358349
 20
112.1591838649
 30
0.0
 11
275.258358349
 21
112.1591838649
 31
0.0
  0
ARC
  5
1BD
330
1F
100
AcDbEntity
  8
0
  6
Continuous
 62
     7
370
    15
100
AcDbCircle
 10
219.008358349
 20
113.6591838649
 30
0.0
 40
1.5
100
AcDbArc
 50
180.0
 51
270.0
  0
LINE
  5
1BE
330
1F
100
AcDbEntity
  8
0
  6
Continuous
 62
     7
370
    15
100
AcDbLine
 10
217.508358349
 20
121.2841838649
 30
0.0
 11
217.508358349
 21
113.6591838649
 31
0.0
  0
ARC
  5
1BF
330
1F
100
AcDbEntity
  8
0
  6
Continuous
 62
     7
370
    15
100
AcDbCircle
 10
212.133358349
 20
121.2841838649
 30
0.0
 40
5.375000000000606
100
AcDbArc
 50
0.0
 51
91.0417988504
  0
ARC
  5
1C0
330
1F
100
AcDbEntity
  8
0
  6
Continuous
 62
     7
370
    15
100
AcDbCircle
 10
212.133358349
 20
176.2841838649
 30
0.0
 40
5.375000000000037
100
AcDbArc
 50
268.9582011496
 51
0.0
  0
LINE
  5
1C1
330
1F
100
AcDbEntity
  8
0
  6
Continuous
 62
     7
370
    15
100
AcDbLine
 10
217.508358349
 20
183.9091838649
 30
0.0
 11
217.508358349
 21
176.2841838649
 31
0.0
  0
ARC
  5
1C2
330
1F
100
AcDbEntity
  8
0
  6
Continuous
 62
     7
370
    15
100
AcDbCircle
 10
219.008358349
 20
183.9091838649
 30
0.0
 40
1.5
100
AcDbArc
 50
90.0
 51
180.0
  0
LINE
  5
1C3
330
1F
100
AcDbEntity
  8
0
  6
Continuous
 62
     7
370
    15
100
AcDbLine
 10
275.258358349
 20
185.4091838649
 30
0.0
 11
219.008358349
 21
185.4091838649
 31
0.0
  0
LINE
  5
1C4
330
1F
100
AcDbEntity
  8
0
  6
Continuous
 62
     7
370
    15
100
AcDbLine
 10
210.508358349
 20
169.4103203225
 30
0.0
 11
210.508358349
 21
128.1580474074
 31
0.0
  0
ARC
  5
1C5
330
1F
100
AcDbEntity
  8
0
  6
Continuous
 62
     7
370
    15
100
AcDbCircle
 10
212.008358349
 20
128.1580474074
 30
0.0
 40
1.500000000000652
100
AcDbArc
 50
180.0
 51
271.0417988505
  0
ARC
  5
1C6
330
1F
100
AcDbEntity
  8
0
  6
Continuous
 62
     7
370
    15
100
AcDbCircle
 10
212.008358349
 20
169.4103203225
 30
0.0
 40
1.500000000001235
100
AcDbArc
 50
88.9582011495
 51
180.0
  0
LINE
  5
1C7
330
1F
100
AcDbEntity
  8
0
  6
Continuous
 62
     7
370
    15
100
AcDbLine
 10
211.844538321
 20
128.1580474074
 30
0.0
 11
211.6445687827
 21
128.1580474074
 31
0.0
  0
SPLINE
  5
1C8
330
1F
100
AcDbEntity
  8
0
  6
Continuous
 62
     7
370
    15
100
AcDbSpline
210
0.0
220
0.0
230
1.0
 70
     8
 71
     3
 72
    14
 73
    10
 74
     0
 42
0.000000001
 43
0.00000001
 40
0.0
 40
0.0
 40
0.0
 40
0.0
 40
0.0831731051918243
 40
0.1662777051750695
 40
0.2507681830870521
 40
0.500081983036756
 40
0.7493964994705022
 40
0.8739708054555777
 40
1.0
 40
1.0
 40
1.0
 40
1.0
 10
211.844538974218
 20
128.1580474073506
 30
0.0
 10
211.8448088482436
 20
128.1508526548305
 30
0.0
 10
211.8453483740141
 20
128.1364690757205
 30
0.0
 10
211.8498254214558
 20
128.1151585450971
 30
0.0
 10
211.8613950669429
 20
128.0809843990318
 30
0.0
 10
211.890514376744
 20
128.0379328703981
 30
0.0
 10
211.9369539632015
 20
128.0080616951033
 30
0.0
 10
211.9786806765345
 20
127.9954491233199
 30
0.0
 10
212.0004094472269
 20
127.9946538068641
 30
0.0
 10
212.011336906193
 20
127.9942538400156
 30
0.0
  0
LINE
  5
1C9
330
1F
100
AcDbEntity
  8
0
  6
Continuous
 62
     7
370
    15
100
AcDbLine
 10
212.0149727047
 20
127.7943179758
 30
0.0
 11
212.0113369006
 21
127.9942541497
 31
0.0
  0
LINE
  5
1CA
330
1F
100
AcDbEntity
  8
0
  6
Continuous
 62
     7
370
    15
100
AcDbLine
 10
282.4221783769
 20
169.4103203225
 30
0.0
 11
282.6221479153
 21
169.4103203225
 31
0.0
  0
SPLINE
  5
1CB
330
1F
100
AcDbEntity
  8
0
  6
Continuous
 62
     7
370
    15
100
AcDbSpline
210
0.0
220
0.0
230
1.0
 70
     8
 71
     3
 72
    14
 73
    10
 74
     0
 42
0.000000001
 43
0.00000001
 40
0.0
 40
0.0
 40
0.0
 40
0.0
 40
0.0831731051918243
 40
0.1662777051750695
 40
0.2507681830870521
 40
0.500081983036756
 40
0.7493964994705022
 40
0.8739708054555777
 40
1.0
 40
1.0
 40
1.0
 40
1.0
 10
282.4221777237181
 20
169.4103203224806
 30
0.0
 10
282.4219078496924
 20
169.4175150750008
 30
0.0
 10
282.421368323922
 20
169.4318986541107
 30
0.0
 10
282.4168912764803
 20
169.4532091847341
 30
0.0
 10
282.4053216309931
 20
169.4873833307994
 30
0.0
 10
282.3762023211921
 20
169.5304348594331
 30
0.0
 10
282.3297627347346
 20
169.5603060347279
 30
0.0
 10
282.2880360214016
 20
169.5729186065113
 30
0.0
 10
282.2663072507092
 20
169.5737139229671
 30
0.0
 10
282.2553797917431
 20
169.5741138898156
 30
0.0
  0
LINE
  5
1CC
330
1F
100
AcDbEntity
  8
0
  6
Continuous
 62
     7
370
    15
100
AcDbLine
 10
282.2517439932
 20
169.774049754
 30
0.0
 11
282.2553797974
 21
169.5741135802
 31
0.0
  0
LINE
  5
1CD
330
1F
100
AcDbEntity
  8
0
  6
Continuous
 62
     7
370
    15
100
AcDbLine
 10
219.008358349
 20
184.0730032656
 30
0.0
 11
219.008358349
 21
184.2729734312
 31
0.0
  0
SPLINE
  5
1CE
330
1F
100
AcDbEntity
  8
0
  6
Continuous
 62
     7
370
    15
100
AcDbSpline
210
0.0
220
0.0
230
1.0
 70
     8
 71
     3
 72
    14
 73
    10
 74
     0
 42
0.000000001
 43
0.00000001
 40
0.0
 40
0.0
 40
0.0
 40
0.0
 40
0.0798171846859373
 40
0.1596637769872584
 40
0.2407941715039501
 40
0.5000704305118936
 40
0.7593466895206052
 40
0.8789477858886422
 40
1.0
 40
1.0
 40
1.0
 40
1.0
 10
219.008358348968
 20
184.0730032656206
 30
0.0
 10
219.0015352641179
 20
184.0727594693171
 30
0.0
 10
218.9878865805396
 20
184.0722717868865
 30
0.0
 10
218.9676284175406
 20
184.0682376079005
 30
0.0
 10
218.9334002304548
 20
184.0572933396694
 30
0.0
 10
218.8891372553971
 20
184.0282970355722
 30
0.0
 10
218.8586883057575
 20
183.9813173503314
 30
0.0
 10
218.8461523017359
 20
183.9401467077025
 30
0.0
 10
218.8450784729542
 20
183.919546218874
 30
0.0
 10
218.844538321018
 20
183.9091838649156
 30
0.0
  0
LINE
  5
1CF
330
1F
100
AcDbEntity
  8
0
  6
Continuous
 62
     7
370
    15
100
AcDbLine
 10
218.6445687818
 20
183.9091838649
 30
0.0
 11
218.844538321
 21
183.9091838649
 31
0.0
  0
LINE
  5
1D0
330
1F
100
AcDbEntity
  8
0
  6
Continuous
 62
     7
370
    15
100
AcDbLine
 10
275.258358349
 20
113.495363837
 30
0.0
 11
275.258358349
 21
113.2953942986
 31
0.0
  0
SPLINE
  5
1D1
330
1F
100
AcDbEntity
  8
0
  6
Continuous
 62
     7
370
    15
100
AcDbSpline
210
0.0
220
0.0
230
1.0
 70
     8
 71
     3
 72
    14
 73
    10
 74
     0
 42
0.000000001
 43
0.00000001
 40
0.0
 40
0.0
 40
0.0
 40
0.0
 40
0.0798171846859373
 40
0.1596637769872584
 40
0.2407941715039501
 40
0.5000704305118936
 40
0.7593466895206052
 40
0.8789477858886422
 40
1.0
 40
1.0
 40
1.0
 40
1.0
 10
275.258358348968
 20
113.4953644642106
 30
0.0
 10
275.2651814338182
 20
113.4956082605141
 30
0.0
 10
275.2788301173965
 20
113.4960959429447
 30
0.0
 10
275.2990882803955
 20
113.5001301219307
 30
0.0
 10
275.3333164674813
 20
113.5110743901618
 30
0.0
 10
275.377579442539
 20
113.540070694259
 30
0.0
 10
275.4080283921786
 20
113.5870503794998
 30
0.0
 10
275.4205643962002
 20
113.6282210221287
 30
0.0
 10
275.4216382249819
 20
113.6488215109572
 30
0.0
 10
275.4221783769181
 20
113.6591838649156
 30
0.0
  0
LINE
  5
1D2
330
1F
100
AcDbEntity
  8
0
  6
Continuous
 62
     7
370
    15
100
AcDbLine
 10
275.6221479161
 20
113.6591838649
 30
0.0
 11
275.4221783769
 21
113.6591838649
 31
0.0
  0
SPLINE
  5
1D3
330
1F
100
AcDbEntity
  8
0
  6
Continuous
 62
     7
370
    15
100
AcDbSpline
210
0.0
220
0.0
230
1.0
 70
     8
 71
     3
 72
    28
 73
    24
 74
     0
 42
0.000000001
 43
0.00000001
 40
0.0
 40
0.0
 40
0.0
 40
0.0
 40
0.0177217722681786
 40
0.0354095757780182
 40
0.0530773687389043
 40
0.0707391568036295
 40
0.0884089599040142
 40
0.1061007789172762
 40
0.1238285625581655
 40
0.1869519577395866
 40
0.250100080509262
 40
0.3132234763196917
 40
0.376371599722238
 40
0.5000041161753168
 40
0.6236366350278357
 40
0.6867600326858563
 40
0.7499081583191148
 40
0.8130315569961776
 40
0.8761796828722525
 40
0.9071677074252147
 40
0.9380836988813669
 40
0.9690027672066107
 40
1.0
 40
1.0
 40
1.0
 40
1.0
 10
212.011336906193
 20
127.9942538400156
 30
0.0
 10
212.0742931508559
 20
127.9948918000184
 30
0.0
 10
212.200084966841
 20
127.9961664971942
 30
0.0
 10
212.38861540649
 20
127.9913781917763
 30
0.0
 10
212.5767251700105
 20
127.9816752167941
 30
0.0
 10
212.7644229729926
 20
127.9665794427864
 30
0.0
 10
212.9517048288088
 20
127.9462195993733
 30
0.0
 10
213.1385758655621
 20
127.9205584550265
 30
0.0
 10
213.4839418854523
 20
127.8632416340013
 30
0.0
 10
213.9831783191045
 20
127.7472846288824
 30
0.0
 10
214.6208655529501
 20
127.5293799024592
 30
0.0
 10
215.2339001832015
 20
127.2490650247944
 30
0.0
 10
216.0010845705696
 20
126.7998533465035
 30
0.0
 10
216.8660545335337
 20
126.1037255318586
 30
0.0
 10
217.5777366349994
 20
125.25162367327
 30
0.0
 10
218.0408387704994
 20
124.492742839535
 30
0.0
 10
218.3322222733514
 20
123.8849930253982
 30
0.0
 10
218.561749291543
 20
123.251285521233
 30
0.0
 10
218.6982195688237
 20
122.7085037525728
 30
0.0
 10
218.7744759620897
 20
122.2707011168548
 30
0.0
 10
218.8147126522105
 20
121.9433052849984
 30
0.0
 10
218.8398912681362
 20
121.6142868013239
 30
0.0
 10
218.8429880002404
 20
121.394310744551
 30
0.0
 10
218.844538320983
 20
121.2841838649156
 30
0.0
  0
LINE
  5
1D4
330
1F
100
AcDbEntity
  8
0
  6
Continuous
 62
     7
370
    15
100
AcDbLine
 10
218.6445687826
 20
121.2841838641
 30
0.0
 11
218.844538321
 21
121.2841838641
 31
0.0
  0
SPLINE
  5
1D5
330
1F
100
AcDbEntity
  8
0
  6
Continuous
 62
     7
370
    15
100
AcDbSpline
210
0.0
220
0.0
230
1.0
 70
     8
 71
     3
 72
    28
 73
    24
 74
     0
 42
0.000000001
 43
0.00000001
 40
0.0
 40
0.0
 40
0.0
 40
0.0
 40
0.0177217722681786
 40
0.0354095757780182
 40
0.0530773687389043
 40
0.0707391568036295
 40
0.0884089599040142
 40
0.1061007789172762
 40
0.1238285625581655
 40
0.1869519577395866
 40
0.250100080509262
 40
0.3132234763196917
 40
0.376371599722238
 40
0.5000041161753168
 40
0.6236366350278357
 40
0.6867600326858563
 40
0.7499081583191148
 40
0.8130315569961776
 40
0.8761796828722525
 40
0.9071677074252147
 40
0.9380836988813669
 40
0.9690027672066107
 40
1.0
 40
1.0
 40
1.0
 40
1.0
 10
282.2553797917431
 20
169.5741138898156
 30
0.0
 10
282.1924235470802
 20
169.5734759298129
 30
0.0
 10
282.0666317310951
 20
169.572201232637
 30
0.0
 10
281.8781012914461
 20
169.5769895380549
 30
0.0
 10
281.6899915279255
 20
169.5866925130371
 30
0.0
 10
281.5022937249435
 20
169.6017882870448
 30
0.0
 10
281.3150118691272
 20
169.622148130458
 30
0.0
 10
281.128140832374
 20
169.6478092748048
 30
0.0
 10
280.7827748124838
 20
169.7051260958299
 30
0.0
 10
280.2835383788316
 20
169.8210831009489
 30
0.0
 10
279.645851144986
 20
170.038987827372
 30
0.0
 10
279.0328165147346
 20
170.3193027050368
 30
0.0
 10
278.2656321273665
 20
170.7685143833277
 30
0.0
 10
277.4006621644023
 20
171.4646421979727
 30
0.0
 10
276.6889800629367
 20
172.3167440565612
 30
0.0
 10
276.2258779274367
 20
173.0756248902962
 30
0.0
 10
275.9344944245847
 20
173.683374704433
 30
0.0
 10
275.7049674063931
 20
174.3170822085982
 30
0.0
 10
275.5684971291124
 20
174.8598639772584
 30
0.0
 10
275.4922407358463
 20
175.2976666129765
 30
0.0
 10
275.4520040457256
 20
175.6250624448328
 30
0.0
 10
275.4268254297999
 20
175.9540809285074
 30
0.0
 10
275.4237286976957
 20
176.1740569852802
 30
0.0
 10
275.4221783769531
 20
176.2841838649156
 30
0.0
  0
LINE
  5
1D6
330
1F
100
AcDbEntity
  8
0
  6
Continuous
 62
     7
370
    15
100
AcDbLine
 10
275.6221479153
 20
176.2841838657
 30
0.0
 11
275.422178377
 21
176.2841838657
 31
0.0
  0
LINE
  5
1D7
330
1F
100
AcDbEntity
  8
0
  6
Continuous
 62
     7
370
    15
100
AcDbLine
 10
218.6445687827
 20
176.2841838649
 30
0.0
 11
218.8445380182
 21
176.2841838649
 31
0.0
  0
SPLINE
  5
1D8
330
1F
100
AcDbEntity
  8
0
  6
Continuous
 62
     7
370
    15
100
AcDbSpline
210
0.0
220
0.0
230
1.0
 70
     8
 71
     3
 72
    28
 73
    24
 74
     0
 42
0.000000001
 43
0.00000001
 40
0.0
 40
0.0
 40
0.0
 40
0.0
 40
0.0177217719864902
 40
0.0354095752152287
 40
0.0530773678953786
 40
0.0707391556795103
 40
0.088408958499222
 40
0.1061007772315074
 40
0.123828560590895
 40
0.1869519547701886
 40
0.2501000765359246
 40
0.3132234713461844
 40
0.3763715937428281
 40
0.5000041082317537
 40
0.6236366275974736
 40
0.6867600268092273
 40
0.7499081543962648
 40
0.8130315550260813
 40
0.8761796824568827
 40
0.9071677075006646
 40
0.9380836992160709
 40
0.9690027675288777
 40
0.9999999999999999
 40
0.9999999999999999
 40
0.9999999999999999
 40
0.9999999999999999
 10
218.844537715348
 20
176.2841838649156
 30
0.0
 10
218.8440309108992
 20
176.2212264277026
 30
0.0
 10
218.8430182734348
 20
176.0954322289027
 30
0.0
 10
218.8348029333455
 20
175.9070200135993
 30
0.0
 10
218.821681384748
 20
175.7191177625143
 30
0.0
 10
218.803175418751
 20
175.5317254547614
 30
0.0
 10
218.7794138161795
 20
175.3448447357704
 30
0.0
 10
218.7503592584215
 20
175.1584711552232
 30
0.0
 10
218.6867725297245
 20
174.8142043486538
 30
0.0
 10
218.5617576663087
 20
174.3171587484124
 30
0.0
 10
218.3322946463863
 20
173.683538828912
 30
0.0
 10
218.0408800206862
 20
173.0757021680708
 30
0.0
 10
217.5777937909991
 20
172.316812081535
 30
0.0
 10
216.8660543101352
 20
171.4646419651269
 30
0.0
 10
216.0011536299342
 20
170.7685702439926
 30
0.0
 10
215.2339782073434
 20
170.3193424279616
 30
0.0
 10
214.621030973392
 20
170.039057015802
 30
0.0
 10
213.9832550035168
 20
169.8210898011131
 30
0.0
 10
213.4380816778819
 20
169.6945107488851
 30
0.0
 10
212.9989649289475
 20
169.6262269261427
 30
0.0
 10
212.6708916387147
 20
169.5919494732788
 30
0.0
 10
212.341469748211
 20
169.57275710447
 30
0.0
 10
212.1214737469647
 20
169.5736603996522
 30
0.0
 10
212.011336883053
 20
169.5741126174106
 30
0.0
  0
LINE
  5
1D9
330
1F
100
AcDbEntity
  8
0
  6
Continuous
 62
     7
370
    15
100
AcDbLine
 10
212.0113369004
 20
169.5741135733
 30
0.0
 11
212.0149727047
 21
169.7740497533
 31
0.0
  0
LINE
  5
1DA
330
1F
100
AcDbEntity
  8
0
  6
Continuous
 62
     7
370
    15
100
AcDbLine
 10
275.6221479153
 20
121.2841838649
 30
0.0
 11
275.4221786798
 21
121.2841838649
 31
0.0
  0
SPLINE
  5
1DB
330
1F
100
AcDbEntity
  8
0
  6
Continuous
 62
     7
370
    15
100
AcDbSpline
210
0.0
220
0.0
230
1.0
 70
     8
 71
     3
 72
    28
 73
    24
 74
     0
 42
0.000000001
 43
0.00000001
 40
0.0
 40
0.0
 40
0.0
 40
0.0
 40
0.0177217719864902
 40
0.0354095752152287
 40
0.0530773678953786
 40
0.0707391556795103
 40
0.088408958499222
 40
0.1061007772315074
 40
0.123828560590895
 40
0.1869519547701886
 40
0.2501000765359246
 40
0.3132234713461844
 40
0.3763715937428281
 40
0.5000041082317537
 40
0.6236366275974736
 40
0.6867600268092273
 40
0.7499081543962648
 40
0.8130315550260813
 40
0.8761796824568827
 40
0.9071677075006646
 40
0.9380836992160709
 40
0.9690027675288777
 40
0.9999999999999999
 40
0.9999999999999999
 40
0.9999999999999999
 40
0.9999999999999999
 10
275.422178982588
 20
121.2841838649156
 30
0.0
 10
275.4226857870368
 20
121.3471413021287
 30
0.0
 10
275.4236984245013
 20
121.4729355009286
 30
0.0
 10
275.4319137645905
 20
121.661347716232
 30
0.0
 10
275.4450353131881
 20
121.849249967317
 30
0.0
 10
275.4635412791851
 20
122.0366422750698
 30
0.0
 10
275.4873028817566
 20
122.2235229940608
 30
0.0
 10
275.5163574395146
 20
122.409896574608
 30
0.0
 10
275.5799441682115
 20
122.7541633811774
 30
0.0
 10
275.7049590316274
 20
123.2512089814188
 30
0.0
 10
275.9344220515498
 20
123.8848289009192
 30
0.0
 10
276.2258366772498
 20
124.4926655617604
 30
0.0
 10
276.688922906937
 20
125.2515556482962
 30
0.0
 10
277.4006623878009
 20
126.1037257647044
 30
0.0
 10
278.2655630680019
 20
126.7997974858386
 30
0.0
 10
279.0327384905927
 20
127.2490253018697
 30
0.0
 10
279.6456857245441
 20
127.5293107140293
 30
0.0
 10
280.2834616944193
 20
127.7472779287181
 30
0.0
 10
280.8286350200542
 20
127.8738569809461
 30
0.0
 10
281.2677517689886
 20
127.9421408036885
 30
0.0
 10
281.5958250592214
 20
127.9764182565524
 30
0.0
 10
281.925246949725
 20
127.9956106253612
 30
0.0
 10
282.1452429509714
 20
127.994707330179
 30
0.0
 10
282.255379814883
 20
127.9942551124206
 30
0.0
  0
LINE
  5
1DC
330
1F
100
AcDbEntity
  8
0
  6
Continuous
 62
     7
370
    15
100
AcDbLine
 10
282.2553797975
 20
127.9942541565
 30
0.0
 11
282.2517439932
 21
127.7943179765
 31
0.0
  0
LINE
  5
1DD
330
1F
100
AcDbEntity
  8
0
  6
Continuous
 62
     7
370
    15
100
AcDbLine
 10
218.844538321
 20
113.6591838649
 30
0.0
 11
218.6445687826
 21
113.6591838649
 31
0.0
  0
SPLINE
  5
1DE
330
1F
100
AcDbEntity
  8
0
  6
Continuous
 62
     7
370
    15
100
AcDbSpline
210
0.0
220
0.0
230
1.0
 70
     8
 71
     3
 72
    14
 73
    10
 74
     0
 42
0.000000001
 43
0.00000001
 40
0.0
 40
0.0
 40
0.0
 40
0.0
 40
0.0798171846865416
 40
0.1596637769878252
 40
0.2407941715038919
 40
0.500070430511799
 40
0.75934668952056
 40
0.8789477858896283
 40
1.0
 40
1.0
 40
1.0
 40
1.0
 10
218.844538948263
 20
113.6591838649156
 30
0.0
 10
218.8447827445665
 20
113.6523607800654
 30
0.0
 10
218.8452704269971
 20
113.6387120964871
 30
0.0
 10
218.8493046059831
 20
113.618453933488
 30
0.0
 10
218.8602488742143
 20
113.5842257464023
 30
0.0
 10
218.8892451783114
 20
113.5399627713447
 30
0.0
 10
218.9362248635523
 20
113.509513821705
 30
0.0
 10
218.9773955061813
 20
113.4969778176835
 30
0.0
 10
218.9979959950097
 20
113.4959039889018
 30
0.0
 10
219.008358348968
 20
113.4953638369656
 30
0.0
  0
LINE
  5
1DF
330
1F
100
AcDbEntity
  8
0
  6
Continuous
 62
     7
370
    15
100
AcDbLine
 10
219.008358349
 20
113.2953942986
 30
0.0
 11
219.008358349
 21
113.495363837
 31
0.0
  0
LINE
  5
1E0
330
1F
100
AcDbEntity
  8
0
  6
Continuous
 62
     7
370
    15
100
AcDbLine
 10
275.422178377
 20
183.9091838649
 30
0.0
 11
275.6221479153
 21
183.9091838649
 31
0.0
  0
SPLINE
  5
1E1
330
1F
100
AcDbEntity
  8
0
  6
Continuous
 62
     7
370
    15
100
AcDbSpline
210
0.0
220
0.0
230
1.0
 70
     8
 71
     3
 72
    14
 73
    10
 74
     0
 42
0.000000001
 43
0.00000001
 40
0.0
 40
0.0
 40
0.0
 40
0.0
 40
0.0798172648987279
 40
0.1596639002380011
 40
0.2407943048069827
 40
0.5000704307393363
 40
0.7593465566718101
 40
0.8789476781130876
 40
1.0
 40
1.0
 40
1.0
 40
1.0
 10
275.422177749673
 20
183.9091838649156
 30
0.0
 10
275.4219339535057
 20
183.9160069481493
 30
0.0
 10
275.421446271461
 20
183.9296556253138
 30
0.0
 10
275.4174120930109
 20
183.9499137741037
 30
0.0
 10
275.4064678294113
 20
183.9841419085535
 30
0.0
 10
275.3774715221375
 20
184.0284047901246
 30
0.0
 10
275.3304918174417
 20
184.0588535647643
 30
0.0
 10
275.289321180324
 20
184.0713894050685
 30
0.0
 10
275.2687207014332
 20
184.0724631537788
 30
0.0
 10
275.258358348968
 20
184.0730032656206
 30
0.0
  0
LINE
  5
1E2
330
1F
100
AcDbEntity
  8
0
  6
Continuous
 62
     7
370
    15
100
AcDbLine
 10
275.258358349
 20
184.2729734312
 30
0.0
 11
275.258358349
 21
184.0730032656
 31
0.0
  0
LINE
  5
1E3
330
1F
100
AcDbEntity
  8
0
  6
Continuous
 62
     7
370
    15
100
AcDbLine
 10
218.844538321
 20
183.9091838649
 30
0.0
 11
218.844538321
 21
176.2841838649
 31
0.0
  0
LINE
  5
1E4
330
1F
100
AcDbEntity
  8
0
  6
Continuous
 62
     7
370
    15
100
AcDbLine
 10
275.4221783769
 20
113.6591838649
 30
0.0
 11
275.4221783769
 21
121.2841838649
 31
0.0
  0
LINE
  5
1E5
330
1F
100
AcDbEntity
  8
0
  6
Continuous
 62
     7
370
    15
100
AcDbLine
 10
218.844538321
 20
121.2841838641
 30
0.0
 11
218.844538321
 21
113.6591838649
 31
0.0
  0
LINE
  5
1E6
330
1F
100
AcDbEntity
  8
0
  6
Continuous
 62
     7
370
    15
100
AcDbLine
 10
275.422178377
 20
176.2841838657
 30
0.0
 11
275.422178377
 21
183.9091838649
 31
0.0
  0
LINE
  5
1E7
330
1F
100
AcDbEntity
  8
0
  6
Continuous
 62
     7
370
    15
100
AcDbLine
 10
211.6445687827
 20
169.4103203225
 30
0.0
 11
211.844538321
 21
169.4103203225
 31
0.0
  0
LINE
  5
1E8
330
1F
100
AcDbEntity
  8
0
  6
Continuous
 62
     7
370
    15
100
AcDbLine
 10
211.844538321
 20
169.4103203225
 30
0.0
 11
211.844538321
 21
128.1580474074
 31
0.0
  0
ARC
  5
1E9
330
1F
100
AcDbEntity
  8
0
  6
Continuous
 62
     7
370
    15
100
AcDbCircle
 10
212.008358349
 20
169.4103203225
 30
0.0
 40
0.1638200279516013
100
AcDbArc
 50
88.9582011506
 51
180.000000001
  0
LINE
  5
1EA
330
1F
100
AcDbEntity
  8
0
  6
Continuous
 62
     7
370
    15
100
AcDbLine
 10
282.6221479153
 20
128.1580474074
 30
0.0
 11
282.4221783769
 21
128.1580474073
 31
0.0
  0
LINE
  5
1EB
330
1F
100
AcDbEntity
  8
0
  6
Continuous
 62
     7
370
    15
100
AcDbLine
 10
282.4221783769
 20
128.1580474073
 30
0.0
 11
282.4221783769
 21
169.4103203225
 31
0.0
  0
ARC
  5
1EC
330
1F
100
AcDbEntity
  8
0
  6
Continuous
 62
     7
370
    15
100
AcDbCircle
 10
282.258358349
 20
128.1580474073
 30
0.0
 40
0.1638200279515445
100
AcDbArc
 50
268.9582011506
 51
0.000000001
  0
LINE
  5
1ED
330
1F
100
AcDbEntity
  8
0
  6
Continuous
 62
     7
370
    15
100
AcDbLine
 10
219.008358349
 20
113.495363837
 30
0.0
 11
275.258358349
 21
113.495363837
 31
0.0
  0
LINE
  5
1EE
330
1F
100
AcDbEntity
  8
0
  6
Continuous
 62
     7
370
    15
100
AcDbLine
 10
275.258358349
 20
184.0730032656
 30
0.0
 11
219.008358349
 21
184.0730032656
 31
0.0
  0
ENDSEC
  0
SECTION
  2
OBJECTS
  0
DICTIONARY
  5
C
330
0
100
AcDbDictionary
281
     1
  3
ACAD_GROUP
350
D
  3
ACAD_LAYOUT
350
1A
  3
ACAD_MLINESTYLE
350
17
  3
ACAD_PLOTSETTINGS
350
19
  3
ACAD_PLOTSTYLENAME
350
E
  3
ACAD_SCALELIST
350
47
  0
DICTIONARY
  5
D
102
{ACAD_REACTORS
330
C
102
}
330
C
100
AcDbDictionary
281
     1
  0
DICTIONARY
  5
1A
102
{ACAD_REACTORS
330
C
102
}
330
C
100
AcDbDictionary
281
     1
  3
Layout1
350
1E
  3
Layout2
350
26
  3
Model
350
22
  0
DICTIONARY
  5
17
102
{ACAD_REACTORS
330
C
102
}
330
C
100
AcDbDictionary
281
     1
  3
Standard
350
18
  0
DICTIONARY
  5
19
102
{ACAD_REACTORS
330
C
102
}
330
C
100
AcDbDictionary
281
     1
  0
ACDBDICTIONARYWDFLT
  5
E
102
{ACAD_REACTORS
330
C
102
}
330
C
100
AcDbDictionary
281
     1
  3
Normal
350
F
100
AcDbDictionaryWithDefault
340
F
  0
DICTIONARY
  5
47
102
{ACAD_REACTORS
330
C
102
}
330
C
100
AcDbDictionary
281
     1
  3
A0
350
48
  3
A1
350
49
  3
A2
350
4A
  3
A3
350
4B
  3
A4
350
4C
  3
A5
350
4D
  3
A6
350
4E
  3
A7
350
4F
  3
A8
350
50
  3
A9
350
51
  3
B0
350
52
  3
B1
350
53
  3
B2
350
54
  3
B3
350
55
  3
B4
350
56
  3
B5
350
57
  3
B6
350
58
  3
B7
350
59
  3
B8
350
5A
  3
B9
350
5B
  3
C0
350
5C
  3
C1
350
5D
  3
C2
350
5E
  3
C3
350
5F
  3
C4
350
60
  3
C5
350
61
  3
C6
350
62
  3
C7
350
63
  3
C8
350
64
  3
C9
350
65
  3
D0
350
66
  3
D1
350
67
  3
D2
350
68
  0
LAYOUT
  5
1E
102
{ACAD_REACTORS
330
1A
102
}
330
1A
100
AcDbPlotSettings
  1

  2
none_device
  4

  6

 40
0.0
 41
0.0
 42
0.0
 43
0.0
 44
0.0
 45
0.0
 46
0.0
 47
0.0
 48
0.0
 49
0.0
140
0.0
141
0.0
142
1.0
143
1.0
 70
   688
 72
     1
 73
     0
 74
     5
  7

 75
    16
147
1.0
148
0.0
149
0.0
100
AcDbLayout
  1
Layout1
 70
     1
 71
     1
 10
0.0
 20
0.0
 11
420.0
 21
297.0
 12
0.0
 22
0.0
 32
0.0
 14
1.0000000000E+20
 24
1.0000000000E+20
 34
1.0000000000E+20
 15
-1.0000000000E+20
 25
-1.0000000000E+20
 35
-1.0000000000E+20
146
0.0
 13
0.0
 23
0.0
 33
0.0
 16
1.0
 26
0.0
 36
0.0
 17
0.0
 27
1.0
 37
0.0
 76
     0
330
1B
  0
LAYOUT
  5
26
102
{ACAD_REACTORS
330
1A
102
}
330
1A
100
AcDbPlotSettings
  1

  2
none_device
  4

  6

 40
0.0
 41
0.0
 42
0.0
 43
0.0
 44
0.0
 45
0.0
 46
0.0
 47
0.0
 48
0.0
 49
0.0
140
0.0
141
0.0
142
1.0
143
1.0
 70
   688
 72
     1
 73
     0
 74
     5
  7

 75
    16
147
1.0
148
0.0
149
0.0
100
AcDbLayout
  1
Layout2
 70
     1
 71
     2
 10
0.0
 20
0.0
 11
0.0
 21
0.0
 12
0.0
 22
0.0
 32
0.0
 14
0.0
 24
0.0
 34
0.0
 15
0.0
 25
0.0
 35
0.0
146
0.0
 13
0.0
 23
0.0
 33
0.0
 16
1.0
 26
0.0
 36
0.0
 17
0.0
 27
1.0
 37
0.0
 76
     0
330
23
  0
LAYOUT
  5
22
102
{ACAD_REACTORS
330
1A
102
}
330
1A
100
AcDbPlotSettings
  1

  2
none_device
  4
Letter_(8.50_x_11.00_Inches)
  6

 40
6.35
 41
6.35
 42
6.35000508
 43
6.35000508
 44
215.9
 45
279.4
 46
0.0
 47
0.0
 48
0.0
 49
0.0
140
0.0
141
0.0
142
1.0
143
1.0
 70
  1712
 72
     1
 73
     0
 74
     0
  7

 75
     0
147
1.0
148
0.0
149
0.0
100
AcDbLayout
  1
Model
 70
     1
 71
     0
 10
0.0
 20
0.0
 11
420.0
 21
297.0
 12
0.0
 22
0.0
 32
0.0
 14
0.0
 24
0.0
 34
0.0
 15
420.0
 25
297.0
 35
0.0
146
0.0
 13
0.0
 23
0.0
 33
0.0
 16
1.0
 26
0.0
 36
0.0
 17
0.0
 27
1.0
 37
0.0
 76
     0
330
1F
331
29
  0
MLINESTYLE
  5
18
102
{ACAD_REACTORS
330
17
102
}
330
17
100
AcDbMlineStyle
  2
Standard
 70
     0
  3

 62
   256
 51
90.0
 52
90.0
 71
     2
 49
0.5
 62
   256
  6
BYLAYER
 49
-0.5
 62
   256
  6
BYLAYER
  0
ACDBPLACEHOLDER
  5
F
102
{ACAD_REACTORS
330
E
102
}
330
E
  0
SCALE
  5
48
102
{ACAD_REACTORS
330
47
102
}
330
47
100
AcDbScale
 70
     0
300
1:1
140
1.0
141
1.0
290
     1
  0
SCALE
  5
49
102
{ACAD_REACTORS
330
47
102
}
330
47
100
AcDbScale
 70
     0
300
1:2
140
1.0
141
2.0
290
     0
  0
SCALE
  5
4A
102
{ACAD_REACTORS
330
47
102
}
330
47
100
AcDbScale
 70
     0
300
1:4
140
1.0
141
4.0
290
     0
  0
SCALE
  5
4B
102
{ACAD_REACTORS
330
47
102
}
330
47
100
AcDbScale
 70
     0
300
1:5
140
1.0
141
5.0
290
     0
  0
SCALE
  5
4C
102
{ACAD_REACTORS
330
47
102
}
330
47
100
AcDbScale
 70
     0
300
1:8
140
1.0
141
8.0
290
     0
  0
SCALE
  5
4D
102
{ACAD_REACTORS
330
47
102
}
330
47
100
AcDbScale
 70
     0
300
1:10
140
1.0
141
10.0
290
     0
  0
SCALE
  5
4E
102
{ACAD_REACTORS
330
47
102
}
330
47
100
AcDbScale
 70
     0
300
1:16
140
1.0
141
16.0
290
     0
  0
SCALE
  5
4F
102
{ACAD_REACTORS
330
47
102
}
330
47
100
AcDbScale
 70
     0
300
1:20
140
1.0
141
20.0
290
     0
  0
SCALE
  5
50
102
{ACAD_REACTORS
330
47
102
}
330
47
100
AcDbScale
 70
     0
300
1:30
140
1.0
141
30.0
290
     0
  0
SCALE
  5
51
102
{ACAD_REACTORS
330
47
102
}
330
47
100
AcDbScale
 70
     0
300
1:40
140
1.0
141
40.0
290
     0
  0
SCALE
  5
52
102
{ACAD_REACTORS
330
47
102
}
330
47
100
AcDbScale
 70
     0
300
1:50
140
1.0
141
50.0
290
     0
  0
SCALE
  5
53
102
{ACAD_REACTORS
330
47
102
}
330
47
100
AcDbScale
 70
     0
300
1:100
140
1.0
141
100.0
290
     0
  0
SCALE
  5
54
102
{ACAD_REACTORS
330
47
102
}
330
47
100
AcDbScale
 70
     0
300
2:1
140
2.0
141
1.0
290
     0
  0
SCALE
  5
55
102
{ACAD_REACTORS
330
47
102
}
330
47
100
AcDbScale
 70
     0
300
4:1
140
4.0
141
1.0
290
     0
  0
SCALE
  5
56
102
{ACAD_REACTORS
330
47
102
}
330
47
100
AcDbScale
 70
     0
300
8:1
140
8.0
141
1.0
290
     0
  0
SCALE
  5
57
102
{ACAD_REACTORS
330
47
102
}
330
47
100
AcDbScale
 70
     0
300
10:1
140
10.0
141
1.0
290
     0
  0
SCALE
  5
58
102
{ACAD_REACTORS
330
47
102
}
330
47
100
AcDbScale
 70
     0
300
100:1
140
100.0
141
1.0
290
     0
  0
SCALE
  5
59
102
{ACAD_REACTORS
330
47
102
}
330
47
100
AcDbScale
 70
     0
300
1/128" = 1'-0"
140
0.0078125
141
12.0
290
     0
  0
SCALE
  5
5A
102
{ACAD_REACTORS
330
47
102
}
330
47
100
AcDbScale
 70
     0
300
1/64" = 1'-0"
140
0.015625
141
12.0
290
     0
  0
SCALE
  5
5B
102
{ACAD_REACTORS
330
47
102
}
330
47
100
AcDbScale
 70
     0
300
1/32" = 1'-0"
140
0.03125
141
12.0
290
     0
  0
SCALE
  5
5C
102
{ACAD_REACTORS
330
47
102
}
330
47
100
AcDbScale
 70
     0
300
1/16" = 1'-0"
140
0.0625
141
12.0
290
     0
  0
SCALE
  5
5D
102
{ACAD_REACTORS
330
47
102
}
330
47
100
AcDbScale
 70
     0
300
3/32" = 1'-0"
140
0.09375
141
12.0
290
     0
  0
SCALE
  5
5E
102
{ACAD_REACTORS
330
47
102
}
330
47
100
AcDbScale
 70
     0
300
1/8" = 1'-0"
140
0.125
141
12.0
290
     0
  0
SCALE
  5
5F
102
{ACAD_REACTORS
330
47
102
}
330
47
100
AcDbScale
 70
     0
300
3/16" = 1'-0"
140
0.1875
141
12.0
290
     0
  0
SCALE
  5
60
102
{ACAD_REACTORS
330
47
102
}
330
47
100
AcDbScale
 70
     0
300
1/4" = 1'-0"
140
0.25
141
12.0
290
     0
  0
SCALE
  5
61
102
{ACAD_REACTORS
330
47
102
}
330
47
100
AcDbScale
 70
     0
300
3/8" = 1'-0"
140
0.375
141
12.0
290
     0
  0
SCALE
  5
62
102
{ACAD_REACTORS
330
47
102
}
330
47
100
AcDbScale
 70
     0
300
1/2" = 1'-0"
140
0.5
141
12.0
290
     0
  0
SCALE
  5
63
102
{ACAD_REACTORS
330
47
102
}
330
47
100
AcDbScale
 70
     0
300
3/4" = 1'-0"
140
0.75
141
12.0
290
     0
  0
SCALE
  5
64
102
{ACAD_REACTORS
330
47
102
}
330
47
100
AcDbScale
 70
     0
300
1" = 1'-0"
140
1.0
141
12.0
290
     0
  0
SCALE
  5
65
102
{ACAD_REACTORS
330
47
102
}
330
47
100
AcDbScale
 70
     0
300
1-1/2" = 1'-0"
140
1.5
141
12.0
290
     0
  0
SCALE
  5
66
102
{ACAD_REACTORS
330
47
102
}
330
47
100
AcDbScale
 70
     0
300
3" = 1'-0"
140
3.0
141
12.0
290
     0
  0
SCALE
  5
67
102
{ACAD_REACTORS
330
47
102
}
330
47
100
AcDbScale
 70
     0
300
6" = 1'-0"
140
6.0
141
12.0
290
     0
  0
SCALE
  5
68
102
{ACAD_REACTORS
330
47
102
}
330
47
100
AcDbScale
 70
     0
300
1'-0" = 1'-0"
140
12.0
141
12.0
290
     0
  0
ENDSEC
  0
EOF
