  0
SECTION
  2
HEADER
  9
$ACADVER
  1
AC1015
  9
$ACADMAINTVER
 70
     6
  9
$DWGCODEPAGE
  3
ANSI_1252
  9
$INSBASE
 10
0.0
 20
0.0
 30
0.0
  9
$EXTMIN
 10
0.0
 20
0.0
 30
0.0
  9
$EXTMAX
 10
420.0
 20
297.0
 30
0.0
  9
$LIMMIN
 10
0.0
 20
0.0
  9
$LIMMAX
 10
420.0
 20
297.0
  9
$ORTHOMODE
 70
     0
  9
$REGENMODE
 70
     1
  9
$FILLMODE
 70
     1
  9
$QTEXTMODE
 70
     0
  9
$MIRRTEXT
 70
     1
  9
$LTSCALE
 40
1.0
  9
$ATTMODE
 70
     1
  9
$TEXTSIZE
 40
3.5
  9
$TRACEWID
 40
1.0
  9
$TEXTSTYLE
  7
Standard
  9
$CLAYER
  8
0
  9
$CELTYPE
  6
ByLayer
  9
$CECOLOR
 62
   256
  9
$CELTSCALE
 40
1.0
  9
$DISPSILH
 70
     0
  9
$DIMSCALE
 40
1.0
  9
$DIMASZ
 40
6.0
  9
$DIMEXO
 40
1.0
  9
$DIMDLI
 40
3.75
  9
$DIMRND
 40
0.0
  9
$DIMDLE
 40
0.0
  9
$DIMEXE
 40
1.0
  9
$DIMTP
 40
0.0
  9
$DIMTM
 40
0.0
  9
$DIMTXT
 40
3.5
  9
$DIMCEN
 40
2.5
  9
$DIMTSZ
 40
0.0
  9
$DIMTOL
 70
     0
  9
$DIMLIM
 70
     0
  9
$DIMTIH
 70
     1
  9
$DIMTOH
 70
     1
  9
$DIMSE1
 70
     0
  9
$DIMSE2
 70
     0
  9
$DIMTAD
 70
     1
  9
$DIMZIN
 70
     0
  9
$DIMBLK
  1

  9
$DIMASO
 70
     1
  9
$DIMSHO
 70
     1
  9
$DIMPOST
  1

  9
$DIMAPOST
  1

  9
$DIMALT
 70
     0
  9
$DIMALTD
 70
     3
  9
$DIMALTF
 40
0.0393700787
  9
$DIMLFAC
 40
2.0
  9
$DIMTOFL
 70
     1
  9
$DIMTVP
 40
0.0
  9
$DIMTIX
 70
     0
  9
$DIMSOXD
 70
     0
  9
$DIMSAH
 70
     0
  9
$DIMBLK1
  1

  9
$DIMBLK2
  1

  9
$DIMSTYLE
  2
ISO-25
  9
$DIMCLRD
 70
     0
  9
$DIMCLRE
 70
     0
  9
$DIMCLRT
 70
     0
  9
$DIMTFAC
 40
1.0
  9
$DIMGAP
 40
1.524
  9
$DIMJUST
 70
     0
  9
$DIMSD1
 70
     0
  9
$DIMSD2
 70
     0
  9
$DIMTOLJ
 70
     0
  9
$DIMTZIN
 70
     0
  9
$DIMALTZ
 70
     0
  9
$DIMALTTZ
 70
     0
  9
$DIMUPT
 70
     0
  9
$DIMDEC
 70
     2
  9
$DIMTDEC
 70
     2
  9
$DIMALTU
 70
     2
  9
$DIMALTTD
 70
     3
  9
$DIMTXSTY
  7
Standard
  9
$DIMAUNIT
 70
     0
  9
$DIMADEC
 70
     2
  9
$DIMALTRND
 40
0.0
  9
$DIMAZIN
 70
     0
  9
$DIMDSEP
 70
    44
  9
$DIMATFIT
 70
     3
  9
$DIMFRAC
 70
     0
  9
$DIMLDRBLK
  1

  9
$DIMLUNIT
 70
     2
  9
$DIMLWD
 70
    -2
  9
$DIMLWE
 70
    -2
  9
$DIMTMOVE
 70
     0
  9
$LUNITS
 70
     2
  9
$LUPREC
 70
     2
  9
$SKETCHINC
 40
1.0
  9
$FILLETRAD
 40
10.0
  9
$AUNITS
 70
     0
  9
$AUPREC
 70
     2
  9
$MENU
  1
.
  9
$ELEVATION
 40
0.0
  9
$PELEVATION
 40
0.0
  9
$THICKNESS
 40
0.0
  9
$LIMCHECK
 70
     0
  9
$CHAMFERA
 40
0.0
  9
$CHAMFERB
 40
0.0
  9
$CHAMFERC
 40
0.0
  9
$CHAMFERD
 40
0.0
  9
$SKPOLY
 70
     0
  9
$TDCREATE
 40
2456937.550963495
  9
$TDUCREATE
 40
2456937.425963495
  9
$TDUPDATE
 40
2456937.550964456
  9
$TDUUPDATE
 40
2456937.425964456
  9
$TDINDWG
 40
0.0000000116
  9
$TDUSRTIMER
 40
0.0000000116
  9
$USRTIMER
 70
     1
  9
$ANGBASE
 50
0.0
  9
$ANGDIR
 70
     0
  9
$PDMODE
 70
     0
  9
$PDSIZE
 40
-1.0
  9
$PLINEWID
 40
0.0
  9
$SPLFRAME
 70
     0
  9
$SPLINETYPE
 70
     6
  9
$SPLINESEGS
 70
     8
  9
$HANDSEED
  5
1EB
  9
$SURFTAB1
 70
     6
  9
$SURFTAB2
 70
     6
  9
$SURFTYPE
 70
     6
  9
$SURFU
 70
     6
  9
$SURFV
 70
     6
  9
$UCSBASE
  2

  9
$UCSNAME
  2

  9
$UCSORG
 10
0.0
 20
0.0
 30
0.0
  9
$UCSXDIR
 10
1.0
 20
0.0
 30
0.0
  9
$UCSYDIR
 10
0.0
 20
1.0
 30
0.0
  9
$UCSORTHOREF
  2

  9
$UCSORTHOVIEW
 70
     0
  9
$UCSORGTOP
 10
0.0
 20
0.0
 30
0.0
  9
$UCSORGBOTTOM
 10
0.0
 20
0.0
 30
0.0
  9
$UCSORGLEFT
 10
0.0
 20
0.0
 30
0.0
  9
$UCSORGRIGHT
 10
0.0
 20
0.0
 30
0.0
  9
$UCSORGFRONT
 10
0.0
 20
0.0
 30
0.0
  9
$UCSORGBACK
 10
0.0
 20
0.0
 30
0.0
  9
$PUCSBASE
  2

  9
$PUCSNAME
  2

  9
$PUCSORG
 10
0.0
 20
0.0
 30
0.0
  9
$PUCSXDIR
 10
1.0
 20
0.0
 30
0.0
  9
$PUCSYDIR
 10
0.0
 20
1.0
 30
0.0
  9
$PUCSORTHOREF
  2

  9
$PUCSORTHOVIEW
 70
     0
  9
$PUCSORGTOP
 10
0.0
 20
0.0
 30
0.0
  9
$PUCSORGBOTTOM
 10
0.0
 20
0.0
 30
0.0
  9
$PUCSORGLEFT
 10
0.0
 20
0.0
 30
0.0
  9
$PUCSORGRIGHT
 10
0.0
 20
0.0
 30
0.0
  9
$PUCSORGFRONT
 10
0.0
 20
0.0
 30
0.0
  9
$PUCSORGBACK
 10
0.0
 20
0.0
 30
0.0
  9
$USERI1
 70
     0
  9
$USERI2
 70
     0
  9
$USERI3
 70
     0
  9
$USERI4
 70
     0
  9
$USERI5
 70
     0
  9
$USERR1
 40
0.0
  9
$USERR2
 40
0.0
  9
$USERR3
 40
0.0
  9
$USERR4
 40
0.0
  9
$USERR5
 40
0.0
  9
$WORLDVIEW
 70
     1
  9
$SHADEDGE
 70
     3
  9
$SHADEDIF
 70
    70
  9
$TILEMODE
 70
     1
  9
$MAXACTVP
 70
    64
  9
$PINSBASE
 10
0.0
 20
0.0
 30
0.0
  9
$PLIMCHECK
 70
     0
  9
$PEXTMIN
 10
1.0000000000E+20
 20
1.0000000000E+20
 30
1.0000000000E+20
  9
$PEXTMAX
 10
-1.0000000000E+20
 20
-1.0000000000E+20
 30
-1.0000000000E+20
  9
$PLIMMIN
 10
0.0
 20
0.0
  9
$PLIMMAX
 10
420.0
 20
297.0
  9
$UNITMODE
 70
     0
  9
$VISRETAIN
 70
     1
  9
$PLINEGEN
 70
     0
  9
$PSLTSCALE
 70
     1
  9
$TREEDEPTH
 70
  3020
  9
$CMLSTYLE
  2
Standard
  9
$CMLJUST
 70
     0
  9
$CMLSCALE
 40
20.0
  9
$PROXYGRAPHICS
 70
     1
  9
$MEASUREMENT
 70
     1
  9
$CELWEIGHT
370
    -1
  9
$ENDCAPS
280
     0
  9
$JOINSTYLE
280
     0
  9
$LWDISPLAY
290
     1
  9
$INSUNITS
 70
     4
  9
$HYPERLINKBASE
  1

  9
$STYLESHEET
  1

  9
$XEDIT
290
     1
  9
$CEPSNTYPE
380
     0
  9
$PSTYLEMODE
290
     1
  9
$FINGERPRINTGUID
  2
{E3969400-4B18-42CC-A7AC-96C937028B0B}
  9
$VERSIONGUID
  2
{FAEB1C32-E019-11D5-929B-00C0DF256EC4}
  9
$EXTNAMES
290
     1
  9
$PSVPSCALE
 40
0.0
  9
$OLESTARTUP
290
     0
  0
ENDSEC
  0
SECTION
  2
CLASSES
  0
CLASS
  1
ACDBDICTIONARYWDFLT
  2
AcDbDictionaryWithDefault
  3
ObjectDBX Classes
 90
        0
280
     0
281
     0
  0
CLASS
  1
VISUALSTYLE
  2
AcDbVisualStyle
  3
ObjectDBX Classes
 90
     4095
280
     0
281
     0
  0
CLASS
  1
MATERIAL
  2
AcDbMaterial
  3
ObjectDBX Classes
 90
     1153
280
     0
281
     0
  0
CLASS
  1
SCALE
  2
AcDbScale
  3
ObjectDBX Classes
 90
     1153
280
     0
281
     0
  0
CLASS
  1
SUN
  2
AcDbSun
  3
SCENEOE
 90
     1153
280
     0
281
     0
  0
CLASS
  1
ACDBPLACEHOLDER
  2
AcDbPlaceHolder
  3
ObjectDBX Classes
 90
        0
280
     0
281
     0
  0
CLASS
  1
LAYOUT
  2
AcDbLayout
  3
ObjectDBX Classes
 90
        0
280
     0
281
     0
  0
ENDSEC
  0
SECTION
  2
TABLES
  0
TABLE
  2
VPORT
  5
8
330
0
100
AcDbSymbolTable
 70
     1
  0
VPORT
  5
29
330
8
100
AcDbSymbolTableRecord
100
AcDbViewportTableRecord
  2
*Active
 70
     0
 10
0.0
 20
0.0
 11
1.0
 21
1.0
 12
210.0
 22
148.5
 13
0.0
 23
0.0
 14
10.0
 24
10.0
 15
10.0
 25
10.0
 16
0.0
 26
0.0
 36
1.0
 17
0.0
 27
0.0
 37
0.0
 40
297.0
 41
1.4141414141
 42
50.0
 43
0.0
 44
0.0
 50
0.0
 51
0.0
 71
     0
 72
  2000
 73
     1
 74
     3
 75
     0
 76
     0
 77
     0
 78
     0
281
     0
 65
     1
110
0.0
120
0.0
130
0.0
111
1.0
121
0.0
131
0.0
112
0.0
122
1.0
132
0.0
 79
     0
146
0.0
  0
ENDTAB
  0
TABLE
  2
LTYPE
  5
5
330
0
100
AcDbSymbolTable
 70
     6
  0
LTYPE
  5
14
330
5
100
AcDbSymbolTableRecord
100
AcDbLinetypeTableRecord
  2
ByBlock
 70
     0
  3

 72
    65
 73
     0
 40
0.0
  0
LTYPE
  5
15
330
5
100
AcDbSymbolTableRecord
100
AcDbLinetypeTableRecord
  2
ByLayer
 70
     0
  3

 72
    65
 73
     0
 40
0.0
  0
LTYPE
  5
16
330
5
100
AcDbSymbolTableRecord
100
AcDbLinetypeTableRecord
  2
Continuous
 70
     0
  3
Solid line
 72
    65
 73
     0
 40
0.0
  0
LTYPE
  5
6A
330
5
100
AcDbSymbolTableRecord
100
AcDbLinetypeTableRecord
  2
HIDDEN
 70
     0
  3
Hidden __ __ __ __ __ __ __ __ __ __ __ __ __ __
 72
    65
 73
     2
 40
1.905
 49
1.27
 74
     0
 49
-0.635
 74
     0
  0
LTYPE
  5
6B
330
5
100
AcDbSymbolTableRecord
100
AcDbLinetypeTableRecord
  2
PHANTOM
 70
     0
  3
Phantom ______  __  __  ______  __  __  ______
 72
    65
 73
     6
 40
12.7
 49
6.35
 74
     0
 49
-1.27
 74
     0
 49
1.27
 74
     0
 49
-1.27
 74
     0
 49
1.27
 74
     0
 49
-1.27
 74
     0
  0
LTYPE
  5
6C
330
5
100
AcDbSymbolTableRecord
100
AcDbLinetypeTableRecord
  2
CENTER
 70
     0
  3
Center ____ _ ____ _ ____ _ ____ _ ____ _ ____
 72
    65
 73
     4
 40
10.16
 49
6.35
 74
     0
 49
-1.27
 74
     0
 49
1.27
 74
     0
 49
-1.27
 74
     0
  0
LTYPE
  5
6D
330
5
100
AcDbSymbolTableRecord
100
AcDbLinetypeTableRecord
  2
CENTERX2
 70
     0
  3
Center (2x) ________  __  ________  __  _____
 72
    65
 73
     4
 40
20.32
 49
12.7
 74
     0
 49
-2.54
 74
     0
 49
2.54
 74
     0
 49
-2.54
 74
     0
  0
LTYPE
  5
6E
330
5
100
AcDbSymbolTableRecord
100
AcDbLinetypeTableRecord
  2
DOT2
 70
     0
  3
Dot (.5x) ........................................
 72
    65
 73
     2
 40
0.635
 49
0.0
 74
     0
 49
-0.635
 74
     0
  0
ENDTAB
  0
TABLE
  2
LAYER
  5
2
330
0
100
AcDbSymbolTable
 70
     1
  0
LAYER
  5
10
330
2
100
AcDbSymbolTableRecord
100
AcDbLayerTableRecord
  2
0
 70
     0
 62
     7
  6
Continuous
370
    -3
390
F
  0
ENDTAB
  0
TABLE
  2
STYLE
  5
3
330
0
100
AcDbSymbolTable
 70
     1
  0
STYLE
  5
11
330
3
100
AcDbSymbolTableRecord
100
AcDbTextStyleTableRecord
  2
Standard
 70
     0
 40
0.0
 41
1.0
 50
0.0
 71
     0
 42
3.5
  3
txt
  4

  0
ENDTAB
  0
TABLE
  2
VIEW
  5
6
330
0
100
AcDbSymbolTable
 70
     0
  0
ENDTAB
  0
TABLE
  2
UCS
  5
7
330
0
100
AcDbSymbolTable
 70
     0
  0
ENDTAB
  0
TABLE
  2
APPID
  5
9
330
0
100
AcDbSymbolTable
 70
     1
  0
APPID
  5
12
330
9
100
AcDbSymbolTableRecord
100
AcDbRegAppTableRecord
  2
ACAD
 70
     0
  0
ENDTAB
  0
TABLE
  2
DIMSTYLE
  5
A
330
0
100
AcDbSymbolTable
 70
     1
100
AcDbDimStyleTable
  0
DIMSTYLE
105
27
330
A
100
AcDbSymbolTableRecord
100
AcDbDimStyleTableRecord
  2
ISO-25
 70
     0
 41
2.5
 42
0.625
 43
3.75
 44
1.25
 73
     0
 74
     0
 77
     1
 78
     8
140
2.5
141
2.5
143
0.0393700787
147
0.625
171
     3
172
     1
178
     0
271
     2
272
     2
274
     3
278
    44
283
     0
284
     8
340
11
  0
ENDTAB
  0
TABLE
  2
BLOCK_RECORD
  5
1
330
0
100
AcDbSymbolTable
 70
     1
  0
BLOCK_RECORD
  5
1F
330
1
100
AcDbSymbolTableRecord
100
AcDbBlockTableRecord
  2
*Model_Space
340
22
  0
BLOCK_RECORD
  5
1B
330
1
100
AcDbSymbolTableRecord
100
AcDbBlockTableRecord
  2
*Paper_Space
340
1E
  0
BLOCK_RECORD
  5
23
330
1
100
AcDbSymbolTableRecord
100
AcDbBlockTableRecord
  2
*Paper_Space0
340
26
  0
ENDTAB
  0
ENDSEC
  0
SECTION
  2
BLOCKS
  0
BLOCK
  5
20
330
1F
100
AcDbEntity
  8
0
100
AcDbBlockBegin
  2
*Model_Space
 70
     0
 10
0.0
 20
0.0
 30
0.0
  3
*Model_Space
  1
*Model_Space
  0
ENDBLK
  5
21
330
1F
100
AcDbEntity
  8
0
100
AcDbBlockEnd
  0
BLOCK
  5
1C
330
1B
100
AcDbEntity
 67
     1
  8
0
100
AcDbBlockBegin
  2
*Paper_Space
 70
     0
 10
0.0
 20
0.0
 30
0.0
  3
*Paper_Space
  1
*Paper_Space
  0
ENDBLK
  5
1D
330
1B
100
AcDbEntity
 67
     1
  8
0
100
AcDbBlockEnd
  0
BLOCK
  5
24
330
23
100
AcDbEntity
  8
0
100
AcDbBlockBegin
  2
*Paper_Space0
 70
     0
 10
0.0
 20
0.0
 30
0.0
  3
*Paper_Space0
  1
*Paper_Space0
  0
ENDBLK
  5
25
330
23
100
AcDbEntity
  8
0
100
AcDbBlockEnd
  0
ENDSEC
  0
SECTION
  2
ENTITIES
  0
LINE
  5
6F
330
1F
100
AcDbEntity
  8
0
  6
Continuous
 62
     7
370
    15
100
AcDbLine
 10
156.1478762574
 20
104.5653001876
 30
0.0
 11
156.1478762574
 21
112.1903001876
 31
0.0
  0
LINE
  5
70
330
1F
100
AcDbEntity
  8
0
  6
Continuous
 62
     7
370
    15
100
AcDbLine
 10
156.1478762574
 20
112.1903001876
 30
0.0
 11
156.6585997563
 21
112.1903001876
 31
0.0
  0
LINE
  5
71
330
1F
100
AcDbEntity
  8
0
  6
Continuous
 62
     7
370
    15
100
AcDbLine
 10
156.6585997563
 20
112.1903001876
 30
0.0
 11
156.6585997563
 21
104.5653001876
 31
0.0
  0
LINE
  5
72
330
1F
100
AcDbEntity
  8
0
  6
Continuous
 62
     7
370
    15
100
AcDbLine
 10
156.1478762574
 20
104.5653001876
 30
0.0
 11
156.6585997563
 21
104.5653001876
 31
0.0
  0
ARC
  5
73
330
1F
100
AcDbEntity
  8
0
  6
Continuous
 62
     7
370
    15
100
AcDbCircle
 10
91.6393996248
 20
167.1903001876
 30
0.0
 40
4.980799868461506
100
AcDbArc
 50
268.9582011495
 51
0.0
  0
LINE
  5
74
330
1F
100
AcDbEntity
  8
0
  6
Continuous
 62
     7
370
    15
100
AcDbLine
 10
97.1309229922
 20
167.1903001876
 30
0.0
 11
96.6201994932
 21
167.1903001876
 31
0.0
  0
LINE
  5
75
330
1F
100
AcDbEntity
  8
0
  6
Continuous
 62
     7
370
    15
100
AcDbLine
 10
91.5488396272
 20
162.2103236599
 30
0.0
 11
91.5395537454
 21
161.6996845851
 31
0.0
  0
LINE
  5
76
330
1F
100
AcDbEntity
  8
0
  6
Continuous
 62
     7
370
    15
100
AcDbLine
 10
97.1309229922
 20
174.8153001876
 30
0.0
 11
97.1309229922
 21
167.1903001876
 31
0.0
  0
LINE
  5
77
330
1F
100
AcDbEntity
  8
0
  6
Continuous
 62
     7
370
    15
100
AcDbLine
 10
96.6201994932
 20
167.1903001876
 30
0.0
 11
96.6201994932
 21
174.8153001876
 31
0.0
  0
LINE
  5
78
330
1F
100
AcDbEntity
  8
0
  6
Continuous
 62
     7
370
    15
100
AcDbLine
 10
97.1309229922
 20
174.8153001876
 30
0.0
 11
96.6201994932
 21
174.8153001876
 31
0.0
  0
ARC
  5
79
330
1F
100
AcDbEntity
  8
0
  6
Continuous
 62
     7
370
    15
100
AcDbCircle
 10
161.6393996248
 20
112.1903001876
 30
0.0
 40
4.980799868461406
100
AcDbArc
 50
88.9582011495
 51
180.0
  0
LINE
  5
7A
330
1F
100
AcDbEntity
  8
0
  6
Continuous
 62
     7
370
    15
100
AcDbLine
 10
161.7299596224
 20
117.1702767153
 30
0.0
 11
161.7392455042
 21
117.6809157902
 31
0.0
  0
LINE
  5
7B
330
1F
100
AcDbEntity
  8
0
  6
Continuous
 62
     7
370
    15
100
AcDbLine
 10
96.6201994932
 20
104.5653001876
 30
0.0
 11
96.6201994932
 21
112.1903001876
 31
0.0
  0
LINE
  5
7C
330
1F
100
AcDbEntity
  8
0
  6
Continuous
 62
     7
370
    15
100
AcDbLine
 10
96.6201994932
 20
112.1903001876
 30
0.0
 11
97.1309229922
 21
112.1903001876
 31
0.0
  0
LINE
  5
7D
330
1F
100
AcDbEntity
  8
0
  6
Continuous
 62
     7
370
    15
100
AcDbLine
 10
97.1309229922
 20
112.1903001876
 30
0.0
 11
97.1309229922
 21
104.5653001876
 31
0.0
  0
LINE
  5
7E
330
1F
100
AcDbEntity
  8
0
  6
Continuous
 62
     7
370
    15
100
AcDbLine
 10
97.1309229922
 20
104.5653001876
 30
0.0
 11
96.6201994932
 21
104.5653001876
 31
0.0
  0
ARC
  5
7F
330
1F
100
AcDbEntity
  8
0
  6
Continuous
 62
     7
370
    15
100
AcDbCircle
 10
91.6393996248
 20
112.1903001876
 30
0.0
 40
4.980799868461465
100
AcDbArc
 50
0.0
 51
91.0417988504
  0
LINE
  5
80
330
1F
100
AcDbEntity
  8
0
  6
Continuous
 62
     7
370
    15
100
AcDbLine
 10
91.5395537454
 20
117.6809157902
 30
0.0
 11
91.5488396272
 21
117.1702767153
 31
0.0
  0
LINE
  5
81
330
1F
100
AcDbEntity
  8
0
  6
Continuous
 62
     7
370
    15
100
AcDbLine
 10
156.6585997563
 20
174.8153001876
 30
0.0
 11
156.6585997563
 21
167.1903001876
 31
0.0
  0
LINE
  5
82
330
1F
100
AcDbEntity
  8
0
  6
Continuous
 62
     7
370
    15
100
AcDbLine
 10
156.6585997563
 20
167.1903001876
 30
0.0
 11
156.1478762574
 21
167.1903001876
 31
0.0
  0
LINE
  5
83
330
1F
100
AcDbEntity
  8
0
  6
Continuous
 62
     7
370
    15
100
AcDbLine
 10
156.1478762574
 20
167.1903001876
 30
0.0
 11
156.1478762574
 21
174.8153001876
 31
0.0
  0
LINE
  5
84
330
1F
100
AcDbEntity
  8
0
  6
Continuous
 62
     7
370
    15
100
AcDbLine
 10
156.1478762574
 20
174.8153001876
 30
0.0
 11
156.6585997563
 21
174.8153001876
 31
0.0
  0
ARC
  5
85
330
1F
100
AcDbEntity
  8
0
  6
Continuous
 62
     7
370
    15
100
AcDbCircle
 10
161.6393996248
 20
167.1903001876
 30
0.0
 40
4.980799868461493
100
AcDbArc
 50
180.0
 51
271.0417988504
  0
LINE
  5
86
330
1F
100
AcDbEntity
  8
0
  6
Continuous
 62
     7
370
    15
100
AcDbLine
 10
161.7392455042
 20
161.6996845851
 30
0.0
 11
161.7299596224
 21
162.2103236599
 31
0.0
  0
LINE
  5
87
330
1F
100
AcDbEntity
  8
0
  6
Continuous
 62
     7
370
    15
100
AcDbLine
 10
90.1309229922
 20
160.3164366452
 30
0.0
 11
89.6201994932
 21
160.3164366452
 31
0.0
  0
ARC
  5
88
330
1F
100
AcDbEntity
  8
0
  6
Continuous
 62
     7
370
    15
100
AcDbCircle
 10
91.5143996248
 20
160.3164366452
 30
0.0
 40
1.894200131539738
100
AcDbArc
 50
88.9582011496
 51
180.0
  0
LINE
  5
89
330
1F
100
AcDbEntity
  8
0
  6
Continuous
 62
     7
370
    15
100
AcDbLine
 10
163.1478762574
 20
119.0641637301
 30
0.0
 11
163.6585997563
 21
119.0641637301
 31
0.0
  0
ARC
  5
8A
330
1F
100
AcDbEntity
  8
0
  6
Continuous
 62
     7
370
    15
100
AcDbCircle
 10
161.7643996248
 20
119.0641637301
 30
0.0
 40
1.894200131539823
100
AcDbArc
 50
268.9582011496
 51
0.0
  0
LINE
  5
8B
330
1F
100
AcDbEntity
  8
0
  6
Continuous
 62
     7
370
    15
100
AcDbLine
 10
163.1478762574
 20
160.3164366452
 30
0.0
 11
163.6585997563
 21
160.3164366452
 31
0.0
  0
ARC
  5
8C
330
1F
100
AcDbEntity
  8
0
  6
Continuous
 62
     7
370
    15
100
AcDbCircle
 10
161.7643996248
 20
160.3164366452
 30
0.0
 40
1.894200131539751
100
AcDbArc
 50
0.0
 51
91.0417988505
  0
LINE
  5
8D
330
1F
100
AcDbEntity
  8
0
  6
Continuous
 62
     7
370
    15
100
AcDbLine
 10
90.1309229922
 20
119.0641637301
 30
0.0
 11
89.6201994932
 21
119.0641637301
 31
0.0
  0
ARC
  5
8E
330
1F
100
AcDbEntity
  8
0
  6
Continuous
 62
     7
370
    15
100
AcDbCircle
 10
91.5143996248
 20
119.0641637301
 30
0.0
 40
1.894200131539765
100
AcDbArc
 50
180.0
 51
271.0417988505
  0
LINE
  5
8F
330
1F
100
AcDbEntity
  8
0
  6
Continuous
 62
     7
370
    15
100
AcDbLine
 10
163.6585997563
 20
160.3164366452
 30
0.0
 11
163.6585997563
 21
119.0641637301
 31
0.0
  0
LINE
  5
90
330
1F
100
AcDbEntity
  8
0
  6
Continuous
 62
     7
370
    15
100
AcDbLine
 10
89.6201994932
 20
119.0641637301
 30
0.0
 11
89.6201994932
 21
160.3164366452
 31
0.0
  0
LINE
  5
91
330
1F
100
AcDbEntity
  8
0
  6
Continuous
 62
     7
370
    15
100
AcDbLine
 10
157.8893996248
 20
174.8153001876
 30
0.0
 11
157.8893996248
 21
167.1903001876
 31
0.0
  0
ARC
  5
92
330
1F
100
AcDbEntity
  8
0
  6
Continuous
 62
     7
370
    15
100
AcDbCircle
 10
161.6393996248
 20
167.1903001876
 30
0.0
 40
3.750000000000618
100
AcDbArc
 50
180.0
 51
271.0417988504
  0
ARC
  5
93
330
1F
100
AcDbEntity
  8
0
  6
Continuous
 62
     7
370
    15
100
AcDbCircle
 10
161.7643996248
 20
160.3164366452
 30
0.0
 40
3.125000000000626
100
AcDbArc
 50
0.0
 51
91.0417988505
  0
LINE
  5
94
330
1F
100
AcDbEntity
  8
0
  6
Continuous
 62
     7
370
    15
100
AcDbLine
 10
164.8893996248
 20
160.3164366452
 30
0.0
 11
164.8893996248
 21
119.0641637301
 31
0.0
  0
ARC
  5
95
330
1F
100
AcDbEntity
  8
0
  6
Continuous
 62
     7
370
    15
100
AcDbCircle
 10
161.7643996248
 20
119.0641637301
 30
0.0
 40
3.125000000000612
100
AcDbArc
 50
268.9582011495
 51
0.0
  0
ARC
  5
96
330
1F
100
AcDbEntity
  8
0
  6
Continuous
 62
     7
370
    15
100
AcDbCircle
 10
161.6393996248
 20
112.1903001876
 30
0.0
 40
3.750000000000618
100
AcDbArc
 50
88.9582011496
 51
180.0
  0
LINE
  5
97
330
1F
100
AcDbEntity
  8
0
  6
Continuous
 62
     7
370
    15
100
AcDbLine
 10
157.8893996248
 20
112.1903001876
 30
0.0
 11
157.8893996248
 21
104.5653001876
 31
0.0
  0
ARC
  5
98
330
1F
100
AcDbEntity
  8
0
  6
Continuous
 62
     7
370
    15
100
AcDbCircle
 10
154.7643996248
 20
104.5653001876
 30
0.0
 40
3.125
100
AcDbArc
 50
270.0
 51
0.0
  0
LINE
  5
99
330
1F
100
AcDbEntity
  8
0
  6
Continuous
 62
     7
370
    15
100
AcDbLine
 10
154.7643996248
 20
101.4403001876
 30
0.0
 11
98.5143996248
 21
101.4403001876
 31
0.0
  0
LINE
  5
9A
330
1F
100
AcDbEntity
  8
0
  6
Continuous
 62
     7
370
    15
100
AcDbLine
 10
95.3893996248
 20
104.5653001876
 30
0.0
 11
95.3893996248
 21
112.1903001876
 31
0.0
  0
ARC
  5
9B
330
1F
100
AcDbEntity
  8
0
  6
Continuous
 62
     7
370
    15
100
AcDbCircle
 10
91.5143996248
 20
119.0641637301
 30
0.0
 40
3.125000000000612
100
AcDbArc
 50
180.0
 51
271.0417988505
  0
LINE
  5
9C
330
1F
100
AcDbEntity
  8
0
  6
Continuous
 62
     7
370
    15
100
AcDbLine
 10
88.3893996248
 20
119.0641637301
 30
0.0
 11
88.3893996248
 21
160.3164366452
 31
0.0
  0
ARC
  5
9D
330
1F
100
AcDbEntity
  8
0
  6
Continuous
 62
     7
370
    15
100
AcDbCircle
 10
91.5143996248
 20
160.3164366452
 30
0.0
 40
3.125000000000626
100
AcDbArc
 50
88.9582011495
 51
180.0
  0
ARC
  5
9E
330
1F
100
AcDbEntity
  8
0
  6
Continuous
 62
     7
370
    15
100
AcDbCircle
 10
91.6393996248
 20
167.1903001876
 30
0.0
 40
3.750000000000618
100
AcDbArc
 50
268.9582011496
 51
0.0
  0
LINE
  5
9F
330
1F
100
AcDbEntity
  8
0
  6
Continuous
 62
     7
370
    15
100
AcDbLine
 10
95.3893996248
 20
167.1903001876
 30
0.0
 11
95.3893996248
 21
174.8153001876
 31
0.0
  0
ARC
  5
A0
330
1F
100
AcDbEntity
  8
0
  6
Continuous
 62
     7
370
    15
100
AcDbCircle
 10
98.5143996248
 20
174.8153001876
 30
0.0
 40
3.125000000000028
100
AcDbArc
 50
90.0
 51
180.0
  0
LINE
  5
A1
330
1F
100
AcDbEntity
  8
0
  6
Continuous
 62
     7
370
    15
100
AcDbLine
 10
98.5143996248
 20
177.9403001876
 30
0.0
 11
154.7643996248
 21
177.9403001876
 31
0.0
  0
ARC
  5
A2
330
1F
100
AcDbEntity
  8
0
  6
Continuous
 62
     7
370
    15
100
AcDbCircle
 10
154.7643996248
 20
174.8153001876
 30
0.0
 40
3.125000000000028
100
AcDbArc
 50
0.0
 51
90.0
  0
ARC
  5
A3
330
1F
100
AcDbEntity
  8
0
  6
Continuous
 62
     7
370
    15
100
AcDbCircle
 10
98.5143996248
 20
104.5653001876
 30
0.0
 40
1.894200131539463
100
AcDbArc
 50
180.0
 51
270.0
  0
LINE
  5
A4
330
1F
100
AcDbEntity
  8
0
  6
Continuous
 62
     7
370
    15
100
AcDbLine
 10
154.7643996248
 20
102.6711000561
 30
0.0
 11
98.5143996248
 21
102.6711000561
 31
0.0
  0
ARC
  5
A5
330
1F
100
AcDbEntity
  8
0
  6
Continuous
 62
     7
370
    15
100
AcDbCircle
 10
154.7643996248
 20
104.5653001876
 30
0.0
 40
1.894200131539236
100
AcDbArc
 50
270.0
 51
0.0
  0
ARC
  5
A6
330
1F
100
AcDbEntity
  8
0
  6
Continuous
 62
     7
370
    15
100
AcDbCircle
 10
154.7643996248
 20
174.8153001876
 30
0.0
 40
1.894200131539492
100
AcDbArc
 50
0.0
 51
90.0
  0
LINE
  5
A7
330
1F
100
AcDbEntity
  8
0
  6
Continuous
 62
     7
370
    15
100
AcDbLine
 10
98.5143996248
 20
176.7095003192
 30
0.0
 11
154.7643996248
 21
176.7095003192
 31
0.0
  0
ARC
  5
A8
330
1F
100
AcDbEntity
  8
0
  6
Continuous
 62
     7
370
    15
100
AcDbCircle
 10
98.5143996248
 20
174.8153001876
 30
0.0
 40
1.894200131539492
100
AcDbArc
 50
90.0
 51
180.0
  0
ARC
  5
A9
330
1F
100
AcDbEntity
  8
0
  6
Continuous
 62
     7
370
    15
100
AcDbCircle
 10
91.6393996248
 20
112.1903001876
 30
0.0
 40
3.750000000000618
100
AcDbArc
 50
0.0
 51
91.0417988504
  0
ARC
  5
AA
330
1F
100
AcDbEntity
  8
0
  6
Continuous
 62
     7
370
    15
100
AcDbCircle
 10
98.5143996248
 20
104.5653001876
 30
0.0
 40
3.125
100
AcDbArc
 50
180.0
 51
270.0
  0
LINE
  5
AB
330
1F
100
AcDbEntity
  8
0
  6
Continuous
 62
     7
370
    15
100
AcDbLine
 10
154.7643996248
 20
103.181823555
 30
0.0
 11
154.7643996248
 21
102.6711000561
 31
0.0
  0
ARC
  5
AC
330
1F
100
AcDbEntity
  8
0
  6
Continuous
 62
     7
370
    15
100
AcDbCircle
 10
154.7643996248
 20
104.5653001876
 30
0.0
 40
1.383476632609415
100
AcDbArc
 50
270.0
 51
0.0000000008
  0
ARC
  5
AD
330
1F
100
AcDbEntity
  8
0
  6
Continuous
 62
     7
370
    15
100
AcDbCircle
 10
98.5143996248
 20
104.5653001876
 30
0.0
 40
1.383476632609586
100
AcDbArc
 50
179.9999999996
 51
270.0
  0
LINE
  5
AE
330
1F
100
AcDbEntity
  8
0
  6
Continuous
 62
     7
370
    15
100
AcDbLine
 10
98.5143996248
 20
103.181823555
 30
0.0
 11
98.5143996248
 21
102.6711000561
 31
0.0
  0
LINE
  5
AF
330
1F
100
AcDbEntity
  8
0
  6
Continuous
 62
     7
370
    15
100
AcDbLine
 10
98.5143996248
 20
103.181823555
 30
0.0
 11
154.7643996248
 21
103.181823555
 31
0.0
  0
ARC
  5
B0
330
1F
100
AcDbEntity
  8
0
  6
Continuous
 62
     7
370
    15
100
AcDbCircle
 10
154.7643996248
 20
174.8153001876
 30
0.0
 40
1.383476632609614
100
AcDbArc
 50
0.0000000004
 51
90.0
  0
LINE
  5
B1
330
1F
100
AcDbEntity
  8
0
  6
Continuous
 62
     7
370
    15
100
AcDbLine
 10
154.7643996248
 20
176.1987768202
 30
0.0
 11
154.7643996248
 21
176.7095003192
 31
0.0
  0
LINE
  5
B2
330
1F
100
AcDbEntity
  8
0
  6
Continuous
 62
     7
370
    15
100
AcDbLine
 10
154.7643996248
 20
176.1987768202
 30
0.0
 11
98.5143996248
 21
176.1987768202
 31
0.0
  0
LINE
  5
B3
330
1F
100
AcDbEntity
  8
0
  6
Continuous
 62
     7
370
    15
100
AcDbLine
 10
98.5143996248
 20
176.7095003192
 30
0.0
 11
98.5143996248
 21
176.1987768202
 31
0.0
  0
ARC
  5
B4
330
1F
100
AcDbEntity
  8
0
  6
Continuous
 62
     7
370
    15
100
AcDbCircle
 10
98.5143996248
 20
174.8153001876
 30
0.0
 40
1.383476632609614
100
AcDbArc
 50
90.0
 51
179.9999999992
  0
CIRCLE
  5
B5
330
1F
100
AcDbEntity
  8
0
  6
Continuous
 62
     7
370
    15
100
AcDbCircle
 10
91.6393996248
 20
174.6903001876
 30
0.0
 40
2.275000000000006
  0
CIRCLE
  5
B6
330
1F
100
AcDbEntity
  8
0
  6
Continuous
 62
     7
370
    15
100
AcDbCircle
 10
161.6393996248
 20
174.6903001876
 30
0.0
 40
2.275000000000006
  0
CIRCLE
  5
B7
330
1F
100
AcDbEntity
  8
0
  6
Continuous
 62
     7
370
    15
100
AcDbCircle
 10
161.6393996248
 20
104.6903001876
 30
0.0
 40
2.274999999999991
  0
CIRCLE
  5
B8
330
1F
100
AcDbEntity
  8
0
  6
Continuous
 62
     7
370
    15
100
AcDbCircle
 10
91.6393996248
 20
104.6903001876
 30
0.0
 40
2.274999999999991
  0
CIRCLE
  5
B9
330
1F
100
AcDbEntity
  8
0
  6
Continuous
 62
     7
370
    15
100
AcDbCircle
 10
91.6393996248
 20
167.1903001876
 30
0.0
 40
2.625
  0
CIRCLE
  5
BA
330
1F
100
AcDbEntity
  8
0
  6
Continuous
 62
     7
370
    15
100
AcDbCircle
 10
161.6393996248
 20
167.1903001876
 30
0.0
 40
2.625
  0
CIRCLE
  5
BB
330
1F
100
AcDbEntity
  8
0
  6
Continuous
 62
     7
370
    15
100
AcDbCircle
 10
161.6393996248
 20
112.1903001876
 30
0.0
 40
2.625000000000014
  0
CIRCLE
  5
BC
330
1F
100
AcDbEntity
  8
0
  6
Continuous
 62
     7
370
    15
100
AcDbCircle
 10
91.6393996248
 20
112.1903001876
 30
0.0
 40
2.625000000000014
  0
ELLIPSE
  5
BD
330
1F
100
AcDbEntity
  8
0
  6
Continuous
 62
     7
370
    15
100
AcDbEllipse
 10
161.6386379845
 20
174.6895385474
 30
0.0
 11
-3.536610945847941
 21
-3.536610945847912
 31
0.0
210
0.0
220
0.0
230
1.0
 40
0.9996954599
 41
2.356346783440149
 42
3.926838523739466
  0
ELLIPSE
  5
BE
330
1F
100
AcDbEntity
  8
0
  6
Continuous
 62
     7
370
    15
100
AcDbEllipse
 10
161.6386379845
 20
104.6910618278
 30
0.0
 11
-3.536610945847941
 21
3.536610945847912
 31
0.0
210
0.0
220
0.0
230
1.0
 40
0.9996954599
 41
2.356346783440133
 42
3.926838523739459
  0
LINE
  5
BF
330
1F
100
AcDbEntity
  8
0
  6
Continuous
 62
     7
370
    15
100
AcDbLine
 10
86.6393996248
 20
104.6895386634
 30
0.0
 11
86.6393996248
 21
174.6910617118
 31
0.0
  0
ELLIPSE
  5
C0
330
1F
100
AcDbEntity
  8
0
  6
Continuous
 62
     7
370
    15
100
AcDbEllipse
 10
91.640161265
 20
104.6910618278
 30
0.0
 11
3.536610945847912
 21
3.536610945847912
 31
0.0
210
0.0
220
0.0
230
1.0
 40
0.9996954599
 41
2.356346783440138
 42
3.926838523739462
  0
LINE
  5
C1
330
1F
100
AcDbEntity
  8
0
  6
Continuous
 62
     7
370
    15
100
AcDbLine
 10
166.6393996248
 20
174.6910617118
 30
0.0
 11
166.6393996248
 21
104.6895386634
 31
0.0
  0
LINE
  5
C2
330
1F
100
AcDbEntity
  8
0
  6
Continuous
 62
     7
370
    15
100
AcDbLine
 10
161.640161149
 20
99.6903001876
 30
0.0
 11
91.6386381005
 21
99.6903001876
 31
0.0
  0
ELLIPSE
  5
C3
330
1F
100
AcDbEntity
  8
0
  6
Continuous
 62
     7
370
    15
100
AcDbEllipse
 10
91.640161265
 20
174.6895385474
 30
0.0
 11
3.536610945847912
 21
-3.536610945847912
 31
0.0
210
0.0
220
0.0
230
1.0
 40
0.9996954599
 41
2.356346783439927
 42
3.926838523739463
  0
LINE
  5
C4
330
1F
100
AcDbEntity
  8
0
  6
Continuous
 62
     7
370
    15
100
AcDbLine
 10
91.6386381005
 20
179.6903001876
 30
0.0
 11
161.640161149
 21
179.6903001876
 31
0.0
  0
CIRCLE
  5
C5
330
1F
100
AcDbEntity
  8
0
  6
Continuous
 62
     7
370
    15
100
AcDbCircle
 10
161.6393996248
 20
174.6903001876
 30
0.0
 40
1.625000000015007
  0
CIRCLE
  5
C6
330
1F
100
AcDbEntity
  8
0
  6
Continuous
 62
     7
370
    15
100
AcDbCircle
 10
161.6393996248
 20
174.6903001876
 30
0.0
 40
1.250000000023874
  0
CIRCLE
  5
C7
330
1F
100
AcDbEntity
  8
0
  6
Continuous
 62
     7
370
    15
100
AcDbCircle
 10
91.6393996248
 20
104.6903001876
 30
0.0
 40
1.625000000015007
  0
CIRCLE
  5
C8
330
1F
100
AcDbEntity
  8
0
  6
Continuous
 62
     7
370
    15
100
AcDbCircle
 10
91.6393996248
 20
104.6903001876
 30
0.0
 40
1.250000000023874
  0
CIRCLE
  5
C9
330
1F
100
AcDbEntity
  8
0
  6
Continuous
 62
     7
370
    15
100
AcDbCircle
 10
91.6393996248
 20
174.6903001876
 30
0.0
 40
1.624999999993406
  0
CIRCLE
  5
CA
330
1F
100
AcDbEntity
  8
0
  6
Continuous
 62
     7
370
    15
100
AcDbCircle
 10
161.6393996248
 20
104.6903001876
 30
0.0
 40
1.624999999993406
  0
CIRCLE
  5
CB
330
1F
100
AcDbEntity
  8
0
  6
Continuous
 62
     7
370
    15
100
AcDbCircle
 10
161.6393996248
 20
104.6903001876
 30
0.0
 40
1.250000000002274
  0
CIRCLE
  5
CC
330
1F
100
AcDbEntity
  8
0
  6
Continuous
 62
     7
370
    15
100
AcDbCircle
 10
91.6393996248
 20
174.6903001876
 30
0.0
 40
1.250000000002274
  0
CIRCLE
  5
CD
330
1F
100
AcDbEntity
  8
0
  6
Continuous
 62
     7
370
    15
100
AcDbCircle
 10
91.6393996248
 20
167.1903001876
 30
0.0
 40
1.625
  0
CIRCLE
  5
CE
330
1F
100
AcDbEntity
  8
0
  6
Continuous
 62
     7
370
    15
100
AcDbCircle
 10
161.6393996248
 20
167.1903001876
 30
0.0
 40
1.625
  0
CIRCLE
  5
CF
330
1F
100
AcDbEntity
  8
0
  6
Continuous
 62
     7
370
    15
100
AcDbCircle
 10
161.6393996248
 20
112.1903001876
 30
0.0
 40
1.625
  0
CIRCLE
  5
D0
330
1F
100
AcDbEntity
  8
0
  6
Continuous
 62
     7
370
    15
100
AcDbCircle
 10
91.6393996248
 20
112.1903001876
 30
0.0
 40
1.625
  0
CIRCLE
  5
D1
330
1F
100
AcDbEntity
  8
0
  6
Continuous
 62
     7
370
    15
100
AcDbCircle
 10
159.7643996248
 20
139.6903001876
 30
0.0
 40
1.624999999974108
  0
CIRCLE
  5
D2
330
1F
100
AcDbEntity
  8
0
  6
Continuous
 62
     7
370
    15
100
AcDbCircle
 10
159.7643996248
 20
158.8153001876
 30
0.0
 40
1.624999999974108
  0
CIRCLE
  5
D3
330
1F
100
AcDbEntity
  8
0
  6
Continuous
 62
     7
370
    15
100
AcDbCircle
 10
159.7643996248
 20
120.5653001876
 30
0.0
 40
1.624999999974079
  0
ARC
  5
D4
330
1F
100
AcDbEntity
  8
0
  6
Continuous
 62
     7
370
    15
100
AcDbCircle
 10
161.6393996248
 20
112.1903001876
 30
0.0
 40
5.49152336739087
100
AcDbArc
 50
88.9582011496
 51
180.0
  0
ARC
  5
D5
330
1F
100
AcDbEntity
  8
0
  6
Continuous
 62
     7
370
    15
100
AcDbCircle
 10
161.6393996248
 20
167.1903001876
 30
0.0
 40
5.491523367390898
100
AcDbArc
 50
180.0
 51
271.0417988504
  0
LINE
  5
D6
330
1F
100
AcDbEntity
  8
0
  6
Continuous
 62
     7
370
    15
100
AcDbLine
 10
156.1478762574
 20
112.1903001876
 30
0.0
 11
156.1478762574
 21
167.1903001876
 31
0.0
  0
ARC
  5
D7
330
1F
100
AcDbEntity
  8
0
  6
Continuous
 62
     7
370
    15
100
AcDbCircle
 10
161.7643996248
 20
160.3164366452
 30
0.0
 40
1.383476632610345
100
AcDbArc
 50
0.0
 51
91.0417988505
  0
ARC
  5
D8
330
1F
100
AcDbEntity
  8
0
  6
Continuous
 62
     7
370
    15
100
AcDbCircle
 10
161.7643996248
 20
119.0641637301
 30
0.0
 40
1.38347663261036
100
AcDbArc
 50
268.9582011495
 51
0.0
  0
LINE
  5
D9
330
1F
100
AcDbEntity
  8
0
  6
Continuous
 62
     7
370
    15
100
AcDbLine
 10
163.1478762574
 20
160.3164366452
 30
0.0
 11
163.1478762574
 21
119.0641637301
 31
0.0
  0
CIRCLE
  5
DA
330
1F
100
AcDbEntity
  8
0
  6
Continuous
 62
     7
370
    15
100
AcDbCircle
 10
159.7643996248
 20
158.8153001876
 30
0.0
 40
1.249999999982947
  0
CIRCLE
  5
DB
330
1F
100
AcDbEntity
  8
0
  6
Continuous
 62
     7
370
    15
100
AcDbCircle
 10
159.7643996248
 20
139.6903001876
 30
0.0
 40
1.249999999982947
  0
CIRCLE
  5
DC
330
1F
100
AcDbEntity
  8
0
  6
Continuous
 62
     7
370
    15
100
AcDbCircle
 10
159.7643996248
 20
120.5653001876
 30
0.0
 40
1.249999999982947
  0
CIRCLE
  5
DD
330
1F
100
AcDbEntity
  8
0
  6
Continuous
 62
     7
370
    15
100
AcDbCircle
 10
93.5143996248
 20
139.6903001876
 30
0.0
 40
1.624999999961574
  0
CIRCLE
  5
DE
330
1F
100
AcDbEntity
  8
0
  6
Continuous
 62
     7
370
    15
100
AcDbCircle
 10
93.5143996248
 20
158.8153001876
 30
0.0
 40
1.624999999961574
  0
CIRCLE
  5
DF
330
1F
100
AcDbEntity
  8
0
  6
Continuous
 62
     7
370
    15
100
AcDbCircle
 10
93.5143996248
 20
120.5653001876
 30
0.0
 40
1.624999999961574
  0
ARC
  5
E0
330
1F
100
AcDbEntity
  8
0
  6
Continuous
 62
     7
370
    15
100
AcDbCircle
 10
91.5143996248
 20
160.3164366452
 30
0.0
 40
1.383476632610345
100
AcDbArc
 50
88.9582011495
 51
180.0
  0
ARC
  5
E1
330
1F
100
AcDbEntity
  8
0
  6
Continuous
 62
     7
370
    15
100
AcDbCircle
 10
91.5143996248
 20
119.0641637301
 30
0.0
 40
1.38347663261036
100
AcDbArc
 50
180.0
 51
271.0417988505
  0
ARC
  5
E2
330
1F
100
AcDbEntity
  8
0
  6
Continuous
 62
     7
370
    15
100
AcDbCircle
 10
91.6393996248
 20
112.1903001876
 30
0.0
 40
5.49152336739087
100
AcDbArc
 50
0.0
 51
91.0417988504
  0
ARC
  5
E3
330
1F
100
AcDbEntity
  8
0
  6
Continuous
 62
     7
370
    15
100
AcDbCircle
 10
91.6393996248
 20
167.1903001876
 30
0.0
 40
5.491523367390898
100
AcDbArc
 50
268.9582011496
 51
0.0
  0
LINE
  5
E4
330
1F
100
AcDbEntity
  8
0
  6
Continuous
 62
     7
370
    15
100
AcDbLine
 10
97.1309229922
 20
167.1903001876
 30
0.0
 11
97.1309229922
 21
112.1903001876
 31
0.0
  0
LINE
  5
E5
330
1F
100
AcDbEntity
  8
0
  6
Continuous
 62
     7
370
    15
100
AcDbLine
 10
90.1309229922
 20
119.0641637301
 30
0.0
 11
90.1309229922
 21
160.3164366452
 31
0.0
  0
CIRCLE
  5
E6
330
1F
100
AcDbEntity
  8
0
  6
Continuous
 62
     7
370
    15
100
AcDbCircle
 10
93.5143996248
 20
139.6903001876
 30
0.0
 40
1.250000000014779
  0
CIRCLE
  5
E7
330
1F
100
AcDbEntity
  8
0
  6
Continuous
 62
     7
370
    15
100
AcDbCircle
 10
93.5143996248
 20
120.5653001876
 30
0.0
 40
1.250000000014779
  0
CIRCLE
  5
E8
330
1F
100
AcDbEntity
  8
0
  6
Continuous
 62
     7
370
    15
100
AcDbCircle
 10
93.5143996248
 20
158.8153001876
 30
0.0
 40
1.250000000014779
  0
SPLINE
  5
E9
330
1F
100
AcDbEntity
  8
0
  6
Continuous
 62
     7
370
    15
100
AcDbSpline
210
0.0
220
0.0
230
1.0
 70
     8
 71
     3
 72
    15
 73
    11
 74
     0
 42
0.000000001
 43
0.00000001
 40
0.0
 40
0.0
 40
0.0
 40
0.0
 40
0.1250297609783448
 40
0.2500181803499195
 40
0.3750147041789405
 40
0.500008714716331
 40
0.6250025662564447
 40
0.7499962284694659
 40
0.8749855083019937
 40
1.0
 40
1.0
 40
1.0
 40
1.0
 10
65.4152215277578
 20
101.9124465839878
 30
0.0
 10
65.41522253274036
 20
101.9250751147072
 30
0.0
 10
65.4152245423732
 20
101.9503280004703
 30
0.0
 10
65.41522755822405
 20
102.1521767086384
 30
0.0
 10
65.41523057285607
 20
102.465697219504
 30
0.0
 10
65.4152335876786
 20
102.8906687111734
 30
0.0
 10
65.41523660228239
 20
103.4073545257368
 30
0.0
 10
65.4152396166039
 20
103.9964813337329
 30
0.0
 10
65.41524263138805
 20
104.6350452959291
 30
0.0
 10
65.41524464048025
 20
105.0769126346422
 30
0.0
 10
65.41524564512764
 20
105.2978685842625
 30
0.0
  0
SPLINE
  5
EA
330
1F
100
AcDbEntity
  8
0
  6
Continuous
 62
     7
370
    15
100
AcDbSpline
210
0.0
220
0.0
230
1.0
 70
     8
 71
     3
 72
    11
 73
     7
 74
     0
 42
0.000000001
 43
0.00000001
 40
0.0
 40
0.0
 40
0.0
 40
0.0
 40
0.2498638148680868
 40
0.4997921563659442
 40
0.7498382786599822
 40
1.0
 40
1.0
 40
1.0
 40
1.0
 10
65.4152456452095
 20
174.1144352315431
 30
0.0
 10
65.41515427764283
 20
174.4460785594159
 30
0.0
 10
65.41497151891413
 20
175.1094508611213
 30
0.0
 10
65.4146958002469
 20
176.0137013344044
 30
0.0
 10
65.4144190439242
 20
176.7724228699961
 30
0.0
 10
65.4142335357988
 20
177.0757487144031
 30
0.0
 10
65.41414076030043
 20
177.2274466862152
 30
0.0
  0
SPLINE
  5
EB
330
1F
100
AcDbEntity
  8
0
  6
Continuous
 62
     7
370
    15
100
AcDbSpline
210
0.0
220
0.0
230
1.0
 70
     8
 71
     3
 72
     9
 73
     5
 74
     0
 42
0.000000001
 43
0.00000001
 40
0.0
 40
0.0
 40
0.0
 40
0.0
 40
0.4789002946183598
 40
1.0
 40
1.0
 40
1.0
 40
1.0
 10
65.41524648505623
 20
177.4678779533269
 30
0.0
 10
65.38593764599773
 20
177.5833513564758
 30
0.0
 10
65.32473735151503
 20
177.8244733696515
 30
0.0
 10
65.19949852298386
 20
177.8665915389712
 30
0.0
 10
65.13423660633394
 20
177.8885393045949
 30
0.0
  0
SPLINE
  5
EC
330
1F
100
AcDbEntity
  8
0
  6
Continuous
 62
     7
370
    15
100
AcDbSpline
210
0.0
220
0.0
230
1.0
 70
     8
 71
     3
 72
    11
 73
     7
 74
     0
 42
0.000000001
 43
0.00000001
 40
0.0
 40
0.0
 40
0.0
 40
0.0
 40
0.2554167419667121
 40
0.5148635317491584
 40
0.7663748540538058
 40
1.0
 40
1.0
 40
1.0
 40
1.0
 10
65.31262771778044
 20
177.7633042278847
 30
0.0
 10
65.22261911078989
 20
177.9433152065223
 30
0.0
 10
65.0411817119485
 20
178.3061774351348
 30
0.0
 10
64.5764480423107
 20
178.7101593036425
 30
0.0
 10
64.03641317153875
 20
178.9706984615801
 30
0.0
 10
63.65069618389848
 20
179.0054467688695
 30
0.0
 10
63.46494806264036
 20
179.0221803663068
 30
0.0
  0
LINE
  5
ED
330
1F
100
AcDbEntity
  8
0
  6
Continuous
 62
     7
370
    15
100
AcDbLine
 10
65.3126277178
 20
177.2262105319
 30
0.0
 11
65.3385750139
 21
177.2234658287
 31
0.0
  0
LINE
  5
EE
330
1F
100
AcDbEntity
  8
0
  6
Continuous
 62
     7
370
    15
100
AcDbLine
 10
29.1968355183
 20
115.9391637301
 30
0.0
 11
30.4468355183
 21
115.9391637301
 31
0.0
  0
LINE
  5
EF
330
1F
100
AcDbEntity
  8
0
  6
Continuous
 62
     7
370
    15
100
AcDbLine
 10
30.4468355183
 20
163.4414366452
 30
0.0
 11
29.1968355183
 21
163.4414366452
 31
0.0
  0
LINE
  5
F0
330
1F
100
AcDbEntity
  8
0
  6
Continuous
 62
     7
370
    15
100
AcDbLine
 10
65.6968355183
 20
115.1903001876
 30
0.0
 11
65.4468355183
 21
115.1903001876
 31
0.0
  0
LINE
  5
F1
330
1F
100
AcDbEntity
  8
0
  6
Continuous
 62
     7
370
    15
100
AcDbLine
 10
65.4468355183
 20
109.1903001876
 30
0.0
 11
65.6968355183
 21
109.1903001876
 31
0.0
  0
LINE
  5
F2
330
1F
100
AcDbEntity
  8
0
  6
Continuous
 62
     7
370
    15
100
AcDbLine
 10
65.6968355183
 20
170.1903001876
 30
0.0
 11
65.4468355183
 21
170.1903001876
 31
0.0
  0
LINE
  5
F3
330
1F
100
AcDbEntity
  8
0
  6
Continuous
 62
     7
370
    15
100
AcDbLine
 10
65.4468355183
 20
164.1903001876
 30
0.0
 11
65.6968355183
 21
164.1903001876
 31
0.0
  0
LINE
  5
F4
330
1F
100
AcDbEntity
  8
0
  6
Continuous
 62
     7
370
    15
100
AcDbLine
 10
65.3255294878
 20
101.6497448492
 30
0.0
 11
65.4152464851
 21
101.9127224219
 31
0.0
  0
SPLINE
  5
F5
330
1F
100
AcDbEntity
  8
0
  6
Continuous
 62
     7
370
    15
100
AcDbSpline
210
0.0
220
0.0
230
1.0
 70
     8
 71
     3
 72
    15
 73
    11
 74
     0
 42
0.000000001
 43
0.00000001
 40
0.0
 40
0.0
 40
0.0
 40
0.0
 40
0.1250144916973524
 40
0.2500037715294114
 40
0.3749974337421551
 40
0.4999912852821709
 40
0.6249852958196563
 40
0.749981819648955
 40
0.8749702390210025
 40
1.0
 40
1.0
 40
1.0
 40
1.0
 10
65.41524564512764
 20
174.0827317909719
 30
0.0
 10
65.41524464047993
 20
174.3036877405924
 30
0.0
 10
65.41524263138713
 20
174.7455550793065
 30
0.0
 10
65.4152396166021
 20
175.3841190415055
 30
0.0
 10
65.41523660227968
 20
175.9732458495062
 30
0.0
 10
65.41523358767498
 20
176.4899316640753
 30
0.0
 10
65.41523057285156
 20
176.9149031557515
 30
0.0
 10
65.41522755821866
 20
177.2284236666241
 30
0.0
 10
65.41522454236686
 20
177.4302723747988
 30
0.0
 10
65.41522253273342
 20
177.4555252605655
 30
0.0
 10
65.41522152775056
 20
177.4681537912868
 30
0.0
  0
LINE
  5
F6
330
1F
100
AcDbEntity
  8
0
  6
Continuous
 62
     7
370
    15
100
AcDbLine
 10
30.4468355183
 20
174.6910617118
 30
0.0
 11
30.4468355183
 21
104.6895386634
 31
0.0
  0
LINE
  5
F7
330
1F
100
AcDbEntity
  8
0
  6
Continuous
 62
     7
370
    15
100
AcDbLine
 10
63.4817403312
 20
174.1144353024
 30
0.0
 11
30.4468355183
 21
174.6910617118
 31
0.0
  0
LINE
  5
F8
330
1F
100
AcDbEntity
  8
0
  6
Continuous
 62
     7
370
    15
100
AcDbLine
 10
63.4817403312
 20
174.1144353034
 30
0.0
 11
63.4817403312
 21
105.2663409913
 31
0.0
  0
LINE
  5
F9
330
1F
100
AcDbEntity
  8
0
  6
Continuous
 62
     7
370
    15
100
AcDbLine
 10
30.4468355183
 20
104.6895386634
 30
0.0
 11
63.4817396214
 21
105.2663409913
 31
0.0
  0
LINE
  5
FA
330
1F
100
AcDbEntity
  8
0
  6
Continuous
 62
     7
370
    15
100
AcDbLine
 10
30.4468355183
 20
104.6895386634
 30
0.0
 11
30.4468355183
 21
99.6903001876
 31
0.0
  0
SPLINE
  5
FB
330
1F
100
AcDbEntity
  8
0
  6
Continuous
 62
     7
370
    15
100
AcDbSpline
210
0.0
220
0.0
230
1.0
 70
     8
 71
     3
 72
    46
 73
    42
 74
     0
 42
0.000000001
 43
0.00000001
 40
0.0
 40
0.0
 40
0.0
 40
0.0
 40
0.0202138249702739
 40
0.0403566305204715
 40
0.0604255280520309
 40
0.0804177080778667
 40
0.1003305127030061
 40
0.1201616230810039
 40
0.1399105962237986
 40
0.1595781637549157
 40
0.1791649678851873
 40
0.1986715843719314
 40
0.2180985730647098
 40
0.2374465254925012
 40
0.2567160319085578
 40
0.275907215352642
 40
0.2950199112394121
 40
0.3140538904621115
 40
0.333008909200005
 40
0.3518847552995837
 40
0.3706812917927074
 40
0.389398509789488
 40
0.4080365189572237
 40
0.4265953614838197
 40
0.4450750089786729
 40
0.4634754048436147
 40
0.4817965040872151
 40
0.500038310635416
 40
0.5365690214991318
 40
0.5734212058371035
 40
0.6105946027466349
 40
0.6480890571715265
 40
0.6859050246926005
 40
0.7240415830973772
 40
0.7624968800784153
 40
0.801270163808024
 40
0.8403649972455072
 40
0.8797859991723824
 40
0.9195381084838006
 40
0.959616271937882
 40
1.0
 40
1.0
 40
1.0
 40
1.0
 10
63.4817392854959
 20
105.2663409928658
 30
0.0
 10
63.48210493725612
 20
105.2134337076949
 30
0.0
 10
63.48283495609267
 20
105.1078050222472
 30
0.0
 10
63.48387906284501
 20
104.9498082614873
 30
0.0
 10
63.48488343018667
 20
104.7927053605599
 30
0.0
 10
63.48584454881945
 20
104.6366690081016
 30
0.0
 10
63.48676332274014
 20
104.4818670516785
 30
0.0
 10
63.48763952294718
 20
104.3284598344412
 30
0.0
 10
63.48847316809402
 20
104.17659217981
 30
0.0
 10
63.48926418898876
 20
104.0263935425596
 30
0.0
 10
63.49001257452301
 20
103.8779872362139
 30
0.0
 10
63.49071830510965
 20
103.7314930671376
 30
0.0
 10
63.49138136444917
 20
103.5870277737707
 30
0.0
 10
63.49200173621307
 20
103.4447048343544
 30
0.0
 10
63.49257939635297
 20
103.3046372453392
 30
0.0
 10
63.4931143359059
 20
103.1669276648214
 30
0.0
 10
63.49360654525933
 20
103.0316752937
 30
0.0
 10
63.49405601284726
 20
102.8989772740371
 30
0.0
 10
63.49446272821719
 20
102.7689277228941
 30
0.0
 10
63.49482668166115
 20
102.6416180290331
 30
0.0
 10
63.49514786447447
 20
102.5171363785366
 30
0.0
 10
63.49542626839151
 20
102.3955695095034
 30
0.0
 10
63.49566188480723
 20
102.2769864777942
 30
0.0
 10
63.49585470851488
 20
102.1614514750981
 30
0.0
 10
63.49600473474401
 20
102.0490266986662
 30
0.0
 10
63.49611196163346
 20
101.9397722358668
 30
0.0
 10
63.49617638065076
 20
101.8337449102758
 30
0.0
 10
63.49620527241557
 20
101.6965189525735
 30
0.0
 10
63.4961332654963
 20
101.5317931214478
 30
0.0
 10
63.49587583112554
 20
101.3454951110492
 30
0.0
 10
63.49544715912889
 20
101.1708440178975
 30
0.0
 10
63.49484726996542
 20
101.0088313844007
 30
0.0
 10
63.49407624709302
 20
100.8604273696628
 30
0.0
 10
63.49313417155475
 20
100.7264710713519
 30
0.0
 10
63.4920210986219
 20
100.607848383451
 30
0.0
 10
63.49073712236108
 20
100.5054772863545
 30
0.0
 10
63.48928217655603
 20
100.4201599694165
 30
0.0
 10
63.48765734514635
 20
100.3524985730962
 30
0.0
 10
63.48585941501711
 20
100.3037658718854
 30
0.0
 10
63.48390254299177
 20
100.272821270903
 30
0.0
 10
63.48246253557136
 20
100.2689168110949
 30
0.0
 10
63.48173979755242
 20
100.2669571673412
 30
0.0
  0
LINE
  5
FC
330
1F
100
AcDbEntity
  8
0
  6
Continuous
 62
     7
370
    15
100
AcDbLine
 10
30.4468355183
 20
99.6903001876
 30
0.0
 11
63.4817403312
 21
100.266926596
 31
0.0
  0
LINE
  5
FD
330
1F
100
AcDbEntity
  8
0
  6
Continuous
 62
     7
370
    15
100
AcDbLine
 10
30.4468355183
 20
179.6903001876
 30
0.0
 11
30.4468355183
 21
174.6910617118
 31
0.0
  0
LINE
  5
FE
330
1F
100
AcDbEntity
  8
0
  6
Continuous
 62
     7
370
    15
100
AcDbLine
 10
30.4468355183
 20
179.6903001876
 30
0.0
 11
63.4817396214
 21
179.1136737916
 31
0.0
  0
SPLINE
  5
FF
330
1F
100
AcDbEntity
  8
0
  6
Continuous
 62
     7
370
    15
100
AcDbSpline
210
0.0
220
0.0
230
1.0
 70
     8
 71
     3
 72
     9
 73
     5
 74
     0
 42
0.000000001
 43
0.00000001
 40
0.0
 40
0.0
 40
0.0
 40
0.0
 40
0.6001351135460566
 40
1.0
 40
1.0
 40
1.0
 40
1.0
 10
63.48173962135544
 20
179.113673788506
 30
0.0
 10
63.48305055163499
 20
179.1084641011151
 30
0.0
 10
63.4852349435327
 20
179.0997832436327
 30
0.0
 10
63.48705523128398
 20
179.0423930602376
 30
0.0
 10
63.48778310043895
 20
179.0194447410708
 30
0.0
  0
LINE
  5
100
330
1F
100
AcDbEntity
  8
0
  6
Continuous
 62
     7
370
    15
100
AcDbLine
 10
65.3792043544
 20
105.2661850451
 30
0.0
 11
65.4468355183
 21
105.2661650718
 31
0.0
  0
SPLINE
  5
101
330
1F
100
AcDbEntity
  8
0
  6
Continuous
 62
     7
370
    15
100
AcDbSpline
210
0.0
220
0.0
230
1.0
 70
     8
 71
     3
 72
    11
 73
     7
 74
     0
 42
0.000000001
 43
0.00000001
 40
0.0
 40
0.0
 40
0.0
 40
0.0
 40
0.2823331780918313
 40
0.5646663561836637
 40
0.8469995342754953
 40
1.0
 40
1.0
 40
1.0
 40
1.0
 10
63.48174033116877
 20
100.2669265960245
 30
0.0
 10
63.74078730151189
 20
100.3006844015362
 30
0.0
 10
64.25888124219817
 20
100.3682000125597
 30
0.0
 10
64.90067408641218
 20
100.8345107499761
 30
0.0
 10
65.3054882395342
 20
101.3836210551903
 30
0.0
 10
65.35960001168675
 20
101.7803000822441
 30
0.0
 10
65.37861789936468
 20
101.9197151647778
 30
0.0
  0
SPLINE
  5
102
330
1F
100
AcDbEntity
  8
0
  6
Continuous
 62
     7
370
    15
100
AcDbSpline
210
0.0
220
0.0
230
1.0
 70
     8
 71
     3
 72
    18
 73
    14
 74
     0
 42
0.000000001
 43
0.00000001
 40
0.0
 40
0.0
 40
0.0
 40
0.0
 40
0.2500000000000019
 40
0.2500000000000019
 40
0.3750000000000014
 40
0.3750000000000014
 40
0.5000000000000009
 40
0.5000000000000009
 40
0.7499999999999998
 40
0.7499999999999998
 40
0.8749999999999999
 40
0.8749999999999999
 40
1.0
 40
1.0
 40
1.0
 40
1.0
 10
65.44683551808706
 20
113.9582495496341
 30
0.0
 10
65.4468328254345
 20
113.700842974757
 30
0.0
 10
65.42199243745169
 20
113.4222223470379
 30
0.0
 10
65.38972408207066
 20
112.9713071834275
 30
0.0
 10
65.37973645242823
 20
112.8169875144367
 30
0.0
 10
65.36590552976003
 20
112.5064040705977
 30
0.0
 10
65.36199546789987
 20
112.3492164544333
 30
0.0
 10
65.3620076581354
 20
111.8717041505897
 30
0.0
 10
65.37878087022742
 20
111.5625618250422
 30
0.0
 10
65.41101377582655
 20
111.1116208517461
 30
0.0
 10
65.42250345516267
 20
110.9651590340812
 30
0.0
 10
65.4403560906734
 20
110.6853049510021
 30
0.0
 10
65.44683417244222
 20
110.5509889691385
 30
0.0
 10
65.44683551808706
 20
110.4223508256004
 30
0.0
  0
LINE
  5
103
330
1F
100
AcDbEntity
  8
0
  6
Continuous
 62
     7
370
    15
100
AcDbLine
 10
65.4468355183
 20
105.2661650718
 30
0.0
 11
65.4468355183
 21
110.422371747
 31
0.0
  0
LINE
  5
104
330
1F
100
AcDbEntity
  8
0
  6
Continuous
 62
     7
370
    15
100
AcDbLine
 10
65.4468355183
 20
174.1144353034
 30
0.0
 11
65.3786607757
 21
174.1144353034
 31
0.0
  0
LINE
  5
105
330
1F
100
AcDbEntity
  8
0
  6
Continuous
 62
     7
370
    15
100
AcDbLine
 10
65.4468355183
 20
168.9582286282
 30
0.0
 11
65.4468355183
 21
174.1144353034
 31
0.0
  0
SPLINE
  5
106
330
1F
100
AcDbEntity
  8
0
  6
Continuous
 62
     7
370
    15
100
AcDbSpline
210
0.0
220
0.0
230
1.0
 70
     8
 71
     3
 72
    18
 73
    14
 74
     0
 42
0.000000001
 43
0.00000001
 40
0.0
 40
0.0
 40
0.0
 40
0.0
 40
0.2500000000000026
 40
0.2500000000000026
 40
0.3750000000000024
 40
0.3750000000000024
 40
0.5000000000000022
 40
0.5000000000000022
 40
0.7500000000000018
 40
0.7500000000000018
 40
0.8750000000000009
 40
0.8750000000000009
 40
1.0
 40
1.0
 40
1.0
 40
1.0
 10
65.44683551808706
 20
165.4223508256004
 30
0.0
 10
65.4468328254345
 20
165.6797574004775
 30
0.0
 10
65.4219924374517
 20
165.9583780281965
 30
0.0
 10
65.38972408207066
 20
166.4092931918069
 30
0.0
 10
65.37973645242823
 20
166.5636128607978
 30
0.0
 10
65.36590552976004
 20
166.8741963046368
 30
0.0
 10
65.36199546789987
 20
167.0313839208012
 30
0.0
 10
65.3620076581354
 20
167.5088962246447
 30
0.0
 10
65.37878087022742
 20
167.8180385501922
 30
0.0
 10
65.41101377582653
 20
168.2689795234884
 30
0.0
 10
65.42250345516267
 20
168.4154413411533
 30
0.0
 10
65.44035609067342
 20
168.6952954242324
 30
0.0
 10
65.44683417244221
 20
168.8296114060959
 30
0.0
 10
65.44683551808706
 20
168.9582495496341
 30
0.0
  0
LINE
  5
107
330
1F
100
AcDbEntity
  8
0
  6
Continuous
 62
     7
370
    15
100
AcDbLine
 10
65.4468355183
 20
113.9582286282
 30
0.0
 11
65.4468355183
 21
165.422371747
 31
0.0
  0
LINE
  5
108
330
1F
100
AcDbEntity
  8
0
  6
Continuous
 62
     7
370
    15
100
AcDbLine
 10
65.3758376274
 20
177.4750236335
 30
0.0
 11
65.4468355183
 21
177.1139783889
 31
0.0
  0
LINE
  5
109
330
1F
100
AcDbEntity
  8
0
  6
Continuous
 62
     7
370
    15
100
AcDbLine
 10
65.4468355183
 20
176.9864319473
 30
0.0
 11
65.4468355183
 21
177.1139783889
 31
0.0
  0
LINE
  5
10A
330
1F
100
AcDbEntity
  8
0
  6
Continuous
 62
     7
370
    15
100
AcDbLine
 10
29.1968355183
 20
119.0641637301
 30
0.0
 11
29.1968355183
 21
115.9396803017
 31
0.0
  0
LINE
  5
10B
330
1F
100
AcDbEntity
  8
0
  6
Continuous
 62
     7
370
    15
100
AcDbLine
 10
30.4468355183
 20
119.0641637301
 30
0.0
 11
29.1968355183
 21
119.0641637301
 31
0.0
  0
LINE
  5
10C
330
1F
100
AcDbEntity
  8
0
  6
Continuous
 62
     7
370
    15
100
AcDbLine
 10
29.1968355183
 20
163.4409200736
 30
0.0
 11
29.1968355183
 21
160.3164366452
 31
0.0
  0
LINE
  5
10D
330
1F
100
AcDbEntity
  8
0
  6
Continuous
 62
     7
370
    15
100
AcDbLine
 10
30.4468355183
 20
160.3164366452
 30
0.0
 11
29.1968355183
 21
160.3164366452
 31
0.0
  0
LINE
  5
10E
330
1F
100
AcDbEntity
  8
0
  6
Continuous
 62
     7
370
    15
100
AcDbLine
 10
29.1968355183
 20
160.3164366452
 30
0.0
 11
29.1968355183
 21
119.0641637301
 31
0.0
  0
LINE
  5
10F
330
1F
100
AcDbEntity
  8
0
  6
Continuous
 62
     7
370
    15
100
AcDbLine
 10
65.6968355183
 20
109.1903001876
 30
0.0
 11
65.6968355183
 21
115.1903001876
 31
0.0
  0
LINE
  5
110
330
1F
100
AcDbEntity
  8
0
  6
Continuous
 62
     7
370
    15
100
AcDbLine
 10
65.6968355183
 20
164.1903001876
 30
0.0
 11
65.6968355183
 21
170.1903001876
 31
0.0
  0
LINE
  5
111
330
1F
100
AcDbEntity
  8
0
  6
Continuous
 62
     7
370
    15
100
AcDbLine
 10
30.4468355183
 20
112.1903001876
 30
0.0
 11
29.1968355183
 21
112.1903001876
 31
0.0
  0
LINE
  5
112
330
1F
100
AcDbEntity
  8
0
  6
Continuous
 62
     7
370
    15
100
AcDbLine
 10
29.1968355183
 20
112.1903001876
 30
0.0
 11
29.1968355183
 21
115.9391637301
 31
0.0
  0
LINE
  5
113
330
1F
100
AcDbEntity
  8
0
  6
Continuous
 62
     7
370
    15
100
AcDbLine
 10
29.1968355183
 20
167.1903001876
 30
0.0
 11
30.4468355183
 21
167.1903001876
 31
0.0
  0
LINE
  5
114
330
1F
100
AcDbEntity
  8
0
  6
Continuous
 62
     7
370
    15
100
AcDbLine
 10
29.1968355183
 20
163.4414366452
 30
0.0
 11
29.1968355183
 21
167.1903001876
 31
0.0
  0
LINE
  5
115
330
1F
100
AcDbEntity
  8
0
  6
Continuous
 62
     7
370
    15
100
AcDbLine
 10
29.1968355183
 20
177.9403001876
 30
0.0
 11
30.4468355183
 21
177.9403001876
 31
0.0
  0
LINE
  5
116
330
1F
100
AcDbEntity
  8
0
  6
Continuous
 62
     7
370
    15
100
AcDbLine
 10
30.4468355183
 20
174.8153001876
 30
0.0
 11
29.1968355183
 21
174.8153001876
 31
0.0
  0
LINE
  5
117
330
1F
100
AcDbEntity
  8
0
  6
Continuous
 62
     7
370
    15
100
AcDbLine
 10
29.1968355183
 20
177.9403001876
 30
0.0
 11
29.1968355183
 21
174.8153001876
 31
0.0
  0
LINE
  5
118
330
1F
100
AcDbEntity
  8
0
  6
Continuous
 62
     7
370
    15
100
AcDbLine
 10
30.4468355183
 20
104.5653001876
 30
0.0
 11
29.1968355183
 21
104.5653001876
 31
0.0
  0
LINE
  5
119
330
1F
100
AcDbEntity
  8
0
  6
Continuous
 62
     7
370
    15
100
AcDbLine
 10
30.4468355183
 20
101.4403001876
 30
0.0
 11
29.1968355183
 21
101.4403001876
 31
0.0
  0
LINE
  5
11A
330
1F
100
AcDbEntity
  8
0
  6
Continuous
 62
     7
370
    15
100
AcDbLine
 10
29.1968355183
 20
104.5653001876
 30
0.0
 11
29.1968355183
 21
101.4403001876
 31
0.0
  0
LINE
  5
11B
330
1F
100
AcDbEntity
  8
0
  6
Continuous
 62
     7
370
    15
100
AcDbLine
 10
29.1968355183
 20
174.8153001876
 30
0.0
 11
29.1968355183
 21
167.1903001876
 31
0.0
  0
LINE
  5
11C
330
1F
100
AcDbEntity
  8
0
  6
Continuous
 62
     7
370
    15
100
AcDbLine
 10
29.1968355183
 20
112.1903001876
 30
0.0
 11
29.1968355183
 21
104.5653001876
 31
0.0
  0
SPLINE
  5
11D
330
1F
100
AcDbEntity
  8
0
  6
Continuous
 62
     8
370
    15
100
AcDbSpline
210
0.0
220
0.0
230
1.0
 70
     8
 71
     3
 72
    15
 73
    11
 74
     0
 42
0.000000001
 43
0.00000001
 40
0.0
 40
0.0
 40
0.0
 40
0.0
 40
0.0091345412759552
 40
0.1534951994234476
 40
0.2939288775370378
 40
0.430435555672315
 40
0.5669972145293519
 40
0.7074451917046711
 40
0.8517794889039197
 40
1.0
 40
1.0
 40
1.0
 40
1.0
 10
63.48778310043895
 20
179.0194447410708
 30
0.0
 10
63.48790621244824
 20
179.0161801027679
 30
0.0
 10
63.48997496465422
 20
178.961321704057
 30
0.0
 10
63.49296030555836
 20
178.7395399838134
 30
0.0
 10
63.4956629235096
 20
178.2799271056077
 30
0.0
 10
63.49645311912923
 20
177.6697458915588
 30
0.0
 10
63.49565487117399
 20
176.9350266694548
 30
0.0
 10
63.49298577636183
 20
176.0814328687609
 30
0.0
 10
63.48843971585456
 20
175.1273890540876
 30
0.0
 10
63.48399314837172
 20
174.4550635458221
 30
0.0
 10
63.48174033116878
 20
174.1144353023872
 30
0.0
  0
SPLINE
  5
11E
330
1F
100
AcDbEntity
  8
0
  6
Continuous
 62
     8
370
    15
100
AcDbSpline
210
0.0
220
0.0
230
1.0
 70
     8
 71
     3
 72
    11
 73
     7
 74
     0
 42
0.000000001
 43
0.00000001
 40
0.0
 40
0.0
 40
0.0
 40
0.0
 40
0.2820195980539016
 40
0.5640391961078028
 40
0.8460587941617043
 40
1.0
 40
1.0
 40
1.0
 40
1.0
 10
63.48173962141068
 20
105.2663409913422
 30
0.0
 10
63.7407816738223
 20
105.266326331381
 30
0.0
 10
64.25886577864551
 20
105.2662970114585
 30
0.0
 10
64.90073371539594
 20
105.2662530315747
 30
0.0
 10
65.30593390749722
 20
105.2662157094704
 30
0.0
 10
65.36008365167447
 20
105.2661930473272
 30
0.0
 10
65.37920435436165
 20
105.2661850451454
 30
0.0
  0
SPLINE
  5
11F
330
1F
100
AcDbEntity
  8
0
  6
Continuous
 62
     8
370
    15
100
AcDbSpline
210
0.0
220
0.0
230
1.0
 70
    24
 71
     3
 72
    11
 73
     7
 74
     0
 42
0.000000001
 43
0.00000001
 40
0.0
 40
0.0
 40
0.0
 40
0.0
 40
0.1530693114355276
 40
0.4353795409570183
 40
0.7176897704785097
 40
0.9999999999999999
 40
0.9999999999999999
 40
0.9999999999999999
 40
0.9999999999999999
 10
65.37866077565381
 20
174.1144353034272
 30
0.0
 10
65.3596353614588
 20
174.1144353034272
 30
0.0
 10
65.30552081674011
 20
174.1144353034272
 30
0.0
 10
64.90067847467458
 20
174.1144353034272
 30
0.0
 10
64.25888014513258
 20
174.1144353034272
 30
0.0
 10
63.74078693582337
 20
174.1144353034272
 30
0.0
 10
63.48174033116877
 20
174.1144353034272
 30
0.0
  0
SPLINE
  5
120
330
1F
100
AcDbEntity
  8
0
  6
Continuous
 62
     7
370
    15
100
AcDbSpline
210
0.0
220
0.0
230
1.0
 70
     8
 71
     3
 72
    15
 73
    11
 74
     0
 42
0.000000001
 43
0.00000001
 40
0.0
 40
0.0
 40
0.0
 40
0.0
 40
0.1250297609822237
 40
0.2500181803565716
 40
0.3750147041872554
 40
0.5000087147252018
 40
0.6250025662647577
 40
0.7499962284761159
 40
0.8749855083058674
 40
1.0
 40
1.0
 40
1.0
 40
1.0
 10
88.86154602089822
 20
196.746448265906
 30
0.0
 10
88.87417455162836
 20
196.7464472609216
 30
0.0
 10
88.89942743741268
 20
196.7464452512852
 30
0.0
 10
89.10127614562063
 20
196.746442235429
 30
0.0
 10
89.41479665652763
 20
196.7464392207917
 30
0.0
 10
89.83976814823677
 20
196.7464362059637
 30
0.0
 10
90.35645396283476
 20
196.7464331913546
 30
0.0
 10
90.94558077085767
 20
196.7464301770277
 30
0.0
 10
91.58414473307103
 20
196.7464271622383
 30
0.0
 10
92.02601207178907
 20
196.7464251531425
 30
0.0
 10
92.24696802141081
 20
196.7464241484933
 30
0.0
  0
SPLINE
  5
121
330
1F
100
AcDbEntity
  8
0
  6
Continuous
 62
     7
370
    15
100
AcDbSpline
210
0.0
220
0.0
230
1.0
 70
     8
 71
     3
 72
    11
 73
     7
 74
     0
 42
0.000000001
 43
0.00000001
 40
0.0
 40
0.0
 40
0.0
 40
0.0
 40
0.2498638148680855
 40
0.4997921563659408
 40
0.7498382786599778
 40
1.0
 40
1.0
 40
1.0
 40
1.0
 10
161.0635346686913
 20
196.7464241484115
 30
0.0
 10
161.3951779965641
 20
196.7465155159781
 30
0.0
 10
162.0585502982696
 20
196.7466982747068
 30
0.0
 10
162.9628007715527
 20
196.7469739933741
 30
0.0
 10
163.7215223071443
 20
196.7472507496968
 30
0.0
 10
164.0248481515515
 20
196.7474362578222
 30
0.0
 10
164.1765461233636
 20
196.7475290333205
 30
0.0
  0
SPLINE
  5
122
330
1F
100
AcDbEntity
  8
0
  6
Continuous
 62
     7
370
    15
100
AcDbSpline
210
0.0
220
0.0
230
1.0
 70
     8
 71
     3
 72
     9
 73
     5
 74
     0
 42
0.000000001
 43
0.00000001
 40
0.0
 40
0.0
 40
0.0
 40
0.0
 40
0.4789002946184764
 40
1.0
 40
1.0
 40
1.0
 40
1.0
 10
164.4169773904775
 20
196.7464233085651
 30
0.0
 10
164.5324507936261
 20
196.7757321476236
 30
0.0
 10
164.7735728068012
 20
196.8369324421064
 30
0.0
 10
164.81569097612
 20
196.9621712706372
 30
0.0
 10
164.8376387417431
 20
197.0274331872869
 30
0.0
  0
SPLINE
  5
123
330
1F
100
AcDbEntity
  8
0
  6
Continuous
 62
     7
370
    15
100
AcDbSpline
210
0.0
220
0.0
230
1.0
 70
     8
 71
     3
 72
    11
 73
     7
 74
     0
 42
0.000000001
 43
0.00000001
 40
0.0
 40
0.0
 40
0.0
 40
0.0
 40
0.2554167419668414
 40
0.514863531749317
 40
0.7663748540538948
 40
1.0
 40
1.0
 40
1.0
 40
1.0
 10
164.7124036650332
 20
196.8490420758405
 30
0.0
 10
164.8924146436709
 20
196.9390506828311
 30
0.0
 10
165.2552768722837
 20
197.1204880816724
 30
0.0
 10
165.6592587407918
 20
197.5852217513101
 30
0.0
 10
165.9197978987294
 20
198.1252566220822
 30
0.0
 10
165.9545462060183
 20
198.5109736097225
 30
0.0
 10
165.9712798034554
 20
198.6967217309806
 30
0.0
  0
LINE
  5
124
330
1F
100
AcDbEntity
  8
0
  6
Continuous
 62
     7
370
    15
100
AcDbLine
 10
164.175309969
 20
196.8490420758
 30
0.0
 11
164.1725652658
 21
196.8230947798
 31
0.0
  0
LINE
  5
125
330
1F
100
AcDbEntity
  8
0
  6
Continuous
 62
     7
370
    15
100
AcDbLine
 10
164.6393996248
 20
196.4648342753
 30
0.0
 11
164.6393996248
 21
196.7996702656
 31
0.0
  0
LINE
  5
126
330
1F
100
AcDbEntity
  8
0
  6
Continuous
 62
     7
370
    15
100
AcDbLine
 10
158.6393996248
 20
196.7148342753
 30
0.0
 11
158.6393996248
 21
196.4648342753
 31
0.0
  0
LINE
  5
127
330
1F
100
AcDbEntity
  8
0
  6
Continuous
 62
     7
370
    15
100
AcDbLine
 10
94.6393996248
 20
196.4648342753
 30
0.0
 11
94.6393996248
 21
196.7148342753
 31
0.0
  0
LINE
  5
128
330
1F
100
AcDbEntity
  8
0
  6
Continuous
 62
     7
370
    15
100
AcDbLine
 10
88.6393996248
 20
196.7996702656
 30
0.0
 11
88.6393996248
 21
196.4648342753
 31
0.0
  0
LINE
  5
129
330
1F
100
AcDbEntity
  8
0
  6
Continuous
 62
     7
370
    15
100
AcDbLine
 10
88.5988442863
 20
196.8361403058
 30
0.0
 11
88.8618218591
 21
196.7464233086
 31
0.0
  0
SPLINE
  5
12A
330
1F
100
AcDbEntity
  8
0
  6
Continuous
 62
     7
370
    15
100
AcDbSpline
210
0.0
220
0.0
230
1.0
 70
     8
 71
     3
 72
     9
 73
     5
 74
     0
 42
0.000000001
 43
0.00000001
 40
0.0
 40
0.0
 40
0.0
 40
0.0
 40
0.5980337247274128
 40
1.0
 40
1.0
 40
1.0
 40
1.0
 10
164.0021696083997
 20
196.7464407281982
 30
0.0
 10
164.0604158629848
 20
196.7464412306647
 30
0.0
 10
164.157812133758
 20
196.7464420708623
 30
0.0
 10
164.2048936222533
 20
196.7464429112045
 30
0.0
 10
164.223818792818
 20
196.7464432489938
 30
0.0
  0
LINE
  5
12B
330
1F
100
AcDbEntity
  8
0
  6
Continuous
 62
     7
370
    15
100
AcDbLine
 10
161.640161149
 20
231.7148342753
 30
0.0
 11
91.6386381005
 21
231.7148342753
 31
0.0
  0
LINE
  5
12C
330
1F
100
AcDbEntity
  8
0
  6
Continuous
 62
     7
370
    15
100
AcDbLine
 10
161.640161149
 20
231.7148342753
 30
0.0
 11
161.0635347395
 21
198.6799294625
 31
0.0
  0
LINE
  5
12D
330
1F
100
AcDbEntity
  8
0
  6
Continuous
 62
     7
370
    15
100
AcDbLine
 10
161.0635347406
 20
198.6799294625
 30
0.0
 11
92.2154404285
 21
198.6799294625
 31
0.0
  0
LINE
  5
12E
330
1F
100
AcDbEntity
  8
0
  6
Continuous
 62
     7
370
    15
100
AcDbLine
 10
91.6386381005
 20
231.7148342753
 30
0.0
 11
92.2154404285
 21
198.6799301722
 31
0.0
  0
LINE
  5
12F
330
1F
100
AcDbEntity
  8
0
  6
Continuous
 62
     7
370
    15
100
AcDbLine
 10
91.6386381005
 20
231.7148342753
 30
0.0
 11
86.6393996248
 21
231.7148342753
 31
0.0
  0
SPLINE
  5
130
330
1F
100
AcDbEntity
  8
0
  6
Continuous
 62
     7
370
    15
100
AcDbSpline
210
0.0
220
0.0
230
1.0
 70
     8
 71
     3
 72
    46
 73
    42
 74
     0
 42
0.000000001
 43
0.00000001
 40
0.0
 40
0.0
 40
0.0
 40
0.0
 40
0.0202138246747149
 40
0.0403566299528135
 40
0.0604255272358666
 40
0.0804177070369039
 40
0.1003305114610361
 40
0.1201616216618382
 40
0.1399105946510926
 40
0.1595781620523016
 40
0.1791649660762784
 40
0.1986715824803322
 40
0.2180985711140178
 40
0.2374465235062993
 40
0.2567160299104423
 40
0.2759072133662746
 40
0.2950199092884616
 40
0.3140538885702558
 40
0.3330089073909199
 40
0.3518847535969312
 40
0.3706812902201455
 40
0.3893985083706593
 40
0.4080365177157664
 40
0.4265953604433815
 40
0.4450750081629074
 40
0.4634754042761685
 40
0.4817965037917324
 40
0.5000383106355397
 40
0.5365690209320332
 40
0.5734212047973056
 40
0.6105946013286793
 40
0.6480890554699411
 40
0.6859050228019158
 40
0.7240415811122193
 40
0.7624968780934138
 40
0.8012701619176346
 40
0.8403649955440367
 40
0.8797859977542236
 40
0.9195381074435265
 40
0.959616271370528
 40
1.0
 40
1.0
 40
1.0
 40
1.0
 10
92.215440430014
 20
198.6799305081251
 30
0.0
 10
92.16253314561683
 20
198.6795648563703
 30
0.0
 10
92.05690446165501
 20
198.6788348375441
 30
0.0
 10
91.89890770302478
 20
198.6777907308067
 30
0.0
 10
91.74180480402973
 20
198.6767863634786
 30
0.0
 10
91.58576845330113
 20
198.6758252448582
 30
0.0
 10
91.43096649840157
 20
198.6749064709486
 30
0.0
 10
91.27755928247954
 20
198.6740302707513
 30
0.0
 10
91.12569162895537
 20
198.673196625613
 30
0.0
 10
90.97549299260481
 20
198.6724056047254
 30
0.0
 10
90.82708668695332
 20
198.671657219197
 30
0.0
 10
90.68059251836807
 20
198.670951488615
 30
0.0
 10
90.53612722529286
 20
198.6702884292787
 30
0.0
 10
90.39380428597296
 20
198.6696680575168
 30
0.0
 10
90.25373669686444
 20
198.6690903973776
 30
0.0
 10
90.11602711607078
 20
198.6685554578241
 30
0.0
 10
89.9807747444977
 20
198.6680632484687
 30
0.0
 10
89.84807672421542
 20
198.6676137808776
 30
0.0
 10
89.71802717229434
 20
198.6672070655031
 30
0.0
 10
89.59071747750602
 20
198.6668431120534
 30
0.0
 10
89.46623582594323
 20
198.6665219292329
 30
0.0
 10
89.34466895571653
 20
198.6662435253075
 30
0.0
 10
89.22608592269928
 20
198.6660079088821
 30
0.0
 10
89.11055091859245
 20
198.6658150851634
 30
0.0
 10
88.99812614065996
 20
198.6656650589219
 30
0.0
 10
88.8888716762833
 20
198.6655578320188
 30
0.0
 10
88.78284434905234
 20
198.6654934129868
 30
0.0
 10
88.64561839131804
 20
198.6654645211998
 30
0.0
 10
88.48089256145641
 20
198.6655365280924
 30
0.0
 10
88.29459455317077
 20
198.6657939624379
 30
0.0
 10
88.11994346134713
 20
198.6662226344139
 30
0.0
 10
87.95793082847206
 20
198.6668225235621
 30
0.0
 10
87.80952681375065
 20
198.6675935464243
 30
0.0
 10
87.67557051495812
 20
198.6685356219576
 30
0.0
 10
87.55694782619037
 20
198.6696486948907
 30
0.0
 10
87.45457672796752
 20
198.6709326711569
 30
0.0
 10
87.36925940978541
 20
198.6723876169726
 30
0.0
 10
87.30159801223672
 20
198.6740124483981
 30
0.0
 10
87.25286530996671
 20
198.6758103785482
 30
0.0
 10
87.22192070820962
 20
198.6777672505997
 30
0.0
 10
87.21801624829753
 20
198.6792072580392
 30
0.0
 10
87.21605660448944
 20
198.6799299960686
 30
0.0
  0
LINE
  5
131
330
1F
100
AcDbEntity
  8
0
  6
Continuous
 62
     7
370
    15
100
AcDbLine
 10
86.6393996248
 20
231.7148342753
 30
0.0
 11
87.2160260332
 21
198.6799294625
 31
0.0
  0
LINE
  5
132
330
1F
100
AcDbEntity
  8
0
  6
Continuous
 62
     7
370
    15
100
AcDbLine
 10
166.6393996248
 20
231.7148342753
 30
0.0
 11
161.640161149
 21
231.7148342753
 31
0.0
  0
LINE
  5
133
330
1F
100
AcDbEntity
  8
0
  6
Continuous
 62
     7
370
    15
100
AcDbLine
 10
166.6393996248
 20
231.7148342753
 30
0.0
 11
166.0627732287
 21
198.6799301722
 31
0.0
  0
LINE
  5
134
330
1F
100
AcDbEntity
  8
0
  6
Continuous
 62
     7
370
    15
100
AcDbLine
 10
166.0627732257
 20
198.6799301723
 30
0.0
 11
165.9649474178
 21
198.6739136266
 31
0.0
  0
LINE
  5
135
330
1F
100
AcDbEntity
  8
0
  6
Continuous
 62
     7
370
    15
100
AcDbLine
 10
92.2152844823
 20
196.7824654393
 30
0.0
 11
92.215264509
 21
196.7148342753
 31
0.0
  0
SPLINE
  5
136
330
1F
100
AcDbEntity
  8
0
  6
Continuous
 62
     7
370
    15
100
AcDbSpline
210
0.0
220
0.0
230
1.0
 70
     8
 71
     3
 72
    11
 73
     7
 74
     0
 42
0.000000001
 43
0.00000001
 40
0.0
 40
0.0
 40
0.0
 40
0.0
 40
0.2823331781167839
 40
0.564666356233569
 40
0.8469995343503532
 40
1.0
 40
1.0
 40
1.0
 40
1.0
 10
87.21602603317271
 20
198.6799294624522
 30
0.0
 10
87.24978383868431
 20
198.4208824921087
 30
0.0
 10
87.31729944970752
 20
197.9027885514216
 30
0.0
 10
87.78361018712596
 20
197.2609957072136
 30
0.0
 10
88.33272049226618
 20
196.8561815541222
 30
0.0
 10
88.72939951923672
 20
196.8020697819726
 30
0.0
 10
88.86881460168898
 20
196.7830518943029
 30
0.0
  0
LINE
  5
137
330
1F
100
AcDbEntity
  8
0
  6
Continuous
 62
     7
370
    15
100
AcDbLine
 10
161.0635347406
 20
196.783009018
 30
0.0
 11
161.0635347406
 21
196.7148342753
 31
0.0
  0
LINE
  5
138
330
1F
100
AcDbEntity
  8
0
  6
Continuous
 62
     7
370
    15
100
AcDbLine
 10
92.215264509
 20
196.7148342753
 30
0.0
 11
161.0635347406
 21
196.7148342753
 31
0.0
  0
LINE
  5
139
330
1F
100
AcDbEntity
  8
0
  6
Continuous
 62
     7
370
    15
100
AcDbLine
 10
164.4241230706
 20
196.7858321663
 30
0.0
 11
164.063077826
 21
196.7148342753
 31
0.0
  0
LINE
  5
13A
330
1F
100
AcDbEntity
  8
0
  6
Continuous
 62
     7
370
    15
100
AcDbLine
 10
163.9355313844
 20
196.7148342753
 30
0.0
 11
164.063077826
 21
196.7148342753
 31
0.0
  0
LINE
  5
13B
330
1F
100
AcDbEntity
  8
0
  6
Continuous
 62
     7
370
    15
100
AcDbLine
 10
98.5143996248
 20
232.9648342753
 30
0.0
 11
95.3893996248
 21
232.9648342753
 31
0.0
  0
LINE
  5
13C
330
1F
100
AcDbEntity
  8
0
  6
Continuous
 62
     7
370
    15
100
AcDbLine
 10
98.5143996248
 20
231.7148342753
 30
0.0
 11
98.5143996248
 21
232.9648342753
 31
0.0
  0
LINE
  5
13D
330
1F
100
AcDbEntity
  8
0
  6
Continuous
 62
     7
370
    15
100
AcDbLine
 10
95.3893996248
 20
231.7148342753
 30
0.0
 11
95.3893996248
 21
232.9648342753
 31
0.0
  0
LINE
  5
13E
330
1F
100
AcDbEntity
  8
0
  6
Continuous
 62
     7
370
    15
100
AcDbLine
 10
154.7643996248
 20
231.7148342753
 30
0.0
 11
154.7643996248
 21
232.9648342753
 31
0.0
  0
LINE
  5
13F
330
1F
100
AcDbEntity
  8
0
  6
Continuous
 62
     7
370
    15
100
AcDbLine
 10
154.7643996248
 20
232.9648342753
 30
0.0
 11
98.5143996248
 21
232.9648342753
 31
0.0
  0
LINE
  5
140
330
1F
100
AcDbEntity
  8
0
  6
Continuous
 62
     7
370
    15
100
AcDbLine
 10
157.8893996248
 20
231.7148342753
 30
0.0
 11
157.8893996248
 21
232.9648342753
 31
0.0
  0
LINE
  5
141
330
1F
100
AcDbEntity
  8
0
  6
Continuous
 62
     7
370
    15
100
AcDbLine
 10
157.8893996248
 20
232.9648342753
 30
0.0
 11
154.7643996248
 21
232.9648342753
 31
0.0
  0
LINE
  5
142
330
1F
100
AcDbEntity
  8
0
  6
Continuous
 62
     7
370
    15
100
AcDbLine
 10
158.6393996248
 20
196.4648342753
 30
0.0
 11
164.6393996248
 21
196.4648342753
 31
0.0
  0
LINE
  5
143
330
1F
100
AcDbEntity
  8
0
  6
Continuous
 62
     7
370
    15
100
AcDbLine
 10
88.6393996248
 20
196.4648342753
 30
0.0
 11
94.6393996248
 21
196.4648342753
 31
0.0
  0
LINE
  5
144
330
1F
100
AcDbEntity
  8
0
  6
Continuous
 62
     7
370
    15
100
AcDbLine
 10
91.5712178066
 20
231.7148342753
 30
0.0
 11
91.5712178066
 21
232.9648342753
 31
0.0
  0
LINE
  5
145
330
1F
100
AcDbEntity
  8
0
  6
Continuous
 62
     7
370
    15
100
AcDbLine
 10
91.5712178066
 20
232.9648342753
 30
0.0
 11
95.3893996248
 21
232.9648342753
 31
0.0
  0
LINE
  5
146
330
1F
100
AcDbEntity
  8
0
  6
Continuous
 62
     7
370
    15
100
AcDbLine
 10
161.7075814429
 20
232.9648342753
 30
0.0
 11
161.7075814429
 21
231.7148342753
 31
0.0
  0
LINE
  5
147
330
1F
100
AcDbEntity
  8
0
  6
Continuous
 62
     7
370
    15
100
AcDbLine
 10
157.8893996248
 20
232.9648342753
 30
0.0
 11
161.7075814429
 21
232.9648342753
 31
0.0
  0
LINE
  5
148
330
1F
100
AcDbEntity
  8
0
  6
Continuous
 62
     7
370
    15
100
AcDbLine
 10
88.3893996248
 20
231.7148342753
 30
0.0
 11
88.3893996248
 21
232.9648342753
 31
0.0
  0
LINE
  5
149
330
1F
100
AcDbEntity
  8
0
  6
Continuous
 62
     7
370
    15
100
AcDbLine
 10
91.5712178066
 20
232.9648342753
 30
0.0
 11
88.3893996248
 21
232.9648342753
 31
0.0
  0
LINE
  5
14A
330
1F
100
AcDbEntity
  8
0
  6
Continuous
 62
     7
370
    15
100
AcDbLine
 10
164.8893996248
 20
231.7148342753
 30
0.0
 11
164.8893996248
 21
232.9648342753
 31
0.0
  0
LINE
  5
14B
330
1F
100
AcDbEntity
  8
0
  6
Continuous
 62
     7
370
    15
100
AcDbLine
 10
164.8893996248
 20
232.9648342753
 30
0.0
 11
161.7075814429
 21
232.9648342753
 31
0.0
  0
SPLINE
  5
14C
330
1F
100
AcDbEntity
  8
0
  6
Continuous
 62
     8
370
    15
100
AcDbSpline
210
0.0
220
0.0
230
1.0
 70
     8
 71
     3
 72
    15
 73
    11
 74
     0
 42
0.000000001
 43
0.00000001
 40
0.0
 40
0.0
 40
0.0
 40
0.0
 40
0.0091267158405204
 40
0.1534884377549231
 40
0.2939228572429048
 40
0.4304299542031311
 40
0.5669929560968195
 40
0.7074423145293851
 40
0.8517780312064924
 40
1.0
 40
1.0
 40
1.0
 40
1.0
 10
165.9649474178117
 20
198.6739136265757
 30
0.0
 10
165.9629214181317
 20
198.6737811864822
 30
0.0
 10
165.9288491920211
 20
198.6715538767459
 30
0.0
 10
165.6806815167754
 20
198.6687701413265
 30
0.0
 10
165.2310635821619
 20
198.6659912746657
 30
0.0
 10
164.6183037963827
 20
198.6652208007633
 30
0.0
 10
163.8842751933081
 20
198.6660137835019
 30
0.0
 10
163.0304908720088
 20
198.6686843337926
 30
0.0
 10
162.0764992966197
 20
198.6732299952189
 30
0.0
 10
161.4041666165211
 20
198.6776766174908
 30
0.0
 10
161.0635347395355
 20
198.6799294624522
 30
0.0
  0
SPLINE
  5
14D
330
1F
100
AcDbEntity
  8
0
  6
Continuous
 62
     8
370
    15
100
AcDbSpline
210
0.0
220
0.0
230
1.0
 70
     8
 71
     3
 72
    11
 73
     7
 74
     0
 42
0.000000001
 43
0.00000001
 40
0.0
 40
0.0
 40
0.0
 40
0.0
 40
0.2820195980540517
 40
0.5640391961081029
 40
0.8460587941621543
 40
1.0
 40
1.0
 40
1.0
 40
1.0
 10
92.21544042849048
 20
198.6799301722103
 30
0.0
 10
92.21542576852922
 20
198.4208881197987
 30
0.0
 10
92.21539644860671
 20
197.9028040149754
 30
0.0
 10
92.215352468723
 20
197.2609360782251
 30
0.0
 10
92.2153151466186
 20
196.8557358861239
 30
0.0
 10
92.2152924844755
 20
196.8015861419467
 30
0.0
 10
92.21528448229363
 20
196.7824654392596
 30
0.0
  0
SPLINE
  5
14E
330
1F
100
AcDbEntity
  8
0
  6
Continuous
 62
     8
370
    15
100
AcDbSpline
210
0.0
220
0.0
230
1.0
 70
    24
 71
     3
 72
    11
 73
     7
 74
     0
 42
0.000000001
 43
0.00000001
 40
0.0
 40
0.0
 40
0.0
 40
0.0
 40
0.2823102295214894
 40
0.56462045904298
 40
0.8469306885644697
 40
1.0
 40
1.0
 40
1.0
 40
1.0
 10
161.0635347405755
 20
198.6799294624522
 30
0.0
 10
161.0635347405755
 20
198.4208828577976
 30
0.0
 10
161.0635347405755
 20
197.9027896484884
 30
0.0
 10
161.0635347405755
 20
197.2609913189464
 30
0.0
 10
161.0635347405755
 20
196.8561489768809
 30
0.0
 10
161.0635347405755
 20
196.8020344321621
 30
0.0
 10
161.0635347405755
 20
196.7830090179672
 30
0.0
  0
SPLINE
  5
14F
330
1F
100
AcDbEntity
  8
0
  6
Continuous
 62
     7
370
    15
100
AcDbSpline
210
0.0
220
0.0
230
1.0
 70
     8
 71
     3
 72
    15
 73
    11
 74
     0
 42
0.000000001
 43
0.00000001
 40
0.0
 40
0.0
 40
0.0
 40
0.0
 40
0.1250297609818942
 40
0.2500181803560075
 40
0.3750147041865523
 40
0.5000087147244503
 40
0.6250025662640579
 40
0.7499962284755568
 40
0.8749855083055398
 40
1.0
 40
1.0
 40
1.0
 40
1.0
 10
164.4172532286127
 20
78.46612209057031
 30
0.0
 10
164.4046246978834
 20
78.46612309555451
 30
0.0
 10
164.3793718121009
 20
78.4661251051906
 30
0.0
 10
164.1775231038963
 20
78.46612812104638
 30
0.0
 10
163.8640025929928
 20
78.4661311356833
 30
0.0
 10
163.439031101287
 20
78.46613415051073
 30
0.0
 10
162.9223452866919
 20
78.4661371651194
 30
0.0
 10
162.3332184786713
 20
78.46614017944583
 30
0.0
 10
161.6946545164594
 20
78.46614319423486
 30
0.0
 10
161.2527871777418
 20
78.46614520333033
 30
0.0
 10
161.0318312281202
 20
78.46614620797935
 30
0.0
  0
SPLINE
  5
150
330
1F
100
AcDbEntity
  8
0
  6
Continuous
 62
     7
370
    15
100
AcDbSpline
210
0.0
220
0.0
230
1.0
 70
     8
 71
     3
 72
    11
 73
     7
 74
     0
 42
0.000000001
 43
0.00000001
 40
0.0
 40
0.0
 40
0.0
 40
0.0
 40
0.2498638148680855
 40
0.4997921563659386
 40
0.749838278659976
 40
1.0
 40
1.0
 40
1.0
 40
1.0
 10
92.21526458083962
 20
78.4661462080612
 30
0.0
 10
91.88362125296682
 20
78.46605484049456
 30
0.0
 10
91.22024895126141
 20
78.46587208176587
 30
0.0
 10
90.31599847797828
 20
78.46559636309863
 30
0.0
 10
89.55727694238668
 20
78.46531960677589
 30
0.0
 10
89.25395109797954
 20
78.4651340986505
 30
0.0
 10
89.1022531261674
 20
78.46504132315215
 30
0.0
  0
SPLINE
  5
151
330
1F
100
AcDbEntity
  8
0
  6
Continuous
 62
     7
370
    15
100
AcDbSpline
210
0.0
220
0.0
230
1.0
 70
     8
 71
     3
 72
     9
 73
     5
 74
     0
 42
0.000000001
 43
0.00000001
 40
0.0
 40
0.0
 40
0.0
 40
0.0
 40
0.4789002946184908
 40
1.0
 40
1.0
 40
1.0
 40
1.0
 10
88.86182185905322
 20
78.46614704790748
 30
0.0
 10
88.74634845590467
 20
78.43683820884897
 30
0.0
 10
88.50522644272954
 20
78.37563791436624
 30
0.0
 10
88.46310827341094
 20
78.25039908583548
 30
0.0
 10
88.44116050778783
 20
78.18513716918578
 30
0.0
  0
SPLINE
  5
152
330
1F
100
AcDbEntity
  8
0
  6
Continuous
 62
     7
370
    15
100
AcDbSpline
210
0.0
220
0.0
230
1.0
 70
     8
 71
     3
 72
    11
 73
     7
 74
     0
 42
0.000000001
 43
0.00000001
 40
0.0
 40
0.0
 40
0.0
 40
0.0
 40
0.2554167419668384
 40
0.5148635317493182
 40
0.7663748540538938
 40
1.0
 40
1.0
 40
1.0
 40
1.0
 10
88.56639558449777
 20
78.36352828063214
 30
0.0
 10
88.38638460586
 20
78.2735196736416
 30
0.0
 10
88.02352237724726
 20
78.09208227480026
 30
0.0
 10
87.61954050873919
 20
77.62734860516254
 30
0.0
 10
87.35900135080152
 20
77.08731373439049
 30
0.0
 10
87.32425304351264
 20
76.7015967467502
 30
0.0
 10
87.30751944607559
 20
76.5158486254921
 30
0.0
  0
LINE
  5
153
330
1F
100
AcDbEntity
  8
0
  6
Continuous
 62
     7
370
    15
100
AcDbLine
 10
89.1034892805
 20
78.3635282806
 30
0.0
 11
89.1062339837
 21
78.3894755767
 31
0.0
  0
LINE
  5
154
330
1F
100
AcDbEntity
  8
0
  6
Continuous
 62
     7
370
    15
100
AcDbLine
 10
158.6393996248
 20
78.7477360811
 30
0.0
 11
158.6393996248
 21
78.4977360811
 31
0.0
  0
LINE
  5
155
330
1F
100
AcDbEntity
  8
0
  6
Continuous
 62
     7
370
    15
100
AcDbLine
 10
164.6393996248
 20
78.4129000909
 30
0.0
 11
164.6393996248
 21
78.7477360811
 31
0.0
  0
LINE
  5
156
330
1F
100
AcDbEntity
  8
0
  6
Continuous
 62
     7
370
    15
100
AcDbLine
 10
88.6393996248
 20
78.7477360811
 30
0.0
 11
88.6393996248
 21
78.4129000909
 31
0.0
  0
LINE
  5
157
330
1F
100
AcDbEntity
  8
0
  6
Continuous
 62
     7
370
    15
100
AcDbLine
 10
94.6393996248
 20
78.4977360811
 30
0.0
 11
94.6393996248
 21
78.7477360811
 31
0.0
  0
LINE
  5
158
330
1F
100
AcDbEntity
  8
0
  6
Continuous
 62
     7
370
    15
100
AcDbLine
 10
164.6799549632
 20
78.3764300507
 30
0.0
 11
164.4169773905
 21
78.4661470479
 31
0.0
  0
SPLINE
  5
159
330
1F
100
AcDbEntity
  8
0
  6
Continuous
 62
     7
370
    15
100
AcDbSpline
210
0.0
220
0.0
230
1.0
 70
     8
 71
     3
 72
     9
 73
     5
 74
     0
 42
0.000000001
 43
0.00000001
 40
0.0
 40
0.0
 40
0.0
 40
0.0
 40
0.5980337247337342
 40
1.0
 40
1.0
 40
1.0
 40
1.0
 10
89.27662964111921
 20
78.46612962827201
 30
0.0
 10
89.21838338653343
 20
78.46612912580545
 30
0.0
 10
89.12098711576004
 20
78.46612828560774
 30
0.0
 10
89.07390562726428
 20
78.46612744526534
 30
0.0
 10
89.05498045669964
 20
78.46612710747605
 30
0.0
  0
LINE
  5
15A
330
1F
100
AcDbEntity
  8
0
  6
Continuous
 62
     7
370
    15
100
AcDbLine
 10
91.6386381005
 20
43.4977360811
 30
0.0
 11
161.640161149
 21
43.4977360811
 31
0.0
  0
LINE
  5
15B
330
1F
100
AcDbEntity
  8
0
  6
Continuous
 62
     7
370
    15
100
AcDbLine
 10
91.6386381005
 20
43.4977360811
 30
0.0
 11
92.215264509
 21
76.532640894
 31
0.0
  0
LINE
  5
15C
330
1F
100
AcDbEntity
  8
0
  6
Continuous
 62
     7
370
    15
100
AcDbLine
 10
92.215264509
 20
76.532640894
 30
0.0
 11
161.063358821
 21
76.532640894
 31
0.0
  0
LINE
  5
15D
330
1F
100
AcDbEntity
  8
0
  6
Continuous
 62
     7
370
    15
100
AcDbLine
 10
161.640161149
 20
43.4977360811
 30
0.0
 11
161.063358821
 21
76.5326401843
 31
0.0
  0
LINE
  5
15E
330
1F
100
AcDbEntity
  8
0
  6
Continuous
 62
     7
370
    15
100
AcDbLine
 10
161.640161149
 20
43.4977360811
 30
0.0
 11
166.6393996248
 21
43.4977360811
 31
0.0
  0
SPLINE
  5
15F
330
1F
100
AcDbEntity
  8
0
  6
Continuous
 62
     7
370
    15
100
AcDbSpline
210
0.0
220
0.0
230
1.0
 70
     8
 71
     3
 72
    46
 73
    42
 74
     0
 42
0.000000001
 43
0.00000001
 40
0.0
 40
0.0
 40
0.0
 40
0.0
 40
0.0202138246747149
 40
0.0403566299528135
 40
0.0604255272358666
 40
0.0804177070369039
 40
0.1003305114610361
 40
0.1201616216618382
 40
0.1399105946510926
 40
0.1595781620523016
 40
0.1791649660762784
 40
0.1986715824803322
 40
0.2180985711140178
 40
0.2374465235062993
 40
0.2567160299104423
 40
0.2759072133662746
 40
0.2950199092884616
 40
0.3140538885702558
 40
0.3330089073909199
 40
0.3518847535969312
 40
0.3706812902201455
 40
0.3893985083706593
 40
0.4080365177157664
 40
0.4265953604433815
 40
0.4450750081629074
 40
0.4634754042761685
 40
0.4817965037917324
 40
0.5000383106355397
 40
0.5365690209320332
 40
0.5734212047973056
 40
0.6105946013286793
 40
0.6480890554699411
 40
0.6859050228019158
 40
0.7240415811122193
 40
0.7624968780934138
 40
0.8012701619176346
 40
0.8403649955440367
 40
0.8797859977542236
 40
0.9195381074435265
 40
0.959616271370528
 40
1.0
 40
1.0
 40
1.0
 40
1.0
 10
161.0633588195169
 20
76.5326398483476
 30
0.0
 10
161.1162661039141
 20
76.53300550010242
 30
0.0
 10
161.2218947878759
 20
76.53373551892857
 30
0.0
 10
161.3798915465062
 20
76.53477962566595
 30
0.0
 10
161.5369944455013
 20
76.53578399299404
 30
0.0
 10
161.6930307962298
 20
76.53674511161445
 30
0.0
 10
161.8478327511294
 20
76.53766388552405
 30
0.0
 10
162.0012399670514
 20
76.53854008572141
 30
0.0
 10
162.1531076205756
 20
76.53937373085965
 30
0.0
 10
162.3033062569261
 20
76.54016475174733
 30
0.0
 10
162.4517125625776
 20
76.54091313727562
 30
0.0
 10
162.5982067311629
 20
76.5416188678577
 30
0.0
 10
162.7426720242381
 20
76.54228192719394
 30
0.0
 10
162.884994963558
 20
76.54290229895585
 30
0.0
 10
163.0250625526665
 20
76.54347995909507
 30
0.0
 10
163.1627721334602
 20
76.54401489864858
 30
0.0
 10
163.2980245050333
 20
76.54450710800394
 30
0.0
 10
163.4307225253155
 20
76.54495657559511
 30
0.0
 10
163.5607720772366
 20
76.54536329096956
 30
0.0
 10
163.6880817720249
 20
76.54572724441925
 30
0.0
 10
163.8125634235877
 20
76.54604842723974
 30
0.0
 10
163.9341302938144
 20
76.54632683116517
 30
0.0
 10
164.0527133268317
 20
76.54656244759062
 30
0.0
 10
164.1682483309385
 20
76.5467552713093
 30
0.0
 10
164.280673108871
 20
76.54690529755077
 30
0.0
 10
164.3899275732477
 20
76.54701252445383
 30
0.0
 10
164.4959549004786
 20
76.54707694348585
 30
0.0
 10
164.6331808582129
 20
76.54710583527289
 30
0.0
 10
164.7979066880745
 20
76.5470338283803
 30
0.0
 10
164.9842046963602
 20
76.54677639403477
 30
0.0
 10
165.1588557881838
 20
76.54634772205881
 30
0.0
 10
165.3208684210589
 20
76.54574783291059
 30
0.0
 10
165.4692724357803
 20
76.54497681004838
 30
0.0
 10
165.6032287345728
 20
76.54403473451507
 30
0.0
 10
165.7218514233406
 20
76.54292166158199
 30
0.0
 10
165.8242225215634
 20
76.54163768531573
 30
0.0
 10
165.9095398397455
 20
76.54018273950011
 30
0.0
 10
165.9772012372942
 20
76.5385579080746
 30
0.0
 10
166.0259339395643
 20
76.53675997792448
 30
0.0
 10
166.0568785413213
 20
76.53480310587298
 30
0.0
 10
166.0607830012334
 20
76.53336309843348
 30
0.0
 10
166.0627426450415
 20
76.53264036040414
 30
0.0
  0
LINE
  5
160
330
1F
100
AcDbEntity
  8
0
  6
Continuous
 62
     7
370
    15
100
AcDbLine
 10
166.0627732164
 20
76.532640894
 30
0.0
 11
166.6393996248
 21
43.4977360811
 31
0.0
  0
LINE
  5
161
330
1F
100
AcDbEntity
  8
0
  6
Continuous
 62
     7
370
    15
100
AcDbLine
 10
86.6393996248
 20
43.4977360811
 30
0.0
 11
91.6386381005
 21
43.4977360811
 31
0.0
  0
LINE
  5
162
330
1F
100
AcDbEntity
  8
0
  6
Continuous
 62
     7
370
    15
100
AcDbLine
 10
86.6393996248
 20
43.4977360811
 30
0.0
 11
87.216026027
 21
76.532640539
 31
0.0
  0
LINE
  5
163
330
1F
100
AcDbEntity
  8
0
  6
Continuous
 62
     7
370
    15
100
AcDbLine
 10
87.2160260239
 20
76.5326401842
 30
0.0
 11
87.3138518317
 21
76.5386567299
 31
0.0
  0
LINE
  5
164
330
1F
100
AcDbEntity
  8
0
  6
Continuous
 62
     7
370
    15
100
AcDbLine
 10
161.0635147672
 20
78.4301049172
 30
0.0
 11
161.0635347406
 21
78.4977360811
 31
0.0
  0
SPLINE
  5
165
330
1F
100
AcDbEntity
  8
0
  6
Continuous
 62
     7
370
    15
100
AcDbSpline
210
0.0
220
0.0
230
1.0
 70
     8
 71
     3
 72
    11
 73
     7
 74
     0
 42
0.000000001
 43
0.00000001
 40
0.0
 40
0.0
 40
0.0
 40
0.0
 40
0.1530004656559665
 40
0.4353336437706442
 40
0.7176668218853226
 40
1.0
 40
1.0
 40
1.0
 40
1.0
 10
164.409984647822
 20
78.42951846217372
 30
0.0
 10
164.5493997302811
 20
78.41050057450329
 30
0.0
 10
164.9460787572586
 20
78.35638880235346
 30
0.0
 10
165.4951890624051
 20
77.95157464925951
 30
0.0
 10
165.9614997998234
 20
77.30978180505096
 30
0.0
 10
166.0290154108466
 20
76.79168786436398
 30
0.0
 10
166.0627732163582
 20
76.53264089402049
 30
0.0
  0
LINE
  5
166
330
1F
100
AcDbEntity
  8
0
  6
Continuous
 62
     7
370
    15
100
AcDbLine
 10
92.215264509
 20
78.4295613385
 30
0.0
 11
92.215264509
 21
78.4977360811
 31
0.0
  0
LINE
  5
167
330
1F
100
AcDbEntity
  8
0
  6
Continuous
 62
     7
370
    15
100
AcDbLine
 10
161.0635347406
 20
78.4977360811
 30
0.0
 11
92.215264509
 21
78.4977360811
 31
0.0
  0
LINE
  5
168
330
1F
100
AcDbEntity
  8
0
  6
Continuous
 62
     7
370
    15
100
AcDbLine
 10
88.8546761789
 20
78.4267381902
 30
0.0
 11
89.2157214235
 21
78.4977360811
 31
0.0
  0
LINE
  5
169
330
1F
100
AcDbEntity
  8
0
  6
Continuous
 62
     7
370
    15
100
AcDbLine
 10
89.3432678651
 20
78.4977360811
 30
0.0
 11
89.2157214235
 21
78.4977360811
 31
0.0
  0
LINE
  5
16A
330
1F
100
AcDbEntity
  8
0
  6
Continuous
 62
     7
370
    15
100
AcDbLine
 10
95.3893996248
 20
42.2477360811
 30
0.0
 11
98.5143996248
 21
42.2477360811
 31
0.0
  0
LINE
  5
16B
330
1F
100
AcDbEntity
  8
0
  6
Continuous
 62
     7
370
    15
100
AcDbLine
 10
95.3893996248
 20
43.4977360811
 30
0.0
 11
95.3893996248
 21
42.2477360811
 31
0.0
  0
LINE
  5
16C
330
1F
100
AcDbEntity
  8
0
  6
Continuous
 62
     7
370
    15
100
AcDbLine
 10
98.5143996248
 20
43.4977360811
 30
0.0
 11
98.5143996248
 21
42.2477360811
 31
0.0
  0
LINE
  5
16D
330
1F
100
AcDbEntity
  8
0
  6
Continuous
 62
     7
370
    15
100
AcDbLine
 10
154.7643996248
 20
42.2477360811
 30
0.0
 11
157.8893996248
 21
42.2477360811
 31
0.0
  0
LINE
  5
16E
330
1F
100
AcDbEntity
  8
0
  6
Continuous
 62
     7
370
    15
100
AcDbLine
 10
154.7643996248
 20
42.2477360811
 30
0.0
 11
154.7643996248
 21
43.4977360811
 31
0.0
  0
LINE
  5
16F
330
1F
100
AcDbEntity
  8
0
  6
Continuous
 62
     7
370
    15
100
AcDbLine
 10
157.8893996248
 20
43.4977360811
 30
0.0
 11
157.8893996248
 21
42.2477360811
 31
0.0
  0
LINE
  5
170
330
1F
100
AcDbEntity
  8
0
  6
Continuous
 62
     7
370
    15
100
AcDbLine
 10
98.5143996248
 20
42.2477360811
 30
0.0
 11
154.7643996248
 21
42.2477360811
 31
0.0
  0
LINE
  5
171
330
1F
100
AcDbEntity
  8
0
  6
Continuous
 62
     7
370
    15
100
AcDbLine
 10
161.6393996248
 20
78.7477360811
 30
0.0
 11
158.6393996248
 21
78.7477360811
 31
0.0
  0
LINE
  5
172
330
1F
100
AcDbEntity
  8
0
  6
Continuous
 62
     7
370
    15
100
AcDbLine
 10
164.6393996248
 20
78.7477360811
 30
0.0
 11
161.6393996248
 21
78.7477360811
 31
0.0
  0
LINE
  5
173
330
1F
100
AcDbEntity
  8
0
  6
Continuous
 62
     7
370
    15
100
AcDbLine
 10
91.6393996248
 20
78.7477360811
 30
0.0
 11
88.6393996248
 21
78.7477360811
 31
0.0
  0
LINE
  5
174
330
1F
100
AcDbEntity
  8
0
  6
Continuous
 62
     7
370
    15
100
AcDbLine
 10
94.6393996248
 20
78.7477360811
 30
0.0
 11
91.6393996248
 21
78.7477360811
 31
0.0
  0
LINE
  5
175
330
1F
100
AcDbEntity
  8
0
  6
Continuous
 62
     7
370
    15
100
AcDbLine
 10
161.7075814429
 20
43.4977360811
 30
0.0
 11
161.7075814429
 21
42.2477360811
 31
0.0
  0
LINE
  5
176
330
1F
100
AcDbEntity
  8
0
  6
Continuous
 62
     7
370
    15
100
AcDbLine
 10
161.7075814429
 20
42.2477360811
 30
0.0
 11
157.8893996248
 21
42.2477360811
 31
0.0
  0
LINE
  5
177
330
1F
100
AcDbEntity
  8
0
  6
Continuous
 62
     7
370
    15
100
AcDbLine
 10
91.5712178066
 20
42.2477360811
 30
0.0
 11
91.5712178066
 21
43.4977360811
 31
0.0
  0
LINE
  5
178
330
1F
100
AcDbEntity
  8
0
  6
Continuous
 62
     7
370
    15
100
AcDbLine
 10
95.3893996248
 20
42.2477360811
 30
0.0
 11
91.5712178066
 21
42.2477360811
 31
0.0
  0
LINE
  5
179
330
1F
100
AcDbEntity
  8
0
  6
Continuous
 62
     7
370
    15
100
AcDbLine
 10
88.3893996248
 20
43.4977360811
 30
0.0
 11
88.3893996248
 21
42.2477360811
 31
0.0
  0
LINE
  5
17A
330
1F
100
AcDbEntity
  8
0
  6
Continuous
 62
     7
370
    15
100
AcDbLine
 10
88.3893996248
 20
42.2477360811
 30
0.0
 11
91.5712178066
 21
42.2477360811
 31
0.0
  0
LINE
  5
17B
330
1F
100
AcDbEntity
  8
0
  6
Continuous
 62
     7
370
    15
100
AcDbLine
 10
164.8893996248
 20
43.4977360811
 30
0.0
 11
164.8893996248
 21
42.2477360811
 31
0.0
  0
LINE
  5
17C
330
1F
100
AcDbEntity
  8
0
  6
Continuous
 62
     7
370
    15
100
AcDbLine
 10
161.7075814429
 20
42.2477360811
 30
0.0
 11
164.8893996248
 21
42.2477360811
 31
0.0
  0
SPLINE
  5
17D
330
1F
100
AcDbEntity
  8
0
  6
Continuous
 62
     8
370
    15
100
AcDbSpline
210
0.0
220
0.0
230
1.0
 70
     8
 71
     3
 72
    15
 73
    11
 74
     0
 42
0.000000001
 43
0.00000001
 40
0.0
 40
0.0
 40
0.0
 40
0.0
 40
0.0091267158418961
 40
0.1534884377780442
 40
0.2939228572871779
 40
0.4304299542679648
 40
0.5669929561163072
 40
0.7074423145229588
 40
0.851778031193574
 40
0.9999999999999999
 40
0.9999999999999999
 40
0.9999999999999999
 40
0.9999999999999999
 10
87.3138518317193
 20
76.53865672989699
 30
0.0
 10
87.31587783139923
 20
76.53878916999051
 30
0.0
 10
87.34995005750982
 20
76.54101647972674
 30
0.0
 10
87.59811773275558
 20
76.54380021514608
 30
0.0
 10
88.04773566736885
 20
76.54657908180711
 30
0.0
 10
88.6604954530511
 20
76.54734955570893
 30
0.0
 10
89.39452405589313
 20
76.54655657297222
 30
0.0
 10
90.24830837684567
 20
76.54388602268692
 30
0.0
 10
91.20229995199061
 20
76.53934036126698
 30
0.0
 10
91.87463263199434
 20
76.53489373899846
 30
0.0
 10
92.21526450895412
 20
76.53264089403866
 30
0.0
  0
SPLINE
  5
17E
330
1F
100
AcDbEntity
  8
0
  6
Continuous
 62
     8
370
    15
100
AcDbSpline
210
0.0
220
0.0
230
1.0
 70
     8
 71
     3
 72
    11
 73
     7
 74
     0
 42
0.000000001
 43
0.00000001
 40
0.0
 40
0.0
 40
0.0
 40
0.0
 40
0.2820195980540393
 40
0.5640391961080783
 40
0.8460587941621174
 40
1.0
 40
1.0
 40
1.0
 40
1.0
 10
161.0633588210405
 20
76.53264018426239
 30
0.0
 10
161.0633734810017
 20
76.79168223667402
 30
0.0
 10
161.0634028009243
 20
77.30976634149724
 30
0.0
 10
161.063446780808
 20
77.95163427824764
 30
0.0
 10
161.0634841029124
 20
78.35683447034876
 30
0.0
 10
161.0635067650554
 20
78.41098421452598
 30
0.0
 10
161.0635147672373
 20
78.4301049172131
 30
0.0
  0
SPLINE
  5
17F
330
1F
100
AcDbEntity
  8
0
  6
Continuous
 62
     8
370
    15
100
AcDbSpline
210
0.0
220
0.0
230
1.0
 70
    24
 71
     3
 72
    11
 73
     7
 74
     0
 42
0.000000001
 43
0.00000001
 40
0.0
 40
0.0
 40
0.0
 40
0.0
 40
0.2823102295214894
 40
0.56462045904298
 40
0.8469306885644697
 40
1.0
 40
1.0
 40
1.0
 40
1.0
 10
92.21526450895549
 20
76.53264089402049
 30
0.0
 10
92.21526450895549
 20
76.79168749867509
 30
0.0
 10
92.21526450895549
 20
77.30978070798427
 30
0.0
 10
92.21526450895549
 20
77.95157903752632
 30
0.0
 10
92.21526450895549
 20
78.35642137959181
 30
0.0
 10
92.21526450895547
 20
78.41053592431052
 30
0.0
 10
92.21526450895549
 20
78.42956133850552
 30
0.0
  0
SPLINE
  5
180
330
1F
100
AcDbEntity
  8
0
  6
Continuous
 62
     7
370
    15
100
AcDbSpline
210
0.0
220
0.0
230
1.0
 70
     8
 71
     3
 72
    15
 73
    11
 74
     0
 42
0.000000001
 43
0.00000001
 40
0.0
 40
0.0
 40
0.0
 40
0.0
 40
0.1250297609783448
 40
0.2500181803499195
 40
0.3750147041789405
 40
0.500008714716331
 40
0.6250025662564447
 40
0.7499962284694659
 40
0.8749855083019937
 40
1.0
 40
1.0
 40
1.0
 40
1.0
 10
181.2326208737432
 20
177.4681537912466
 30
0.0
 10
181.2326198687606
 20
177.4555252605272
 30
0.0
 10
181.2326178591277
 20
177.4302723747641
 30
0.0
 10
181.2326148432769
 20
177.228423666596
 30
0.0
 10
181.2326118286449
 20
176.9149031557304
 30
0.0
 10
181.2326088138224
 20
176.489931664061
 30
0.0
 10
181.2326057992186
 20
175.9732458494977
 30
0.0
 10
181.2326027848971
 20
175.3841190415015
 30
0.0
 10
181.2325997701129
 20
174.7455550793054
 30
0.0
 10
181.2325977610207
 20
174.3036877405922
 30
0.0
 10
181.2325967563733
 20
174.0827317909719
 30
0.0
  0
SPLINE
  5
181
330
1F
100
AcDbEntity
  8
0
  6
Continuous
 62
     7
370
    15
100
AcDbSpline
210
0.0
220
0.0
230
1.0
 70
     8
 71
     3
 72
    11
 73
     7
 74
     0
 42
0.000000001
 43
0.00000001
 40
0.0
 40
0.0
 40
0.0
 40
0.0
 40
0.2498638148680868
 40
0.4997921563659442
 40
0.7498382786599822
 40
1.0
 40
1.0
 40
1.0
 40
1.0
 10
181.2325967562915
 20
105.2661651436914
 30
0.0
 10
181.2326881238581
 20
104.9345218158185
 30
0.0
 10
181.2328708825868
 20
104.2711495141131
 30
0.0
 10
181.233146601254
 20
103.36689904083
 30
0.0
 10
181.2334233575768
 20
102.6081775052384
 30
0.0
 10
181.2336088657022
 20
102.3048516608313
 30
0.0
 10
181.2337016412005
 20
102.1531536890192
 30
0.0
  0
SPLINE
  5
182
330
1F
100
AcDbEntity
  8
0
  6
Continuous
 62
     7
370
    15
100
AcDbSpline
210
0.0
220
0.0
230
1.0
 70
     8
 71
     3
 72
     9
 73
     5
 74
     0
 42
0.000000001
 43
0.00000001
 40
0.0
 40
0.0
 40
0.0
 40
0.0
 40
0.4789002946183598
 40
1.0
 40
1.0
 40
1.0
 40
1.0
 10
181.2325959164447
 20
101.9127224219075
 30
0.0
 10
181.2619047555032
 20
101.7972490187587
 30
0.0
 10
181.3231050499859
 20
101.5561270055829
 30
0.0
 10
181.4483438785171
 20
101.5140088362632
 30
0.0
 10
181.513605795167
 20
101.4920610706396
 30
0.0
  0
SPLINE
  5
183
330
1F
100
AcDbEntity
  8
0
  6
Continuous
 62
     7
370
    15
100
AcDbSpline
210
0.0
220
0.0
230
1.0
 70
     8
 71
     3
 72
    11
 73
     7
 74
     0
 42
0.000000001
 43
0.00000001
 40
0.0
 40
0.0
 40
0.0
 40
0.0
 40
0.2554167419667121
 40
0.5148635317491584
 40
0.7663748540538058
 40
1.0
 40
1.0
 40
1.0
 40
1.0
 10
181.3352146837205
 20
101.6172961473498
 30
0.0
 10
181.4252232907111
 20
101.4372851687121
 30
0.0
 10
181.6066606895525
 20
101.0744229400997
 30
0.0
 10
182.0713943591902
 20
100.670441071592
 30
0.0
 10
182.6114292299622
 20
100.4099019136544
 30
0.0
 10
182.9971462176025
 20
100.3751536063649
 30
0.0
 10
183.1828943388606
 20
100.3584200089276
 30
0.0
  0
LINE
  5
184
330
1F
100
AcDbEntity
  8
0
  6
Continuous
 62
     7
370
    15
100
AcDbLine
 10
181.3352146837
 20
102.1543898434
 30
0.0
 11
181.3092673876
 21
102.1571345466
 31
0.0
  0
LINE
  5
185
330
1F
100
AcDbEntity
  8
0
  6
Continuous
 62
     7
370
    15
100
AcDbLine
 10
216.2010068832
 20
115.9391637301
 30
0.0
 11
217.4510068832
 21
115.9391637301
 31
0.0
  0
LINE
  5
186
330
1F
100
AcDbEntity
  8
0
  6
Continuous
 62
     7
370
    15
100
AcDbLine
 10
217.4510068832
 20
163.4414366452
 30
0.0
 11
216.2010068832
 21
163.4414366452
 31
0.0
  0
LINE
  5
187
330
1F
100
AcDbEntity
  8
0
  6
Continuous
 62
     7
370
    15
100
AcDbLine
 10
180.9510068832
 20
109.1903001876
 30
0.0
 11
181.2010068832
 21
109.1903001876
 31
0.0
  0
LINE
  5
188
330
1F
100
AcDbEntity
  8
0
  6
Continuous
 62
     7
370
    15
100
AcDbLine
 10
181.2010068832
 20
115.1903001876
 30
0.0
 11
180.9510068832
 21
115.1903001876
 31
0.0
  0
LINE
  5
189
330
1F
100
AcDbEntity
  8
0
  6
Continuous
 62
     7
370
    15
100
AcDbLine
 10
180.9510068832
 20
164.1903001876
 30
0.0
 11
181.2010068832
 21
164.1903001876
 31
0.0
  0
LINE
  5
18A
330
1F
100
AcDbEntity
  8
0
  6
Continuous
 62
     7
370
    15
100
AcDbLine
 10
181.2010068832
 20
170.1903001876
 30
0.0
 11
180.9510068832
 21
170.1903001876
 31
0.0
  0
LINE
  5
18B
330
1F
100
AcDbEntity
  8
0
  6
Continuous
 62
     7
370
    15
100
AcDbLine
 10
181.3223129137
 20
177.7308555261
 30
0.0
 11
181.2325959164
 21
177.4678779533
 31
0.0
  0
SPLINE
  5
18C
330
1F
100
AcDbEntity
  8
0
  6
Continuous
 62
     7
370
    15
100
AcDbSpline
210
0.0
220
0.0
230
1.0
 70
     8
 71
     3
 72
    15
 73
    11
 74
     0
 42
0.000000001
 43
0.00000001
 40
0.0
 40
0.0
 40
0.0
 40
0.0
 40
0.1250144916973524
 40
0.2500037715294114
 40
0.3749974337421551
 40
0.4999912852821709
 40
0.6249852958196563
 40
0.749981819648955
 40
0.8749702390210025
 40
1.0
 40
1.0
 40
1.0
 40
1.0
 10
181.2325967563733
 20
105.2978685842625
 30
0.0
 10
181.232597761021
 20
105.076912634642
 30
0.0
 10
181.2325997701138
 20
104.635045295928
 30
0.0
 10
181.2326027848989
 20
103.996481333729
 30
0.0
 10
181.2326057992213
 20
103.4073545257283
 30
0.0
 10
181.232608813826
 20
102.8906687111591
 30
0.0
 10
181.2326118286494
 20
102.465697219483
 30
0.0
 10
181.2326148432823
 20
102.1521767086104
 30
0.0
 10
181.2326178591341
 20
101.9503280004356
 30
0.0
 10
181.2326198687675
 20
101.9250751146689
 30
0.0
 10
181.2326208737504
 20
101.9124465839477
 30
0.0
  0
LINE
  5
18D
330
1F
100
AcDbEntity
  8
0
  6
Continuous
 62
     7
370
    15
100
AcDbLine
 10
216.2010068832
 20
104.6895386634
 30
0.0
 11
216.2010068832
 21
174.6910617118
 31
0.0
  0
LINE
  5
18E
330
1F
100
AcDbEntity
  8
0
  6
Continuous
 62
     7
370
    15
100
AcDbLine
 10
216.2010068832
 20
104.6895386634
 30
0.0
 11
183.1661020703
 21
105.2661650728
 31
0.0
  0
LINE
  5
18F
330
1F
100
AcDbEntity
  8
0
  6
Continuous
 62
     7
370
    15
100
AcDbLine
 10
183.1661020703
 20
105.2661650718
 30
0.0
 11
183.1661020703
 21
174.1142593839
 31
0.0
  0
LINE
  5
190
330
1F
100
AcDbEntity
  8
0
  6
Continuous
 62
     7
370
    15
100
AcDbLine
 10
216.2010068832
 20
174.6910617118
 30
0.0
 11
183.1661024253
 21
174.1142593777
 31
0.0
  0
LINE
  5
191
330
1F
100
AcDbEntity
  8
0
  6
Continuous
 62
     7
370
    15
100
AcDbLine
 10
216.2010068832
 20
174.6910617118
 30
0.0
 11
216.2010068832
 21
179.6903001876
 31
0.0
  0
SPLINE
  5
192
330
1F
100
AcDbEntity
  8
0
  6
Continuous
 62
     7
370
    15
100
AcDbSpline
210
0.0
220
0.0
230
1.0
 70
     8
 71
     3
 72
    46
 73
    42
 74
     0
 42
0.000000001
 43
0.00000001
 40
0.0
 40
0.0
 40
0.0
 40
0.0
 40
0.0202138249702739
 40
0.0403566305204715
 40
0.0604255280520309
 40
0.0804177080778667
 40
0.1003305127030061
 40
0.1201616230810039
 40
0.1399105962237986
 40
0.1595781637549157
 40
0.1791649678851873
 40
0.1986715843719314
 40
0.2180985730647098
 40
0.2374465254925012
 40
0.2567160319085578
 40
0.275907215352642
 40
0.2950199112394121
 40
0.3140538904621115
 40
0.333008909200005
 40
0.3518847552995837
 40
0.3706812917927074
 40
0.389398509789488
 40
0.4080365189572237
 40
0.4265953614838197
 40
0.4450750089786729
 40
0.4634754048436147
 40
0.4817965040872151
 40
0.500038310635416
 40
0.5365690214991318
 40
0.5734212058371035
 40
0.6105946027466349
 40
0.6480890571715265
 40
0.6859050246926005
 40
0.7240415830973772
 40
0.7624968800784153
 40
0.801270163808024
 40
0.8403649972455072
 40
0.8797859991723824
 40
0.9195381084838006
 40
0.959616271937882
 40
1.0
 40
1.0
 40
1.0
 40
1.0
 10
183.1661031160051
 20
174.1142593823687
 30
0.0
 10
183.1657374642448
 20
174.1671666675395
 30
0.0
 10
183.1650074454083
 20
174.2727953529872
 30
0.0
 10
183.1639633386559
 20
174.4307921137471
 30
0.0
 10
183.1629589713143
 20
174.5878950146745
 30
0.0
 10
183.1619978526815
 20
174.7439313671329
 30
0.0
 10
183.1610790787608
 20
174.8987333235559
 30
0.0
 10
183.1602028785537
 20
175.0521405407932
 30
0.0
 10
183.1593692334069
 20
175.2040081954245
 30
0.0
 10
183.1585782125122
 20
175.3542068326748
 30
0.0
 10
183.1578298269779
 20
175.5026131390205
 30
0.0
 10
183.1571240963913
 20
175.6491073080969
 30
0.0
 10
183.1564610370518
 20
175.7935726014637
 30
0.0
 10
183.1558406652879
 20
175.93589554088
 30
0.0
 10
183.155263005148
 20
176.0759631298952
 30
0.0
 10
183.154728065595
 20
176.213672710413
 30
0.0
 10
183.1542358562416
 20
176.3489250815344
 30
0.0
 10
183.1537863886537
 20
176.4816231011974
 30
0.0
 10
183.1533796732838
 20
176.6116726523403
 30
0.0
 10
183.1530157198398
 20
176.7389823462013
 30
0.0
 10
183.1526945370265
 20
176.8634639966978
 30
0.0
 10
183.1524161331094
 20
176.985030865731
 30
0.0
 10
183.1521805166937
 20
177.1036138974402
 30
0.0
 10
183.1519876929861
 20
177.2191489001364
 30
0.0
 10
183.1518376667569
 20
177.3315736765682
 30
0.0
 10
183.1517304398675
 20
177.4408281393677
 30
0.0
 10
183.1516660208502
 20
177.5468554649586
 30
0.0
 10
183.1516371290854
 20
177.6840814226609
 30
0.0
 10
183.1517091360047
 20
177.8488072537866
 30
0.0
 10
183.1519665703754
 20
178.0351052641852
 30
0.0
 10
183.1523952423721
 20
178.2097563573369
 30
0.0
 10
183.1529951315355
 20
178.3717689908338
 30
0.0
 10
183.1537661544079
 20
178.5201730055716
 30
0.0
 10
183.1547082299462
 20
178.6541293038825
 30
0.0
 10
183.155821302879
 20
178.7727519917835
 30
0.0
 10
183.1571052791399
 20
178.8751230888799
 30
0.0
 10
183.1585602249449
 20
178.9604404058179
 30
0.0
 10
183.1601850563546
 20
179.0281018021383
 30
0.0
 10
183.1619829864838
 20
179.076834503349
 30
0.0
 10
183.1639398585092
 20
179.1077791043314
 30
0.0
 10
183.1653798659296
 20
179.1116835641395
 30
0.0
 10
183.1661026039485
 20
179.1136432078932
 30
0.0
  0
LINE
  5
193
330
1F
100
AcDbEntity
  8
0
  6
Continuous
 62
     7
370
    15
100
AcDbLine
 10
216.2010068832
 20
179.6903001876
 30
0.0
 11
183.1661020703
 21
179.1136737792
 31
0.0
  0
LINE
  5
194
330
1F
100
AcDbEntity
  8
0
  6
Continuous
 62
     7
370
    15
100
AcDbLine
 10
216.2010068832
 20
99.6903001876
 30
0.0
 11
216.2010068832
 21
104.6895386634
 31
0.0
  0
LINE
  5
195
330
1F
100
AcDbEntity
  8
0
  6
Continuous
 62
     7
370
    15
100
AcDbLine
 10
216.2010068832
 20
99.6903001876
 30
0.0
 11
183.1661027801
 21
100.2669265836
 31
0.0
  0
LINE
  5
196
330
1F
100
AcDbEntity
  8
0
  6
Continuous
 62
     7
370
    15
100
AcDbLine
 10
183.1661027801
 20
100.2669265867
 30
0.0
 11
183.1600862345
 21
100.3647523946
 31
0.0
  0
LINE
  5
197
330
1F
100
AcDbEntity
  8
0
  6
Continuous
 62
     7
370
    15
100
AcDbLine
 10
181.2686380471
 20
174.1144153301
 30
0.0
 11
181.2010068832
 21
174.1144353034
 31
0.0
  0
SPLINE
  5
198
330
1F
100
AcDbEntity
  8
0
  6
Continuous
 62
     7
370
    15
100
AcDbSpline
210
0.0
220
0.0
230
1.0
 70
     8
 71
     3
 72
    11
 73
     7
 74
     0
 42
0.000000001
 43
0.00000001
 40
0.0
 40
0.0
 40
0.0
 40
0.0
 40
0.2823331780918313
 40
0.5646663561836637
 40
0.8469995342754953
 40
1.0
 40
1.0
 40
1.0
 40
1.0
 10
183.1661020703322
 20
179.11367377921
 30
0.0
 10
182.9070550999891
 20
179.0799159736982
 30
0.0
 10
182.3889611593028
 20
179.0124003626748
 30
0.0
 10
181.7471683150888
 20
178.5460896252583
 30
0.0
 10
181.3423541619668
 20
177.9969793200441
 30
0.0
 10
181.2882423898142
 20
177.6003002929904
 30
0.0
 10
181.2692245021363
 20
177.4608852104567
 30
0.0
  0
LINE
  5
199
330
1F
100
AcDbEntity
  8
0
  6
Continuous
 62
     7
370
    15
100
AcDbLine
 10
181.2010068832
 20
110.422371747
 30
0.0
 11
181.2010068832
 21
105.2661650718
 31
0.0
  0
SPLINE
  5
19A
330
1F
100
AcDbEntity
  8
0
  6
Continuous
 62
     7
370
    15
100
AcDbSpline
210
0.0
220
0.0
230
1.0
 70
     8
 71
     3
 72
    18
 73
    14
 74
     0
 42
0.000000001
 43
0.00000001
 40
0.0
 40
0.0
 40
0.0
 40
0.0
 40
0.2500000000000026
 40
0.2500000000000026
 40
0.3750000000000024
 40
0.3750000000000024
 40
0.5000000000000022
 40
0.5000000000000022
 40
0.7500000000000018
 40
0.7500000000000018
 40
0.8750000000000009
 40
0.8750000000000009
 40
1.0
 40
1.0
 40
1.0
 40
1.0
 10
181.2010068834139
 20
113.9582495496341
 30
0.0
 10
181.2010095760664
 20
113.7008429747569
 30
0.0
 10
181.2258499640492
 20
113.4222223470379
 30
0.0
 10
181.2581183194303
 20
112.9713071834275
 30
0.0
 10
181.2681059490727
 20
112.8169875144366
 30
0.0
 10
181.2819368717409
 20
112.5064040705977
 30
0.0
 10
181.2858469336011
 20
112.3492164544333
 30
0.0
 10
181.2858347433655
 20
111.8717041505897
 30
0.0
 10
181.2690615312735
 20
111.5625618250422
 30
0.0
 10
181.2368286256744
 20
111.1116208517461
 30
0.0
 10
181.2253389463383
 20
110.9651590340812
 30
0.0
 10
181.2074863108275
 20
110.685304951002
 30
0.0
 10
181.2010082290587
 20
110.5509889691385
 30
0.0
 10
181.2010068834139
 20
110.4223508256004
 30
0.0
  0
LINE
  5
19B
330
1F
100
AcDbEntity
  8
0
  6
Continuous
 62
     7
370
    15
100
AcDbLine
 10
181.2010068832
 20
165.422371747
 30
0.0
 11
181.2010068832
 21
113.9582286282
 31
0.0
  0
SPLINE
  5
19C
330
1F
100
AcDbEntity
  8
0
  6
Continuous
 62
     7
370
    15
100
AcDbSpline
210
0.0
220
0.0
230
1.0
 70
     8
 71
     3
 72
    18
 73
    14
 74
     0
 42
0.000000001
 43
0.00000001
 40
0.0
 40
0.0
 40
0.0
 40
0.0
 40
0.2500000000000032
 40
0.2500000000000032
 40
0.3750000000000033
 40
0.3750000000000033
 40
0.5000000000000034
 40
0.5000000000000034
 40
0.7500000000000037
 40
0.7500000000000037
 40
0.8750000000000018
 40
0.8750000000000018
 40
1.0
 40
1.0
 40
1.0
 40
1.0
 10
181.2010068834139
 20
168.9582495496341
 30
0.0
 10
181.2010095760664
 20
168.7008429747569
 30
0.0
 10
181.2258499640492
 20
168.4222223470379
 30
0.0
 10
181.2581183194303
 20
167.9713071834275
 30
0.0
 10
181.2681059490727
 20
167.8169875144366
 30
0.0
 10
181.2819368717409
 20
167.5064040705977
 30
0.0
 10
181.2858469336011
 20
167.3492164544333
 30
0.0
 10
181.2858347433656
 20
166.8717041505897
 30
0.0
 10
181.2690615312735
 20
166.5625618250422
 30
0.0
 10
181.2368286256744
 20
166.1116208517461
 30
0.0
 10
181.2253389463383
 20
165.9651590340812
 30
0.0
 10
181.2074863108275
 20
165.6853049510021
 30
0.0
 10
181.2010082290587
 20
165.5509889691385
 30
0.0
 10
181.2010068834139
 20
165.4223508256004
 30
0.0
  0
LINE
  5
19D
330
1F
100
AcDbEntity
  8
0
  6
Continuous
 62
     7
370
    15
100
AcDbLine
 10
181.2010068832
 20
174.1144353034
 30
0.0
 11
181.2010068832
 21
168.9582286282
 31
0.0
  0
LINE
  5
19E
330
1F
100
AcDbEntity
  8
0
  6
Continuous
 62
     7
370
    15
100
AcDbLine
 10
181.2691816258
 20
105.2661650718
 30
0.0
 11
181.2010068832
 21
105.2661650718
 31
0.0
  0
LINE
  5
19F
330
1F
100
AcDbEntity
  8
0
  6
Continuous
 62
     7
370
    15
100
AcDbLine
 10
181.2720047741
 20
101.9055767418
 30
0.0
 11
181.2010068832
 21
102.2666219863
 31
0.0
  0
LINE
  5
1A0
330
1F
100
AcDbEntity
  8
0
  6
Continuous
 62
     7
370
    15
100
AcDbLine
 10
181.2010068832
 20
102.394168428
 30
0.0
 11
181.2010068832
 21
102.2666219863
 31
0.0
  0
LINE
  5
1A1
330
1F
100
AcDbEntity
  8
0
  6
Continuous
 62
     7
370
    15
100
AcDbLine
 10
217.4510068832
 20
115.9396803017
 30
0.0
 11
217.4510068832
 21
119.0641637301
 31
0.0
  0
LINE
  5
1A2
330
1F
100
AcDbEntity
  8
0
  6
Continuous
 62
     7
370
    15
100
AcDbLine
 10
216.2010068832
 20
119.0641637301
 30
0.0
 11
217.4510068832
 21
119.0641637301
 31
0.0
  0
LINE
  5
1A3
330
1F
100
AcDbEntity
  8
0
  6
Continuous
 62
     7
370
    15
100
AcDbLine
 10
217.4510068832
 20
160.3164366452
 30
0.0
 11
217.4510068832
 21
163.4409200736
 31
0.0
  0
LINE
  5
1A4
330
1F
100
AcDbEntity
  8
0
  6
Continuous
 62
     7
370
    15
100
AcDbLine
 10
216.2010068832
 20
160.3164366452
 30
0.0
 11
217.4510068832
 21
160.3164366452
 31
0.0
  0
LINE
  5
1A5
330
1F
100
AcDbEntity
  8
0
  6
Continuous
 62
     7
370
    15
100
AcDbLine
 10
217.4510068832
 20
119.0641637301
 30
0.0
 11
217.4510068832
 21
160.3164366452
 31
0.0
  0
LINE
  5
1A6
330
1F
100
AcDbEntity
  8
0
  6
Continuous
 62
     7
370
    15
100
AcDbLine
 10
180.9510068832
 20
115.1903001876
 30
0.0
 11
180.9510068832
 21
109.1903001876
 31
0.0
  0
LINE
  5
1A7
330
1F
100
AcDbEntity
  8
0
  6
Continuous
 62
     7
370
    15
100
AcDbLine
 10
180.9510068832
 20
170.1903001876
 30
0.0
 11
180.9510068832
 21
164.1903001876
 31
0.0
  0
LINE
  5
1A8
330
1F
100
AcDbEntity
  8
0
  6
Continuous
 62
     7
370
    15
100
AcDbLine
 10
216.2010068832
 20
167.1903001876
 30
0.0
 11
217.4510068832
 21
167.1903001876
 31
0.0
  0
LINE
  5
1A9
330
1F
100
AcDbEntity
  8
0
  6
Continuous
 62
     7
370
    15
100
AcDbLine
 10
217.4510068832
 20
167.1903001876
 30
0.0
 11
217.4510068832
 21
163.4414366452
 31
0.0
  0
LINE
  5
1AA
330
1F
100
AcDbEntity
  8
0
  6
Continuous
 62
     7
370
    15
100
AcDbLine
 10
217.4510068832
 20
112.1903001876
 30
0.0
 11
216.2010068832
 21
112.1903001876
 31
0.0
  0
LINE
  5
1AB
330
1F
100
AcDbEntity
  8
0
  6
Continuous
 62
     7
370
    15
100
AcDbLine
 10
217.4510068832
 20
115.9391637301
 30
0.0
 11
217.4510068832
 21
112.1903001876
 31
0.0
  0
LINE
  5
1AC
330
1F
100
AcDbEntity
  8
0
  6
Continuous
 62
     7
370
    15
100
AcDbLine
 10
216.2010068832
 20
104.5653001876
 30
0.0
 11
217.4510068832
 21
104.5653001876
 31
0.0
  0
LINE
  5
1AD
330
1F
100
AcDbEntity
  8
0
  6
Continuous
 62
     7
370
    15
100
AcDbLine
 10
217.4510068832
 20
104.5653001876
 30
0.0
 11
217.4510068832
 21
112.1903001876
 31
0.0
  0
LINE
  5
1AE
330
1F
100
AcDbEntity
  8
0
  6
Continuous
 62
     7
370
    15
100
AcDbLine
 10
216.2010068832
 20
174.8153001876
 30
0.0
 11
217.4510068832
 21
174.8153001876
 31
0.0
  0
LINE
  5
1AF
330
1F
100
AcDbEntity
  8
0
  6
Continuous
 62
     7
370
    15
100
AcDbLine
 10
217.4510068832
 20
167.1903001876
 30
0.0
 11
217.4510068832
 21
174.8153001876
 31
0.0
  0
LINE
  5
1B0
330
1F
100
AcDbEntity
  8
0
  6
Continuous
 62
     7
370
    15
100
AcDbLine
 10
216.2010068832
 20
101.4403001876
 30
0.0
 11
217.4510068832
 21
101.4403001876
 31
0.0
  0
LINE
  5
1B1
330
1F
100
AcDbEntity
  8
0
  6
Continuous
 62
     7
370
    15
100
AcDbLine
 10
217.4510068832
 20
101.4403001876
 30
0.0
 11
217.4510068832
 21
104.5653001876
 31
0.0
  0
LINE
  5
1B2
330
1F
100
AcDbEntity
  8
0
  6
Continuous
 62
     7
370
    15
100
AcDbLine
 10
216.2010068832
 20
177.9403001876
 30
0.0
 11
217.4510068832
 21
177.9403001876
 31
0.0
  0
LINE
  5
1B3
330
1F
100
AcDbEntity
  8
0
  6
Continuous
 62
     7
370
    15
100
AcDbLine
 10
217.4510068832
 20
174.8153001876
 30
0.0
 11
217.4510068832
 21
177.9403001876
 31
0.0
  0
SPLINE
  5
1B4
330
1F
100
AcDbEntity
  8
0
  6
Continuous
 62
     8
370
    15
100
AcDbSpline
210
0.0
220
0.0
230
1.0
 70
     8
 71
     3
 72
    15
 73
    11
 74
     0
 42
0.000000001
 43
0.00000001
 40
0.0
 40
0.0
 40
0.0
 40
0.0
 40
0.0091267158405416
 40
0.1534884377549421
 40
0.29392285724292
 40
0.4304299542031426
 40
0.5669929560968288
 40
0.7074423145293913
 40
0.8517780312064956
 40
1.0
 40
1.0
 40
1.0
 40
1.0
 10
183.1600862344557
 20
100.364752394571
 30
0.0
 10
183.1599537943621
 20
100.366778394251
 30
0.0
 10
183.157726484626
 20
100.4008506203616
 30
0.0
 10
183.1549427492066
 20
100.6490182956072
 30
0.0
 10
183.1521638825457
 20
101.0986362302208
 30
0.0
 10
183.1513934086433
 20
101.7113960159999
 30
0.0
 10
183.1521863913819
 20
102.4454246190746
 30
0.0
 10
183.1548569416726
 20
103.2992089403739
 30
0.0
 10
183.1594026030989
 20
104.253200515763
 30
0.0
 10
183.1638492253708
 20
104.9255331958616
 30
0.0
 10
183.1661020703322
 20
105.2661650728472
 30
0.0
  0
SPLINE
  5
1B5
330
1F
100
AcDbEntity
  8
0
  6
Continuous
 62
     8
370
    15
100
AcDbSpline
210
0.0
220
0.0
230
1.0
 70
     8
 71
     3
 72
    11
 73
     7
 74
     0
 42
0.000000001
 43
0.00000001
 40
0.0
 40
0.0
 40
0.0
 40
0.0
 40
0.2820195980539016
 40
0.5640391961078028
 40
0.8460587941617043
 40
1.0
 40
1.0
 40
1.0
 40
1.0
 10
183.1661027800903
 20
174.1142593838922
 30
0.0
 10
182.9070607276786
 20
174.1142740438535
 30
0.0
 10
182.3889766228554
 20
174.114303363776
 30
0.0
 10
181.747108686105
 20
174.1143473436597
 30
0.0
 10
181.3419084940037
 20
174.1143846657641
 30
0.0
 10
181.2877587498265
 20
174.1144073279072
 30
0.0
 10
181.2686380471393
 20
174.1144153300891
 30
0.0
  0
SPLINE
  5
1B6
330
1F
100
AcDbEntity
  8
0
  6
Continuous
 62
     8
370
    15
100
AcDbSpline
210
0.0
220
0.0
230
1.0
 70
    24
 71
     3
 72
    11
 73
     7
 74
     0
 42
0.000000001
 43
0.00000001
 40
0.0
 40
0.0
 40
0.0
 40
0.0
 40
0.2823102295214903
 40
0.5646204590429816
 40
0.8469306885644723
 40
0.9999999999999999
 40
0.9999999999999999
 40
0.9999999999999999
 40
0.9999999999999999
 10
183.1661020703322
 20
105.2661650718072
 30
0.0
 10
182.9070554656776
 20
105.2661650718072
 30
0.0
 10
182.3889622563684
 20
105.2661650718072
 30
0.0
 10
181.7471639268263
 20
105.2661650718072
 30
0.0
 10
181.3423215847608
 20
105.2661650718072
 30
0.0
 10
181.2882070400422
 20
105.2661650718072
 30
0.0
 10
181.2691816258472
 20
105.2661650718072
 30
0.0
  0
CIRCLE
  5
1B7
330
1F
100
AcDbEntity
  8
0
  6
Continuous
 62
     7
370
    15
100
AcDbCircle
 10
250.4034521576
 20
167.1903001876
 30
0.0
 40
3.0
  0
CIRCLE
  5
1B8
330
1F
100
AcDbEntity
  8
0
  6
Continuous
 62
     7
370
    15
100
AcDbCircle
 10
250.4034521576
 20
167.1903001876
 30
0.0
 40
1.625
  0
CIRCLE
  5
1B9
330
1F
100
AcDbEntity
  8
0
  6
Continuous
 62
     7
370
    15
100
AcDbCircle
 10
250.4034521576
 20
112.1903001876
 30
0.0
 40
3.0
  0
CIRCLE
  5
1BA
330
1F
100
AcDbEntity
  8
0
  6
Continuous
 62
     7
370
    15
100
AcDbCircle
 10
250.4034521576
 20
112.1903001876
 30
0.0
 40
1.625
  0
CIRCLE
  5
1BB
330
1F
100
AcDbEntity
  8
0
  6
Continuous
 62
     7
370
    15
100
AcDbCircle
 10
320.4034521576
 20
167.1903001876
 30
0.0
 40
1.625
  0
CIRCLE
  5
1BC
330
1F
100
AcDbEntity
  8
0
  6
Continuous
 62
     7
370
    15
100
AcDbCircle
 10
320.4034521576
 20
167.1903001876
 30
0.0
 40
3.0
  0
CIRCLE
  5
1BD
330
1F
100
AcDbEntity
  8
0
  6
Continuous
 62
     7
370
    15
100
AcDbCircle
 10
320.4034521576
 20
112.1903001876
 30
0.0
 40
1.625
  0
CIRCLE
  5
1BE
330
1F
100
AcDbEntity
  8
0
  6
Continuous
 62
     7
370
    15
100
AcDbCircle
 10
320.4034521576
 20
112.1903001876
 30
0.0
 40
3.0
  0
SPLINE
  5
1BF
330
1F
100
AcDbEntity
  8
0
  6
Continuous
 62
     7
370
    15
100
AcDbSpline
210
0.0
220
0.0
230
1.0
 70
     8
 71
     3
 72
    46
 73
    42
 74
     0
 42
0.000000001
 43
0.00000001
 40
0.0
 40
0.0
 40
0.0
 40
0.0
 40
0.0202138246747149
 40
0.0403566299528135
 40
0.0604255272358666
 40
0.0804177070369039
 40
0.1003305114610361
 40
0.1201616216618382
 40
0.1399105946510926
 40
0.1595781620523016
 40
0.1791649660762784
 40
0.1986715824803322
 40
0.2180985711140178
 40
0.2374465235062993
 40
0.2567160299104423
 40
0.2759072133662746
 40
0.2950199092884616
 40
0.3140538885702558
 40
0.3330089073909199
 40
0.3518847535969312
 40
0.3706812902201455
 40
0.3893985083706593
 40
0.4080365177157664
 40
0.4265953604433815
 40
0.4450750081629074
 40
0.4634754042761685
 40
0.4817965037917324
 40
0.5000383106355397
 40
0.5365690209320332
 40
0.5734212047973056
 40
0.6105946013286793
 40
0.6480890554699411
 40
0.6859050228019158
 40
0.7240415811122193
 40
0.7624968780934138
 40
0.8012701619176346
 40
0.8403649955440367
 40
0.8797859977542236
 40
0.9195381074435265
 40
0.959616271370528
 40
1.0
 40
1.0
 40
1.0
 40
1.0
 10
250.9794929628468
 20
179.1136545464843
 30
0.0
 10
250.9265856784497
 20
179.1131575996603
 30
0.0
 10
250.8209569944879
 20
179.1121654519888
 30
0.0
 10
250.6629602358577
 20
179.1043359899186
 30
0.0
 10
250.5058573368626
 20
179.0919450699324
 30
0.0
 10
250.3498209861339
 20
179.0746041971189
 30
0.0
 10
250.1950190312344
 20
179.0525026804352
 30
0.0
 10
250.0416118153124
 20
179.02566971101
 30
0.0
 10
249.8897441617882
 20
178.994200310073
 30
0.0
 10
249.7395455254376
 20
178.9581931874814
 30
0.0
 10
249.5911392197862
 20
178.9177442508681
 30
0.0
 10
249.4446450512009
 20
178.8729484678834
 30
0.0
 10
249.3001797581257
 20
178.8238993744567
 30
0.0
 10
249.1578568188058
 20
178.7706899853958
 30
0.0
 10
249.0177892296973
 20
178.7134106407651
 30
0.0
 10
248.8800796489036
 20
178.6521744872525
 30
0.0
 10
248.7448272773306
 20
178.5870968501186
 30
0.0
 10
248.6121292570483
 20
178.5182904749684
 30
0.0
 10
248.4820797051272
 20
178.4458666087947
 30
0.0
 10
248.3547700103389
 20
178.3699345531012
 30
0.0
 10
248.2302883587761
 20
178.2906022960577
 30
0.0
 10
248.1087214885493
 20
178.2079745294017
 30
0.0
 10
247.9901384555321
 20
178.1221764006971
 30
0.0
 10
247.8746034514253
 20
178.0333327242448
 30
0.0
 10
247.7621786734928
 20
177.9415652665016
 30
0.0
 10
247.6529242091162
 20
177.8469942070427
 30
0.0
 10
247.5468968818852
 20
177.7497357796859
 30
0.0
 10
247.4096709241509
 20
177.6164049612813
 30
0.0
 10
247.2449450942892
 20
177.4419206790463
 30
0.0
 10
247.0586470860036
 20
177.220301377968
 30
0.0
 10
246.88399599418
 20
176.9862258200255
 30
0.0
 10
246.7219833613049
 20
176.740200366284
 30
0.0
 10
246.5735793465835
 20
176.4828162411111
 30
0.0
 10
246.439623047791
 20
176.2148082725542
 30
0.0
 10
246.3210003590232
 20
175.9369381394253
 30
0.0
 10
246.2186292608004
 20
175.6500070598186
 30
0.0
 10
246.1333119426183
 20
175.3549248652033
 30
0.0
 10
246.0656505450696
 20
175.0526466985851
 30
0.0
 10
246.0169178427996
 20
174.7441990829106
 30
0.0
 10
245.9859732410425
 20
174.4307728445538
 30
0.0
 10
245.9820687811304
 20
174.2201477732385
 30
0.0
 10
245.9801091373223
 20
174.1144352992671
 30
0.0
  0
SPLINE
  5
1C0
330
1F
100
AcDbEntity
  8
0
  6
Continuous
 62
     7
370
    15
100
AcDbSpline
210
0.0
220
0.0
230
1.0
 70
     8
 71
     3
 72
    14
 73
    10
 74
     0
 42
0.000000001
 43
0.00000001
 40
0.0
 40
0.0
 40
0.0
 40
0.0
 40
0.25
 40
0.25
 40
0.5
 40
0.5
 40
0.75
 40
0.75
 40
1.0
 40
1.0
 40
1.0
 40
1.0
 10
250.9794929613233
 20
179.1136737915987
 30
0.0
 10
250.9794783013621
 20
179.1091556201125
 30
0.0
 10
250.9794636414008
 20
179.0537564159936
 30
0.0
 10
250.9794343214784
 20
178.8493656227184
 30
0.0
 10
250.9794196615171
 20
178.7004509501236
 30
0.0
 10
250.9793903415946
 20
178.3311433911816
 30
0.0
 10
250.9793756816333
 20
178.1108894830491
 30
0.0
 10
250.9793463617108
 20
177.6316620926594
 30
0.0
 10
250.9793317017496
 20
177.3728689537651
 30
0.0
 10
250.9793170417883
 20
177.1139783888972
 30
0.0
  0
SPLINE
  5
1C1
330
1F
100
AcDbEntity
  8
0
  6
Continuous
 62
     7
370
    15
100
AcDbSpline
210
0.0
220
0.0
230
1.0
 70
     8
 71
     3
 72
    14
 73
    10
 74
     0
 42
0.000000001
 43
0.00000001
 40
0.0
 40
0.0
 40
0.0
 40
0.0
 40
0.25
 40
0.25
 40
0.5
 40
0.5
 40
0.75
 40
0.75
 40
1.0
 40
1.0
 40
1.0
 40
1.0
 10
247.9797739563184
 20
174.1144353034272
 30
0.0
 10
247.9798309709124
 20
174.5069513033312
 30
0.0
 10
248.0578131562521
 20
174.8997054142712
 30
0.0
 10
248.3583541981562
 20
175.625124751232
 30
0.0
 10
248.5806324168263
 20
175.9578971659346
 30
0.0
 10
249.1358860620106
 20
176.5131177959365
 30
0.0
 10
249.4686491949855
 20
176.735418210799
 30
0.0
 10
250.1940587991542
 20
177.0359341352524
 30
0.0
 10
250.5869025429003
 20
177.1139183966022
 30
0.0
 10
250.9793170417883
 20
177.1139783888972
 30
0.0
  0
SPLINE
  5
1C2
330
1F
100
AcDbEntity
  8
0
  6
Continuous
 62
     7
370
    15
100
AcDbSpline
210
0.0
220
0.0
230
1.0
 70
    24
 71
     3
 72
    14
 73
    10
 74
     0
 42
0.000000001
 43
0.00000001
 40
0.0
 40
0.0
 40
0.0
 40
0.0
 40
0.25
 40
0.25
 40
0.5
 40
0.5
 40
0.75
 40
0.75
 40
1.0
 40
1.0
 40
1.0
 40
1.0
 10
245.9800785660056
 20
174.1144353034272
 30
0.0
 10
245.9845968283342
 20
174.1144353034272
 30
0.0
 10
246.0399960994147
 20
174.1144353034272
 30
0.0
 10
246.2443869726273
 20
174.1144353034272
 30
0.0
 10
246.393301658238
 20
174.1144353034272
 30
0.0
 10
246.7626091972003
 20
174.1144353034272
 30
0.0
 10
246.9828630724714
 20
174.1144353034272
 30
0.0
 10
247.4620903707562
 20
174.1144353034272
 30
0.0
 10
247.720883450606
 20
174.1144353034272
 30
0.0
 10
247.9797739563183
 20
174.1144353034272
 30
0.0
  0
SPLINE
  5
1C3
330
1F
100
AcDbEntity
  8
0
  6
Continuous
 62
     7
370
    15
100
AcDbSpline
210
0.0
220
0.0
230
1.0
 70
     8
 71
     3
 72
    46
 73
    42
 74
     0
 42
0.000000001
 43
0.00000001
 40
0.0
 40
0.0
 40
0.0
 40
0.0
 40
0.0202138249702739
 40
0.0403566305204715
 40
0.0604255280520309
 40
0.0804177080778667
 40
0.1003305127030061
 40
0.1201616230810039
 40
0.1399105962237986
 40
0.1595781637549157
 40
0.1791649678851873
 40
0.1986715843719314
 40
0.2180985730647098
 40
0.2374465254925012
 40
0.2567160319085578
 40
0.275907215352642
 40
0.2950199112394121
 40
0.3140538904621115
 40
0.333008909200005
 40
0.3518847552995837
 40
0.3706812917927074
 40
0.389398509789488
 40
0.4080365189572237
 40
0.4265953614838197
 40
0.4450750089786729
 40
0.4634754048436147
 40
0.4817965040872151
 40
0.500038310635416
 40
0.5365690214991318
 40
0.5734212058371035
 40
0.6105946027466349
 40
0.6480890571715265
 40
0.6859050246926005
 40
0.7240415830973772
 40
0.7624968800784153
 40
0.801270163808024
 40
0.8403649972455072
 40
0.8797859991723824
 40
0.9195381084838006
 40
0.959616271937882
 40
1.0
 40
1.0
 40
1.0
 40
1.0
 10
324.8268065164654
 20
174.1142593823687
 30
0.0
 10
324.826309569627
 20
174.1671666675395
 30
0.0
 10
324.8253174219275
 20
174.2727953529872
 30
0.0
 10
324.8174879596408
 20
174.4307921137471
 30
0.0
 10
324.805097039332
 20
174.5878950146745
 30
0.0
 10
324.7877561660962
 20
174.7439313671329
 30
0.0
 10
324.7656546489118
 20
174.8987333235559
 30
0.0
 10
324.7388216789245
 20
175.0521405407932
 30
0.0
 10
324.7073522773854
 20
175.2040081954245
 30
0.0
 10
324.6713451541694
 20
175.3542068326748
 30
0.0
 10
324.6308962169277
 20
175.5026131390205
 30
0.0
 10
324.5861004333275
 20
175.6491073080969
 30
0.0
 10
324.5370513393156
 20
175.7935726014637
 30
0.0
 10
324.483841949716
 20
175.93589554088
 30
0.0
 10
324.4265626046103
 20
176.0759631298952
 30
0.0
 10
324.3653264507044
 20
176.213672710413
 30
0.0
 10
324.3002488132736
 20
176.3489250815344
 30
0.0
 10
324.2314424379374
 20
176.4816231011974
 30
0.0
 10
324.1590185717026
 20
176.6116726523403
 30
0.0
 10
324.0830865160866
 20
176.7389823462013
 30
0.0
 10
324.0037542592712
 20
176.8634639966978
 30
0.0
 10
323.9211264930074
 20
176.985030865731
 30
0.0
 10
323.835328364872
 20
177.1036138974402
 30
0.0
 10
323.7464846891755
 20
177.2191489001364
 30
0.0
 10
323.6547172323848
 20
177.3315736765682
 30
0.0
 10
323.5601461740843
 20
177.4408281393677
 30
0.0
 10
323.4628877480999
 20
177.5468554649586
 30
0.0
 10
323.329556929665
 20
177.6840814226609
 30
0.0
 10
323.1550726459359
 20
177.8488072537866
 30
0.0
 10
322.9334533417774
 20
178.0351052641852
 30
0.0
 10
322.6993777811145
 20
178.2097563573369
 30
0.0
 10
322.4533523251113
 20
178.3717689908338
 30
0.0
 10
322.1959681982312
 20
178.5201730055716
 30
0.0
 10
321.9279602286028
 20
178.6541293038825
 30
0.0
 10
321.6500900951045
 20
178.7727519917835
 30
0.0
 10
321.3631590158858
 20
178.8751230888799
 30
0.0
 10
321.0680768224579
 20
178.9604404058179
 30
0.0
 10
320.7657986578495
 20
179.0281018021383
 30
0.0
 10
320.4573510450171
 20
179.076834503349
 30
0.0
 10
320.1439248103252
 20
179.1077791043314
 30
0.0
 10
319.9332997417339
 20
179.1116835641395
 30
0.0
 10
319.8275872692483
 20
179.1136432078932
 30
0.0
  0
SPLINE
  5
1C4
330
1F
100
AcDbEntity
  8
0
  6
Continuous
 62
     7
370
    15
100
AcDbSpline
210
0.0
220
0.0
230
1.0
 70
     8
 71
     3
 72
    14
 73
    10
 74
     0
 42
0.000000001
 43
0.00000001
 40
0.0
 40
0.0
 40
0.0
 40
0.0
 40
0.25
 40
0.25
 40
0.5
 40
0.5
 40
0.75
 40
0.75
 40
1.0
 40
1.0
 40
1.0
 40
1.0
 10
324.8268257615798
 20
174.1142593838922
 30
0.0
 10
324.8223075900936
 20
174.1142740438535
 30
0.0
 10
324.7669083859747
 20
174.1142887038147
 30
0.0
 10
324.5625175926995
 20
174.1143180237372
 30
0.0
 10
324.4136029201047
 20
174.1143326836985
 30
0.0
 10
324.0442953611627
 20
174.114362003621
 30
0.0
 10
323.8240414530302
 20
174.1143766635822
 30
0.0
 10
323.3448140626405
 20
174.1144059835047
 30
0.0
 10
323.0860209237462
 20
174.114420643466
 30
0.0
 10
322.8271303588783
 20
174.1144353034272
 30
0.0
  0
SPLINE
  5
1C5
330
1F
100
AcDbEntity
  8
0
  6
Continuous
 62
     7
370
    15
100
AcDbSpline
210
0.0
220
0.0
230
1.0
 70
     8
 71
     3
 72
    14
 73
    10
 74
     0
 42
0.000000001
 43
0.00000001
 40
0.0
 40
0.0
 40
0.0
 40
0.0
 40
0.25
 40
0.25
 40
0.5
 40
0.5
 40
0.75
 40
0.75
 40
1.0
 40
1.0
 40
1.0
 40
1.0
 10
319.8275872734083
 20
177.1139783888972
 30
0.0
 10
320.2201032733124
 20
177.1139213743031
 30
0.0
 10
320.6128573842523
 20
177.0359391889634
 30
0.0
 10
321.3382767212131
 20
176.7353981470594
 30
0.0
 10
321.6710491359157
 20
176.5131199283892
 30
0.0
 10
322.2262697659176
 20
175.957866283205
 30
0.0
 10
322.4485701807801
 20
175.6251031502301
 30
0.0
 10
322.7490861052336
 20
174.8996935460613
 30
0.0
 10
322.8270703665833
 20
174.5068498023152
 30
0.0
 10
322.8271303588783
 20
174.1144353034272
 30
0.0
  0
SPLINE
  5
1C6
330
1F
100
AcDbEntity
  8
0
  6
Continuous
 62
     7
370
    15
100
AcDbSpline
210
0.0
220
0.0
230
1.0
 70
    24
 71
     3
 72
    14
 73
    10
 74
     0
 42
0.000000001
 43
0.00000001
 40
0.0
 40
0.0
 40
0.0
 40
0.0
 40
0.25
 40
0.25
 40
0.5
 40
0.5
 40
0.75
 40
0.75
 40
1.0
 40
1.0
 40
1.0
 40
1.0
 10
319.8275871869539
 20
177.1139783888972
 30
0.0
 10
319.827587196569
 20
177.3476130567599
 30
0.0
 10
319.8275872069252
 20
177.5992598626326
 30
0.0
 10
319.8275872269895
 20
178.0868002839595
 30
0.0
 10
319.827587236638
 20
178.3212495700315
 30
0.0
 10
319.8275872526492
 20
178.7103070344348
 30
0.0
 10
319.8275872589603
 20
178.8636601511149
 30
0.0
 10
319.8275872671637
 20
179.0629938359382
 30
0.0
 10
319.8275872690804
 20
179.1095658026007
 30
0.0
 10
319.8275872692483
 20
179.1136432078932
 30
0.0
  0
SPLINE
  5
1C7
330
1F
100
AcDbEntity
  8
0
  6
Continuous
 62
     7
370
    15
100
AcDbSpline
210
0.0
220
0.0
230
1.0
 70
     8
 71
     3
 72
    46
 73
    42
 74
     0
 42
0.000000001
 43
0.00000001
 40
0.0
 40
0.0
 40
0.0
 40
0.0
 40
0.0202138249702739
 40
0.0403566305204715
 40
0.0604255280520309
 40
0.0804177080778667
 40
0.1003305127030061
 40
0.1201616230810039
 40
0.1399105962237986
 40
0.1595781637549157
 40
0.1791649678851873
 40
0.1986715843719314
 40
0.2180985730647098
 40
0.2374465254925012
 40
0.2567160319085578
 40
0.275907215352642
 40
0.2950199112394121
 40
0.3140538904621115
 40
0.333008909200005
 40
0.3518847552995837
 40
0.3706812917927074
 40
0.389398509789488
 40
0.4080365189572237
 40
0.4265953614838197
 40
0.4450750089786729
 40
0.4634754048436147
 40
0.4817965040872151
 40
0.500038310635416
 40
0.5365690214991318
 40
0.5734212058371035
 40
0.6105946027466349
 40
0.6480890571715265
 40
0.6859050246926005
 40
0.7240415830973772
 40
0.7624968800784153
 40
0.801270163808024
 40
0.8403649972455072
 40
0.8797859991723824
 40
0.9195381084838006
 40
0.959616271937882
 40
1.0
 40
1.0
 40
1.0
 40
1.0
 10
245.9800977987313
 20
105.2663409928658
 30
0.0
 10
245.9805947455696
 20
105.2134337076949
 30
0.0
 10
245.9815868932691
 20
105.1078050222472
 30
0.0
 10
245.9894163555558
 20
104.9498082614873
 30
0.0
 10
246.0018072758646
 20
104.7927053605599
 30
0.0
 10
246.0191481491004
 20
104.6366690081016
 30
0.0
 10
246.0412496662848
 20
104.4818670516785
 30
0.0
 10
246.0680826362722
 20
104.3284598344412
 30
0.0
 10
246.0995520378112
 20
104.17659217981
 30
0.0
 10
246.1355591610272
 20
104.0263935425596
 30
0.0
 10
246.1760080982689
 20
103.8779872362139
 30
0.0
 10
246.2208038818691
 20
103.7314930671376
 30
0.0
 10
246.2698529758811
 20
103.5870277737707
 30
0.0
 10
246.3230623654806
 20
103.4447048343544
 30
0.0
 10
246.3803417105864
 20
103.3046372453392
 30
0.0
 10
246.4415778644922
 20
103.1669276648214
 30
0.0
 10
246.506655501923
 20
103.0316752937
 30
0.0
 10
246.5754618772593
 20
102.8989772740371
 30
0.0
 10
246.647885743494
 20
102.7689277228941
 30
0.0
 10
246.7238177991101
 20
102.6416180290331
 30
0.0
 10
246.8031500559255
 20
102.5171363785366
 30
0.0
 10
246.8857778221892
 20
102.3955695095034
 30
0.0
 10
246.9715759503246
 20
102.2769864777942
 30
0.0
 10
247.0604196260211
 20
102.1614514750981
 30
0.0
 10
247.1521870828118
 20
102.0490266986662
 30
0.0
 10
247.2467581411124
 20
101.9397722358668
 30
0.0
 10
247.3440165670967
 20
101.8337449102758
 30
0.0
 10
247.4773473855316
 20
101.6965189525735
 30
0.0
 10
247.6518316692607
 20
101.5317931214478
 30
0.0
 10
247.8734509734193
 20
101.3454951110492
 30
0.0
 10
248.1075265340821
 20
101.1708440178975
 30
0.0
 10
248.3535519900854
 20
101.0088313844007
 30
0.0
 10
248.6109361169654
 20
100.8604273696628
 30
0.0
 10
248.8789440865938
 20
100.7264710713519
 30
0.0
 10
249.1568142200921
 20
100.607848383451
 30
0.0
 10
249.4437452993108
 20
100.5054772863545
 30
0.0
 10
249.7388274927387
 20
100.4201599694165
 30
0.0
 10
250.0411056573471
 20
100.3524985730962
 30
0.0
 10
250.3495532701795
 20
100.3037658718854
 30
0.0
 10
250.6629795048714
 20
100.272821270903
 30
0.0
 10
250.8736045734627
 20
100.2689168110949
 30
0.0
 10
250.9793170459484
 20
100.2669571673412
 30
0.0
  0
SPLINE
  5
1C8
330
1F
100
AcDbEntity
  8
0
  6
Continuous
 62
     7
370
    15
100
AcDbSpline
210
0.0
220
0.0
230
1.0
 70
     8
 71
     3
 72
    14
 73
    10
 74
     0
 42
0.000000001
 43
0.00000001
 40
0.0
 40
0.0
 40
0.0
 40
0.0
 40
0.25
 40
0.25
 40
0.5
 40
0.5
 40
0.75
 40
0.75
 40
1.0
 40
1.0
 40
1.0
 40
1.0
 10
245.9800785536168
 20
105.2663409913422
 30
0.0
 10
245.984596725103
 20
105.266326331381
 30
0.0
 10
246.0399959292219
 20
105.2663116714197
 30
0.0
 10
246.2443867224972
 20
105.2662823514972
 30
0.0
 10
246.393301395092
 20
105.266267691536
 30
0.0
 10
246.762608954034
 20
105.2662383716135
 30
0.0
 10
246.9828628621665
 20
105.2662237116522
 30
0.0
 10
247.4620902525562
 20
105.2661943917297
 30
0.0
 10
247.7208833914504
 20
105.2661797317685
 30
0.0
 10
247.9797739563183
 20
105.2661650718072
 30
0.0
  0
SPLINE
  5
1C9
330
1F
100
AcDbEntity
  8
0
  6
Continuous
 62
     7
370
    15
100
AcDbSpline
210
0.0
220
0.0
230
1.0
 70
     8
 71
     3
 72
    14
 73
    10
 74
     0
 42
0.000000001
 43
0.00000001
 40
0.0
 40
0.0
 40
0.0
 40
0.0
 40
0.25
 40
0.25
 40
0.5
 40
0.5
 40
0.75
 40
0.75
 40
1.0
 40
1.0
 40
1.0
 40
1.0
 10
250.9793170417883
 20
102.2666219863372
 30
0.0
 10
250.5868010418843
 20
102.2666790009313
 30
0.0
 10
250.1940469309444
 20
102.344661186271
 30
0.0
 10
249.4686275939835
 20
102.6452022281751
 30
0.0
 10
249.135855179281
 20
102.8674804468452
 30
0.0
 10
248.5806345492791
 20
103.4227340920295
 30
0.0
 10
248.3583341344165
 20
103.7554972250043
 30
0.0
 10
248.0578182099631
 20
104.4809068291732
 30
0.0
 10
247.9798339486133
 20
104.8737505729192
 30
0.0
 10
247.9797739563183
 20
105.2661650718072
 30
0.0
  0
SPLINE
  5
1CA
330
1F
100
AcDbEntity
  8
0
  6
Continuous
 62
     7
370
    15
100
AcDbSpline
210
0.0
220
0.0
230
1.0
 70
    24
 71
     3
 72
    14
 73
    10
 74
     0
 42
0.000000001
 43
0.00000001
 40
0.0
 40
0.0
 40
0.0
 40
0.0
 40
0.25
 40
0.25
 40
0.5
 40
0.5
 40
0.75
 40
0.75
 40
1.0
 40
1.0
 40
1.0
 40
1.0
 10
250.9793171282427
 20
102.2666219863372
 30
0.0
 10
250.9793171186277
 20
102.0329873184745
 30
0.0
 10
250.9793171082714
 20
101.7813405126018
 30
0.0
 10
250.9793170882072
 20
101.2938000912749
 30
0.0
 10
250.9793170785587
 20
101.059350805203
 30
0.0
 10
250.9793170625474
 20
100.6702933407996
 30
0.0
 10
250.9793170562363
 20
100.5169402241196
 30
0.0
 10
250.9793170480329
 20
100.3176065392962
 30
0.0
 10
250.9793170461163
 20
100.2710345726337
 30
0.0
 10
250.9793170459484
 20
100.2669571673412
 30
0.0
  0
SPLINE
  5
1CB
330
1F
100
AcDbEntity
  8
0
  6
Continuous
 62
     7
370
    15
100
AcDbSpline
210
0.0
220
0.0
230
1.0
 70
     8
 71
     3
 72
    46
 73
    42
 74
     0
 42
0.000000001
 43
0.00000001
 40
0.0
 40
0.0
 40
0.0
 40
0.0
 40
0.0202138246747149
 40
0.0403566299528135
 40
0.0604255272358666
 40
0.0804177070369039
 40
0.1003305114610361
 40
0.1201616216618382
 40
0.1399105946510926
 40
0.1595781620523016
 40
0.1791649660762784
 40
0.1986715824803322
 40
0.2180985711140178
 40
0.2374465235062993
 40
0.2567160299104423
 40
0.2759072133662746
 40
0.2950199092884616
 40
0.3140538885702558
 40
0.3330089073909199
 40
0.3518847535969312
 40
0.3706812902201455
 40
0.3893985083706593
 40
0.4080365177157664
 40
0.4265953604433815
 40
0.4450750081629074
 40
0.4634754042761685
 40
0.4817965037917324
 40
0.5000383106355397
 40
0.5365690209320332
 40
0.5734212047973056
 40
0.6105946013286793
 40
0.6480890554699411
 40
0.6859050228019158
 40
0.7240415811122193
 40
0.7624968780934138
 40
0.8012701619176346
 40
0.8403649955440367
 40
0.8797859977542236
 40
0.9195381074435265
 40
0.959616271370528
 40
1.0
 40
1.0
 40
1.0
 40
1.0
 10
319.8274113523498
 20
100.2669458287502
 30
0.0
 10
319.880318636747
 20
100.2674427755742
 30
0.0
 10
319.9859473207088
 20
100.2684349232457
 30
0.0
 10
320.143944079339
 20
100.2762643853159
 30
0.0
 10
320.3010469783341
 20
100.2886553053021
 30
0.0
 10
320.4570833290626
 20
100.3059961781155
 30
0.0
 10
320.6118852839622
 20
100.3280976947992
 30
0.0
 10
320.7652924998842
 20
100.3549306642245
 30
0.0
 10
320.9171601534084
 20
100.3864000651614
 30
0.0
 10
321.067358789759
 20
100.4224071877531
 30
0.0
 10
321.2157650954105
 20
100.4628561243663
 30
0.0
 10
321.3622592639957
 20
100.507651907351
 30
0.0
 10
321.5067245570709
 20
100.5567010007778
 30
0.0
 10
321.6490474963908
 20
100.6099103898386
 30
0.0
 10
321.7891150854994
 20
100.6671897344693
 30
0.0
 10
321.926824666293
 20
100.728425887982
 30
0.0
 10
322.0620770378661
 20
100.7935035251158
 30
0.0
 10
322.1947750581484
 20
100.8623099002661
 30
0.0
 10
322.3248246100695
 20
100.9347337664397
 30
0.0
 10
322.4521343048577
 20
101.0106658221332
 30
0.0
 10
322.5766159564205
 20
101.0899980791767
 30
0.0
 10
322.6981828266473
 20
101.1726258458328
 30
0.0
 10
322.8167658596645
 20
101.2584239745373
 30
0.0
 10
322.9323008637713
 20
101.3472676509896
 30
0.0
 10
323.0447256417038
 20
101.4390351087329
 30
0.0
 10
323.1539801060805
 20
101.5336061681918
 30
0.0
 10
323.2600074333114
 20
101.6308645955485
 30
0.0
 10
323.3972333910457
 20
101.7641954139532
 30
0.0
 10
323.5619592209073
 20
101.9386796961881
 30
0.0
 10
323.748257229193
 20
102.1602989972665
 30
0.0
 10
323.9229083210167
 20
102.3943745552089
 30
0.0
 10
324.0849209538918
 20
102.6404000089505
 30
0.0
 10
324.2333249686131
 20
102.8977841341233
 30
0.0
 10
324.3672812674056
 20
103.1657921026802
 30
0.0
 10
324.4859039561734
 20
103.4436622358092
 30
0.0
 10
324.5882750543963
 20
103.7305933154158
 30
0.0
 10
324.6735923725784
 20
104.0256755100311
 30
0.0
 10
324.7412537701271
 20
104.3279536766494
 30
0.0
 10
324.7899864723971
 20
104.6364012923239
 30
0.0
 10
324.8209310741541
 20
104.9498275306806
 30
0.0
 10
324.8248355340663
 20
105.1604526019959
 30
0.0
 10
324.8267951778744
 20
105.2661650759673
 30
0.0
  0
SPLINE
  5
1CC
330
1F
100
AcDbEntity
  8
0
  6
Continuous
 62
     7
370
    15
100
AcDbSpline
210
0.0
220
0.0
230
1.0
 70
     8
 71
     3
 72
    14
 73
    10
 74
     0
 42
0.000000001
 43
0.00000001
 40
0.0
 40
0.0
 40
0.0
 40
0.0
 40
0.25
 40
0.25
 40
0.5
 40
0.5
 40
0.75
 40
0.75
 40
1.0
 40
1.0
 40
1.0
 40
1.0
 10
319.8274113538733
 20
100.2669265836357
 30
0.0
 10
319.8274260138346
 20
100.2714447551219
 30
0.0
 10
319.8274406737958
 20
100.3268439592408
 30
0.0
 10
319.8274699937183
 20
100.531234752516
 30
0.0
 10
319.8274846536796
 20
100.6801494251109
 30
0.0
 10
319.8275139736021
 20
101.0494569840529
 30
0.0
 10
319.8275286335634
 20
101.2697108921854
 30
0.0
 10
319.8275579534858
 20
101.7489382825751
 30
0.0
 10
319.8275726134471
 20
102.0077314214693
 30
0.0
 10
319.8275872734083
 20
102.2666219863372
 30
0.0
  0
SPLINE
  5
1CD
330
1F
100
AcDbEntity
  8
0
  6
Continuous
 62
     7
370
    15
100
AcDbSpline
210
0.0
220
0.0
230
1.0
 70
     8
 71
     3
 72
    14
 73
    10
 74
     0
 42
0.000000001
 43
0.00000001
 40
0.0
 40
0.0
 40
0.0
 40
0.0
 40
0.25
 40
0.25
 40
0.5
 40
0.5
 40
0.75
 40
0.75
 40
1.0
 40
1.0
 40
1.0
 40
1.0
 10
322.8271303588783
 20
105.2661650718073
 30
0.0
 10
322.8270733442843
 20
104.8736490719032
 30
0.0
 10
322.7490911589446
 20
104.4808949609632
 30
0.0
 10
322.4485501170404
 20
103.7554756240024
 30
0.0
 10
322.2262718983704
 20
103.4227032092998
 30
0.0
 10
321.671018253186
 20
102.867482579298
 30
0.0
 10
321.3382551202112
 20
102.6451821644354
 30
0.0
 10
320.6128455160423
 20
102.344666239982
 30
0.0
 10
320.2200017722963
 20
102.2666819786322
 30
0.0
 10
319.8275872734083
 20
102.2666219863372
 30
0.0
  0
SPLINE
  5
1CE
330
1F
100
AcDbEntity
  8
0
  6
Continuous
 62
     7
370
    15
100
AcDbSpline
210
0.0
220
0.0
230
1.0
 70
    24
 71
     3
 72
    14
 73
    10
 74
     0
 42
0.000000001
 43
0.00000001
 40
0.0
 40
0.0
 40
0.0
 40
0.0
 40
0.25
 40
0.25
 40
0.5
 40
0.5
 40
0.75
 40
0.75
 40
1.0
 40
1.0
 40
1.0
 40
1.0
 10
322.8271303588783
 20
105.2661651582616
 30
0.0
 10
323.060765026741
 20
105.2661651486466
 30
0.0
 10
323.3124118326137
 20
105.2661651382903
 30
0.0
 10
323.7999522539406
 20
105.2661651182261
 30
0.0
 10
324.0344015400125
 20
105.2661651085776
 30
0.0
 10
324.4234590044159
 20
105.2661650925663
 30
0.0
 10
324.5768121210959
 20
105.2661650862553
 30
0.0
 10
324.7761458059193
 20
105.2661650780518
 30
0.0
 10
324.8227177725818
 20
105.2661650761352
 30
0.0
 10
324.8267951778744
 20
105.2661650759673
 30
0.0
  0
LINE
  5
1CF
330
1F
100
AcDbEntity
  8
0
  6
Continuous
 62
     7
370
    15
100
AcDbLine
 10
250.9793170418
 20
177.1139783889
 30
0.0
 11
319.8275872734
 21
177.1139783889
 31
0.0
  0
LINE
  5
1D0
330
1F
100
AcDbEntity
  8
0
  6
Continuous
 62
     7
370
    15
100
AcDbLine
 10
319.8275872734
 20
102.2666219863
 30
0.0
 11
250.9793170418
 21
102.2666219863
 31
0.0
  0
LINE
  5
1D1
330
1F
100
AcDbEntity
  8
0
  6
Continuous
 62
     7
370
    15
100
AcDbLine
 10
245.980078566
 20
174.1144353034
 30
0.0
 11
245.980078566
 21
105.2663409913
 31
0.0
  0
LINE
  5
1D2
330
1F
100
AcDbEntity
  8
0
  6
Continuous
 62
     7
370
    15
100
AcDbLine
 10
324.8268257492
 20
105.2661650718
 30
0.0
 11
324.8268257492
 21
174.1142593839
 31
0.0
  0
LINE
  5
1D3
330
1F
100
AcDbEntity
  8
0
  6
Continuous
 62
     7
370
    15
100
AcDbLine
 10
319.8275872734
 20
179.1136737792
 30
0.0
 11
250.9794929613
 21
179.1136737792
 31
0.0
  0
LINE
  5
1D4
330
1F
100
AcDbEntity
  8
0
  6
Continuous
 62
     7
370
    15
100
AcDbLine
 10
250.9793170418
 20
100.266926596
 30
0.0
 11
319.8274113539
 21
100.266926596
 31
0.0
  0
ELLIPSE
  5
1D5
330
1F
100
AcDbEntity
  8
0
  6
Continuous
 62
     7
370
    15
100
AcDbEllipse
 10
250.4042137978
 20
174.6895385474
 30
0.0
 11
3.536610945847912
 21
-3.536610945847912
 31
0.0
210
0.0
220
0.0
230
1.0
 40
0.9996954599
 41
2.356346783440146
 42
3.926838523739454
  0
LINE
  5
1D6
330
1F
100
AcDbEntity
  8
0
  6
Continuous
 62
     7
370
    15
100
AcDbLine
 10
250.4026906334
 20
179.6903001876
 30
0.0
 11
250.9794929613
 21
179.1136737916
 31
0.0
  0
LINE
  5
1D7
330
1F
100
AcDbEntity
  8
0
  6
Continuous
 62
     7
370
    15
100
AcDbLine
 10
245.980078566
 20
174.1144353024
 30
0.0
 11
245.4034521576
 21
174.6910617118
 31
0.0
  0
ELLIPSE
  5
1D8
330
1F
100
AcDbEntity
  8
0
  6
Continuous
 62
     7
370
    15
100
AcDbEllipse
 10
320.4026905174
 20
174.6895385474
 30
0.0
 11
-3.536610945847883
 21
-3.536610945847911
 31
0.0
210
0.0
220
0.0
230
1.0
 40
0.9996954599
 41
2.356346783440139
 42
3.926838523739669
  0
LINE
  5
1D9
330
1F
100
AcDbEntity
  8
0
  6
Continuous
 62
     7
370
    15
100
AcDbLine
 10
325.4034521576
 20
174.6910617118
 30
0.0
 11
324.8268257554
 21
174.1142593777
 31
0.0
  0
LINE
  5
1DA
330
1F
100
AcDbEntity
  8
0
  6
Continuous
 62
     7
370
    15
100
AcDbLine
 10
320.4042136818
 20
179.6903001876
 30
0.0
 11
319.8275872734
 21
179.1136737792
 31
0.0
  0
ELLIPSE
  5
1DB
330
1F
100
AcDbEntity
  8
0
  6
Continuous
 62
     7
370
    15
100
AcDbEllipse
 10
250.4042137978
 20
104.6910618278
 30
0.0
 11
3.536610945847912
 21
3.536610945847912
 31
0.0
210
0.0
220
0.0
230
1.0
 40
0.9996954599
 41
2.356346783440141
 42
3.926838523739454
  0
LINE
  5
1DC
330
1F
100
AcDbEntity
  8
0
  6
Continuous
 62
     7
370
    15
100
AcDbLine
 10
245.4034521576
 20
104.6895386634
 30
0.0
 11
245.9800785536
 21
105.2663409913
 31
0.0
  0
LINE
  5
1DD
330
1F
100
AcDbEntity
  8
0
  6
Continuous
 62
     7
370
    15
100
AcDbLine
 10
250.4026906334
 20
99.6903001876
 30
0.0
 11
250.9793170428
 21
100.266926596
 31
0.0
  0
ELLIPSE
  5
1DE
330
1F
100
AcDbEntity
  8
0
  6
Continuous
 62
     7
370
    15
100
AcDbEllipse
 10
320.4026905174
 20
104.6910618278
 30
0.0
 11
-3.536610945847883
 21
3.536610945847911
 31
0.0
210
0.0
220
0.0
230
1.0
 40
0.9996954599
 41
2.356346783440157
 42
3.926838523739463
  0
LINE
  5
1DF
330
1F
100
AcDbEntity
  8
0
  6
Continuous
 62
     7
370
    15
100
AcDbLine
 10
320.4042136818
 20
99.6903001876
 30
0.0
 11
319.8274113539
 21
100.2669265836
 31
0.0
  0
LINE
  5
1E0
330
1F
100
AcDbEntity
  8
0
  6
Continuous
 62
     7
370
    15
100
AcDbLine
 10
325.4034521576
 20
104.6895386634
 30
0.0
 11
324.8268257492
 21
105.2661650728
 31
0.0
  0
LINE
  5
1E1
330
1F
100
AcDbEntity
  8
0
  6
Continuous
 62
     7
370
    15
100
AcDbLine
 10
245.4034521576
 20
174.6910617118
 30
0.0
 11
245.4034521576
 21
104.6895386634
 31
0.0
  0
LINE
  5
1E2
330
1F
100
AcDbEntity
  8
0
  6
Continuous
 62
     7
370
    15
100
AcDbLine
 10
320.4042136818
 20
179.6903001876
 30
0.0
 11
250.4026906334
 21
179.6903001876
 31
0.0
  0
LINE
  5
1E3
330
1F
100
AcDbEntity
  8
0
  6
Continuous
 62
     7
370
    15
100
AcDbLine
 10
250.4026906334
 20
99.6903001876
 30
0.0
 11
320.4042136818
 21
99.6903001876
 31
0.0
  0
LINE
  5
1E4
330
1F
100
AcDbEntity
  8
0
  6
Continuous
 62
     7
370
    15
100
AcDbLine
 10
325.4034521576
 20
104.6895386634
 30
0.0
 11
325.4034521576
 21
174.6910617118
 31
0.0
  0
LINE
  5
1E5
330
1F
100
AcDbEntity
  8
0
  6
Continuous
 62
     8
370
    15
100
AcDbLine
 10
247.9797739563
 20
113.9582888688
 30
0.0
 11
247.9797739563
 21
165.4223115065
 31
0.0
  0
LINE
  5
1E6
330
1F
100
AcDbEntity
  8
0
  6
Continuous
 62
     8
370
    15
100
AcDbLine
 10
247.9797739563
 20
168.9582888688
 30
0.0
 11
247.9797739563
 21
174.1144353034
 31
0.0
  0
LINE
  5
1E7
330
1F
100
AcDbEntity
  8
0
  6
Continuous
 62
     8
370
    15
100
AcDbLine
 10
322.8271303589
 20
174.1144353034
 30
0.0
 11
322.8271303589
 21
168.9582888688
 31
0.0
  0
LINE
  5
1E8
330
1F
100
AcDbEntity
  8
0
  6
Continuous
 62
     8
370
    15
100
AcDbLine
 10
322.8271303589
 20
165.4223115065
 30
0.0
 11
322.8271303589
 21
113.9582888688
 31
0.0
  0
LINE
  5
1E9
330
1F
100
AcDbEntity
  8
0
  6
Continuous
 62
     8
370
    15
100
AcDbLine
 10
322.8271303589
 20
110.4223115065
 30
0.0
 11
322.8271303589
 21
105.2661650718
 31
0.0
  0
LINE
  5
1EA
330
1F
100
AcDbEntity
  8
0
  6
Continuous
 62
     8
370
    15
100
AcDbLine
 10
247.9797739563
 20
105.2661650718
 30
0.0
 11
247.9797739563
 21
110.4223115065
 31
0.0
  0
ENDSEC
  0
SECTION
  2
OBJECTS
  0
DICTIONARY
  5
C
330
0
100
AcDbDictionary
281
     1
  3
ACAD_GROUP
350
D
  3
ACAD_LAYOUT
350
1A
  3
ACAD_MLINESTYLE
350
17
  3
ACAD_PLOTSETTINGS
350
19
  3
ACAD_PLOTSTYLENAME
350
E
  3
ACAD_SCALELIST
350
47
  0
DICTIONARY
  5
D
102
{ACAD_REACTORS
330
C
102
}
330
C
100
AcDbDictionary
281
     1
  0
DICTIONARY
  5
1A
102
{ACAD_REACTORS
330
C
102
}
330
C
100
AcDbDictionary
281
     1
  3
Layout1
350
1E
  3
Layout2
350
26
  3
Model
350
22
  0
DICTIONARY
  5
17
102
{ACAD_REACTORS
330
C
102
}
330
C
100
AcDbDictionary
281
     1
  3
Standard
350
18
  0
DICTIONARY
  5
19
102
{ACAD_REACTORS
330
C
102
}
330
C
100
AcDbDictionary
281
     1
  0
ACDBDICTIONARYWDFLT
  5
E
102
{ACAD_REACTORS
330
C
102
}
330
C
100
AcDbDictionary
281
     1
  3
Normal
350
F
100
AcDbDictionaryWithDefault
340
F
  0
DICTIONARY
  5
47
102
{ACAD_REACTORS
330
C
102
}
330
C
100
AcDbDictionary
281
     1
  3
A0
350
48
  3
A1
350
49
  3
A2
350
4A
  3
A3
350
4B
  3
A4
350
4C
  3
A5
350
4D
  3
A6
350
4E
  3
A7
350
4F
  3
A8
350
50
  3
A9
350
51
  3
B0
350
52
  3
B1
350
53
  3
B2
350
54
  3
B3
350
55
  3
B4
350
56
  3
B5
350
57
  3
B6
350
58
  3
B7
350
59
  3
B8
350
5A
  3
B9
350
5B
  3
C0
350
5C
  3
C1
350
5D
  3
C2
350
5E
  3
C3
350
5F
  3
C4
350
60
  3
C5
350
61
  3
C6
350
62
  3
C7
350
63
  3
C8
350
64
  3
C9
350
65
  3
D0
350
66
  3
D1
350
67
  3
D2
350
68
  0
LAYOUT
  5
1E
102
{ACAD_REACTORS
330
1A
102
}
330
1A
100
AcDbPlotSettings
  1

  2
none_device
  4

  6

 40
0.0
 41
0.0
 42
0.0
 43
0.0
 44
0.0
 45
0.0
 46
0.0
 47
0.0
 48
0.0
 49
0.0
140
0.0
141
0.0
142
1.0
143
1.0
 70
   688
 72
     1
 73
     0
 74
     5
  7

 75
    16
147
1.0
148
0.0
149
0.0
100
AcDbLayout
  1
Layout1
 70
     1
 71
     1
 10
0.0
 20
0.0
 11
420.0
 21
297.0
 12
0.0
 22
0.0
 32
0.0
 14
1.0000000000E+20
 24
1.0000000000E+20
 34
1.0000000000E+20
 15
-1.0000000000E+20
 25
-1.0000000000E+20
 35
-1.0000000000E+20
146
0.0
 13
0.0
 23
0.0
 33
0.0
 16
1.0
 26
0.0
 36
0.0
 17
0.0
 27
1.0
 37
0.0
 76
     0
330
1B
  0
LAYOUT
  5
26
102
{ACAD_REACTORS
330
1A
102
}
330
1A
100
AcDbPlotSettings
  1

  2
none_device
  4

  6

 40
0.0
 41
0.0
 42
0.0
 43
0.0
 44
0.0
 45
0.0
 46
0.0
 47
0.0
 48
0.0
 49
0.0
140
0.0
141
0.0
142
1.0
143
1.0
 70
   688
 72
     1
 73
     0
 74
     5
  7

 75
    16
147
1.0
148
0.0
149
0.0
100
AcDbLayout
  1
Layout2
 70
     1
 71
     2
 10
0.0
 20
0.0
 11
0.0
 21
0.0
 12
0.0
 22
0.0
 32
0.0
 14
0.0
 24
0.0
 34
0.0
 15
0.0
 25
0.0
 35
0.0
146
0.0
 13
0.0
 23
0.0
 33
0.0
 16
1.0
 26
0.0
 36
0.0
 17
0.0
 27
1.0
 37
0.0
 76
     0
330
23
  0
LAYOUT
  5
22
102
{ACAD_REACTORS
330
1A
102
}
330
1A
100
AcDbPlotSettings
  1

  2
none_device
  4
Letter_(8.50_x_11.00_Inches)
  6

 40
6.35
 41
6.35
 42
6.35000508
 43
6.35000508
 44
215.9
 45
279.4
 46
0.0
 47
0.0
 48
0.0
 49
0.0
140
0.0
141
0.0
142
1.0
143
1.0
 70
  1712
 72
     1
 73
     0
 74
     0
  7

 75
     0
147
1.0
148
0.0
149
0.0
100
AcDbLayout
  1
Model
 70
     1
 71
     0
 10
0.0
 20
0.0
 11
420.0
 21
297.0
 12
0.0
 22
0.0
 32
0.0
 14
0.0
 24
0.0
 34
0.0
 15
420.0
 25
297.0
 35
0.0
146
0.0
 13
0.0
 23
0.0
 33
0.0
 16
1.0
 26
0.0
 36
0.0
 17
0.0
 27
1.0
 37
0.0
 76
     0
330
1F
331
29
  0
MLINESTYLE
  5
18
102
{ACAD_REACTORS
330
17
102
}
330
17
100
AcDbMlineStyle
  2
Standard
 70
     0
  3

 62
   256
 51
90.0
 52
90.0
 71
     2
 49
0.5
 62
   256
  6
BYLAYER
 49
-0.5
 62
   256
  6
BYLAYER
  0
ACDBPLACEHOLDER
  5
F
102
{ACAD_REACTORS
330
E
102
}
330
E
  0
SCALE
  5
48
102
{ACAD_REACTORS
330
47
102
}
330
47
100
AcDbScale
 70
     0
300
1:1
140
1.0
141
1.0
290
     1
  0
SCALE
  5
49
102
{ACAD_REACTORS
330
47
102
}
330
47
100
AcDbScale
 70
     0
300
1:2
140
1.0
141
2.0
290
     0
  0
SCALE
  5
4A
102
{ACAD_REACTORS
330
47
102
}
330
47
100
AcDbScale
 70
     0
300
1:4
140
1.0
141
4.0
290
     0
  0
SCALE
  5
4B
102
{ACAD_REACTORS
330
47
102
}
330
47
100
AcDbScale
 70
     0
300
1:5
140
1.0
141
5.0
290
     0
  0
SCALE
  5
4C
102
{ACAD_REACTORS
330
47
102
}
330
47
100
AcDbScale
 70
     0
300
1:8
140
1.0
141
8.0
290
     0
  0
SCALE
  5
4D
102
{ACAD_REACTORS
330
47
102
}
330
47
100
AcDbScale
 70
     0
300
1:10
140
1.0
141
10.0
290
     0
  0
SCALE
  5
4E
102
{ACAD_REACTORS
330
47
102
}
330
47
100
AcDbScale
 70
     0
300
1:16
140
1.0
141
16.0
290
     0
  0
SCALE
  5
4F
102
{ACAD_REACTORS
330
47
102
}
330
47
100
AcDbScale
 70
     0
300
1:20
140
1.0
141
20.0
290
     0
  0
SCALE
  5
50
102
{ACAD_REACTORS
330
47
102
}
330
47
100
AcDbScale
 70
     0
300
1:30
140
1.0
141
30.0
290
     0
  0
SCALE
  5
51
102
{ACAD_REACTORS
330
47
102
}
330
47
100
AcDbScale
 70
     0
300
1:40
140
1.0
141
40.0
290
     0
  0
SCALE
  5
52
102
{ACAD_REACTORS
330
47
102
}
330
47
100
AcDbScale
 70
     0
300
1:50
140
1.0
141
50.0
290
     0
  0
SCALE
  5
53
102
{ACAD_REACTORS
330
47
102
}
330
47
100
AcDbScale
 70
     0
300
1:100
140
1.0
141
100.0
290
     0
  0
SCALE
  5
54
102
{ACAD_REACTORS
330
47
102
}
330
47
100
AcDbScale
 70
     0
300
2:1
140
2.0
141
1.0
290
     0
  0
SCALE
  5
55
102
{ACAD_REACTORS
330
47
102
}
330
47
100
AcDbScale
 70
     0
300
4:1
140
4.0
141
1.0
290
     0
  0
SCALE
  5
56
102
{ACAD_REACTORS
330
47
102
}
330
47
100
AcDbScale
 70
     0
300
8:1
140
8.0
141
1.0
290
     0
  0
SCALE
  5
57
102
{ACAD_REACTORS
330
47
102
}
330
47
100
AcDbScale
 70
     0
300
10:1
140
10.0
141
1.0
290
     0
  0
SCALE
  5
58
102
{ACAD_REACTORS
330
47
102
}
330
47
100
AcDbScale
 70
     0
300
100:1
140
100.0
141
1.0
290
     0
  0
SCALE
  5
59
102
{ACAD_REACTORS
330
47
102
}
330
47
100
AcDbScale
 70
     0
300
1/128" = 1'-0"
140
0.0078125
141
12.0
290
     0
  0
SCALE
  5
5A
102
{ACAD_REACTORS
330
47
102
}
330
47
100
AcDbScale
 70
     0
300
1/64" = 1'-0"
140
0.015625
141
12.0
290
     0
  0
SCALE
  5
5B
102
{ACAD_REACTORS
330
47
102
}
330
47
100
AcDbScale
 70
     0
300
1/32" = 1'-0"
140
0.03125
141
12.0
290
     0
  0
SCALE
  5
5C
102
{ACAD_REACTORS
330
47
102
}
330
47
100
AcDbScale
 70
     0
300
1/16" = 1'-0"
140
0.0625
141
12.0
290
     0
  0
SCALE
  5
5D
102
{ACAD_REACTORS
330
47
102
}
330
47
100
AcDbScale
 70
     0
300
3/32" = 1'-0"
140
0.09375
141
12.0
290
     0
  0
SCALE
  5
5E
102
{ACAD_REACTORS
330
47
102
}
330
47
100
AcDbScale
 70
     0
300
1/8" = 1'-0"
140
0.125
141
12.0
290
     0
  0
SCALE
  5
5F
102
{ACAD_REACTORS
330
47
102
}
330
47
100
AcDbScale
 70
     0
300
3/16" = 1'-0"
140
0.1875
141
12.0
290
     0
  0
SCALE
  5
60
102
{ACAD_REACTORS
330
47
102
}
330
47
100
AcDbScale
 70
     0
300
1/4" = 1'-0"
140
0.25
141
12.0
290
     0
  0
SCALE
  5
61
102
{ACAD_REACTORS
330
47
102
}
330
47
100
AcDbScale
 70
     0
300
3/8" = 1'-0"
140
0.375
141
12.0
290
     0
  0
SCALE
  5
62
102
{ACAD_REACTORS
330
47
102
}
330
47
100
AcDbScale
 70
     0
300
1/2" = 1'-0"
140
0.5
141
12.0
290
     0
  0
SCALE
  5
63
102
{ACAD_REACTORS
330
47
102
}
330
47
100
AcDbScale
 70
     0
300
3/4" = 1'-0"
140
0.75
141
12.0
290
     0
  0
SCALE
  5
64
102
{ACAD_REACTORS
330
47
102
}
330
47
100
AcDbScale
 70
     0
300
1" = 1'-0"
140
1.0
141
12.0
290
     0
  0
SCALE
  5
65
102
{ACAD_REACTORS
330
47
102
}
330
47
100
AcDbScale
 70
     0
300
1-1/2" = 1'-0"
140
1.5
141
12.0
290
     0
  0
SCALE
  5
66
102
{ACAD_REACTORS
330
47
102
}
330
47
100
AcDbScale
 70
     0
300
3" = 1'-0"
140
3.0
141
12.0
290
     0
  0
SCALE
  5
67
102
{ACAD_REACTORS
330
47
102
}
330
47
100
AcDbScale
 70
     0
300
6" = 1'-0"
140
6.0
141
12.0
290
     0
  0
SCALE
  5
68
102
{ACAD_REACTORS
330
47
102
}
330
47
100
AcDbScale
 70
     0
300
1'-0" = 1'-0"
140
12.0
141
12.0
290
     0
  0
ENDSEC
  0
EOF
