  0
SECTION
  2
HEADER
  9
$ACADVER
  1
AC1015
  9
$ACADMAINTVER
 70
     6
  9
$DWGCODEPAGE
  3
ANSI_1252
  9
$INSBASE
 10
0.0
 20
0.0
 30
0.0
  9
$EXTMIN
 10
0.0
 20
0.0
 30
0.0
  9
$EXTMAX
 10
420.0
 20
297.0
 30
0.0
  9
$LIMMIN
 10
0.0
 20
0.0
  9
$LIMMAX
 10
420.0
 20
297.0
  9
$ORTHOMODE
 70
     0
  9
$REGENMODE
 70
     1
  9
$FILLMODE
 70
     1
  9
$QTEXTMODE
 70
     0
  9
$MIRRTEXT
 70
     1
  9
$LTSCALE
 40
1.0
  9
$ATTMODE
 70
     1
  9
$TEXTSIZE
 40
3.5
  9
$TRACEWID
 40
1.0
  9
$TEXTSTYLE
  7
Standard
  9
$CLAYER
  8
0
  9
$CELTYPE
  6
ByLayer
  9
$CECOLOR
 62
   256
  9
$CELTSCALE
 40
1.0
  9
$DISPSILH
 70
     0
  9
$DIMSCALE
 40
1.0
  9
$DIMASZ
 40
6.0
  9
$DIMEXO
 40
1.0
  9
$DIMDLI
 40
3.75
  9
$DIMRND
 40
0.0
  9
$DIMDLE
 40
0.0
  9
$DIMEXE
 40
1.0
  9
$DIMTP
 40
0.0
  9
$DIMTM
 40
0.0
  9
$DIMTXT
 40
3.5
  9
$DIMCEN
 40
2.5
  9
$DIMTSZ
 40
0.0
  9
$DIMTOL
 70
     0
  9
$DIMLIM
 70
     0
  9
$DIMTIH
 70
     1
  9
$DIMTOH
 70
     1
  9
$DIMSE1
 70
     0
  9
$DIMSE2
 70
     0
  9
$DIMTAD
 70
     1
  9
$DIMZIN
 70
     0
  9
$DIMBLK
  1

  9
$DIMASO
 70
     1
  9
$DIMSHO
 70
     1
  9
$DIMPOST
  1

  9
$DIMAPOST
  1

  9
$DIMALT
 70
     0
  9
$DIMALTD
 70
     3
  9
$DIMALTF
 40
0.0393700787
  9
$DIMLFAC
 40
2.0
  9
$DIMTOFL
 70
     1
  9
$DIMTVP
 40
0.0
  9
$DIMTIX
 70
     0
  9
$DIMSOXD
 70
     0
  9
$DIMSAH
 70
     0
  9
$DIMBLK1
  1

  9
$DIMBLK2
  1

  9
$DIMSTYLE
  2
ISO-25
  9
$DIMCLRD
 70
     0
  9
$DIMCLRE
 70
     0
  9
$DIMCLRT
 70
     0
  9
$DIMTFAC
 40
1.0
  9
$DIMGAP
 40
1.524
  9
$DIMJUST
 70
     0
  9
$DIMSD1
 70
     0
  9
$DIMSD2
 70
     0
  9
$DIMTOLJ
 70
     0
  9
$DIMTZIN
 70
     0
  9
$DIMALTZ
 70
     0
  9
$DIMALTTZ
 70
     0
  9
$DIMUPT
 70
     0
  9
$DIMDEC
 70
     2
  9
$DIMTDEC
 70
     2
  9
$DIMALTU
 70
     2
  9
$DIMALTTD
 70
     3
  9
$DIMTXSTY
  7
Standard
  9
$DIMAUNIT
 70
     0
  9
$DIMADEC
 70
     2
  9
$DIMALTRND
 40
0.0
  9
$DIMAZIN
 70
     0
  9
$DIMDSEP
 70
    44
  9
$DIMATFIT
 70
     3
  9
$DIMFRAC
 70
     0
  9
$DIMLDRBLK
  1

  9
$DIMLUNIT
 70
     2
  9
$DIMLWD
 70
    -2
  9
$DIMLWE
 70
    -2
  9
$DIMTMOVE
 70
     0
  9
$LUNITS
 70
     2
  9
$LUPREC
 70
     2
  9
$SKETCHINC
 40
1.0
  9
$FILLETRAD
 40
10.0
  9
$AUNITS
 70
     0
  9
$AUPREC
 70
     2
  9
$MENU
  1
.
  9
$ELEVATION
 40
0.0
  9
$PELEVATION
 40
0.0
  9
$THICKNESS
 40
0.0
  9
$LIMCHECK
 70
     0
  9
$CHAMFERA
 40
0.0
  9
$CHAMFERB
 40
0.0
  9
$CHAMFERC
 40
0.0
  9
$CHAMFERD
 40
0.0
  9
$SKPOLY
 70
     0
  9
$TDCREATE
 40
2456937.546361146
  9
$TDUCREATE
 40
2456937.421361146
  9
$TDUPDATE
 40
2456937.546362095
  9
$TDUUPDATE
 40
2456937.421362095
  9
$TDINDWG
 40
0.0000000116
  9
$TDUSRTIMER
 40
0.0000000116
  9
$USRTIMER
 70
     1
  9
$ANGBASE
 50
0.0
  9
$ANGDIR
 70
     0
  9
$PDMODE
 70
     0
  9
$PDSIZE
 40
-1.0
  9
$PLINEWID
 40
0.0
  9
$SPLFRAME
 70
     0
  9
$SPLINETYPE
 70
     6
  9
$SPLINESEGS
 70
     8
  9
$HANDSEED
  5
19B
  9
$SURFTAB1
 70
     6
  9
$SURFTAB2
 70
     6
  9
$SURFTYPE
 70
     6
  9
$SURFU
 70
     6
  9
$SURFV
 70
     6
  9
$UCSBASE
  2

  9
$UCSNAME
  2

  9
$UCSORG
 10
0.0
 20
0.0
 30
0.0
  9
$UCSXDIR
 10
1.0
 20
0.0
 30
0.0
  9
$UCSYDIR
 10
0.0
 20
1.0
 30
0.0
  9
$UCSORTHOREF
  2

  9
$UCSORTHOVIEW
 70
     0
  9
$UCSORGTOP
 10
0.0
 20
0.0
 30
0.0
  9
$UCSORGBOTTOM
 10
0.0
 20
0.0
 30
0.0
  9
$UCSORGLEFT
 10
0.0
 20
0.0
 30
0.0
  9
$UCSORGRIGHT
 10
0.0
 20
0.0
 30
0.0
  9
$UCSORGFRONT
 10
0.0
 20
0.0
 30
0.0
  9
$UCSORGBACK
 10
0.0
 20
0.0
 30
0.0
  9
$PUCSBASE
  2

  9
$PUCSNAME
  2

  9
$PUCSORG
 10
0.0
 20
0.0
 30
0.0
  9
$PUCSXDIR
 10
1.0
 20
0.0
 30
0.0
  9
$PUCSYDIR
 10
0.0
 20
1.0
 30
0.0
  9
$PUCSORTHOREF
  2

  9
$PUCSORTHOVIEW
 70
     0
  9
$PUCSORGTOP
 10
0.0
 20
0.0
 30
0.0
  9
$PUCSORGBOTTOM
 10
0.0
 20
0.0
 30
0.0
  9
$PUCSORGLEFT
 10
0.0
 20
0.0
 30
0.0
  9
$PUCSORGRIGHT
 10
0.0
 20
0.0
 30
0.0
  9
$PUCSORGFRONT
 10
0.0
 20
0.0
 30
0.0
  9
$PUCSORGBACK
 10
0.0
 20
0.0
 30
0.0
  9
$USERI1
 70
     0
  9
$USERI2
 70
     0
  9
$USERI3
 70
     0
  9
$USERI4
 70
     0
  9
$USERI5
 70
     0
  9
$USERR1
 40
0.0
  9
$USERR2
 40
0.0
  9
$USERR3
 40
0.0
  9
$USERR4
 40
0.0
  9
$USERR5
 40
0.0
  9
$WORLDVIEW
 70
     1
  9
$SHADEDGE
 70
     3
  9
$SHADEDIF
 70
    70
  9
$TILEMODE
 70
     1
  9
$MAXACTVP
 70
    64
  9
$PINSBASE
 10
0.0
 20
0.0
 30
0.0
  9
$PLIMCHECK
 70
     0
  9
$PEXTMIN
 10
1.0000000000E+20
 20
1.0000000000E+20
 30
1.0000000000E+20
  9
$PEXTMAX
 10
-1.0000000000E+20
 20
-1.0000000000E+20
 30
-1.0000000000E+20
  9
$PLIMMIN
 10
0.0
 20
0.0
  9
$PLIMMAX
 10
420.0
 20
297.0
  9
$UNITMODE
 70
     0
  9
$VISRETAIN
 70
     1
  9
$PLINEGEN
 70
     0
  9
$PSLTSCALE
 70
     1
  9
$TREEDEPTH
 70
  3020
  9
$CMLSTYLE
  2
Standard
  9
$CMLJUST
 70
     0
  9
$CMLSCALE
 40
20.0
  9
$PROXYGRAPHICS
 70
     1
  9
$MEASUREMENT
 70
     1
  9
$CELWEIGHT
370
    -1
  9
$ENDCAPS
280
     0
  9
$JOINSTYLE
280
     0
  9
$LWDISPLAY
290
     1
  9
$INSUNITS
 70
     4
  9
$HYPERLINKBASE
  1

  9
$STYLESHEET
  1

  9
$XEDIT
290
     1
  9
$CEPSNTYPE
380
     0
  9
$PSTYLEMODE
290
     1
  9
$FINGERPRINTGUID
  2
{BF759F42-A2DD-41D5-8169-708E3950969A}
  9
$VERSIONGUID
  2
{FAEB1C32-E019-11D5-929B-00C0DF256EC4}
  9
$EXTNAMES
290
     1
  9
$PSVPSCALE
 40
0.0
  9
$OLESTARTUP
290
     0
  0
ENDSEC
  0
SECTION
  2
CLASSES
  0
CLASS
  1
ACDBDICTIONARYWDFLT
  2
AcDbDictionaryWithDefault
  3
ObjectDBX Classes
 90
        0
280
     0
281
     0
  0
CLASS
  1
VISUALSTYLE
  2
AcDbVisualStyle
  3
ObjectDBX Classes
 90
     4095
280
     0
281
     0
  0
CLASS
  1
MATERIAL
  2
AcDbMaterial
  3
ObjectDBX Classes
 90
     1153
280
     0
281
     0
  0
CLASS
  1
SCALE
  2
AcDbScale
  3
ObjectDBX Classes
 90
     1153
280
     0
281
     0
  0
CLASS
  1
SUN
  2
AcDbSun
  3
SCENEOE
 90
     1153
280
     0
281
     0
  0
CLASS
  1
ACDBPLACEHOLDER
  2
AcDbPlaceHolder
  3
ObjectDBX Classes
 90
        0
280
     0
281
     0
  0
CLASS
  1
LAYOUT
  2
AcDbLayout
  3
ObjectDBX Classes
 90
        0
280
     0
281
     0
  0
ENDSEC
  0
SECTION
  2
TABLES
  0
TABLE
  2
VPORT
  5
8
330
0
100
AcDbSymbolTable
 70
     1
  0
VPORT
  5
29
330
8
100
AcDbSymbolTableRecord
100
AcDbViewportTableRecord
  2
*Active
 70
     0
 10
0.0
 20
0.0
 11
1.0
 21
1.0
 12
210.0
 22
148.5
 13
0.0
 23
0.0
 14
10.0
 24
10.0
 15
10.0
 25
10.0
 16
0.0
 26
0.0
 36
1.0
 17
0.0
 27
0.0
 37
0.0
 40
297.0
 41
1.4141414141
 42
50.0
 43
0.0
 44
0.0
 50
0.0
 51
0.0
 71
     0
 72
  2000
 73
     1
 74
     3
 75
     0
 76
     0
 77
     0
 78
     0
281
     0
 65
     1
110
0.0
120
0.0
130
0.0
111
1.0
121
0.0
131
0.0
112
0.0
122
1.0
132
0.0
 79
     0
146
0.0
  0
ENDTAB
  0
TABLE
  2
LTYPE
  5
5
330
0
100
AcDbSymbolTable
 70
     6
  0
LTYPE
  5
14
330
5
100
AcDbSymbolTableRecord
100
AcDbLinetypeTableRecord
  2
ByBlock
 70
     0
  3

 72
    65
 73
     0
 40
0.0
  0
LTYPE
  5
15
330
5
100
AcDbSymbolTableRecord
100
AcDbLinetypeTableRecord
  2
ByLayer
 70
     0
  3

 72
    65
 73
     0
 40
0.0
  0
LTYPE
  5
16
330
5
100
AcDbSymbolTableRecord
100
AcDbLinetypeTableRecord
  2
Continuous
 70
     0
  3
Solid line
 72
    65
 73
     0
 40
0.0
  0
LTYPE
  5
6A
330
5
100
AcDbSymbolTableRecord
100
AcDbLinetypeTableRecord
  2
HIDDEN
 70
     0
  3
Hidden __ __ __ __ __ __ __ __ __ __ __ __ __ __
 72
    65
 73
     2
 40
1.905
 49
1.27
 74
     0
 49
-0.635
 74
     0
  0
LTYPE
  5
6B
330
5
100
AcDbSymbolTableRecord
100
AcDbLinetypeTableRecord
  2
PHANTOM
 70
     0
  3
Phantom ______  __  __  ______  __  __  ______
 72
    65
 73
     6
 40
12.7
 49
6.35
 74
     0
 49
-1.27
 74
     0
 49
1.27
 74
     0
 49
-1.27
 74
     0
 49
1.27
 74
     0
 49
-1.27
 74
     0
  0
LTYPE
  5
6C
330
5
100
AcDbSymbolTableRecord
100
AcDbLinetypeTableRecord
  2
CENTER
 70
     0
  3
Center ____ _ ____ _ ____ _ ____ _ ____ _ ____
 72
    65
 73
     4
 40
10.16
 49
6.35
 74
     0
 49
-1.27
 74
     0
 49
1.27
 74
     0
 49
-1.27
 74
     0
  0
LTYPE
  5
6D
330
5
100
AcDbSymbolTableRecord
100
AcDbLinetypeTableRecord
  2
CENTERX2
 70
     0
  3
Center (2x) ________  __  ________  __  _____
 72
    65
 73
     4
 40
20.32
 49
12.7
 74
     0
 49
-2.54
 74
     0
 49
2.54
 74
     0
 49
-2.54
 74
     0
  0
LTYPE
  5
6E
330
5
100
AcDbSymbolTableRecord
100
AcDbLinetypeTableRecord
  2
DOT2
 70
     0
  3
Dot (.5x) ........................................
 72
    65
 73
     2
 40
0.635
 49
0.0
 74
     0
 49
-0.635
 74
     0
  0
ENDTAB
  0
TABLE
  2
LAYER
  5
2
330
0
100
AcDbSymbolTable
 70
     1
  0
LAYER
  5
10
330
2
100
AcDbSymbolTableRecord
100
AcDbLayerTableRecord
  2
0
 70
     0
 62
     7
  6
Continuous
370
    -3
390
F
  0
ENDTAB
  0
TABLE
  2
STYLE
  5
3
330
0
100
AcDbSymbolTable
 70
     1
  0
STYLE
  5
11
330
3
100
AcDbSymbolTableRecord
100
AcDbTextStyleTableRecord
  2
Standard
 70
     0
 40
0.0
 41
1.0
 50
0.0
 71
     0
 42
3.5
  3
txt
  4

  0
ENDTAB
  0
TABLE
  2
VIEW
  5
6
330
0
100
AcDbSymbolTable
 70
     0
  0
ENDTAB
  0
TABLE
  2
UCS
  5
7
330
0
100
AcDbSymbolTable
 70
     0
  0
ENDTAB
  0
TABLE
  2
APPID
  5
9
330
0
100
AcDbSymbolTable
 70
     1
  0
APPID
  5
12
330
9
100
AcDbSymbolTableRecord
100
AcDbRegAppTableRecord
  2
ACAD
 70
     0
  0
ENDTAB
  0
TABLE
  2
DIMSTYLE
  5
A
330
0
100
AcDbSymbolTable
 70
     1
100
AcDbDimStyleTable
  0
DIMSTYLE
105
27
330
A
100
AcDbSymbolTableRecord
100
AcDbDimStyleTableRecord
  2
ISO-25
 70
     0
 41
2.5
 42
0.625
 43
3.75
 44
1.25
 73
     0
 74
     0
 77
     1
 78
     8
140
2.5
141
2.5
143
0.0393700787
147
0.625
171
     3
172
     1
178
     0
271
     2
272
     2
274
     3
278
    44
283
     0
284
     8
340
11
  0
ENDTAB
  0
TABLE
  2
BLOCK_RECORD
  5
1
330
0
100
AcDbSymbolTable
 70
     1
  0
BLOCK_RECORD
  5
1F
330
1
100
AcDbSymbolTableRecord
100
AcDbBlockTableRecord
  2
*Model_Space
340
22
  0
BLOCK_RECORD
  5
1B
330
1
100
AcDbSymbolTableRecord
100
AcDbBlockTableRecord
  2
*Paper_Space
340
1E
  0
BLOCK_RECORD
  5
23
330
1
100
AcDbSymbolTableRecord
100
AcDbBlockTableRecord
  2
*Paper_Space0
340
26
  0
ENDTAB
  0
ENDSEC
  0
SECTION
  2
BLOCKS
  0
BLOCK
  5
20
330
1F
100
AcDbEntity
  8
0
100
AcDbBlockBegin
  2
*Model_Space
 70
     0
 10
0.0
 20
0.0
 30
0.0
  3
*Model_Space
  1
*Model_Space
  0
ENDBLK
  5
21
330
1F
100
AcDbEntity
  8
0
100
AcDbBlockEnd
  0
BLOCK
  5
1C
330
1B
100
AcDbEntity
 67
     1
  8
0
100
AcDbBlockBegin
  2
*Paper_Space
 70
     0
 10
0.0
 20
0.0
 30
0.0
  3
*Paper_Space
  1
*Paper_Space
  0
ENDBLK
  5
1D
330
1B
100
AcDbEntity
 67
     1
  8
0
100
AcDbBlockEnd
  0
BLOCK
  5
24
330
23
100
AcDbEntity
  8
0
100
AcDbBlockBegin
  2
*Paper_Space0
 70
     0
 10
0.0
 20
0.0
 30
0.0
  3
*Paper_Space0
  1
*Paper_Space0
  0
ENDBLK
  5
25
330
23
100
AcDbEntity
  8
0
100
AcDbBlockEnd
  0
ENDSEC
  0
SECTION
  2
ENTITIES
  0
SPLINE
  5
6F
330
1F
100
AcDbEntity
  8
0
  6
Continuous
 62
     7
370
    15
100
AcDbSpline
210
0.0
220
0.0
230
1.0
 70
     8
 71
     3
 72
    53
 73
    49
 74
     0
 42
0.000000001
 43
0.00000001
 40
0.0
 40
0.0
 40
0.0
 40
0.0
 40
0.0217386936471744
 40
0.0434854070481078
 40
0.0652365562819304
 40
0.0869886628309554
 40
0.1087384663991108
 40
0.1304839038714365
 40
0.1522256096044344
 40
0.1739645000816852
 40
0.1957013436711368
 40
0.2174368438647133
 40
0.2391717225699894
 40
0.260906803411532
 40
0.2826429152897875
 40
0.30438019317604
 40
0.3261183947067214
 40
0.3478571490901953
 40
0.3695960476972248
 40
0.3913347346241599
 40
0.413072997252731
 40
0.4348108771432375
 40
0.4565486405990185
 40
0.4782864089997708
 40
0.5000241556433197
 40
0.5217617943029262
 40
0.5434992678269718
 40
0.5652366367349525
 40
0.5869741430666643
 40
0.6087119399008585
 40
0.630449885337888
 40
0.6521876624451074
 40
0.6739248704372849
 40
0.6956611152206192
 40
0.7173960999454562
 40
0.7391297639053462
 40
0.7608627507668526
 40
0.7825959319071415
 40
0.8043300544552425
 40
0.8260658183787903
 40
0.8478039597490429
 40
0.8695453339595883
 40
0.8912908812552963
 40
0.9130395702332057
 40
0.9347883022282641
 40
0.9565336624094659
 40
0.9782720919365628
 40
1.0
 40
1.0
 40
1.0
 40
1.0
 10
169.3131254841896
 20
164.5425919634896
 30
0.0
 10
169.3126656762828
 20
164.5881131713148
 30
0.0
 10
169.3117458908386
 20
164.679172380471
 30
0.0
 10
169.3044788259425
 20
164.8156194224499
 30
0.0
 10
169.2929088425046
 20
164.9517777512337
 30
0.0
 10
169.2766175444027
 20
165.0874672129768
 30
0.0
 10
169.255722191434
 20
165.2225095442906
 30
0.0
 10
169.2301985541521
 20
165.3567330353586
 30
0.0
 10
169.2001042172595
 20
165.4899822638702
 30
0.0
 10
169.1654826106566
 20
165.6221090336332
 30
0.0
 10
169.1263804420485
 20
165.7529662337365
 30
0.0
 10
169.0828434352834
 20
165.8824067521942
 30
0.0
 10
169.0349175201887
 20
166.0102834470583
 30
0.0
 10
168.9826486832942
 20
166.1364489222988
 30
0.0
 10
168.9260838561359
 20
166.2607532345147
 30
0.0
 10
168.8653032618229
 20
166.3830585990078
 30
0.0
 10
168.8003875712688
 20
166.5032265583826
 30
0.0
 10
168.7314175092086
 20
166.6211182224688
 30
0.0
 10
168.6584738081992
 20
166.7365947548214
 30
0.0
 10
168.5816369973271
 20
166.8495171415888
 30
0.0
 10
168.5009881414904
 20
166.9597469454184
 30
0.0
 10
168.4166061284959
 20
167.0671434689516
 30
0.0
 10
168.3286004087328
 20
167.1715895974748
 30
0.0
 10
168.2370829797059
 20
167.272972340313
 30
0.0
 10
168.1421647823262
 20
167.3711780121268
 30
0.0
 10
168.0439570109118
 20
167.4660931887583
 30
0.0
 10
167.9425705673838
 20
167.557604088102
 30
0.0
 10
167.8381171091797
 20
167.6455978893832
 30
0.0
 10
167.730706216562
 20
167.7299574362171
 30
0.0
 10
167.6204708438796
 20
167.8105927967489
 30
0.0
 10
167.5075492257533
 20
167.8874219591034
 30
0.0
 10
167.3920781567977
 20
167.9603608661468
 30
0.0
 10
167.2741948303451
 20
168.0293260311247
 30
0.0
 10
167.1540361757177
 20
168.0942334721581
 30
0.0
 10
167.031739546236
 20
168.1550004344881
 30
0.0
 10
166.9074394663462
 20
168.2115400893987
 30
0.0
 10
166.7812811158958
 20
168.2637916514647
 30
0.0
 10
166.6534124839029
 20
168.3117080830644
 30
0.0
 10
166.5239793624842
 20
168.3552397105124
 30
0.0
 10
166.3931278929827
 20
168.3943376844508
 30
0.0
 10
166.2610040360171
 20
168.4289526720572
 30
0.0
 10
166.1277542956967
 20
168.4590361638647
 30
0.0
 10
165.993529000928
 20
168.4845354900907
 30
0.0
 10
165.8584939882252
 20
168.5054168670576
 30
0.0
 10
165.7228261782191
 20
168.5217069589058
 30
0.0
 10
165.5867050300424
 20
168.5332821685058
 30
0.0
 10
165.4503105713363
 20
168.5405580654503
 30
0.0
 10
165.3592913258705
 20
168.541482205177
 30
0.0
 10
165.313792719199
 20
168.5419441631918
 30
0.0
  0
SPLINE
  5
70
330
1F
100
AcDbEntity
  8
0
  6
Continuous
 62
     7
370
    15
100
AcDbSpline
210
0.0
220
0.0
230
1.0
 70
    24
 71
     3
 72
    14
 73
    10
 74
     0
 42
0.000000001
 43
0.00000001
 40
0.0
 40
0.0
 40
0.0
 40
0.0
 40
0.25
 40
0.25
 40
0.5
 40
0.5
 40
0.75
 40
0.75
 40
1.0
 40
1.0
 40
1.0
 40
1.0
 10
169.313183508824
 20
164.5425919720238
 30
0.0
 10
169.3109243776587
 20
164.5425919720237
 30
0.0
 10
169.2832247421178
 20
164.5425919720238
 30
0.0
 10
169.1810293055106
 20
164.5425919720237
 30
0.0
 10
169.1065719627051
 20
164.5425919720238
 30
0.0
 10
168.9219181932242
 20
164.5425919720238
 30
0.0
 10
168.811791255589
 20
164.5425919720238
 30
0.0
 10
168.5721776064476
 20
164.5425919720238
 30
0.0
 10
168.4427810665233
 20
164.5425919720238
 30
0.0
 10
168.3133358136677
 20
164.5425919720238
 30
0.0
  0
SPLINE
  5
71
330
1F
100
AcDbEntity
  8
0
  6
Continuous
 62
     7
370
    15
100
AcDbSpline
210
0.0
220
0.0
230
1.0
 70
     8
 71
     3
 72
    30
 73
    26
 74
     0
 42
0.000000001
 43
0.00000001
 40
0.0
 40
0.0
 40
0.0
 40
0.0
 40
0.0251723460100814
 40
0.0501996113766525
 40
0.075119837148836
 40
0.0999715559239003
 40
0.1247936193422295
 40
0.1496250182424649
 40
0.1745046995722603
 40
0.1994713843247851
 40
0.2245633907157111
 40
0.2498184665350969
 40
0.3123578293943944
 40
0.3749322284663072
 40
0.437378142474335
 40
0.4999758380820895
 40
0.5625270352191969
 40
0.6250439493341765
 40
0.6875888750322813
 40
0.7502082900958862
 40
0.8005269571258581
 40
0.8503558720422472
 40
0.9000035196511718
 40
0.9497817549125663
 40
1.0
 40
1.0
 40
1.0
 40
1.0
 10
168.3133358136677
 20
164.5425919777087
 30
0.0
 10
168.3128925488526
 20
164.5821194702042
 30
0.0
 10
168.312008573976
 20
164.6609466387632
 30
0.0
 10
168.30490473723
 20
164.7787290901189
 30
0.0
 10
168.2935610797729
 20
164.8956519298225
 30
0.0
 10
168.2775697345023
 20
165.0117143422578
 30
0.0
 10
168.257039253959
 20
165.1269154521699
 30
0.0
 10
168.231941019984
 20
165.2412544347007
 30
0.0
 10
168.2022820564478
 20
165.3547303526014
 30
0.0
 10
168.168064412656
 20
165.4673428590486
 30
0.0
 10
168.1292750486814
 20
165.5790896848968
 30
0.0
 10
168.0647803957531
 20
165.7442244062738
 30
0.0
 10
167.9639625275615
 20
165.9581924090216
 30
0.0
 10
167.8123112323522
 20
166.2111922091737
 30
0.0
 10
167.6366060701734
 20
166.4482468496297
 30
0.0
 10
167.4383811321735
 20
166.666761504024
 30
0.0
 10
167.2198207005824
 20
166.865102310663
 30
0.0
 10
166.9828023377232
 20
167.040839978213
 30
0.0
 10
166.7296595824937
 20
167.1926442556201
 30
0.0
 10
166.479977243381
 20
167.3102717297334
 30
0.0
 10
166.2399877223421
 20
167.3988259581096
 30
0.0
 10
166.0134287068339
 20
167.4629951582081
 30
0.0
 10
165.7833281139378
 20
167.5084692626479
 30
0.0
 10
165.5497178055404
 20
167.5368949248196
 30
0.0
 10
165.392664778317
 20
167.5403832339113
 30
0.0
 10
165.3137927281677
 20
167.5421350631788
 30
0.0
  0
SPLINE
  5
72
330
1F
100
AcDbEntity
  8
0
  6
Continuous
 62
     7
370
    15
100
AcDbSpline
210
0.0
220
0.0
230
1.0
 70
    24
 71
     3
 72
    14
 73
    10
 74
     0
 42
0.000000001
 43
0.00000001
 40
0.0
 40
0.0
 40
0.0
 40
0.0
 40
0.25
 40
0.25
 40
0.5
 40
0.5
 40
0.75
 40
0.75
 40
1.0
 40
1.0
 40
1.0
 40
1.0
 10
165.3137927281677
 20
167.5421350631788
 30
0.0
 10
165.3137927281677
 20
167.6715803160343
 30
0.0
 10
165.3137927281677
 20
167.8009768559586
 30
0.0
 10
165.3137927281677
 20
168.0405905051001
 30
0.0
 10
165.3137927281677
 20
168.1507174427353
 30
0.0
 10
165.3137927281677
 20
168.3353712122162
 30
0.0
 10
165.3137927281677
 20
168.4098285550217
 30
0.0
 10
165.3137927281677
 20
168.5120239916288
 30
0.0
 10
165.3137927281677
 20
168.5397236271698
 30
0.0
 10
165.3137927281677
 20
168.541982758335
 30
0.0
  0
SPLINE
  5
73
330
1F
100
AcDbEntity
  8
0
  6
Continuous
 62
     7
370
    15
100
AcDbSpline
210
0.0
220
0.0
230
1.0
 70
     8
 71
     3
 72
    53
 73
    49
 74
     0
 42
0.000000001
 43
0.00000001
 40
0.0
 40
0.0
 40
0.0
 40
0.0
 40
0.0217386936471744
 40
0.0434854070481078
 40
0.0652365562819304
 40
0.0869886628309554
 40
0.1087384663991108
 40
0.1304839038714365
 40
0.1522256096044344
 40
0.1739645000816852
 40
0.1957013436711368
 40
0.2174368438647133
 40
0.2391717225699894
 40
0.260906803411532
 40
0.2826429152897875
 40
0.30438019317604
 40
0.3261183947067214
 40
0.3478571490901953
 40
0.3695960476972248
 40
0.3913347346241599
 40
0.413072997252731
 40
0.4348108771432375
 40
0.4565486405990185
 40
0.4782864089997708
 40
0.5000241556433197
 40
0.5217617943029262
 40
0.5434992678269718
 40
0.5652366367349525
 40
0.5869741430666643
 40
0.6087119399008585
 40
0.630449885337888
 40
0.6521876624451074
 40
0.6739248704372849
 40
0.6956611152206192
 40
0.7173960999454562
 40
0.7391297639053462
 40
0.7608627507668526
 40
0.7825959319071415
 40
0.8043300544552425
 40
0.8260658183787903
 40
0.8478039597490429
 40
0.8695453339595883
 40
0.8912908812552963
 40
0.9130395702332057
 40
0.9347883022282641
 40
0.9565336624094659
 40
0.9782720919365628
 40
1.0
 40
1.0
 40
1.0
 40
1.0
 10
59.71531729254583
 20
112.9434493123078
 30
0.0
 10
59.71577710045264
 20
112.8979281044827
 30
0.0
 10
59.71669688589681
 20
112.8068688953265
 30
0.0
 10
59.72396395079296
 20
112.6704218533476
 30
0.0
 10
59.73553393423084
 20
112.5342635245638
 30
0.0
 10
59.75182523233277
 20
112.3985740628207
 30
0.0
 10
59.77272058530145
 20
112.2635317315069
 30
0.0
 10
59.79824422258337
 20
112.1293082404389
 30
0.0
 10
59.828338559476
 20
111.9960590119273
 30
0.0
 10
59.86296016607891
 20
111.8639322421643
 30
0.0
 10
59.90206233468695
 20
111.7330750420609
 30
0.0
 10
59.94559934145204
 20
111.6036345236033
 30
0.0
 10
59.99352525654673
 20
111.4757578287392
 30
0.0
 10
60.04579409344122
 20
111.3495923534987
 30
0.0
 10
60.10235892059953
 20
111.2252880412828
 30
0.0
 10
60.16313951491259
 20
111.1029826767897
 30
0.0
 10
60.22805520546664
 20
110.9828147174149
 30
0.0
 10
60.29702526752685
 20
110.8649230533287
 30
0.0
 10
60.36996896853626
 20
110.7494465209761
 30
0.0
 10
60.44680577940839
 20
110.6365241342087
 30
0.0
 10
60.52745463524509
 20
110.5262943303791
 30
0.0
 10
60.61183664823959
 20
110.4188978068459
 30
0.0
 10
60.69984236800266
 20
110.3144516783227
 30
0.0
 10
60.7913597970296
 20
110.2130689354845
 30
0.0
 10
60.88627799440925
 20
110.1148632636707
 30
0.0
 10
60.98448576582367
 20
110.0199480870392
 30
0.0
 10
61.08587220935169
 20
109.9284371876954
 30
0.0
 10
61.19032566755578
 20
109.8404433864143
 30
0.0
 10
61.29773656017342
 20
109.7560838395803
 30
0.0
 10
61.40797193285584
 20
109.6754484790486
 30
0.0
 10
61.52089355098213
 20
109.5986193166941
 30
0.0
 10
61.63636461993773
 20
109.5256804096507
 30
0.0
 10
61.7542479463904
 20
109.4567152446728
 30
0.0
 10
61.8744066010178
 20
109.3918078036394
 30
0.0
 10
61.99670323049947
 20
109.3310408413093
 30
0.0
 10
62.12100331038922
 20
109.2745011863988
 30
0.0
 10
62.24716166083963
 20
109.2222496243328
 30
0.0
 10
62.37503029283257
 20
109.1743331927331
 30
0.0
 10
62.50446341425123
 20
109.1308015652851
 30
0.0
 10
62.63531488375276
 20
109.0917035913467
 30
0.0
 10
62.76743874071838
 20
109.0570886037403
 30
0.0
 10
62.90068848103872
 20
109.0270051119327
 30
0.0
 10
63.03491377580746
 20
109.0015057857067
 30
0.0
 10
63.16994878851025
 20
108.9806244087399
 30
0.0
 10
63.30561659851636
 20
108.9643343168917
 30
0.0
 10
63.44173774669304
 20
108.9527591072917
 30
0.0
 10
63.57813220539918
 20
108.9454832103472
 30
0.0
 10
63.66915145086492
 20
108.9445590706204
 30
0.0
 10
63.71465005753645
 20
108.9440971126057
 30
0.0
  0
SPLINE
  5
74
330
1F
100
AcDbEntity
  8
0
  6
Continuous
 62
     7
370
    15
100
AcDbSpline
210
0.0
220
0.0
230
1.0
 70
    24
 71
     3
 72
    14
 73
    10
 74
     0
 42
0.000000001
 43
0.00000001
 40
0.0
 40
0.0
 40
0.0
 40
0.0
 40
0.25
 40
0.25
 40
0.5
 40
0.5
 40
0.75
 40
0.75
 40
1.0
 40
1.0
 40
1.0
 40
1.0
 10
60.71510696306778
 20
112.9434492980888
 30
0.0
 10
60.59829152643672
 20
112.943449283914
 30
0.0
 10
60.47247154578419
 20
112.9434492686467
 30
0.0
 10
60.22871042189514
 20
112.9434492390683
 30
0.0
 10
60.11149139115586
 20
112.9434492248447
 30
0.0
 10
59.91697303865482
 20
112.9434492012415
 30
0.0
 10
59.84030112507201
 20
112.9434491919379
 30
0.0
 10
59.74064036915524
 20
112.9434491798446
 30
0.0
 10
59.71735584157803
 20
112.943449177019
 30
0.0
 10
59.71531729257241
 20
112.9434491767713
 30
0.0
  0
SPLINE
  5
75
330
1F
100
AcDbEntity
  8
0
  6
Continuous
 62
     7
370
    15
100
AcDbSpline
210
0.0
220
0.0
230
1.0
 70
     8
 71
     3
 72
    30
 73
    26
 74
     0
 42
0.000000001
 43
0.00000001
 40
0.0
 40
0.0
 40
0.0
 40
0.0
 40
0.0251723460100814
 40
0.0501996113766525
 40
0.075119837148836
 40
0.0999715559239003
 40
0.1247936193422295
 40
0.1496250182424649
 40
0.1745046995722603
 40
0.1994713843247851
 40
0.2245633907157111
 40
0.2498184665350969
 40
0.3123578293943944
 40
0.3749322284663072
 40
0.437378142474335
 40
0.4999758380820895
 40
0.5625270352191969
 40
0.6250439493341765
 40
0.6875888750322813
 40
0.7502082900958862
 40
0.8005269571258581
 40
0.8503558720422472
 40
0.9000035196511718
 40
0.9497817549125663
 40
1.0
 40
1.0
 40
1.0
 40
1.0
 10
60.71510696306773
 20
112.9434492980887
 30
0.0
 10
60.71555022788286
 20
112.9039218055933
 30
0.0
 10
60.7164342027594
 20
112.8250946370342
 30
0.0
 10
60.72353803950549
 20
112.7073121856785
 30
0.0
 10
60.73488169696253
 20
112.5903893459749
 30
0.0
 10
60.75087304223317
 20
112.4743269335397
 30
0.0
 10
60.77140352277645
 20
112.3591258236276
 30
0.0
 10
60.7965017567514
 20
112.2447868410967
 30
0.0
 10
60.82616072028764
 20
112.1313109231961
 30
0.0
 10
60.86037836407949
 20
112.0186984167489
 30
0.0
 10
60.89916772805408
 20
111.9069515909007
 30
0.0
 10
60.9636623809824
 20
111.7418168695237
 30
0.0
 10
61.06448024917391
 20
111.5278488667758
 30
0.0
 10
61.21613154438321
 20
111.2748490666238
 30
0.0
 10
61.39183670656208
 20
111.0377944261678
 30
0.0
 10
61.590061644562
 20
110.8192797717735
 30
0.0
 10
61.808622076153
 20
110.6209389651345
 30
0.0
 10
62.04564043901229
 20
110.4452012975844
 30
0.0
 10
62.29878319424176
 20
110.2933970201774
 30
0.0
 10
62.54846553335448
 20
110.1757695460641
 30
0.0
 10
62.78845505439336
 20
110.0872153176879
 30
0.0
 10
63.01501406990154
 20
110.0230461175894
 30
0.0
 10
63.24511466279765
 20
109.9775720131496
 30
0.0
 10
63.47872497119511
 20
109.9491463509779
 30
0.0
 10
63.63577799841845
 20
109.9456580418861
 30
0.0
 10
63.71465004856772
 20
109.9439062126187
 30
0.0
  0
SPLINE
  5
76
330
1F
100
AcDbEntity
  8
0
  6
Continuous
 62
     7
370
    15
100
AcDbSpline
210
0.0
220
0.0
230
1.0
 70
    24
 71
     3
 72
    14
 73
    10
 74
     0
 42
0.000000001
 43
0.00000001
 40
0.0
 40
0.0
 40
0.0
 40
0.0
 40
0.25
 40
0.25
 40
0.5
 40
0.5
 40
0.75
 40
0.75
 40
1.0
 40
1.0
 40
1.0
 40
1.0
 10
63.71465004856772
 20
109.9439062126187
 30
0.0
 10
63.71465004856775
 20
109.8144609597632
 30
0.0
 10
63.71465004856772
 20
109.6850644198389
 30
0.0
 10
63.71465004856775
 20
109.4454507706974
 30
0.0
 10
63.71465004856772
 20
109.3353238330622
 30
0.0
 10
63.71465004856772
 20
109.1506700635812
 30
0.0
 10
63.71465004856772
 20
109.0762127207757
 30
0.0
 10
63.71465004856772
 20
108.9740172841686
 30
0.0
 10
63.71465004856772
 20
108.9463176486277
 30
0.0
 10
63.71465004856772
 20
108.9440585174625
 30
0.0
  0
SPLINE
  5
77
330
1F
100
AcDbEntity
  8
0
  6
Continuous
 62
     7
370
    15
100
AcDbSpline
210
0.0
220
0.0
230
1.0
 70
     8
 71
     3
 72
    30
 73
    26
 74
     0
 42
0.000000001
 43
0.00000001
 40
0.0
 40
0.0
 40
0.0
 40
0.0
 40
0.0251723460040189
 40
0.0501996113658291
 40
0.0751198371345976
 40
0.0999715559076272
 40
0.1247936193253332
 40
0.1496250182263792
 40
0.1745046995584324
 40
0.1994713843146755
 40
0.2245633907107788
 40
0.2498184665368025
 40
0.3123578293980562
 40
0.3749322284711125
 40
0.4373781424759137
 40
0.4999758380843213
 40
0.5625270352139564
 40
0.6250439493337573
 40
0.6875888750315144
 40
0.7502082900971176
 40
0.8005269571286142
 40
0.8503558720456615
 40
0.9000035196543533
 40
0.9497817549146103
 40
1.0
 40
1.0
 40
1.0
 40
1.0
 10
63.71465004856772
 20
167.5421350631788
 30
0.0
 10
63.67512255608182
 20
167.5416917983677
 30
0.0
 10
63.5962953875398
 20
167.5408078234993
 30
0.0
 10
63.47851293620612
 20
167.5337039867623
 30
0.0
 10
63.36159009651815
 20
167.5223603293121
 30
0.0
 10
63.24552768409212
 20
167.5063689840457
 30
0.0
 10
63.13032657418285
 20
167.4858385035043
 30
0.0
 10
63.01598759164839
 20
167.4607402695287
 30
0.0
 10
62.90251167373778
 20
167.4310813059894
 30
0.0
 10
62.78989916727414
 20
167.396863662192
 30
0.0
 10
62.67815234140325
 20
167.3580742982093
 30
0.0
 10
62.51301762000565
 20
167.293579645275
 30
0.0
 10
62.29904961724267
 20
167.192761777081
 30
0.0
 10
62.04604981708825
 20
167.0411104818768
 30
0.0
 10
61.80899517663412
 20
166.8654053197
 30
0.0
 10
61.59048052225375
 20
166.6671803817087
 30
0.0
 10
61.3921397156231
 20
166.4486199501152
 30
0.0
 10
61.21640204807793
 20
166.2116015872591
 30
0.0
 10
61.06459777066047
 20
165.9584588320247
 30
0.0
 10
60.94697029654328
 20
165.7087764929088
 30
0.0
 10
60.85841606816043
 20
165.468786971866
 30
0.0
 10
60.79424686805569
 20
165.2422279563569
 30
0.0
 10
60.74877276360989
 20
165.0121273634635
 30
0.0
 10
60.72034710143227
 20
164.7785170550726
 30
0.0
 10
60.7168587923369
 20
164.6214640278546
 30
0.0
 10
60.71510696306773
 20
164.5425919777087
 30
0.0
  0
SPLINE
  5
78
330
1F
100
AcDbEntity
  8
0
  6
Continuous
 62
     7
370
    15
100
AcDbSpline
210
0.0
220
0.0
230
1.0
 70
    24
 71
     3
 72
    14
 73
    10
 74
     0
 42
0.000000001
 43
0.00000001
 40
0.0
 40
0.0
 40
0.0
 40
0.0
 40
0.25
 40
0.25
 40
0.5
 40
0.5
 40
0.75
 40
0.75
 40
1.0
 40
1.0
 40
1.0
 40
1.0
 10
60.71510696306773
 20
164.5425919777087
 30
0.0
 10
60.58566171021217
 20
164.5425919777087
 30
0.0
 10
60.45626517028792
 20
164.5425919777087
 30
0.0
 10
60.2166515211465
 20
164.5425919777087
 30
0.0
 10
60.10652458351129
 20
164.5425919777087
 30
0.0
 10
59.92187081403033
 20
164.5425919777087
 30
0.0
 10
59.84741347122485
 20
164.5425919777087
 30
0.0
 10
59.74521803461769
 20
164.5425919777087
 30
0.0
 10
59.71751839907675
 20
164.5425919777087
 30
0.0
 10
59.71525926791148
 20
164.5425919777087
 30
0.0
  0
SPLINE
  5
79
330
1F
100
AcDbEntity
  8
0
  6
Continuous
 62
     7
370
    15
100
AcDbSpline
210
0.0
220
0.0
230
1.0
 70
     8
 71
     3
 72
    53
 73
    49
 74
     0
 42
0.000000001
 43
0.00000001
 40
0.0
 40
0.0
 40
0.0
 40
0.0
 40
0.0217386936434982
 40
0.043485407041472
 40
0.06523655627287
 40
0.0869886628198307
 40
0.1087384663861033
 40
0.1304839038565973
 40
0.1522256095878289
 40
0.173964500063403
 40
0.1957013436512773
 40
0.2174368438433942
 40
0.2391717225473367
 40
0.2609068033876702
 40
0.2826429152648427
 40
0.3043801931501355
 40
0.3261183946799948
 40
0.3478571490627891
 40
0.3695960476692867
 40
0.3913347345958538
 40
0.4130729972242361
 40
0.4348108771147424
 40
0.4565486405706877
 40
0.4782864089717584
 40
0.5000241556157516
 40
0.52176179427591
 40
0.5434992678005974
 40
0.5652366367092888
 40
0.5869741430417663
 40
0.6087119398767735
 40
0.630449885314656
 40
0.6521876624227573
 40
0.6739248704158342
 40
0.6956611152000841
 40
0.7173960999258339
 40
0.7391297638866273
 40
0.760862750749055
 40
0.7825959318903163
 40
0.8043300544394874
 40
0.8260658183642463
 40
0.8478039597358903
 40
0.8695453339480508
 40
0.8912908812456309
 40
0.9130395702256033
 40
0.9347883022227969
 40
0.9565336624060666
 40
0.9782720919350292
 40
0.9999999999999999
 40
0.9999999999999999
 40
0.9999999999999999
 40
0.9999999999999999
 10
63.7146500628018
 20
168.5419247337143
 30
0.0
 10
63.66912885498435
 20
168.5414649258094
 30
0.0
 10
63.5780696458422
 20
168.5405451403692
 30
0.0
 10
63.441622603882
 20
168.5332780754795
 30
0.0
 10
63.30546427511344
 20
168.5217080920482
 30
0.0
 10
63.16977481338309
 20
168.5054167939528
 30
0.0
 10
63.03473248208078
 20
168.4845214409901
 30
0.0
 10
62.90050899102365
 20
168.4589978037132
 30
0.0
 10
62.76725976252236
 20
168.4289034668253
 30
0.0
 10
62.63513299276924
 20
168.3942818602267
 30
0.0
 10
62.50427579267507
 20
168.3551796916229
 30
0.0
 10
62.37483527422572
 20
168.3116426848623
 30
0.0
 10
62.24695857936882
 20
168.2637167697726
 30
0.0
 10
62.12079310413434
 20
168.2114479328838
 30
0.0
 10
61.99648879192313
 20
168.154883105732
 30
0.0
 10
61.87418342743324
 20
168.0941025114262
 30
0.0
 10
61.75401546806025
 20
168.0291868208799
 30
0.0
 10
61.63612380397458
 20
167.9602167588276
 30
0.0
 10
61.52064727162109
 20
167.8872730578261
 30
0.0
 10
61.40772488485137
 20
167.8104362469616
 30
0.0
 10
61.29749508101796
 20
167.7297873911322
 30
0.0
 10
61.19009855747977
 20
167.6454053781445
 30
0.0
 10
61.08565242895033
 20
167.5573996583874
 30
0.0
 10
60.98426968610504
 20
167.4658822293656
 30
0.0
 10
60.88606401428324
 20
167.3709640319904
 30
0.0
 10
60.79114883764319
 20
167.2727562605797
 30
0.0
 10
60.69963793829054
 20
167.1713698170545
 30
0.0
 10
60.61164413700022
 20
167.0669163588525
 30
0.0
 10
60.52728459015726
 20
166.959505466236
 30
0.0
 10
60.4466492296167
 20
166.8492700935539
 30
0.0
 10
60.36982006725346
 20
166.7363484754272
 30
0.0
 10
60.29688116020167
 20
166.6208774064706
 30
0.0
 10
60.22791599521574
 20
166.5029940800162
 30
0.0
 10
60.16300855417472
 20
166.3828354253866
 30
0.0
 10
60.10224159183749
 20
166.2605387959022
 30
0.0
 10
60.04570193692024
 20
166.1362387160093
 30
0.0
 10
59.99345037484814
 20
166.0100803655553
 30
0.0
 10
59.94553394324271
 20
165.8822117335579
 30
0.0
 10
59.90200231578952
 20
165.752778612134
 30
0.0
 10
59.86290434184637
 20
165.6219271426259
 30
0.0
 10
59.82828935423561
 20
165.4898032856525
 30
0.0
 10
59.79820586242393
 20
165.3565535453228
 30
0.0
 10
59.77270653619415
 20
165.222328250543
 30
0.0
 10
59.75182515922395
 20
165.087293237828
 30
0.0
 10
59.73553506737295
 20
164.9516254278091
 30
0.0
 10
59.72395985777114
 20
164.81550427962
 30
0.0
 10
59.71668396082584
 20
164.6791098209025
 30
0.0
 10
59.71575982109976
 20
164.5880905754297
 30
0.0
 10
59.71529786308538
 20
164.542591968755
 30
0.0
  0
SPLINE
  5
7A
330
1F
100
AcDbEntity
  8
0
  6
Continuous
 62
     7
370
    15
100
AcDbSpline
210
0.0
220
0.0
230
1.0
 70
    24
 71
     3
 72
    14
 73
    10
 74
     0
 42
0.000000001
 43
0.00000001
 40
0.0
 40
0.0
 40
0.0
 40
0.0
 40
0.25
 40
0.25
 40
0.5
 40
0.5
 40
0.75
 40
0.75
 40
1.0
 40
1.0
 40
1.0
 40
1.0
 10
63.71465004856775
 20
167.5421350631787
 30
0.0
 10
63.71465003439192
 20
167.6589504998095
 30
0.0
 10
63.71465001912353
 20
167.7847704804631
 30
0.0
 10
63.71464998954324
 20
168.0285316043558
 30
0.0
 10
63.71464997531892
 20
168.1457506350977
 30
0.0
 10
63.71464995171458
 20
168.3402689876035
 30
0.0
 10
63.7146499424107
 20
168.4169409011883
 30
0.0
 10
63.71464993031714
 20
168.5166016571067
 30
0.0
 10
63.71464992749157
 20
168.5398861846835
 30
0.0
 10
63.71464992724403
 20
168.5419247336877
 30
0.0
  0
SPLINE
  5
7B
330
1F
100
AcDbEntity
  8
0
  6
Continuous
 62
     7
370
    15
100
AcDbSpline
210
0.0
220
0.0
230
1.0
 70
     8
 71
     3
 72
    30
 73
    26
 74
     0
 42
0.000000001
 43
0.00000001
 40
0.0
 40
0.0
 40
0.0
 40
0.0
 40
0.0251723460040189
 40
0.0501996113658291
 40
0.0751198371345976
 40
0.0999715559076272
 40
0.1247936193253332
 40
0.1496250182263792
 40
0.1745046995584324
 40
0.1994713843146755
 40
0.2245633907107788
 40
0.2498184665368025
 40
0.3123578293980562
 40
0.3749322284711125
 40
0.4373781424759137
 40
0.4999758380843213
 40
0.5625270352139564
 40
0.6250439493337573
 40
0.6875888750315144
 40
0.7502082900971176
 40
0.8005269571286142
 40
0.8503558720456615
 40
0.9000035196543533
 40
0.9497817549146103
 40
1.0
 40
1.0
 40
1.0
 40
1.0
 10
165.3137927281677
 20
109.9439062126187
 30
0.0
 10
165.3533202206536
 20
109.9443494774298
 30
0.0
 10
165.4321473891956
 20
109.9452334522982
 30
0.0
 10
165.5499298405294
 20
109.9523372890352
 30
0.0
 10
165.6668526802173
 20
109.9636809464854
 30
0.0
 10
165.7829150926433
 20
109.9796722917518
 30
0.0
 10
165.8981162025526
 20
110.0002027722931
 30
0.0
 10
166.012455185087
 20
110.0253010062688
 30
0.0
 10
166.1259311029977
 20
110.0549599698081
 30
0.0
 10
166.2385436094613
 20
110.0891776136055
 30
0.0
 10
166.3502904353322
 20
110.1279669775881
 30
0.0
 10
166.5154251567298
 20
110.1924616305224
 30
0.0
 10
166.7293931594928
 20
110.2932794987164
 30
0.0
 10
166.9823929596472
 20
110.4449307939207
 30
0.0
 10
167.2194476001013
 20
110.6206359560975
 30
0.0
 10
167.4379622544817
 20
110.8188608940888
 30
0.0
 10
167.6363030611124
 20
111.0374213256823
 30
0.0
 10
167.8120407286575
 20
111.2744396885384
 30
0.0
 10
167.963845006075
 20
111.5275824437727
 30
0.0
 10
168.0814724801922
 20
111.7772647828887
 30
0.0
 10
168.170026708575
 20
112.0172543039315
 30
0.0
 10
168.2341959086798
 20
112.2438133194406
 30
0.0
 10
168.2796700131256
 20
112.4739139123339
 30
0.0
 10
168.3080956753032
 20
112.7075242207249
 30
0.0
 10
168.3115839843985
 20
112.8645772479429
 30
0.0
 10
168.3133358136677
 20
112.9434492980887
 30
0.0
  0
SPLINE
  5
7C
330
1F
100
AcDbEntity
  8
0
  6
Continuous
 62
     7
370
    15
100
AcDbSpline
210
0.0
220
0.0
230
1.0
 70
    24
 71
     3
 72
    14
 73
    10
 74
     0
 42
0.000000001
 43
0.00000001
 40
0.0
 40
0.0
 40
0.0
 40
0.0
 40
0.25
 40
0.25
 40
0.5
 40
0.5
 40
0.75
 40
0.75
 40
1.0
 40
1.0
 40
1.0
 40
1.0
 10
168.3133358136677
 20
112.9434492980887
 30
0.0
 10
168.4427810665233
 20
112.9434492980887
 30
0.0
 10
168.5721776064476
 20
112.9434492980887
 30
0.0
 10
168.811791255589
 20
112.9434492980888
 30
0.0
 10
168.9219181932242
 20
112.9434492980887
 30
0.0
 10
169.1065719627051
 20
112.9434492980888
 30
0.0
 10
169.1810293055106
 20
112.9434492980887
 30
0.0
 10
169.2832247421178
 20
112.9434492980888
 30
0.0
 10
169.3109243776587
 20
112.9434492980887
 30
0.0
 10
169.313183508824
 20
112.9434492980887
 30
0.0
  0
SPLINE
  5
7D
330
1F
100
AcDbEntity
  8
0
  6
Continuous
 62
     7
370
    15
100
AcDbSpline
210
0.0
220
0.0
230
1.0
 70
     8
 71
     3
 72
    53
 73
    49
 74
     0
 42
0.000000001
 43
0.00000001
 40
0.0
 40
0.0
 40
0.0
 40
0.0
 40
0.0217386936434982
 40
0.043485407041472
 40
0.06523655627287
 40
0.0869886628198307
 40
0.1087384663861033
 40
0.1304839038565973
 40
0.1522256095878289
 40
0.173964500063403
 40
0.1957013436512773
 40
0.2174368438433942
 40
0.2391717225473367
 40
0.2609068033876702
 40
0.2826429152648427
 40
0.3043801931501355
 40
0.3261183946799948
 40
0.3478571490627891
 40
0.3695960476692867
 40
0.3913347345958538
 40
0.4130729972242361
 40
0.4348108771147424
 40
0.4565486405706877
 40
0.4782864089717584
 40
0.5000241556157516
 40
0.52176179427591
 40
0.5434992678005974
 40
0.5652366367092888
 40
0.5869741430417663
 40
0.6087119398767735
 40
0.630449885314656
 40
0.6521876624227573
 40
0.6739248704158342
 40
0.6956611152000841
 40
0.7173960999258339
 40
0.7391297638866273
 40
0.760862750749055
 40
0.7825959318903163
 40
0.8043300544394874
 40
0.8260658183642463
 40
0.8478039597358903
 40
0.8695453339480508
 40
0.8912908812456309
 40
0.9130395702256033
 40
0.9347883022227969
 40
0.9565336624060666
 40
0.9782720919350292
 40
0.9999999999999999
 40
0.9999999999999999
 40
0.9999999999999999
 40
0.9999999999999999
 10
165.3137927139337
 20
108.9441165420832
 30
0.0
 10
165.3593139217511
 20
108.9445763499881
 30
0.0
 10
165.4503731308932
 20
108.9454961354283
 30
0.0
 10
165.5868201728534
 20
108.952763200318
 30
0.0
 10
165.722978501622
 20
108.9643331837492
 30
0.0
 10
165.8586679633524
 20
108.9806244818447
 30
0.0
 10
165.9937102946547
 20
109.0015198348074
 30
0.0
 10
166.1279337857118
 20
109.0270434720842
 30
0.0
 10
166.2611830142131
 20
109.0571378089722
 30
0.0
 10
166.3933097839662
 20
109.0917594155707
 30
0.0
 10
166.5241669840604
 20
109.1308615841746
 30
0.0
 10
166.6536075025097
 20
109.1743985909351
 30
0.0
 10
166.7814841973666
 20
109.2223245060248
 30
0.0
 10
166.9076496726011
 20
109.2745933429137
 30
0.0
 10
167.0319539848123
 20
109.3311581700655
 30
0.0
 10
167.1542593493022
 20
109.3919387643713
 30
0.0
 10
167.2744273086752
 20
109.4568544549176
 30
0.0
 10
167.3923189727609
 20
109.5258245169699
 30
0.0
 10
167.5077955051144
 20
109.5987682179714
 30
0.0
 10
167.6207178918841
 20
109.6756050288358
 30
0.0
 10
167.7309476957175
 20
109.7562538846652
 30
0.0
 10
167.8383442192557
 20
109.840635897653
 30
0.0
 10
167.9427903477851
 20
109.9286416174101
 30
0.0
 10
168.0441730906304
 20
110.0201590464319
 30
0.0
 10
168.1423787624522
 20
110.1150772438071
 30
0.0
 10
168.2372939390923
 20
110.2132850152177
 30
0.0
 10
168.3288048384449
 20
110.314671458743
 30
0.0
 10
168.4167986397352
 20
110.419124916945
 30
0.0
 10
168.5011581865782
 20
110.5265358095615
 30
0.0
 10
168.5817935471187
 20
110.6367711822436
 30
0.0
 10
168.658622709482
 20
110.7496928003703
 30
0.0
 10
168.7315616165338
 20
110.8651638693269
 30
0.0
 10
168.8005267815197
 20
110.9830471957813
 30
0.0
 10
168.8654342225607
 20
111.1032058504109
 30
0.0
 10
168.926201184898
 20
111.2255024798953
 30
0.0
 10
168.9827408398152
 20
111.3498025597881
 30
0.0
 10
169.0349924018873
 20
111.4759609102422
 30
0.0
 10
169.0829088334928
 20
111.6038295422395
 30
0.0
 10
169.1264404609459
 20
111.7332626636635
 30
0.0
 10
169.1655384348891
 20
111.8641141331715
 30
0.0
 10
169.2001534224998
 20
111.996237990145
 30
0.0
 10
169.2302369143115
 20
112.1294877304747
 30
0.0
 10
169.2557362405413
 20
112.2637130252545
 30
0.0
 10
169.2766176175115
 20
112.3987480379695
 30
0.0
 10
169.2929077093625
 20
112.5344158479884
 30
0.0
 10
169.3044829189643
 20
112.6705369961775
 30
0.0
 10
169.3117588159096
 20
112.806931454895
 30
0.0
 10
169.3126829556357
 20
112.8979507003678
 30
0.0
 10
169.3131449136501
 20
112.9434493070425
 30
0.0
  0
SPLINE
  5
7E
330
1F
100
AcDbEntity
  8
0
  6
Continuous
 62
     7
370
    15
100
AcDbSpline
210
0.0
220
0.0
230
1.0
 70
    24
 71
     3
 72
    14
 73
    10
 74
     0
 42
0.000000001
 43
0.00000001
 40
0.0
 40
0.0
 40
0.0
 40
0.0
 40
0.25
 40
0.25
 40
0.5
 40
0.5
 40
0.75
 40
0.75
 40
1.0
 40
1.0
 40
1.0
 40
1.0
 10
165.3137927281677
 20
109.9439062126188
 30
0.0
 10
165.3137927423435
 20
109.8270907759879
 30
0.0
 10
165.3137927576119
 20
109.7012707953344
 30
0.0
 10
165.3137927871922
 20
109.4575096714416
 30
0.0
 10
165.3137928014165
 20
109.3402906406997
 30
0.0
 10
165.3137928250209
 20
109.1457722881939
 30
0.0
 10
165.3137928343247
 20
109.0691003746092
 30
0.0
 10
165.3137928464183
 20
108.9694396186908
 30
0.0
 10
165.3137928492439
 20
108.9461550911139
 30
0.0
 10
165.3137928494914
 20
108.9441165421098
 30
0.0
  0
LINE
  5
7F
330
1F
100
AcDbEntity
  8
0
  6
Continuous
 62
     7
370
    15
100
AcDbLine
 10
63.7146500486
 20
109.9439062126
 30
0.0
 11
165.3137927282
 21
109.9439062126
 31
0.0
  0
LINE
  5
80
330
1F
100
AcDbEntity
  8
0
  6
Continuous
 62
     7
370
    15
100
AcDbLine
 10
60.7151069631
 20
164.5425919777
 30
0.0
 11
60.7151069631
 21
112.9434492981
 31
0.0
  0
LINE
  5
81
330
1F
100
AcDbEntity
  8
0
  6
Continuous
 62
     7
370
    15
100
AcDbLine
 10
165.3137927282
 20
167.5421350632
 30
0.0
 11
63.7146500486
 21
167.5421350632
 31
0.0
  0
LINE
  5
82
330
1F
100
AcDbEntity
  8
0
  6
Continuous
 62
     7
370
    15
100
AcDbLine
 10
168.3133358137
 20
112.9434492981
 30
0.0
 11
168.3133358137
 21
164.5425919777
 31
0.0
  0
CIRCLE
  5
83
330
1F
100
AcDbEntity
  8
0
  6
Continuous
 62
     7
370
    15
100
AcDbCircle
 10
63.5142213884
 20
164.7430206379
 30
0.0
 40
2.600000000000023
  0
CIRCLE
  5
84
330
1F
100
AcDbEntity
  8
0
  6
Continuous
 62
     7
370
    15
100
AcDbCircle
 10
165.5142213884
 20
164.7430206379
 30
0.0
 40
2.600000000000023
  0
CIRCLE
  5
85
330
1F
100
AcDbEntity
  8
0
  6
Continuous
 62
     7
370
    15
100
AcDbCircle
 10
165.5142213884
 20
112.7430206379
 30
0.0
 40
2.599999999999994
  0
CIRCLE
  5
86
330
1F
100
AcDbEntity
  8
0
  6
Continuous
 62
     7
370
    15
100
AcDbCircle
 10
63.5142213884
 20
112.7430206379
 30
0.0
 40
2.599999999999994
  0
LINE
  5
87
330
1F
100
AcDbEntity
  8
0
  6
Continuous
 62
     7
370
    15
100
AcDbLine
 10
165.3137927282
 20
168.5419827583
 30
0.0
 11
63.7146500543
 21
168.5419827583
 31
0.0
  0
LINE
  5
88
330
1F
100
AcDbEntity
  8
0
  6
Continuous
 62
     7
370
    15
100
AcDbLine
 10
63.7146500486
 20
108.9440585175
 30
0.0
 11
165.3137927225
 21
108.9440585175
 31
0.0
  0
LINE
  5
89
330
1F
100
AcDbEntity
  8
0
  6
Continuous
 62
     7
370
    15
100
AcDbLine
 10
59.7152592679
 20
164.5425919777
 30
0.0
 11
59.7152592679
 21
112.9434493038
 31
0.0
  0
LINE
  5
8A
330
1F
100
AcDbEntity
  8
0
  6
Continuous
 62
     7
370
    15
100
AcDbLine
 10
169.3131835088
 20
112.9434492992
 30
0.0
 11
169.3131835088
 21
164.542591972
 31
0.0
  0
ELLIPSE
  5
8B
330
1F
100
AcDbEntity
  8
0
  6
Continuous
 62
     7
370
    15
100
AcDbEllipse
 10
63.5148307006
 20
112.7436299501
 30
0.0
 11
-2.829288756678324
 21
-2.829288756678338
 31
0.0
210
0.0
220
0.0
230
1.0
 40
0.9996954599
 41
5.497939436318933
 42
7.068431177329428
  0
LINE
  5
8C
330
1F
100
AcDbEntity
  8
0
  6
Continuous
 62
     7
370
    15
100
AcDbLine
 10
59.715259268
 20
112.9434493038
 30
0.0
 11
59.5142213884
 21
112.7424114214
 31
0.0
  0
LINE
  5
8D
330
1F
100
AcDbEntity
  8
0
  6
Continuous
 62
     7
370
    15
100
AcDbLine
 10
63.7146500508
 20
108.9440585175
 30
0.0
 11
63.513612169
 21
108.7430206379
 31
0.0
  0
ELLIPSE
  5
8E
330
1F
100
AcDbEntity
  8
0
  6
Continuous
 62
     7
370
    15
100
AcDbEllipse
 10
165.5136120762
 20
164.7424113257
 30
0.0
 11
2.829288756678296
 21
2.829288756678324
 31
0.0
210
0.0
220
0.0
230
1.0
 40
0.9996954599
 41
5.497939437029763
 42
7.06843117732942
  0
LINE
  5
8F
330
1F
100
AcDbEntity
  8
0
  6
Continuous
 62
     7
370
    15
100
AcDbLine
 10
169.5142213884
 20
164.7436298573
 30
0.0
 11
169.3131835088
 21
164.542591972
 31
0.0
  0
LINE
  5
90
330
1F
100
AcDbEntity
  8
0
  6
Continuous
 62
     7
370
    15
100
AcDbLine
 10
165.3137927259
 20
168.5419827583
 30
0.0
 11
165.5148306077
 21
168.7430206379
 31
0.0
  0
ELLIPSE
  5
91
330
1F
100
AcDbEntity
  8
0
  6
Continuous
 62
     7
370
    15
100
AcDbEllipse
 10
63.5148307006
 20
164.7424113257
 30
0.0
 11
-2.829288756678323
 21
2.829288756678323
 31
0.0
210
0.0
220
0.0
230
1.0
 40
0.9996954599
 41
5.497939437029742
 42
7.06843117732943
  0
LINE
  5
92
330
1F
100
AcDbEntity
  8
0
  6
Continuous
 62
     7
370
    15
100
AcDbLine
 10
63.7146500486
 20
168.5419827583
 30
0.0
 11
63.513612169
 21
168.7430206379
 31
0.0
  0
LINE
  5
93
330
1F
100
AcDbEntity
  8
0
  6
Continuous
 62
     7
370
    15
100
AcDbLine
 10
59.7152592679
 20
164.5425919755
 30
0.0
 11
59.5142213884
 21
164.7436298573
 31
0.0
  0
ELLIPSE
  5
94
330
1F
100
AcDbEntity
  8
0
  6
Continuous
 62
     7
370
    15
100
AcDbEllipse
 10
165.5136120762
 20
112.7436299501
 30
0.0
 11
2.829288756678296
 21
-2.829288756678338
 31
0.0
210
0.0
220
0.0
230
1.0
 40
0.9996954599
 41
5.497939436318939
 42
7.068431177329439
  0
LINE
  5
95
330
1F
100
AcDbEntity
  8
0
  6
Continuous
 62
     7
370
    15
100
AcDbLine
 10
165.3137927225
 20
108.9440585175
 30
0.0
 11
165.5148306049
 21
108.7430206379
 31
0.0
  0
LINE
  5
96
330
1F
100
AcDbEntity
  8
0
  6
Continuous
 62
     7
370
    15
100
AcDbLine
 10
169.3131835088
 20
112.9434493003
 30
0.0
 11
169.5142213884
 21
112.7424114185
 31
0.0
  0
LINE
  5
97
330
1F
100
AcDbEntity
  8
0
  6
Continuous
 62
     7
370
    15
100
AcDbLine
 10
165.5148306077
 20
168.7430206379
 30
0.0
 11
63.513612169
 21
168.7430206379
 31
0.0
  0
LINE
  5
98
330
1F
100
AcDbEntity
  8
0
  6
Continuous
 62
     7
370
    15
100
AcDbLine
 10
169.5142213884
 20
112.7424114185
 30
0.0
 11
169.5142213884
 21
164.7436298573
 31
0.0
  0
LINE
  5
99
330
1F
100
AcDbEntity
  8
0
  6
Continuous
 62
     7
370
    15
100
AcDbLine
 10
59.5142213884
 20
164.7436298573
 30
0.0
 11
59.5142213884
 21
112.7424114214
 31
0.0
  0
LINE
  5
9A
330
1F
100
AcDbEntity
  8
0
  6
Continuous
 62
     7
370
    15
100
AcDbLine
 10
63.513612169
 20
108.7430206379
 30
0.0
 11
165.5148306049
 21
108.7430206379
 31
0.0
  0
CIRCLE
  5
9B
330
1F
100
AcDbEntity
  8
0
  6
Continuous
 62
     7
370
    15
100
AcDbCircle
 10
63.5142213884
 20
112.7430206379
 30
0.0
 40
1.674999999999997
  0
CIRCLE
  5
9C
330
1F
100
AcDbEntity
  8
0
  6
Continuous
 62
     7
370
    15
100
AcDbCircle
 10
165.5142213884
 20
164.7430206379
 30
0.0
 40
1.675000000000011
  0
CIRCLE
  5
9D
330
1F
100
AcDbEntity
  8
0
  6
Continuous
 62
     7
370
    15
100
AcDbCircle
 10
165.5142213884
 20
112.7430206379
 30
0.0
 40
1.674999999999997
  0
CIRCLE
  5
9E
330
1F
100
AcDbEntity
  8
0
  6
Continuous
 62
     7
370
    15
100
AcDbCircle
 10
63.5142213884
 20
164.7430206379
 30
0.0
 40
1.675000000000011
  0
SPLINE
  5
9F
330
1F
100
AcDbEntity
  8
0
  6
Continuous
 62
     7
370
    15
100
AcDbSpline
210
0.0
220
0.0
230
1.0
 70
     8
 71
     3
 72
    11
 73
     7
 74
     0
 42
0.000000001
 43
0.00000001
 40
0.0
 40
0.0
 40
0.0
 40
0.0
 40
0.250024007460221
 40
0.4999998884536683
 40
0.7499762828775003
 40
1.0
 40
1.0
 40
1.0
 40
1.0
 10
26.62714419721222
 20
167.7191925790608
 30
0.0
 10
26.62714351440531
 20
167.6708734270483
 30
0.0
 10
26.62714214892293
 20
167.5742444238504
 30
0.0
 10
26.62714010034842
 20
166.8312114072342
 30
0.0
 10
26.62713805190389
 20
165.7703040415615
 30
0.0
 10
26.62713668673538
 20
164.9319046179846
 30
0.0
 10
26.62713600408652
 20
164.5126652308817
 30
0.0
  0
SPLINE
  5
A0
330
1F
100
AcDbEntity
  8
0
  6
Continuous
 62
     7
370
    15
100
AcDbSpline
210
0.0
220
0.0
230
1.0
 70
     8
 71
     3
 72
    11
 73
     7
 74
     0
 42
0.000000001
 43
0.00000001
 40
0.0
 40
0.0
 40
0.0
 40
0.0
 40
0.2499658418356793
 40
0.4999066421421898
 40
0.7499251237558282
 40
1.0
 40
1.0
 40
1.0
 40
1.0
 10
26.62713600408058
 20
112.9434494213203
 30
0.0
 10
26.62718157115617
 20
112.629348801191
 30
0.0
 10
26.62727270074245
 20
112.0011790274712
 30
0.0
 10
26.62741023880407
 20
111.1453047371398
 30
0.0
 10
26.62754826115706
 20
110.4274470195104
 30
0.0
 10
26.62764079914363
 20
110.1407237012823
 30
0.0
 10
26.62768707335459
 20
109.9973458755312
 30
0.0
  0
SPLINE
  5
A1
330
1F
100
AcDbEntity
  8
0
  6
Continuous
 62
     7
370
    15
100
AcDbSpline
210
0.0
220
0.0
230
1.0
 70
     8
 71
     3
 72
     9
 73
     5
 74
     0
 42
0.000000001
 43
0.00000001
 40
0.0
 40
0.0
 40
0.0
 40
0.0
 40
0.5882856679392677
 40
1.0
 40
1.0
 40
1.0
 40
1.0
 10
26.62713586809738
 20
109.7670454407662
 30
0.0
 10
26.64097059053501
 20
109.7113315998816
 30
0.0
 10
26.66448760478778
 20
109.6166261805235
 30
0.0
 10
26.71636212517584
 20
109.6464925809833
 30
0.0
 10
26.73771960868839
 20
109.6587890060996
 30
0.0
  0
SPLINE
  5
A2
330
1F
100
AcDbEntity
  8
0
  6
Continuous
 62
     7
370
    15
100
AcDbSpline
210
0.0
220
0.0
230
1.0
 70
     8
 71
     3
 72
    11
 73
     7
 74
     0
 42
0.000000001
 43
0.00000001
 40
0.0
 40
0.0
 40
0.0
 40
0.0
 40
0.2554160020480311
 40
0.5148617280911613
 40
0.7663729014809255
 40
1.0
 40
1.0
 40
1.0
 40
1.0
 10
26.67845034320083
 20
109.6478161551497
 30
0.0
 10
26.72345583810927
 20
109.5577220932273
 30
0.0
 10
26.81417688415318
 20
109.3761125462913
 30
0.0
 10
27.04654283252145
 20
109.1738669282078
 30
0.0
 10
27.31655703198187
 20
109.0433435554194
 30
0.0
 10
27.50941063910824
 20
109.0257845206801
 30
0.0
 10
27.60228277738459
 20
109.0173286503098
 30
0.0
  0
SPLINE
  5
A3
330
1F
100
AcDbEntity
  8
0
  6
Continuous
 62
     7
370
    15
100
AcDbSpline
210
0.0
220
0.0
230
1.0
 70
     8
 71
     3
 72
     9
 73
     5
 74
     0
 42
0.000000001
 43
0.00000001
 40
0.0
 40
0.0
 40
0.0
 40
0.0
 40
0.7013124013078141
 40
1.0
 40
1.0
 40
1.0
 40
1.0
 10
26.67845034320083
 20
110.1330374254977
 30
0.0
 10
26.65695464924966
 20
110.0742973553775
 30
0.0
 10
26.6263039807158
 20
109.990540002719
 30
0.0
 10
26.62121208018872
 20
110.0018025512735
 30
0.0
 10
26.6196911926475
 20
110.0051665348564
 30
0.0
  0
LINE
  5
A4
330
1F
100
AcDbEntity
  8
0
  6
Continuous
 62
     7
370
    15
100
AcDbLine
 10
26.6271426556
 20
109.9509680772
 30
0.0
 11
26.6271441972
 21
109.7668486967
 31
0.0
  0
LINE
  5
A5
330
1F
100
AcDbEntity
  8
0
  6
Continuous
 62
     7
370
    15
100
AcDbLine
 10
39.1113387132
 20
108.7430206379
 30
0.0
 11
39.1113387132
 21
112.7424114185
 31
0.0
  0
LINE
  5
A6
330
1F
100
AcDbEntity
  8
0
  6
Continuous
 62
     7
370
    15
100
AcDbLine
 10
27.5938863068
 20
108.9440585175
 30
0.0
 11
39.1113387132
 21
108.7430206379
 31
0.0
  0
LINE
  5
A7
330
1F
100
AcDbEntity
  8
0
  6
Continuous
 62
     7
370
    15
100
AcDbLine
 10
27.5938863068
 20
108.9440585175
 30
0.0
 11
27.5908553241
 21
109.022286494
 31
0.0
  0
LINE
  5
A8
330
1F
100
AcDbEntity
  8
0
  6
Continuous
 62
     7
370
    15
100
AcDbLine
 10
27.5938863068
 20
112.9434493003
 30
0.0
 11
39.1113387132
 21
112.7424114185
 31
0.0
  0
LINE
  5
A9
330
1F
100
AcDbEntity
  8
0
  6
Continuous
 62
     7
370
    15
100
AcDbLine
 10
39.1113387132
 20
164.7436298573
 30
0.0
 11
39.1113387132
 21
168.7430206379
 31
0.0
  0
LINE
  5
AA
330
1F
100
AcDbEntity
  8
0
  6
Continuous
 62
     7
370
    15
100
AcDbLine
 10
39.1113387132
 20
164.7436298573
 30
0.0
 11
27.5938863068
 21
164.542591972
 31
0.0
  0
SPLINE
  5
AB
330
1F
100
AcDbEntity
  8
0
  6
Continuous
 62
     7
370
    15
100
AcDbSpline
210
0.0
220
0.0
230
1.0
 70
     8
 71
     3
 72
    53
 73
    49
 74
     0
 42
0.000000001
 43
0.00000001
 40
0.0
 40
0.0
 40
0.0
 40
0.0
 40
0.0217386936471744
 40
0.0434854070481078
 40
0.0652365562819304
 40
0.0869886628309554
 40
0.1087384663991108
 40
0.1304839038714365
 40
0.1522256096044344
 40
0.1739645000816852
 40
0.1957013436711368
 40
0.2174368438647133
 40
0.2391717225699894
 40
0.260906803411532
 40
0.2826429152897875
 40
0.30438019317604
 40
0.3261183947067214
 40
0.3478571490901953
 40
0.3695960476972248
 40
0.3913347346241599
 40
0.413072997252731
 40
0.4348108771432375
 40
0.4565486405990185
 40
0.4782864089997708
 40
0.5000241556433197
 40
0.5217617943029262
 40
0.5434992678269718
 40
0.5652366367349525
 40
0.5869741430666643
 40
0.6087119399008585
 40
0.630449885337888
 40
0.6521876624451074
 40
0.6739248704372849
 40
0.6956611152206192
 40
0.7173960999454562
 40
0.7391297639053462
 40
0.7608627507668526
 40
0.7825959319071415
 40
0.8043300544552425
 40
0.8260658183787903
 40
0.8478039597490429
 40
0.8695453339595883
 40
0.8912908812552963
 40
0.9130395702332057
 40
0.9347883022282641
 40
0.9565336624094659
 40
0.9782720919365628
 40
1.0
 40
1.0
 40
1.0
 40
1.0
 10
27.59388731954579
 20
164.5425919634896
 30
0.0
 10
27.59369139939062
 20
164.5881131713148
 30
0.0
 10
27.5932994868022
 20
164.679172380471
 30
0.0
 10
27.59274449363746
 20
164.8156194224499
 30
0.0
 10
27.59221339410801
 20
164.9517777512337
 30
0.0
 10
27.59170857834883
 20
165.0874672129768
 30
0.0
 10
27.5912294160036
 20
165.2225095442906
 30
0.0
 10
27.5907760734888
 20
165.3567330353586
 30
0.0
 10
27.59034855448575
 20
165.4899822638702
 30
0.0
 10
27.589946884825
 20
165.6221090336332
 30
0.0
 10
27.58957107287564
 20
165.7529662337365
 30
0.0
 10
27.58922112994641
 20
165.8824067521942
 30
0.0
 10
27.58889706581796
 20
166.0102834470583
 30
0.0
 10
27.58859889064117
 20
166.1364489222988
 30
0.0
 10
27.58832661875418
 20
166.2607532345147
 30
0.0
 10
27.58808025425413
 20
166.3830585990078
 30
0.0
 10
27.58785980289785
 20
166.5032265583826
 30
0.0
 10
27.58766527068078
 20
166.6211182224688
 30
0.0
 10
27.58749666299266
 20
166.7365947548214
 30
0.0
 10
27.58735398468548
 20
166.8495171415888
 30
0.0
 10
27.58723723996284
 20
166.9597469454184
 30
0.0
 10
27.58714643280573
 20
167.0671434689516
 30
0.0
 10
27.58708156690848
 20
167.1715895974748
 30
0.0
 10
27.58704264378052
 20
167.272972340313
 30
0.0
 10
27.58702966432733
 20
167.3711780121268
 30
0.0
 10
27.58704262888017
 20
167.4660931887583
 30
0.0
 10
27.58708153719537
 20
167.557604088102
 30
0.0
 10
27.58714638853194
 20
167.6455978893832
 30
0.0
 10
27.58723718065399
 20
167.7299574362171
 30
0.0
 10
27.58735390996183
 20
167.8105927967489
 30
0.0
 10
27.58749657295483
 20
167.8874219591034
 30
0.0
 10
27.58766516544742
 20
167.9603608661468
 30
0.0
 10
27.58785968268742
 20
168.0293260311247
 30
0.0
 10
27.58808011947225
 20
168.0942334721581
 30
0.0
 10
27.58832646978075
 20
168.1550004344881
 30
0.0
 10
27.58859873073073
 20
168.2115400893987
 30
0.0
 10
27.58889689140625
 20
168.2637916514647
 30
0.0
 10
27.58922094040589
 20
168.3117080830644
 30
0.0
 10
27.58957086856183
 20
168.3552397105124
 30
0.0
 10
27.58994666636848
 20
168.3943376844508
 30
0.0
 10
27.59034832181198
 20
168.4289526720572
 30
0.0
 10
27.5907758288788
 20
168.4590361638647
 30
0.0
 10
27.59122913659592
 20
168.4845354900907
 30
0.0
 10
27.59170827191778
 20
168.5054168670576
 30
0.0
 10
27.59221307016286
 20
168.5217069589058
 30
0.0
 10
27.5927441535425
 20
168.5332821685058
 30
0.0
 10
27.5932991262394
 20
168.5405580654503
 30
0.0
 10
27.5936910606757
 20
168.541482205177
 30
0.0
 10
27.59388698045801
 20
168.5419441631918
 30
0.0
  0
LINE
  5
AC
330
1F
100
AcDbEntity
  8
0
  6
Continuous
 62
     7
370
    15
100
AcDbLine
 10
27.5938863068
 20
168.5419827583
 30
0.0
 11
39.1113387132
 21
168.7430206379
 31
0.0
  0
LINE
  5
AD
330
1F
100
AcDbEntity
  8
0
  6
Continuous
 62
     7
370
    15
100
AcDbLine
 10
39.1113387132
 20
112.7424114185
 30
0.0
 11
39.1113387132
 21
164.7436298573
 31
0.0
  0
LINE
  5
AE
330
1F
100
AcDbEntity
  8
0
  6
Continuous
 62
     7
370
    15
100
AcDbLine
 10
27.5938863068
 20
112.9434492992
 30
0.0
 11
27.5938863068
 21
164.542591972
 31
0.0
  0
LINE
  5
AF
330
1F
100
AcDbEntity
  8
0
  6
Continuous
 62
     7
370
    15
100
AcDbLine
 10
26.6443096678
 20
164.542591972
 30
0.0
 11
26.6113387132
 21
164.542591972
 31
0.0
  0
SPLINE
  5
B0
330
1F
100
AcDbEntity
  8
0
  6
Continuous
 62
     7
370
    15
100
AcDbSpline
210
0.0
220
0.0
230
1.0
 70
     8
 71
     3
 72
    11
 73
     7
 74
     0
 42
0.000000001
 43
0.00000001
 40
0.0
 40
0.0
 40
0.0
 40
0.0
 40
0.1530850290043572
 40
0.4353900193362386
 40
0.7176950096681194
 40
1.0
 40
1.0
 40
1.0
 40
1.0
 10
26.64542118971832
 20
167.7154545628916
 30
0.0
 10
26.65493475594046
 20
167.7852081214
 30
0.0
 10
26.68199234483962
 20
167.9835946219303
 30
0.0
 10
26.88441673420448
 20
168.2581915765219
 30
0.0
 10
27.20531652503215
 20
168.4913458262737
 30
0.0
 10
27.46436304621075
 20
168.5251037809812
 30
0.0
 10
27.59388630680005
 20
168.541982758335
 30
0.0
  0
LINE
  5
B1
330
1F
100
AcDbEntity
  8
0
  6
Continuous
 62
     7
370
    15
100
AcDbLine
 10
26.6113387132
 20
112.9434492981
 30
0.0
 11
26.6113387132
 21
164.5425919777
 31
0.0
  0
LINE
  5
B2
330
1F
100
AcDbEntity
  8
0
  6
Continuous
 62
     7
370
    15
100
AcDbLine
 10
26.6113387132
 20
112.9434492981
 30
0.0
 11
26.6454244438
 21
112.9434492981
 31
0.0
  0
LINE
  5
B3
330
1F
100
AcDbEntity
  8
0
  6
Continuous
 62
     7
370
    15
100
AcDbLine
 10
26.6113387132
 20
109.9439062126
 30
0.0
 11
26.6113387132
 21
110.0917471273
 31
0.0
  0
LINE
  5
B4
330
1F
100
AcDbEntity
  8
0
  6
Continuous
 62
     7
370
    15
100
AcDbLine
 10
26.6113387132
 20
109.9439062126
 30
0.0
 11
26.6465919954
 21
109.7646328186
 31
0.0
  0
SPLINE
  5
B5
330
1F
100
AcDbEntity
  8
0
  6
Continuous
 62
     8
370
    15
100
AcDbSpline
210
0.0
220
0.0
230
1.0
 70
     8
 71
     3
 72
    15
 73
    11
 74
     0
 42
0.000000001
 43
0.00000001
 40
0.0
 40
0.0
 40
0.0
 40
0.0
 40
0.00907275182215
 40
0.1534189150360699
 40
0.2938707868440968
 40
0.4304289364750935
 40
0.5669563188104704
 40
0.7073936090898651
 40
0.851741367419533
 40
1.0
 40
1.0
 40
1.0
 40
1.0
 10
27.59085532408251
 20
109.0222864940469
 30
0.0
 10
27.59078901022745
 20
109.0238974359922
 30
0.0
 10
27.589667652574
 20
109.0511382302165
 30
0.0
 10
27.58825556385631
 20
109.2495969634468
 30
0.0
 10
27.5868913717799
 20
109.6092701222641
 30
0.0
 10
27.5865443110201
 20
110.0995007967227
 30
0.0
 10
27.58690172781195
 20
110.6867184432303
 30
0.0
 10
27.58820911622467
 20
111.3696716614434
 30
0.0
 10
27.59050964565891
 20
112.1329204603164
 30
0.0
 10
27.59275076840013
 20
112.6708763106702
 30
0.0
 10
27.59388630680045
 20
112.9434493003237
 30
0.0
  0
SPLINE
  5
B6
330
1F
100
AcDbEntity
  8
0
  6
Continuous
 62
     8
370
    15
100
AcDbSpline
210
0.0
220
0.0
230
1.0
 70
    24
 71
     3
 72
    11
 73
     7
 74
     0
 42
0.000000001
 43
0.00000001
 40
0.0
 40
0.0
 40
0.0
 40
0.0
 40
0.2811202894880737
 40
0.5622405789761471
 40
0.8433608684642208
 40
1.0
 40
1.0
 40
1.0
 40
1.0
 10
27.5938863067997
 20
164.5425919720238
 30
0.0
 10
27.46437242411263
 20
164.5425919720238
 30
0.0
 10
27.20534465873848
 20
164.5425919720238
 30
0.0
 10
26.8843041993781
 20
164.5425919720237
 30
0.0
 10
26.681146841474
 20
164.5425919720238
 30
0.0
 10
26.65401719964709
 20
164.5425919720237
 30
0.0
 10
26.64430966776873
 20
164.5425919720238
 30
0.0
  0
SPLINE
  5
B7
330
1F
100
AcDbEntity
  8
0
  6
Continuous
 62
     8
370
    15
100
AcDbSpline
210
0.0
220
0.0
230
1.0
 70
    24
 71
     3
 72
    11
 73
     7
 74
     0
 42
0.000000001
 43
0.00000001
 40
0.0
 40
0.0
 40
0.0
 40
0.0
 40
0.1530745800919954
 40
0.4353830533946636
 40
0.7176915266973317
 40
1.0
 40
1.0
 40
1.0
 40
1.0
 10
26.64542444379254
 20
112.9434492980887
 30
0.0
 10
26.65493743887685
 20
112.9434492980887
 30
0.0
 10
26.68199481734067
 20
112.9434492980887
 30
0.0
 10
26.88441706716051
 20
112.9434492980887
 30
0.0
 10
27.20531644179287
 20
112.9434492980888
 30
0.0
 10
27.46436301846409
 20
112.9434492980888
 30
0.0
 10
27.5938863067997
 20
112.9434492980887
 30
0.0
  0
SPLINE
  5
B8
330
1F
100
AcDbEntity
  8
0
  6
Continuous
 62
     7
370
    15
100
AcDbSpline
210
0.0
220
0.0
230
1.0
 70
     8
 71
     3
 72
    11
 73
     7
 74
     0
 42
0.000000001
 43
0.00000001
 40
0.0
 40
0.0
 40
0.0
 40
0.0
 40
0.2500240074435354
 40
0.4999998884353779
 40
0.749976282864645
 40
1.0
 40
1.0
 40
1.0
 40
1.0
 10
168.4903933290537
 20
200.8640940767935
 30
0.0
 10
168.4420741770867
 20
200.8640947595931
 30
0.0
 10
168.3454451739769
 20
200.8640961250609
 30
0.0
 10
167.6024121575311
 20
200.8640981736137
 30
0.0
 10
166.5415047919601
 20
200.8641002220365
 30
0.0
 10
165.7031053684176
 20
200.8641015871905
 30
0.0
 10
165.2838659813256
 20
200.8641022698321
 30
0.0
  0
SPLINE
  5
B9
330
1F
100
AcDbEntity
  8
0
  6
Continuous
 62
     7
370
    15
100
AcDbSpline
210
0.0
220
0.0
230
1.0
 70
     8
 71
     3
 72
    11
 73
     7
 74
     0
 42
0.000000001
 43
0.00000001
 40
0.0
 40
0.0
 40
0.0
 40
0.0
 40
0.2499658418390532
 40
0.4999066421434883
 40
0.7499251237555153
 40
1.0
 40
1.0
 40
1.0
 40
1.0
 10
63.71465017180453
 20
200.8641022698432
 30
0.0
 10
63.40054955167371
 20
200.8640567027674
 30
0.0
 10
62.77237977795763
 20
200.8639655731809
 30
0.0
 10
61.91650548763383
 20
200.8638280351189
 30
0.0
 10
61.19864777001322
 20
200.8636900127655
 30
0.0
 10
60.91192445177743
 20
200.8635974747786
 30
0.0
 10
60.76854662602196
 20
200.8635512005676
 30
0.0
  0
SPLINE
  5
BA
330
1F
100
AcDbEntity
  8
0
  6
Continuous
 62
     7
370
    15
100
AcDbSpline
210
0.0
220
0.0
230
1.0
 70
     8
 71
     3
 72
     9
 73
     5
 74
     0
 42
0.000000001
 43
0.00000001
 40
0.0
 40
0.0
 40
0.0
 40
0.0
 40
0.5882856679860976
 40
1.0
 40
1.0
 40
1.0
 40
1.0
 10
60.53824619126139
 20
200.8641024058289
 30
0.0
 10
60.4825323503723
 20
200.850267683393
 30
0.0
 10
60.38782693101402
 20
200.826750669145
 30
0.0
 10
60.41769333147641
 20
200.7748761487605
 30
0.0
 10
60.42998975659246
 20
200.7535186652519
 30
0.0
  0
SPLINE
  5
BB
330
1F
100
AcDbEntity
  8
0
  6
Continuous
 62
     7
370
    15
100
AcDbSpline
210
0.0
220
0.0
230
1.0
 70
     8
 71
     3
 72
    11
 73
     7
 74
     0
 42
0.000000001
 43
0.00000001
 40
0.0
 40
0.0
 40
0.0
 40
0.0
 40
0.2554160020474601
 40
0.5148617280901706
 40
0.7663729014801071
 40
1.0
 40
1.0
 40
1.0
 40
1.0
 10
60.41901690563505
 20
200.8127879307287
 30
0.0
 10
60.32892284370973
 20
200.7677824358216
 30
0.0
 10
60.14731329676793
 20
200.6770613897802
 30
0.0
 10
59.9450676786775
 20
200.4446954414098
 30
0.0
 10
59.81454430588614
 20
200.1746812419443
 30
0.0
 10
59.79698527114859
 20
199.9818276348144
 30
0.0
 10
59.7885294007791
 20
199.8889554965362
 30
0.0
  0
SPLINE
  5
BC
330
1F
100
AcDbEntity
  8
0
  6
Continuous
 62
     7
370
    15
100
AcDbSpline
210
0.0
220
0.0
230
1.0
 70
     8
 71
     3
 72
     9
 73
     5
 74
     0
 42
0.000000001
 43
0.00000001
 40
0.0
 40
0.0
 40
0.0
 40
0.0
 40
0.7013124012678663
 40
0.9999999999999999
 40
0.9999999999999999
 40
0.9999999999999999
 40
0.9999999999999999
 10
60.90423817599078
 20
200.8127879307287
 30
0.0
 10
60.84549810586977
 20
200.8342836246785
 30
0.0
 10
60.76174075320523
 20
200.8649342932121
 30
0.0
 10
60.77300330175865
 20
200.8700261937367
 30
0.0
 10
60.77636728534169
 20
200.8715470812774
 30
0.0
  0
LINE
  5
BD
330
1F
100
AcDbEntity
  8
0
  6
Continuous
 62
     7
370
    15
100
AcDbLine
 10
60.7221688277
 20
200.8640956184
 30
0.0
 11
60.5380494477
 21
200.8640940768
 31
0.0
  0
LINE
  5
BE
330
1F
100
AcDbEntity
  8
0
  6
Continuous
 62
     7
370
    15
100
AcDbLine
 10
165.5148306049
 20
188.3798995607
 30
0.0
 11
169.5142213883
 21
188.3798995607
 31
0.0
  0
LINE
  5
BF
330
1F
100
AcDbEntity
  8
0
  6
Continuous
 62
     7
370
    15
100
AcDbLine
 10
165.3137927225
 20
199.8973519671
 30
0.0
 11
165.5148306049
 21
188.3798995607
 31
0.0
  0
SPLINE
  5
C0
330
1F
100
AcDbEntity
  8
0
  6
Continuous
 62
     7
370
    15
100
AcDbSpline
210
0.0
220
0.0
230
1.0
 70
     8
 71
     3
 72
    53
 73
    49
 74
     0
 42
0.000000001
 43
0.00000001
 40
0.0
 40
0.0
 40
0.0
 40
0.0
 40
0.0217386936434982
 40
0.043485407041472
 40
0.06523655627287
 40
0.0869886628198307
 40
0.1087384663861033
 40
0.1304839038565973
 40
0.1522256095878289
 40
0.173964500063403
 40
0.1957013436512773
 40
0.2174368438433942
 40
0.2391717225473367
 40
0.2609068033876702
 40
0.2826429152648427
 40
0.3043801931501355
 40
0.3261183946799948
 40
0.3478571490627891
 40
0.3695960476692867
 40
0.3913347345958538
 40
0.4130729972242361
 40
0.4348108771147424
 40
0.4565486405706877
 40
0.4782864089717584
 40
0.5000241556157516
 40
0.52176179427591
 40
0.5434992678005974
 40
0.5652366367092888
 40
0.5869741430417663
 40
0.6087119398767735
 40
0.630449885314656
 40
0.6521876624227573
 40
0.6739248704158342
 40
0.6956611152000841
 40
0.7173960999258339
 40
0.7391297638866273
 40
0.760862750749055
 40
0.7825959318903163
 40
0.8043300544394874
 40
0.8260658183642463
 40
0.8478039597358903
 40
0.8695453339480508
 40
0.8912908812456309
 40
0.9130395702256033
 40
0.9347883022227969
 40
0.9565336624060666
 40
0.9782720919350292
 40
0.9999999999999999
 40
0.9999999999999999
 40
0.9999999999999999
 40
0.9999999999999999
 10
165.3137927139337
 20
199.8973509543756
 30
0.0
 10
165.3593139217511
 20
199.8975468745308
 30
0.0
 10
165.4503731308932
 20
199.8979387871191
 30
0.0
 10
165.5868201728534
 20
199.8984937802838
 30
0.0
 10
165.722978501622
 20
199.8990248798132
 30
0.0
 10
165.8586679633524
 20
199.8995296955723
 30
0.0
 10
165.9937102946547
 20
199.9000088579175
 30
0.0
 10
166.1279337857118
 20
199.9004622004322
 30
0.0
 10
166.2611830142131
 20
199.9008897194352
 30
0.0
 10
166.3933097839662
 20
199.9012913890959
 30
0.0
 10
166.5241669840604
 20
199.9016672010452
 30
0.0
 10
166.6536075025097
 20
199.9020171439744
 30
0.0
 10
166.7814841973666
 20
199.9023412081029
 30
0.0
 10
166.9076496726011
 20
199.9026393832796
 30
0.0
 10
167.0319539848123
 20
199.9029116551665
 30
0.0
 10
167.1542593493022
 20
199.9031580196665
 30
0.0
 10
167.2744273086752
 20
199.9033784710228
 30
0.0
 10
167.3923189727609
 20
199.9035730032398
 30
0.0
 10
167.5077955051144
 20
199.9037416109279
 30
0.0
 10
167.6207178918841
 20
199.9038842892351
 30
0.0
 10
167.7309476957175
 20
199.9040010339577
 30
0.0
 10
167.8383442192557
 20
199.9040918411148
 30
0.0
 10
167.9427903477851
 20
199.904156707012
 30
0.0
 10
168.0441730906304
 20
199.90419563014
 30
0.0
 10
168.1423787624522
 20
199.9042086095931
 30
0.0
 10
168.2372939390923
 20
199.9041956450403
 30
0.0
 10
168.3288048384449
 20
199.9041567367251
 30
0.0
 10
168.4167986397352
 20
199.9040918853885
 30
0.0
 10
168.5011581865782
 20
199.9040010932665
 30
0.0
 10
168.5817935471187
 20
199.9038843639586
 30
0.0
 10
168.658622709482
 20
199.9037417009656
 30
0.0
 10
168.7315616165338
 20
199.9035731084731
 30
0.0
 10
168.8005267815197
 20
199.9033785912331
 30
0.0
 10
168.8654342225607
 20
199.9031581544482
 30
0.0
 10
168.926201184898
 20
199.9029118041398
 30
0.0
 10
168.9827408398152
 20
199.9026395431898
 30
0.0
 10
169.0349924018873
 20
199.9023413825143
 30
0.0
 10
169.0829088334928
 20
199.9020173335147
 30
0.0
 10
169.1264404609459
 20
199.9016674053588
 30
0.0
 10
169.1655384348891
 20
199.9012916075522
 30
0.0
 10
169.2001534224998
 20
199.9008899521087
 30
0.0
 10
169.2302369143115
 20
199.9004624450419
 30
0.0
 10
169.2557362405413
 20
199.9000091373248
 30
0.0
 10
169.2766176175115
 20
199.899530002003
 30
0.0
 10
169.2929077093625
 20
199.899025203758
 30
0.0
 10
169.3044829189643
 20
199.8984941203784
 30
0.0
 10
169.3117588159096
 20
199.8979391476815
 30
0.0
 10
169.3126829556357
 20
199.8975472132453
 30
0.0
 10
169.3131449136501
 20
199.897351293463
 30
0.0
  0
LINE
  5
C1
330
1F
100
AcDbEntity
  8
0
  6
Continuous
 62
     7
370
    15
100
AcDbLine
 10
169.3131835088
 20
199.8973519671
 30
0.0
 11
169.5142213884
 21
188.3798995607
 31
0.0
  0
LINE
  5
C2
330
1F
100
AcDbEntity
  8
0
  6
Continuous
 62
     7
370
    15
100
AcDbLine
 10
63.513612169
 20
188.3798995607
 30
0.0
 11
165.5148306049
 21
188.3798995607
 31
0.0
  0
LINE
  5
C3
330
1F
100
AcDbEntity
  8
0
  6
Continuous
 62
     7
370
    15
100
AcDbLine
 10
63.7146500508
 20
199.8973519671
 30
0.0
 11
63.513612169
 21
188.3798995607
 31
0.0
  0
LINE
  5
C4
330
1F
100
AcDbEntity
  8
0
  6
Continuous
 62
     7
370
    15
100
AcDbLine
 10
63.7146500486
 20
199.8973519671
 30
0.0
 11
165.3137927225
 21
199.8973519671
 31
0.0
  0
LINE
  5
C5
330
1F
100
AcDbEntity
  8
0
  6
Continuous
 62
     7
370
    15
100
AcDbLine
 10
59.5142213884
 20
188.3798995607
 30
0.0
 11
63.513612169
 21
188.3798995607
 31
0.0
  0
LINE
  5
C6
330
1F
100
AcDbEntity
  8
0
  6
Continuous
 62
     7
370
    15
100
AcDbLine
 10
59.715259268
 20
199.8973519671
 30
0.0
 11
59.5142213884
 21
188.3798995607
 31
0.0
  0
LINE
  5
C7
330
1F
100
AcDbEntity
  8
0
  6
Continuous
 62
     7
370
    15
100
AcDbLine
 10
59.715259268
 20
199.8973519671
 30
0.0
 11
59.7934872444
 21
199.9003829498
 31
0.0
  0
SPLINE
  5
C8
330
1F
100
AcDbEntity
  8
0
  6
Continuous
 62
     7
370
    15
100
AcDbSpline
210
0.0
220
0.0
230
1.0
 70
     8
 71
     3
 72
    11
 73
     7
 74
     0
 42
0.000000001
 43
0.00000001
 40
0.0
 40
0.0
 40
0.0
 40
0.0
 40
0.153085029315267
 40
0.4353900195435113
 40
0.7176950097717556
 40
1.0
 40
1.0
 40
1.0
 40
1.0
 10
168.4866553128881
 20
200.8458170842997
 30
0.0
 10
168.5564088715658
 20
200.8363035180606
 30
0.0
 10
168.7547953722688
 20
200.8092459291551
 30
0.0
 10
169.029392327014
 20
200.6068215397267
 30
0.0
 10
169.2625465767618
 20
200.2859217488868
 30
0.0
 10
169.2963045314699
 20
200.0268752277099
 30
0.0
 10
169.313183508824
 20
199.8973519671215
 30
0.0
  0
LINE
  5
C9
330
1F
100
AcDbEntity
  8
0
  6
Continuous
 62
     7
370
    15
100
AcDbLine
 10
165.3137927225
 20
200.8798995607
 30
0.0
 11
165.3137927225
 21
200.8469286061
 31
0.0
  0
LINE
  5
CA
330
1F
100
AcDbEntity
  8
0
  6
Continuous
 62
     7
370
    15
100
AcDbLine
 10
63.7146500486
 20
200.8798995607
 30
0.0
 11
63.7146500486
 21
200.8458138301
 31
0.0
  0
LINE
  5
CB
330
1F
100
AcDbEntity
  8
0
  6
Continuous
 62
     7
370
    15
100
AcDbLine
 10
63.7146500486
 20
200.8798995607
 30
0.0
 11
165.3137927282
 21
200.8798995607
 31
0.0
  0
LINE
  5
CC
330
1F
100
AcDbEntity
  8
0
  6
Continuous
 62
     7
370
    15
100
AcDbLine
 10
60.7151069631
 20
200.8798995607
 30
0.0
 11
60.5358335691
 21
200.8446462785
 31
0.0
  0
LINE
  5
CD
330
1F
100
AcDbEntity
  8
0
  6
Continuous
 62
     7
370
    15
100
AcDbLine
 10
60.7151069631
 20
200.8798995607
 30
0.0
 11
60.8629478778
 21
200.8798995607
 31
0.0
  0
SPLINE
  5
CE
330
1F
100
AcDbEntity
  8
0
  6
Continuous
 62
     8
370
    15
100
AcDbSpline
210
0.0
220
0.0
230
1.0
 70
     8
 71
     3
 72
    15
 73
    11
 74
     0
 42
0.000000001
 43
0.00000001
 40
0.0
 40
0.0
 40
0.0
 40
0.0
 40
0.0090727515629103
 40
0.1534189146841734
 40
0.2938707865785818
 40
0.430428936475084
 40
0.5669563185342934
 40
0.7073936087216919
 40
0.8517413671434502
 40
1.0
 40
1.0
 40
1.0
 40
1.0
 10
59.79348724439249
 20
199.9003829498428
 30
0.0
 10
59.79509818629114
 20
199.9004492636961
 30
0.0
 10
59.82233898044232
 20
199.9015706213486
 30
0.0
 10
60.02079771330426
 20
199.9029827100738
 30
0.0
 10
60.3804708720258
 20
199.9043469021586
 30
0.0
 10
60.87070154649051
 20
199.9046939629012
 30
0.0
 10
61.45791919274474
 20
199.9043365460924
 30
0.0
 10
62.14087241034461
 20
199.9030291576885
 30
0.0
 10
62.90412120961103
 20
199.9007286282645
 30
0.0
 10
63.44207706065159
 20
199.8984875055226
 30
0.0
 10
63.71465005081774
 20
199.8973519671212
 30
0.0
  0
SPLINE
  5
CF
330
1F
100
AcDbEntity
  8
0
  6
Continuous
 62
     8
370
    15
100
AcDbSpline
210
0.0
220
0.0
230
1.0
 70
    24
 71
     3
 72
    11
 73
     7
 74
     0
 42
0.000000001
 43
0.00000001
 40
0.0
 40
0.0
 40
0.0
 40
0.0
 40
0.1566391315176922
 40
0.4377594210117953
 40
0.7188797105058978
 40
1.0
 40
1.0
 40
1.0
 40
1.0
 10
165.3137927224678
 20
200.8469286061467
 30
0.0
 10
165.3137927224678
 20
200.8372210742694
 30
0.0
 10
165.3137927224677
 20
200.8100914324428
 30
0.0
 10
165.3137927224677
 20
200.6069340745424
 30
0.0
 10
165.3137927224678
 20
200.2858936151826
 30
0.0
 10
165.3137927224677
 20
200.0268658498083
 30
0.0
 10
165.3137927224677
 20
199.8973519671211
 30
0.0
  0
SPLINE
  5
D0
330
1F
100
AcDbEntity
  8
0
  6
Continuous
 62
     8
370
    15
100
AcDbSpline
210
0.0
220
0.0
230
1.0
 70
    24
 71
     3
 72
    11
 73
     7
 74
     0
 42
0.000000001
 43
0.00000001
 40
0.0
 40
0.0
 40
0.0
 40
0.0
 40
0.1530745800853692
 40
0.4353830533902466
 40
0.7176915266951234
 40
1.0
 40
1.0
 40
1.0
 40
1.0
 10
63.71465004856772
 20
200.8458138301266
 30
0.0
 10
63.71465004856772
 20
200.8363008350426
 30
0.0
 10
63.71465004856772
 20
200.8092434565789
 30
0.0
 10
63.71465004856772
 20
200.6068212067603
 30
0.0
 10
63.71465004856773
 20
200.2859218321281
 30
0.0
 10
63.71465004856772
 20
200.0268752554568
 30
0.0
 10
63.71465004856772
 20
199.8973519671211
 30
0.0
  0
SPLINE
  5
D1
330
1F
100
AcDbEntity
  8
0
  6
Continuous
 62
     7
370
    15
100
AcDbSpline
210
0.0
220
0.0
230
1.0
 70
     8
 71
     3
 72
    11
 73
     7
 74
     0
 42
0.000000001
 43
0.00000001
 40
0.0
 40
0.0
 40
0.0
 40
0.0
 40
0.2500240074437112
 40
0.4999998884356122
 40
0.7499762828648204
 40
1.0
 40
1.0
 40
1.0
 40
1.0
 10
60.53804944767588
 20
74.53793218962403
 30
0.0
 10
60.5863685996434
 20
74.53793150682428
 30
0.0
 10
60.68299760275423
 20
74.53793014135624
 30
0.0
 10
61.42603061920222
 20
74.53792809280321
 30
0.0
 10
62.48693798477464
 20
74.5379260443802
 30
0.0
 10
63.32533740831775
 20
74.53792467922601
 30
0.0
 10
63.74457679540985
 20
74.53792399658433
 30
0.0
  0
SPLINE
  5
D2
330
1F
100
AcDbEntity
  8
0
  6
Continuous
 62
     7
370
    15
100
AcDbSpline
210
0.0
220
0.0
230
1.0
 70
     8
 71
     3
 72
    11
 73
     7
 74
     0
 42
0.000000001
 43
0.00000001
 40
0.0
 40
0.0
 40
0.0
 40
0.0
 40
0.2499658418390532
 40
0.4999066421434864
 40
0.7499251237555178
 40
1.0
 40
1.0
 40
1.0
 40
1.0
 10
165.313792604931
 20
74.53792399657324
 30
0.0
 10
165.6278932250618
 20
74.53796956364897
 30
0.0
 10
166.2560629987778
 20
74.5380606932355
 30
0.0
 10
167.1119372891016
 20
74.53819823129754
 30
0.0
 10
167.8297950067223
 20
74.53833625365093
 30
0.0
 10
168.116518324958
 20
74.53842879163777
 30
0.0
 10
168.2598961507135
 20
74.53847506584886
 30
0.0
  0
SPLINE
  5
D3
330
1F
100
AcDbEntity
  8
0
  6
Continuous
 62
     7
370
    15
100
AcDbSpline
210
0.0
220
0.0
230
1.0
 70
     8
 71
     3
 72
     9
 73
     5
 74
     0
 42
0.000000001
 43
0.00000001
 40
0.0
 40
0.0
 40
0.0
 40
0.0
 40
0.5882856679859397
 40
1.0
 40
1.0
 40
1.0
 40
1.0
 10
168.4901965854739
 20
74.53792386058751
 30
0.0
 10
168.545910426363
 20
74.55175858302339
 30
0.0
 10
168.6406158457214
 20
74.57527559727134
 30
0.0
 10
168.610749445259
 20
74.62715011765586
 30
0.0
 10
168.598453020143
 20
74.64850760116452
 30
0.0
  0
SPLINE
  5
D4
330
1F
100
AcDbEntity
  8
0
  6
Continuous
 62
     7
370
    15
100
AcDbSpline
210
0.0
220
0.0
230
1.0
 70
     8
 71
     3
 72
    11
 73
     7
 74
     0
 42
0.000000001
 43
0.00000001
 40
0.0
 40
0.0
 40
0.0
 40
0.0
 40
0.2554160020474519
 40
0.5148617280901702
 40
0.7663729014801096
 40
1.0
 40
1.0
 40
1.0
 40
1.0
 10
168.6094258711004
 20
74.58923833568765
 30
0.0
 10
168.6995199330257
 20
74.63424383059483
 30
0.0
 10
168.8811294799675
 20
74.72496487663624
 30
0.0
 10
169.083375098058
 20
74.9573308250066
 30
0.0
 10
169.2138984708493
 20
75.22734502447207
 30
0.0
 10
169.2314575055869
 20
75.42019863160203
 30
0.0
 10
169.2399133759563
 20
75.51307076988024
 30
0.0
  0
SPLINE
  5
D5
330
1F
100
AcDbEntity
  8
0
  6
Continuous
 62
     7
370
    15
100
AcDbSpline
210
0.0
220
0.0
230
1.0
 70
     8
 71
     3
 72
     9
 73
     5
 74
     0
 42
0.000000001
 43
0.00000001
 40
0.0
 40
0.0
 40
0.0
 40
0.0
 40
0.7013124012681298
 40
1.0
 40
1.0
 40
1.0
 40
1.0
 10
168.1242046007447
 20
74.58923833568765
 30
0.0
 10
168.1829446708658
 20
74.56774264173792
 30
0.0
 10
168.2667020235304
 20
74.53709197320437
 30
0.0
 10
168.2554394749769
 20
74.5320000726797
 30
0.0
 10
168.2520754913939
 20
74.530479185139
 30
0.0
  0
LINE
  5
D6
330
1F
100
AcDbEntity
  8
0
  6
Continuous
 62
     7
370
    15
100
AcDbLine
 10
168.306273949
 20
74.5379306481
 30
0.0
 11
168.490393329
 21
74.5379321896
 31
0.0
  0
LINE
  5
D7
330
1F
100
AcDbEntity
  8
0
  6
Continuous
 62
     7
370
    15
100
AcDbLine
 10
63.513612169
 20
87.0221267057
 30
0.0
 11
59.5142213884
 21
87.0221267057
 31
0.0
  0
LINE
  5
D8
330
1F
100
AcDbEntity
  8
0
  6
Continuous
 62
     7
370
    15
100
AcDbLine
 10
63.7146500486
 20
75.5046742992
 30
0.0
 11
63.513612169
 21
87.0221267057
 31
0.0
  0
SPLINE
  5
D9
330
1F
100
AcDbEntity
  8
0
  6
Continuous
 62
     7
370
    15
100
AcDbSpline
210
0.0
220
0.0
230
1.0
 70
     8
 71
     3
 72
    53
 73
    49
 74
     0
 42
0.000000001
 43
0.00000001
 40
0.0
 40
0.0
 40
0.0
 40
0.0
 40
0.0217386936434982
 40
0.043485407041472
 40
0.06523655627287
 40
0.0869886628198307
 40
0.1087384663861033
 40
0.1304839038565973
 40
0.1522256095878289
 40
0.173964500063403
 40
0.1957013436512773
 40
0.2174368438433942
 40
0.2391717225473367
 40
0.2609068033876702
 40
0.2826429152648427
 40
0.3043801931501355
 40
0.3261183946799948
 40
0.3478571490627891
 40
0.3695960476692867
 40
0.3913347345958538
 40
0.4130729972242361
 40
0.4348108771147424
 40
0.4565486405706877
 40
0.4782864089717584
 40
0.5000241556157516
 40
0.52176179427591
 40
0.5434992678005974
 40
0.5652366367092888
 40
0.5869741430417663
 40
0.6087119398767735
 40
0.630449885314656
 40
0.6521876624227573
 40
0.6739248704158342
 40
0.6956611152000841
 40
0.7173960999258339
 40
0.7391297638866273
 40
0.760862750749055
 40
0.7825959318903163
 40
0.8043300544394874
 40
0.8260658183642463
 40
0.8478039597358903
 40
0.8695453339480508
 40
0.8912908812456309
 40
0.9130395702256033
 40
0.9347883022227969
 40
0.9565336624060666
 40
0.9782720919350292
 40
0.9999999999999999
 40
0.9999999999999999
 40
0.9999999999999999
 40
0.9999999999999999
 10
63.7146500628018
 20
75.50467531204077
 30
0.0
 10
63.66912885498435
 20
75.50447939188564
 30
0.0
 10
63.5780696458422
 20
75.50408747929727
 30
0.0
 10
63.441622603882
 20
75.50353248613258
 30
0.0
 10
63.30546427511344
 20
75.50300138660319
 30
0.0
 10
63.16977481338309
 20
75.5024965708441
 30
0.0
 10
63.03473248208078
 20
75.5020174084989
 30
0.0
 10
62.90050899102365
 20
75.5015640659842
 30
0.0
 10
62.76725976252236
 20
75.50113654698117
 30
0.0
 10
62.63513299276924
 20
75.50073487732048
 30
0.0
 10
62.50427579267507
 20
75.50035906537117
 30
0.0
 10
62.37483527422572
 20
75.500009122442
 30
0.0
 10
62.24695857936882
 20
75.49968505831357
 30
0.0
 10
62.12079310413434
 20
75.49938688313684
 30
0.0
 10
61.99648879192313
 20
75.49911461124988
 30
0.0
 10
61.87418342743324
 20
75.49886824674986
 30
0.0
 10
61.75401546806025
 20
75.49864779539361
 30
0.0
 10
61.63612380397458
 20
75.49845326317659
 30
0.0
 10
61.52064727162109
 20
75.49828465548848
 30
0.0
 10
61.40772488485137
 20
75.49814197718133
 30
0.0
 10
61.29749508101796
 20
75.49802523245872
 30
0.0
 10
61.19009855747977
 20
75.49793442530164
 30
0.0
 10
61.08565242895033
 20
75.49786955940438
 30
0.0
 10
60.98426968610504
 20
75.49783063627643
 30
0.0
 10
60.88606401428324
 20
75.49781765682327
 30
0.0
 10
60.79114883764319
 20
75.49783062137611
 30
0.0
 10
60.69963793829054
 20
75.49786952969133
 30
0.0
 10
60.61164413700022
 20
75.49793438102789
 30
0.0
 10
60.52728459015726
 20
75.49802517314994
 30
0.0
 10
60.4466492296167
 20
75.49814190245779
 30
0.0
 10
60.36982006725346
 20
75.49828456545077
 30
0.0
 10
60.29688116020167
 20
75.49845315794335
 30
0.0
 10
60.22791599521574
 20
75.49864767518334
 30
0.0
 10
60.16300855417472
 20
75.49886811196814
 30
0.0
 10
60.10224159183749
 20
75.49911446227664
 30
0.0
 10
60.04570193692024
 20
75.49938672322659
 30
0.0
 10
59.99345037484814
 20
75.4996848839021
 30
0.0
 10
59.94553394324271
 20
75.50000893290172
 30
0.0
 10
59.90200231578952
 20
75.50035886105763
 30
0.0
 10
59.86290434184637
 20
75.50073465886425
 30
0.0
 10
59.82828935423561
 20
75.50113631430773
 30
0.0
 10
59.79820586242393
 20
75.5015638213745
 30
0.0
 10
59.77270653619415
 20
75.50201712909157
 30
0.0
 10
59.75182515922395
 20
75.50249626441341
 30
0.0
 10
59.73553506737295
 20
75.50300106265843
 30
0.0
 10
59.72395985777114
 20
75.50353214603803
 30
0.0
 10
59.71668396082584
 20
75.50408711873489
 30
0.0
 10
59.71575982109976
 20
75.50447905317114
 30
0.0
 10
59.71529786308538
 20
75.50467497295344
 30
0.0
  0
LINE
  5
DA
330
1F
100
AcDbEntity
  8
0
  6
Continuous
 62
     7
370
    15
100
AcDbLine
 10
59.7152592679
 20
75.5046742993
 30
0.0
 11
59.5142213884
 21
87.0221267057
 31
0.0
  0
LINE
  5
DB
330
1F
100
AcDbEntity
  8
0
  6
Continuous
 62
     7
370
    15
100
AcDbLine
 10
169.5142213883
 20
87.0221267057
 30
0.0
 11
165.5148306077
 21
87.0221267057
 31
0.0
  0
LINE
  5
DC
330
1F
100
AcDbEntity
  8
0
  6
Continuous
 62
     7
370
    15
100
AcDbLine
 10
169.5142213884
 20
87.0221267057
 30
0.0
 11
169.3131835088
 21
75.5046742993
 31
0.0
  0
LINE
  5
DD
330
1F
100
AcDbEntity
  8
0
  6
Continuous
 62
     7
370
    15
100
AcDbLine
 10
169.3131835088
 20
75.5046742993
 30
0.0
 11
169.2349555323
 21
75.5016433166
 31
0.0
  0
LINE
  5
DE
330
1F
100
AcDbEntity
  8
0
  6
Continuous
 62
     7
370
    15
100
AcDbLine
 10
165.3137927259
 20
75.5046742993
 30
0.0
 11
165.5148306077
 21
87.0221267057
 31
0.0
  0
LINE
  5
DF
330
1F
100
AcDbEntity
  8
0
  6
Continuous
 62
     7
370
    15
100
AcDbLine
 10
165.5148306077
 20
87.0221267057
 30
0.0
 11
63.513612169
 21
87.0221267057
 31
0.0
  0
LINE
  5
E0
330
1F
100
AcDbEntity
  8
0
  6
Continuous
 62
     7
370
    15
100
AcDbLine
 10
165.3137927282
 20
75.5046742993
 30
0.0
 11
63.7146500543
 21
75.5046742993
 31
0.0
  0
SPLINE
  5
E1
330
1F
100
AcDbEntity
  8
0
  6
Continuous
 62
     7
370
    15
100
AcDbSpline
210
0.0
220
0.0
230
1.0
 70
     8
 71
     3
 72
    11
 73
     7
 74
     0
 42
0.000000001
 43
0.00000001
 40
0.0
 40
0.0
 40
0.0
 40
0.0
 40
0.1530850293115557
 40
0.4353900195410372
 40
0.7176950097705185
 40
1.0
 40
1.0
 40
1.0
 40
1.0
 10
60.54178746384142
 20
74.55620918211787
 30
0.0
 10
60.47203390516582
 20
74.56572274835679
 30
0.0
 10
60.27364740446485
 20
74.59278033726213
 30
0.0
 10
59.99905044972147
 20
74.7952047266898
 30
0.0
 10
59.76589619997366
 20
75.11610451752959
 30
0.0
 10
59.73213824526554
 20
75.37515103870648
 30
0.0
 10
59.71525926791148
 20
75.50467429929495
 30
0.0
  0
LINE
  5
E2
330
1F
100
AcDbEntity
  8
0
  6
Continuous
 62
     7
370
    15
100
AcDbLine
 10
63.7146500543
 20
74.5221267057
 30
0.0
 11
63.7146500543
 21
74.5550976603
 31
0.0
  0
LINE
  5
E3
330
1F
100
AcDbEntity
  8
0
  6
Continuous
 62
     7
370
    15
100
AcDbLine
 10
165.3137927282
 20
74.5221267057
 30
0.0
 11
165.3137927282
 21
74.5562124363
 31
0.0
  0
LINE
  5
E4
330
1F
100
AcDbEntity
  8
0
  6
Continuous
 62
     7
370
    15
100
AcDbLine
 10
165.3137927282
 20
74.5221267057
 30
0.0
 11
63.7146500486
 21
74.5221267057
 31
0.0
  0
LINE
  5
E5
330
1F
100
AcDbEntity
  8
0
  6
Continuous
 62
     7
370
    15
100
AcDbLine
 10
168.4926092077
 20
74.5573799879
 30
0.0
 11
168.3133358137
 21
74.5221267057
 31
0.0
  0
LINE
  5
E6
330
1F
100
AcDbEntity
  8
0
  6
Continuous
 62
     7
370
    15
100
AcDbLine
 10
168.3133358137
 20
74.5221267057
 30
0.0
 11
168.165494899
 21
74.5221267057
 31
0.0
  0
SPLINE
  5
E7
330
1F
100
AcDbEntity
  8
0
  6
Continuous
 62
     8
370
    15
100
AcDbSpline
210
0.0
220
0.0
230
1.0
 70
     8
 71
     3
 72
    15
 73
    11
 74
     0
 42
0.000000001
 43
0.00000001
 40
0.0
 40
0.0
 40
0.0
 40
0.0
 40
0.0090727515665806
 40
0.1534189147462253
 40
0.2938707866974419
 40
0.4304289366491771
 40
0.5669563185866064
 40
0.707393608704414
 40
0.8517413671087435
 40
1.0
 40
1.0
 40
1.0
 40
1.0
 10
169.234955532343
 20
75.50164331657359
 30
0.0
 10
169.2333445904443
 20
75.50157700272035
 30
0.0
 10
169.2061037962932
 20
75.5004556450678
 30
0.0
 10
169.0076450634311
 20
75.49904355634264
 30
0.0
 10
168.64797190471
 20
75.49767936425764
 30
0.0
 10
168.1577412304535
 20
75.49733230351603
 30
0.0
 10
167.5705235846991
 20
75.4976897203208
 30
0.0
 10
166.8875703678441
 20
75.49899710871303
 30
0.0
 10
166.1243215691021
 20
75.5012976381232
 30
0.0
 10
165.5863657182653
 20
75.50353876085818
 30
0.0
 10
165.3137927281547
 20
75.50467429925621
 30
0.0
  0
SPLINE
  5
E8
330
1F
100
AcDbEntity
  8
0
  6
Continuous
 62
     8
370
    15
100
AcDbSpline
210
0.0
220
0.0
230
1.0
 70
    24
 71
     3
 72
    11
 73
     7
 74
     0
 42
0.000000001
 43
0.00000001
 40
0.0
 40
0.0
 40
0.0
 40
0.0
 40
0.1566391315176683
 40
0.4377594210117794
 40
0.7188797105058897
 40
1.0
 40
1.0
 40
1.0
 40
1.0
 10
63.71465005426773
 20
74.55509766026965
 30
0.0
 10
63.71465005426773
 20
74.56480519214705
 30
0.0
 10
63.71465005426771
 20
74.5919348339736
 30
0.0
 10
63.71465005426771
 20
74.795092191874
 30
0.0
 10
63.71465005426774
 20
75.11613265123381
 30
0.0
 10
63.71465005426774
 20
75.37516041660814
 30
0.0
 10
63.71465005426773
 20
75.50467429929529
 30
0.0
  0
SPLINE
  5
E9
330
1F
100
AcDbEntity
  8
0
  6
Continuous
 62
     8
370
    15
100
AcDbSpline
210
0.0
220
0.0
230
1.0
 70
    24
 71
     3
 72
    11
 73
     7
 74
     0
 42
0.000000001
 43
0.00000001
 40
0.0
 40
0.0
 40
0.0
 40
0.0
 40
0.1530745800853692
 40
0.4353830533902466
 40
0.7176915266951234
 40
1.0
 40
1.0
 40
1.0
 40
1.0
 10
165.3137927281677
 20
74.55621243628985
 30
0.0
 10
165.3137927281677
 20
74.5657254313738
 30
0.0
 10
165.3137927281677
 20
74.5927828098375
 30
0.0
 10
165.3137927281677
 20
74.79520505965607
 30
0.0
 10
165.3137927281677
 20
75.1161044342883
 30
0.0
 10
165.3137927281677
 20
75.37515101095963
 30
0.0
 10
165.3137927281677
 20
75.50467429929529
 30
0.0
  0
SPLINE
  5
EA
330
1F
100
AcDbEntity
  8
0
  6
Continuous
 62
     7
370
    15
100
AcDbSpline
210
0.0
220
0.0
230
1.0
 70
     8
 71
     3
 72
    11
 73
     7
 74
     0
 42
0.000000001
 43
0.00000001
 40
0.0
 40
0.0
 40
0.0
 40
0.0
 40
0.250024007460221
 40
0.4999998884536683
 40
0.7499762828775003
 40
1.0
 40
1.0
 40
1.0
 40
1.0
 10
199.5594599303675
 20
109.7668486967367
 30
0.0
 10
199.5594606131744
 20
109.8151678487492
 30
0.0
 10
199.5594619786568
 20
109.9117968519471
 30
0.0
 10
199.5594640272313
 20
110.6548298685633
 30
0.0
 10
199.5594660756759
 20
111.7157372342359
 30
0.0
 10
199.5594674408443
 20
112.5541366578129
 30
0.0
 10
199.5594681234932
 20
112.9733760449158
 30
0.0
  0
SPLINE
  5
EB
330
1F
100
AcDbEntity
  8
0
  6
Continuous
 62
     7
370
    15
100
AcDbSpline
210
0.0
220
0.0
230
1.0
 70
     8
 71
     3
 72
    11
 73
     7
 74
     0
 42
0.000000001
 43
0.00000001
 40
0.0
 40
0.0
 40
0.0
 40
0.0
 40
0.2499658418356793
 40
0.4999066421421898
 40
0.7499251237558282
 40
1.0
 40
1.0
 40
1.0
 40
1.0
 10
199.5594681234992
 20
164.5425918544772
 30
0.0
 10
199.5594225564236
 20
164.8566924746064
 30
0.0
 10
199.5593314268373
 20
165.4848622483263
 30
0.0
 10
199.5591938887757
 20
166.3407365386577
 30
0.0
 10
199.5590558664227
 20
167.0585942562871
 30
0.0
 10
199.5589633284361
 20
167.3453175745152
 30
0.0
 10
199.5589170542252
 20
167.4886954002663
 30
0.0
  0
SPLINE
  5
EC
330
1F
100
AcDbEntity
  8
0
  6
Continuous
 62
     7
370
    15
100
AcDbSpline
210
0.0
220
0.0
230
1.0
 70
     8
 71
     3
 72
     9
 73
     5
 74
     0
 42
0.000000001
 43
0.00000001
 40
0.0
 40
0.0
 40
0.0
 40
0.0
 40
0.5882856679392677
 40
1.0
 40
1.0
 40
1.0
 40
1.0
 10
199.5594682594824
 20
167.7189958350313
 30
0.0
 10
199.5456335370448
 20
167.7747096759159
 30
0.0
 10
199.5221165227919
 20
167.869415095274
 30
0.0
 10
199.4702420024039
 20
167.8395486948142
 30
0.0
 10
199.4488845188913
 20
167.8272522696979
 30
0.0
  0
SPLINE
  5
ED
330
1F
100
AcDbEntity
  8
0
  6
Continuous
 62
     7
370
    15
100
AcDbSpline
210
0.0
220
0.0
230
1.0
 70
     8
 71
     3
 72
    11
 73
     7
 74
     0
 42
0.000000001
 43
0.00000001
 40
0.0
 40
0.0
 40
0.0
 40
0.0
 40
0.2554160020480311
 40
0.5148617280911613
 40
0.7663729014809255
 40
1.0
 40
1.0
 40
1.0
 40
1.0
 10
199.5081537843789
 20
167.8382251206478
 30
0.0
 10
199.4631482894705
 20
167.9283191825702
 30
0.0
 10
199.3724272434266
 20
168.1099287295062
 30
0.0
 10
199.1400612950583
 20
168.3121743475897
 30
0.0
 10
198.8700470955979
 20
168.4426977203781
 30
0.0
 10
198.6771934884715
 20
168.4602567551173
 30
0.0
 10
198.5843213501952
 20
168.4687126254877
 30
0.0
  0
SPLINE
  5
EE
330
1F
100
AcDbEntity
  8
0
  6
Continuous
 62
     7
370
    15
100
AcDbSpline
210
0.0
220
0.0
230
1.0
 70
     8
 71
     3
 72
     9
 73
     5
 74
     0
 42
0.000000001
 43
0.00000001
 40
0.0
 40
0.0
 40
0.0
 40
0.0
 40
0.7013124013078141
 40
1.0
 40
1.0
 40
1.0
 40
1.0
 10
199.5081537843789
 20
167.3530038502998
 30
0.0
 10
199.5296494783301
 20
167.41174392042
 30
0.0
 10
199.5603001468639
 20
167.4955012730785
 30
0.0
 10
199.565392047391
 20
167.484238724524
 30
0.0
 10
199.5669129349322
 20
167.4808747409411
 30
0.0
  0
LINE
  5
EF
330
1F
100
AcDbEntity
  8
0
  6
Continuous
 62
     7
370
    15
100
AcDbLine
 10
199.559461472
 20
167.5350731986
 30
0.0
 11
199.5594599304
 21
167.719192579
 31
0.0
  0
LINE
  5
F0
330
1F
100
AcDbEntity
  8
0
  6
Continuous
 62
     7
370
    15
100
AcDbLine
 10
187.0752654143
 20
164.7436298573
 30
0.0
 11
187.0752654143
 21
112.7424114214
 31
0.0
  0
LINE
  5
F1
330
1F
100
AcDbEntity
  8
0
  6
Continuous
 62
     7
370
    15
100
AcDbLine
 10
198.5927178207
 20
164.5425919755
 30
0.0
 11
187.0752654143
 21
164.7436298573
 31
0.0
  0
LINE
  5
F2
330
1F
100
AcDbEntity
  8
0
  6
Continuous
 62
     7
370
    15
100
AcDbLine
 10
198.5927178208
 20
164.5425919777
 30
0.0
 11
198.5927178208
 21
112.9434493038
 31
0.0
  0
LINE
  5
F3
330
1F
100
AcDbEntity
  8
0
  6
Continuous
 62
     7
370
    15
100
AcDbLine
 10
198.5927178208
 20
112.9434493038
 30
0.0
 11
187.0752654143
 21
112.7424114214
 31
0.0
  0
LINE
  5
F4
330
1F
100
AcDbEntity
  8
0
  6
Continuous
 62
     7
370
    15
100
AcDbLine
 10
187.0752654143
 20
168.7430206379
 30
0.0
 11
187.0752654143
 21
164.7436298573
 31
0.0
  0
LINE
  5
F5
330
1F
100
AcDbEntity
  8
0
  6
Continuous
 62
     7
370
    15
100
AcDbLine
 10
198.5927178209
 20
168.5419827583
 30
0.0
 11
187.0752654143
 21
168.7430206379
 31
0.0
  0
LINE
  5
F6
330
1F
100
AcDbEntity
  8
0
  6
Continuous
 62
     7
370
    15
100
AcDbLine
 10
198.5927178209
 20
168.5419827583
 30
0.0
 11
198.5957488035
 21
168.4637547813
 31
0.0
  0
LINE
  5
F7
330
1F
100
AcDbEntity
  8
0
  6
Continuous
 62
     7
370
    15
100
AcDbLine
 10
187.0752654143
 20
112.7424114214
 30
0.0
 11
187.0752654143
 21
108.7430206379
 31
0.0
  0
SPLINE
  5
F8
330
1F
100
AcDbEntity
  8
0
  6
Continuous
 62
     7
370
    15
100
AcDbSpline
210
0.0
220
0.0
230
1.0
 70
     8
 71
     3
 72
    53
 73
    49
 74
     0
 42
0.000000001
 43
0.00000001
 40
0.0
 40
0.0
 40
0.0
 40
0.0
 40
0.0217386936471744
 40
0.0434854070481078
 40
0.0652365562819304
 40
0.0869886628309554
 40
0.1087384663991108
 40
0.1304839038714365
 40
0.1522256096044344
 40
0.1739645000816852
 40
0.1957013436711368
 40
0.2174368438647133
 40
0.2391717225699894
 40
0.260906803411532
 40
0.2826429152897875
 40
0.30438019317604
 40
0.3261183947067214
 40
0.3478571490901953
 40
0.3695960476972248
 40
0.3913347346241599
 40
0.413072997252731
 40
0.4348108771432375
 40
0.4565486405990185
 40
0.4782864089997708
 40
0.5000241556433197
 40
0.5217617943029262
 40
0.5434992678269718
 40
0.5652366367349525
 40
0.5869741430666643
 40
0.6087119399008585
 40
0.630449885337888
 40
0.6521876624451074
 40
0.6739248704372849
 40
0.6956611152206192
 40
0.7173960999454562
 40
0.7391297639053462
 40
0.7608627507668526
 40
0.7825959319071415
 40
0.8043300544552425
 40
0.8260658183787903
 40
0.8478039597490429
 40
0.8695453339595883
 40
0.8912908812552963
 40
0.9130395702332057
 40
0.9347883022282641
 40
0.9565336624094659
 40
0.9782720919365628
 40
1.0
 40
1.0
 40
1.0
 40
1.0
 10
198.5927168080339
 20
112.9434493123078
 30
0.0
 10
198.5929127281891
 20
112.8979281044827
 30
0.0
 10
198.5933046407775
 20
112.8068688953265
 30
0.0
 10
198.5938596339423
 20
112.6704218533476
 30
0.0
 10
198.5943907334717
 20
112.5342635245638
 30
0.0
 10
198.5948955492309
 20
112.3985740628207
 30
0.0
 10
198.5953747115761
 20
112.2635317315069
 30
0.0
 10
198.595828054091
 20
112.1293082404389
 30
0.0
 10
198.596255573094
 20
111.9960590119273
 30
0.0
 10
198.5966572427547
 20
111.8639322421643
 30
0.0
 10
198.5970330547041
 20
111.7330750420609
 30
0.0
 10
198.5973829976333
 20
111.6036345236033
 30
0.0
 10
198.5977070617618
 20
111.4757578287392
 30
0.0
 10
198.5980052369386
 20
111.3495923534987
 30
0.0
 10
198.5982775088256
 20
111.2252880412828
 30
0.0
 10
198.5985238733256
 20
111.1029826767897
 30
0.0
 10
198.5987443246819
 20
110.9828147174149
 30
0.0
 10
198.5989388568989
 20
110.8649230533287
 30
0.0
 10
198.5991074645871
 20
110.7494465209761
 30
0.0
 10
198.5992501428942
 20
110.6365241342087
 30
0.0
 10
198.5993668876169
 20
110.5262943303791
 30
0.0
 10
198.599457694774
 20
110.4188978068459
 30
0.0
 10
198.5995225606713
 20
110.3144516783227
 30
0.0
 10
198.5995614837992
 20
110.2130689354845
 30
0.0
 10
198.5995744632524
 20
110.1148632636707
 30
0.0
 10
198.5995614986996
 20
110.0199480870392
 30
0.0
 10
198.5995225903843
 20
109.9284371876954
 30
0.0
 10
198.5994577390478
 20
109.8404433864143
 30
0.0
 10
198.5993669469258
 20
109.7560838395803
 30
0.0
 10
198.5992502176179
 20
109.6754484790486
 30
0.0
 10
198.5991075546249
 20
109.5986193166941
 30
0.0
 10
198.5989389621323
 20
109.5256804096507
 30
0.0
 10
198.5987444448923
 20
109.4567152446728
 30
0.0
 10
198.5985240081075
 20
109.3918078036394
 30
0.0
 10
198.598277657799
 20
109.3310408413093
 30
0.0
 10
198.598005396849
 20
109.2745011863988
 30
0.0
 10
198.5977072361735
 20
109.2222496243328
 30
0.0
 10
198.5973831871738
 20
109.1743331927331
 30
0.0
 10
198.5970332590179
 20
109.1308015652851
 30
0.0
 10
198.5966574612112
 20
109.0917035913467
 30
0.0
 10
198.5962558057678
 20
109.0570886037403
 30
0.0
 10
198.5958282987009
 20
109.0270051119327
 30
0.0
 10
198.5953749909838
 20
109.0015057857067
 30
0.0
 10
198.5948958556619
 20
108.9806244087399
 30
0.0
 10
198.5943910574169
 20
108.9643343168917
 30
0.0
 10
198.5938599740372
 20
108.9527591072917
 30
0.0
 10
198.5933050013404
 20
108.9454832103472
 30
0.0
 10
198.5929130669041
 20
108.9445590706204
 30
0.0
 10
198.5927171471217
 20
108.9440971126057
 30
0.0
  0
LINE
  5
F9
330
1F
100
AcDbEntity
  8
0
  6
Continuous
 62
     7
370
    15
100
AcDbLine
 10
198.5927178207
 20
108.9440585175
 30
0.0
 11
187.0752654143
 21
108.7430206379
 31
0.0
  0
LINE
  5
FA
330
1F
100
AcDbEntity
  8
0
  6
Continuous
 62
     7
370
    15
100
AcDbLine
 10
199.5752654143
 20
112.9434493038
 30
0.0
 11
199.5422944598
 21
112.9434493038
 31
0.0
  0
SPLINE
  5
FB
330
1F
100
AcDbEntity
  8
0
  6
Continuous
 62
     7
370
    15
100
AcDbSpline
210
0.0
220
0.0
230
1.0
 70
     8
 71
     3
 72
    11
 73
     7
 74
     0
 42
0.000000001
 43
0.00000001
 40
0.0
 40
0.0
 40
0.0
 40
0.0
 40
0.1530850290043572
 40
0.4353900193362386
 40
0.7176950096681194
 40
1.0
 40
1.0
 40
1.0
 40
1.0
 10
199.5411829378614
 20
109.7705867129059
 30
0.0
 10
199.5316693716393
 20
109.7008331543975
 30
0.0
 10
199.5046117827401
 20
109.5024466538671
 30
0.0
 10
199.3021873933752
 20
109.2278496992756
 30
0.0
 10
198.9812876025476
 20
108.9946954495238
 30
0.0
 10
198.722241081369
 20
108.9609374948162
 30
0.0
 10
198.5927178207797
 20
108.9440585174625
 30
0.0
  0
LINE
  5
FC
330
1F
100
AcDbEntity
  8
0
  6
Continuous
 62
     7
370
    15
100
AcDbLine
 10
199.5752654143
 20
164.5425919777
 30
0.0
 11
199.5752654143
 21
112.9434492981
 31
0.0
  0
LINE
  5
FD
330
1F
100
AcDbEntity
  8
0
  6
Continuous
 62
     7
370
    15
100
AcDbLine
 10
199.5752654143
 20
164.5425919777
 30
0.0
 11
199.5411796838
 21
164.5425919777
 31
0.0
  0
LINE
  5
FE
330
1F
100
AcDbEntity
  8
0
  6
Continuous
 62
     7
370
    15
100
AcDbLine
 10
199.5752654143
 20
167.5421350632
 30
0.0
 11
199.5752654143
 21
167.3942941485
 31
0.0
  0
LINE
  5
FF
330
1F
100
AcDbEntity
  8
0
  6
Continuous
 62
     7
370
    15
100
AcDbLine
 10
199.5752654143
 20
167.5421350632
 30
0.0
 11
199.5400121321
 21
167.7214084572
 31
0.0
  0
SPLINE
  5
100
330
1F
100
AcDbEntity
  8
0
  6
Continuous
 62
     8
370
    15
100
AcDbSpline
210
0.0
220
0.0
230
1.0
 70
     8
 71
     3
 72
    15
 73
    11
 74
     0
 42
0.000000001
 43
0.00000001
 40
0.0
 40
0.0
 40
0.0
 40
0.0
 40
0.0090727527859799
 40
0.1534189158072009
 40
0.2938707872939881
 40
0.4304289364751378
 40
0.5669563188105035
 40
0.7073936090898874
 40
0.8517413674195435
 40
0.9999999999999999
 40
0.9999999999999999
 40
0.9999999999999999
 40
0.9999999999999999
 10
198.59574880355
 20
168.4637547812773
 30
0.0
 10
198.5958151174116
 20
168.4621438391469
 30
0.0
 10
198.5969364750627
 20
168.4349030445496
 30
0.0
 10
198.5983485637617
 20
168.2364443108378
 30
0.0
 10
198.5997127558079
 20
167.8767711521029
 30
0.0
 10
198.6000598165575
 20
167.3865404784459
 30
0.0
 10
198.5997023997683
 20
166.7993228325644
 30
0.0
 10
198.5983950113549
 20
166.1163696143548
 30
0.0
 10
198.5960944819209
 20
165.3531208154809
 30
0.0
 10
198.5938533591796
 20
164.8151649651273
 30
0.0
 10
198.5927178207793
 20
164.5425919754737
 30
0.0
  0
SPLINE
  5
101
330
1F
100
AcDbEntity
  8
0
  6
Continuous
 62
     8
370
    15
100
AcDbSpline
210
0.0
220
0.0
230
1.0
 70
    24
 71
     3
 72
    11
 73
     7
 74
     0
 42
0.000000001
 43
0.00000001
 40
0.0
 40
0.0
 40
0.0
 40
0.0
 40
0.1566391315357793
 40
0.4377594210238529
 40
0.7188797105119263
 40
1.0
 40
1.0
 40
1.0
 40
1.0
 10
199.542294459811
 20
112.9434493037737
 30
0.0
 10
199.5325869279327
 20
112.9434493037737
 30
0.0
 10
199.5054572861057
 20
112.9434493037737
 30
0.0
 10
199.3022999282016
 20
112.9434493037737
 30
0.0
 10
198.9812594688413
 20
112.9434493037737
 30
0.0
 10
198.7222317034671
 20
112.9434493037737
 30
0.0
 10
198.59271782078
 20
112.9434493037737
 30
0.0
  0
SPLINE
  5
102
330
1F
100
AcDbEntity
  8
0
  6
Continuous
 62
     8
370
    15
100
AcDbSpline
210
0.0
220
0.0
230
1.0
 70
    24
 71
     3
 72
    11
 73
     7
 74
     0
 42
0.000000001
 43
0.00000001
 40
0.0
 40
0.0
 40
0.0
 40
0.0
 40
0.1530745800919954
 40
0.4353830533946636
 40
0.7176915266973317
 40
1.0
 40
1.0
 40
1.0
 40
1.0
 10
199.5411796837872
 20
164.5425919777087
 30
0.0
 10
199.5316666887029
 20
164.5425919777087
 30
0.0
 10
199.5046093102391
 20
164.5425919777088
 30
0.0
 10
199.3021870604192
 20
164.5425919777087
 30
0.0
 10
198.9812876857868
 20
164.5425919777087
 30
0.0
 10
198.7222411091157
 20
164.5425919777087
 30
0.0
 10
198.59271782078
 20
164.5425919777087
 30
0.0
  0
ARC
  5
103
330
1F
100
AcDbEntity
  8
0
  6
Continuous
 62
     7
370
    15
100
AcDbCircle
 10
234.2139962477
 20
159.2430206379
 30
0.0
 40
5.249999999999574
100
AcDbArc
 50
270.0
 51
0.0
  0
LINE
  5
104
330
1F
100
AcDbEntity
  8
0
  6
Continuous
 62
     7
370
    15
100
AcDbLine
 10
239.643844344
 20
159.2430206379
 30
0.0
 11
239.4639962477
 21
159.2430206379
 31
0.0
  0
ARC
  5
105
330
1F
100
AcDbEntity
  8
0
  6
Continuous
 62
     7
370
    15
100
AcDbCircle
 10
234.2139962477
 20
159.2430206379
 30
0.0
 40
5.429848096369824
100
AcDbArc
 50
270.0
 51
0.0
  0
LINE
  5
106
330
1F
100
AcDbEntity
  8
0
  6
Continuous
 62
     7
370
    15
100
AcDbLine
 10
234.2139962477
 20
153.9930206379
 30
0.0
 11
234.2139962477
 21
153.8131725415
 31
0.0
  0
LINE
  5
107
330
1F
100
AcDbEntity
  8
0
  6
Continuous
 62
     7
370
    15
100
AcDbLine
 10
233.893844343
 20
123.9930206379
 30
0.0
 11
233.7139962477
 21
123.9930206379
 31
0.0
  0
ARC
  5
108
330
1F
100
AcDbEntity
  8
0
  6
Continuous
 62
     7
370
    15
100
AcDbCircle
 10
234.2139962477
 20
123.9930206379
 30
0.0
 40
0.3201519036285276
100
AcDbArc
 50
180.0
 51
270.0
  0
LINE
  5
109
330
1F
100
AcDbEntity
  8
0
  6
Continuous
 62
     7
370
    15
100
AcDbLine
 10
234.2139962477
 20
123.6728687332
 30
0.0
 11
234.2139962477
 21
123.4930206379
 31
0.0
  0
ARC
  5
10A
330
1F
100
AcDbEntity
  8
0
  6
Continuous
 62
     7
370
    15
100
AcDbCircle
 10
234.2139962477
 20
123.9930206379
 30
0.0
 40
0.5
100
AcDbArc
 50
180.0
 51
270.0
  0
ARC
  5
10B
330
1F
100
AcDbEntity
  8
0
  6
Continuous
 62
     7
370
    15
100
AcDbCircle
 10
234.2139962477
 20
153.4930206379
 30
0.0
 40
0.3201519036302898
100
AcDbArc
 50
90.0
 51
180.0
  0
LINE
  5
10C
330
1F
100
AcDbEntity
  8
0
  6
Continuous
 62
     7
370
    15
100
AcDbLine
 10
233.7139962477
 20
153.4930206379
 30
0.0
 11
233.893844343
 21
153.4930206379
 31
0.0
  0
ARC
  5
10D
330
1F
100
AcDbEntity
  8
0
  6
Continuous
 62
     7
370
    15
100
AcDbCircle
 10
234.2139962477
 20
153.4930206379
 30
0.0
 40
0.5000000000011084
100
AcDbArc
 50
90.0
 51
180.0
  0
ARC
  5
10E
330
1F
100
AcDbEntity
  8
0
  6
Continuous
 62
     7
370
    15
100
AcDbCircle
 10
234.2139962477
 20
118.2430206379
 30
0.0
 40
5.250000000000028
100
AcDbArc
 50
0.0
 51
90.0
  0
ARC
  5
10F
330
1F
100
AcDbEntity
  8
0
  6
Continuous
 62
     7
370
    15
100
AcDbCircle
 10
234.2139962477
 20
118.2430206379
 30
0.0
 40
5.429848095338059
100
AcDbArc
 50
0.0
 51
90.0
  0
LINE
  5
110
330
1F
100
AcDbEntity
  8
0
  6
Continuous
 62
     7
370
    15
100
AcDbLine
 10
239.4639962477
 20
118.2430206379
 30
0.0
 11
239.643844343
 21
118.2430206379
 31
0.0
  0
LINE
  5
111
330
1F
100
AcDbEntity
  8
0
  6
Continuous
 62
     7
370
    15
100
AcDbLine
 10
239.4639962477
 20
164.7430206379
 30
0.0
 11
239.643844343
 21
164.7430206379
 31
0.0
  0
LINE
  5
112
330
1F
100
AcDbEntity
  8
0
  6
Continuous
 62
     7
370
    15
100
AcDbLine
 10
239.643844343
 20
164.7430206379
 30
0.0
 11
239.643844343
 21
159.2430206379
 31
0.0
  0
LINE
  5
113
330
1F
100
AcDbEntity
  8
0
  6
Continuous
 62
     7
370
    15
100
AcDbLine
 10
239.4639962477
 20
164.7430206379
 30
0.0
 11
239.4639962477
 21
159.2430206379
 31
0.0
  0
LINE
  5
114
330
1F
100
AcDbEntity
  8
0
  6
Continuous
 62
     7
370
    15
100
AcDbLine
 10
233.893844343
 20
153.4930206379
 30
0.0
 11
233.893844343
 21
123.9930206379
 31
0.0
  0
LINE
  5
115
330
1F
100
AcDbEntity
  8
0
  6
Continuous
 62
     7
370
    15
100
AcDbLine
 10
233.7139962477
 20
153.4930206379
 30
0.0
 11
233.7139962477
 21
123.9930206379
 31
0.0
  0
LINE
  5
116
330
1F
100
AcDbEntity
  8
0
  6
Continuous
 62
     7
370
    15
100
AcDbLine
 10
239.643844343
 20
118.2430206379
 30
0.0
 11
239.643844343
 21
112.7430206379
 31
0.0
  0
LINE
  5
117
330
1F
100
AcDbEntity
  8
0
  6
Continuous
 62
     7
370
    15
100
AcDbLine
 10
239.643844343
 20
112.7430206379
 30
0.0
 11
239.4639962477
 21
112.7430206379
 31
0.0
  0
LINE
  5
118
330
1F
100
AcDbEntity
  8
0
  6
Continuous
 62
     7
370
    15
100
AcDbLine
 10
239.4639962477
 20
118.2430206379
 30
0.0
 11
239.4639962477
 21
112.7430206379
 31
0.0
  0
ARC
  5
119
330
1F
100
AcDbEntity
  8
0
  6
Continuous
 62
     7
370
    15
100
AcDbCircle
 10
239.9639962477
 20
112.7430206379
 30
0.0
 40
0.3201519036284424
100
AcDbArc
 50
180.0
 51
270.0
  0
LINE
  5
11A
330
1F
100
AcDbEntity
  8
0
  6
Continuous
 62
     7
370
    15
100
AcDbLine
 10
239.9639962477
 20
112.2430206379
 30
0.0
 11
239.9639962477
 21
112.4228687332
 31
0.0
  0
ARC
  5
11B
330
1F
100
AcDbEntity
  8
0
  6
Continuous
 62
     7
370
    15
100
AcDbCircle
 10
239.9639962477
 20
112.7430206379
 30
0.0
 40
0.5
100
AcDbArc
 50
180.0
 51
270.0
  0
LINE
  5
11C
330
1F
100
AcDbEntity
  8
0
  6
Continuous
 62
     7
370
    15
100
AcDbLine
 10
239.9639962477
 20
165.0631725415
 30
0.0
 11
239.9639962477
 21
165.2430206379
 31
0.0
  0
ARC
  5
11D
330
1F
100
AcDbEntity
  8
0
  6
Continuous
 62
     7
370
    15
100
AcDbCircle
 10
239.9639962477
 20
164.7430206379
 30
0.0
 40
0.3201519036284424
100
AcDbArc
 50
90.0
 51
180.0
  0
ARC
  5
11E
330
1F
100
AcDbEntity
  8
0
  6
Continuous
 62
     7
370
    15
100
AcDbCircle
 10
239.9639962477
 20
164.7430206379
 30
0.0
 40
0.5
100
AcDbArc
 50
90.0
 51
180.0
  0
LINE
  5
11F
330
1F
100
AcDbEntity
  8
0
  6
Continuous
 62
     7
370
    15
100
AcDbLine
 10
330.4639962477
 20
165.2430206379
 30
0.0
 11
330.4639962477
 21
165.0631725415
 31
0.0
  0
LINE
  5
120
330
1F
100
AcDbEntity
  8
0
  6
Continuous
 62
     7
370
    15
100
AcDbLine
 10
330.4639962477
 20
165.0631725415
 30
0.0
 11
239.9639962477
 21
165.0631725415
 31
0.0
  0
LINE
  5
121
330
1F
100
AcDbEntity
  8
0
  6
Continuous
 62
     7
370
    15
100
AcDbLine
 10
330.4639962477
 20
165.2430206379
 30
0.0
 11
239.9639962477
 21
165.2430206379
 31
0.0
  0
LINE
  5
122
330
1F
100
AcDbEntity
  8
0
  6
Continuous
 62
     7
370
    15
100
AcDbLine
 10
239.9639962477
 20
112.4228687332
 30
0.0
 11
330.4639962477
 21
112.4228687332
 31
0.0
  0
LINE
  5
123
330
1F
100
AcDbEntity
  8
0
  6
Continuous
 62
     7
370
    15
100
AcDbLine
 10
330.4639962477
 20
112.4228687332
 30
0.0
 11
330.4639962477
 21
112.2430206379
 31
0.0
  0
LINE
  5
124
330
1F
100
AcDbEntity
  8
0
  6
Continuous
 62
     7
370
    15
100
AcDbLine
 10
239.9639962477
 20
112.2430206379
 30
0.0
 11
330.4639962477
 21
112.2430206379
 31
0.0
  0
ARC
  5
125
330
1F
100
AcDbEntity
  8
0
  6
Continuous
 62
     7
370
    15
100
AcDbCircle
 10
330.4639962477
 20
112.7430206379
 30
0.0
 40
0.3201519036289255
100
AcDbArc
 50
270.0
 51
0.0
  0
LINE
  5
126
330
1F
100
AcDbEntity
  8
0
  6
Continuous
 62
     7
370
    15
100
AcDbLine
 10
330.9639962477
 20
112.7430206379
 30
0.0
 11
330.7841481523
 21
112.7430206379
 31
0.0
  0
ARC
  5
127
330
1F
100
AcDbEntity
  8
0
  6
Continuous
 62
     7
370
    15
100
AcDbCircle
 10
330.4639962477
 20
112.7430206379
 30
0.0
 40
0.5000000000000568
100
AcDbArc
 50
270.0
 51
0.0
  0
LINE
  5
128
330
1F
100
AcDbEntity
  8
0
  6
Continuous
 62
     7
370
    15
100
AcDbLine
 10
330.7841481523
 20
164.7430206379
 30
0.0
 11
330.9639962477
 21
164.7430206379
 31
0.0
  0
ARC
  5
129
330
1F
100
AcDbEntity
  8
0
  6
Continuous
 62
     7
370
    15
100
AcDbCircle
 10
330.4639962477
 20
164.7430206379
 30
0.0
 40
0.3201519036289255
100
AcDbArc
 50
0.0
 51
90.0
  0
ARC
  5
12A
330
1F
100
AcDbEntity
  8
0
  6
Continuous
 62
     7
370
    15
100
AcDbCircle
 10
330.4639962477
 20
164.7430206379
 30
0.0
 40
0.5000000000000568
100
AcDbArc
 50
0.0
 51
90.0
  0
LINE
  5
12B
330
1F
100
AcDbEntity
  8
0
  6
Continuous
 62
     7
370
    15
100
AcDbLine
 10
330.9639962477
 20
159.2430206379
 30
0.0
 11
330.7841481523
 21
159.2430206379
 31
0.0
  0
LINE
  5
12C
330
1F
100
AcDbEntity
  8
0
  6
Continuous
 62
     7
370
    15
100
AcDbLine
 10
330.7841481523
 20
159.2430206379
 30
0.0
 11
330.7841481523
 21
164.7430206379
 31
0.0
  0
LINE
  5
12D
330
1F
100
AcDbEntity
  8
0
  6
Continuous
 62
     7
370
    15
100
AcDbLine
 10
330.9639962477
 20
159.2430206379
 30
0.0
 11
330.9639962477
 21
164.7430206379
 31
0.0
  0
ARC
  5
12E
330
1F
100
AcDbEntity
  8
0
  6
Continuous
 62
     7
370
    15
100
AcDbCircle
 10
336.2139962477
 20
159.2430206379
 30
0.0
 40
5.249999999999943
100
AcDbArc
 50
180.0
 51
270.0
  0
LINE
  5
12F
330
1F
100
AcDbEntity
  8
0
  6
Continuous
 62
     7
370
    15
100
AcDbLine
 10
336.2139962477
 20
153.8131725426
 30
0.0
 11
336.2139962477
 21
153.9930206379
 31
0.0
  0
ARC
  5
130
330
1F
100
AcDbEntity
  8
0
  6
Continuous
 62
     7
370
    15
100
AcDbCircle
 10
336.2139962477
 20
159.2430206379
 30
0.0
 40
5.429848095338059
100
AcDbArc
 50
180.0
 51
270.0
  0
ARC
  5
131
330
1F
100
AcDbEntity
  8
0
  6
Continuous
 62
     7
370
    15
100
AcDbCircle
 10
336.2139962477
 20
118.2430206379
 30
0.0
 40
5.249999999999545
100
AcDbArc
 50
90.0
 51
180.0
  0
LINE
  5
132
330
1F
100
AcDbEntity
  8
0
  6
Continuous
 62
     7
370
    15
100
AcDbLine
 10
330.7841481513
 20
118.2430206379
 30
0.0
 11
330.9639962477
 21
118.2430206379
 31
0.0
  0
ARC
  5
133
330
1F
100
AcDbEntity
  8
0
  6
Continuous
 62
     7
370
    15
100
AcDbCircle
 10
336.2139962477
 20
118.2430206379
 30
0.0
 40
5.429848096369824
100
AcDbArc
 50
90.0
 51
180.0
  0
LINE
  5
134
330
1F
100
AcDbEntity
  8
0
  6
Continuous
 62
     7
370
    15
100
AcDbLine
 10
336.2139962477
 20
123.4930206379
 30
0.0
 11
336.2139962477
 21
123.6728687343
 31
0.0
  0
LINE
  5
135
330
1F
100
AcDbEntity
  8
0
  6
Continuous
 62
     7
370
    15
100
AcDbLine
 10
330.7841481523
 20
112.7430206379
 30
0.0
 11
330.7841481523
 21
118.2430206379
 31
0.0
  0
LINE
  5
136
330
1F
100
AcDbEntity
  8
0
  6
Continuous
 62
     7
370
    15
100
AcDbLine
 10
330.9639962477
 20
112.7430206379
 30
0.0
 11
330.9639962477
 21
118.2430206379
 31
0.0
  0
ARC
  5
137
330
1F
100
AcDbEntity
  8
0
  6
Continuous
 62
     7
370
    15
100
AcDbCircle
 10
336.2139962477
 20
123.9930206379
 30
0.0
 40
0.3201519036297213
100
AcDbArc
 50
270.0
 51
0.0
  0
LINE
  5
138
330
1F
100
AcDbEntity
  8
0
  6
Continuous
 62
     7
370
    15
100
AcDbLine
 10
336.7139962477
 20
123.9930206379
 30
0.0
 11
336.5341481523
 21
123.9930206379
 31
0.0
  0
ARC
  5
139
330
1F
100
AcDbEntity
  8
0
  6
Continuous
 62
     7
370
    15
100
AcDbCircle
 10
336.2139962477
 20
123.9930206379
 30
0.0
 40
0.5000000000008242
100
AcDbArc
 50
270.0
 51
0.0
  0
LINE
  5
13A
330
1F
100
AcDbEntity
  8
0
  6
Continuous
 62
     7
370
    15
100
AcDbLine
 10
336.5341481523
 20
153.4930206379
 30
0.0
 11
336.7139962477
 21
153.4930206379
 31
0.0
  0
ARC
  5
13B
330
1F
100
AcDbEntity
  8
0
  6
Continuous
 62
     7
370
    15
100
AcDbCircle
 10
336.2139962477
 20
153.4930206379
 30
0.0
 40
0.3201519036288119
100
AcDbArc
 50
0.0
 51
90.0
  0
ARC
  5
13C
330
1F
100
AcDbEntity
  8
0
  6
Continuous
 62
     7
370
    15
100
AcDbCircle
 10
336.2139962477
 20
153.4930206379
 30
0.0
 40
0.5000000000001137
100
AcDbArc
 50
0.0
 51
90.0
  0
LINE
  5
13D
330
1F
100
AcDbEntity
  8
0
  6
Continuous
 62
     7
370
    15
100
AcDbLine
 10
336.5341481523
 20
123.9930206379
 30
0.0
 11
336.5341481523
 21
153.4930206379
 31
0.0
  0
LINE
  5
13E
330
1F
100
AcDbEntity
  8
0
  6
Continuous
 62
     7
370
    15
100
AcDbLine
 10
336.7139962477
 20
123.9930206379
 30
0.0
 11
336.7139962477
 21
153.4930206379
 31
0.0
  0
LINE
  5
13F
330
1F
100
AcDbEntity
  8
0
  6
Continuous
 62
     7
370
    15
100
AcDbLine
 10
333.5889962477
 20
159.2430206379
 30
0.0
 11
333.5889962477
 21
164.7430206379
 31
0.0
  0
ARC
  5
140
330
1F
100
AcDbEntity
  8
0
  6
Continuous
 62
     7
370
    15
100
AcDbCircle
 10
330.4639962477
 20
164.7430206379
 30
0.0
 40
3.125
100
AcDbArc
 50
0.0
 51
90.0
  0
LINE
  5
141
330
1F
100
AcDbEntity
  8
0
  6
Continuous
 62
     7
370
    15
100
AcDbLine
 10
330.4639962477
 20
167.8680206379
 30
0.0
 11
239.9639962477
 21
167.8680206379
 31
0.0
  0
ARC
  5
142
330
1F
100
AcDbEntity
  8
0
  6
Continuous
 62
     7
370
    15
100
AcDbCircle
 10
239.9639962477
 20
164.7430206379
 30
0.0
 40
3.125
100
AcDbArc
 50
90.0
 51
180.0
  0
LINE
  5
143
330
1F
100
AcDbEntity
  8
0
  6
Continuous
 62
     7
370
    15
100
AcDbLine
 10
236.8389962477
 20
164.7430206379
 30
0.0
 11
236.8389962477
 21
159.2430206379
 31
0.0
  0
ARC
  5
144
330
1F
100
AcDbEntity
  8
0
  6
Continuous
 62
     7
370
    15
100
AcDbCircle
 10
234.2139962477
 20
159.2430206379
 30
0.0
 40
2.625000000000028
100
AcDbArc
 50
270.0
 51
0.0
  0
ARC
  5
145
330
1F
100
AcDbEntity
  8
0
  6
Continuous
 62
     7
370
    15
100
AcDbCircle
 10
234.2139962477
 20
153.4930206379
 30
0.0
 40
3.125
100
AcDbArc
 50
90.0
 51
180.0
  0
LINE
  5
146
330
1F
100
AcDbEntity
  8
0
  6
Continuous
 62
     7
370
    15
100
AcDbLine
 10
231.0889962477
 20
153.4930206379
 30
0.0
 11
231.0889962477
 21
123.9930206379
 31
0.0
  0
ARC
  5
147
330
1F
100
AcDbEntity
  8
0
  6
Continuous
 62
     7
370
    15
100
AcDbCircle
 10
234.2139962477
 20
123.9930206379
 30
0.0
 40
3.125
100
AcDbArc
 50
180.0
 51
270.0
  0
ARC
  5
148
330
1F
100
AcDbEntity
  8
0
  6
Continuous
 62
     7
370
    15
100
AcDbCircle
 10
234.2139962477
 20
118.2430206379
 30
0.0
 40
2.625000000000028
100
AcDbArc
 50
0.0
 51
90.0
  0
LINE
  5
149
330
1F
100
AcDbEntity
  8
0
  6
Continuous
 62
     7
370
    15
100
AcDbLine
 10
236.8389962477
 20
118.2430206379
 30
0.0
 11
236.8389962477
 21
112.7430206379
 31
0.0
  0
ARC
  5
14A
330
1F
100
AcDbEntity
  8
0
  6
Continuous
 62
     7
370
    15
100
AcDbCircle
 10
239.9639962477
 20
112.7430206379
 30
0.0
 40
3.125
100
AcDbArc
 50
180.0
 51
270.0
  0
LINE
  5
14B
330
1F
100
AcDbEntity
  8
0
  6
Continuous
 62
     7
370
    15
100
AcDbLine
 10
239.9639962477
 20
109.6180206379
 30
0.0
 11
330.4639962477
 21
109.6180206379
 31
0.0
  0
ARC
  5
14C
330
1F
100
AcDbEntity
  8
0
  6
Continuous
 62
     7
370
    15
100
AcDbCircle
 10
330.4639962477
 20
112.7430206379
 30
0.0
 40
3.125
100
AcDbArc
 50
270.0
 51
0.0
  0
LINE
  5
14D
330
1F
100
AcDbEntity
  8
0
  6
Continuous
 62
     7
370
    15
100
AcDbLine
 10
333.5889962477
 20
112.7430206379
 30
0.0
 11
333.5889962477
 21
118.2430206379
 31
0.0
  0
ARC
  5
14E
330
1F
100
AcDbEntity
  8
0
  6
Continuous
 62
     7
370
    15
100
AcDbCircle
 10
336.2139962477
 20
118.2430206379
 30
0.0
 40
2.625
100
AcDbArc
 50
90.0
 51
180.0
  0
ARC
  5
14F
330
1F
100
AcDbEntity
  8
0
  6
Continuous
 62
     7
370
    15
100
AcDbCircle
 10
336.2139962477
 20
123.9930206379
 30
0.0
 40
3.125
100
AcDbArc
 50
270.0
 51
0.0
  0
LINE
  5
150
330
1F
100
AcDbEntity
  8
0
  6
Continuous
 62
     7
370
    15
100
AcDbLine
 10
339.3389962477
 20
123.9930206379
 30
0.0
 11
339.3389962477
 21
153.4930206379
 31
0.0
  0
ARC
  5
151
330
1F
100
AcDbEntity
  8
0
  6
Continuous
 62
     7
370
    15
100
AcDbCircle
 10
336.2139962477
 20
153.4930206379
 30
0.0
 40
3.125
100
AcDbArc
 50
0.0
 51
90.0
  0
ARC
  5
152
330
1F
100
AcDbEntity
  8
0
  6
Continuous
 62
     7
370
    15
100
AcDbCircle
 10
336.2139962477
 20
159.2430206379
 30
0.0
 40
2.625000000000028
100
AcDbArc
 50
180.0
 51
270.0
  0
CIRCLE
  5
153
330
1F
100
AcDbEntity
  8
0
  6
Continuous
 62
     7
370
    15
100
AcDbCircle
 10
336.2139962477
 20
112.7430206379
 30
0.0
 40
1.674999999999997
  0
CIRCLE
  5
154
330
1F
100
AcDbEntity
  8
0
  6
Continuous
 62
     7
370
    15
100
AcDbCircle
 10
234.2139962477
 20
112.7430206379
 30
0.0
 40
1.674999999999997
  0
CIRCLE
  5
155
330
1F
100
AcDbEntity
  8
0
  6
Continuous
 62
     7
370
    15
100
AcDbCircle
 10
234.2139962477
 20
164.7430206379
 30
0.0
 40
1.675000000000011
  0
CIRCLE
  5
156
330
1F
100
AcDbEntity
  8
0
  6
Continuous
 62
     7
370
    15
100
AcDbCircle
 10
336.2139962477
 20
164.7430206379
 30
0.0
 40
1.675000000000011
  0
ELLIPSE
  5
157
330
1F
100
AcDbEntity
  8
0
  6
Continuous
 62
     7
370
    15
100
AcDbEllipse
 10
336.2133869355
 20
164.7424113257
 30
0.0
 11
2.829288756678352
 21
2.829288756678324
 31
0.0
210
0.0
220
0.0
230
1.0
 40
0.9996954599
 41
5.497939437029761
 42
7.068431177329441
  0
LINE
  5
158
330
1F
100
AcDbEntity
  8
0
  6
Continuous
 62
     7
370
    15
100
AcDbLine
 10
340.2139962476
 20
164.7436298573
 30
0.0
 11
340.2139962476
 21
112.7424114214
 31
0.0
  0
ELLIPSE
  5
159
330
1F
100
AcDbEntity
  8
0
  6
Continuous
 62
     7
370
    15
100
AcDbEllipse
 10
336.2133869355
 20
112.7436299501
 30
0.0
 11
2.829288756678352
 21
-2.829288756678337
 31
0.0
210
0.0
220
0.0
230
1.0
 40
0.9996954599
 41
5.497939437029756
 42
7.068431178040254
  0
LINE
  5
15A
330
1F
100
AcDbEntity
  8
0
  6
Continuous
 62
     7
370
    15
100
AcDbLine
 10
336.214605467
 20
108.7430206379
 30
0.0
 11
234.2133870311
 21
108.7430206379
 31
0.0
  0
LINE
  5
15B
330
1F
100
AcDbEntity
  8
0
  6
Continuous
 62
     7
370
    15
100
AcDbLine
 10
234.2133870283
 20
168.7430206379
 30
0.0
 11
336.214605467
 21
168.7430206379
 31
0.0
  0
ELLIPSE
  5
15C
330
1F
100
AcDbEntity
  8
0
  6
Continuous
 62
     7
370
    15
100
AcDbEllipse
 10
234.2146055599
 20
112.7436299501
 30
0.0
 11
-2.829288756678352
 21
-2.829288756678337
 31
0.0
210
0.0
220
0.0
230
1.0
 40
0.9996954599
 41
5.497939437029756
 42
7.068431178040259
  0
LINE
  5
15D
330
1F
100
AcDbEntity
  8
0
  6
Continuous
 62
     7
370
    15
100
AcDbLine
 10
230.2139962477
 20
112.7424114185
 30
0.0
 11
230.2139962477
 21
164.7436298573
 31
0.0
  0
ELLIPSE
  5
15E
330
1F
100
AcDbEntity
  8
0
  6
Continuous
 62
     7
370
    15
100
AcDbEllipse
 10
234.2146055599
 20
164.7424113257
 30
0.0
 11
-2.829288756678352
 21
2.829288756678324
 31
0.0
210
0.0
220
0.0
230
1.0
 40
0.9996954599
 41
5.497939437029749
 42
7.068431177329421
  0
ARC
  5
15F
330
1F
100
AcDbEntity
  8
0
  6
Continuous
 62
     7
370
    15
100
AcDbCircle
 10
330.4639962477
 20
164.7430206379
 30
0.0
 40
1.375
100
AcDbArc
 50
0.0
 51
90.0
  0
LINE
  5
160
330
1F
100
AcDbEntity
  8
0
  6
Continuous
 62
     7
370
    15
100
AcDbLine
 10
331.8389962477
 20
159.2430206379
 30
0.0
 11
331.8389962477
 21
164.7430206379
 31
0.0
  0
ARC
  5
161
330
1F
100
AcDbEntity
  8
0
  6
Continuous
 62
     7
370
    15
100
AcDbCircle
 10
336.2139962477
 20
159.2430206379
 30
0.0
 40
4.375000000000028
100
AcDbArc
 50
180.0
 51
270.0
  0
ARC
  5
162
330
1F
100
AcDbEntity
  8
0
  6
Continuous
 62
     7
370
    15
100
AcDbCircle
 10
336.2139962477
 20
153.4930206379
 30
0.0
 40
1.375
100
AcDbArc
 50
0.0
 51
90.0
  0
LINE
  5
163
330
1F
100
AcDbEntity
  8
0
  6
Continuous
 62
     7
370
    15
100
AcDbLine
 10
337.5889962477
 20
123.9930206379
 30
0.0
 11
337.5889962477
 21
153.4930206379
 31
0.0
  0
ARC
  5
164
330
1F
100
AcDbEntity
  8
0
  6
Continuous
 62
     7
370
    15
100
AcDbCircle
 10
336.2139962477
 20
123.9930206379
 30
0.0
 40
1.375
100
AcDbArc
 50
270.0
 51
0.0
  0
ARC
  5
165
330
1F
100
AcDbEntity
  8
0
  6
Continuous
 62
     7
370
    15
100
AcDbCircle
 10
336.2139962477
 20
118.2430206379
 30
0.0
 40
4.375
100
AcDbArc
 50
90.0
 51
180.0
  0
LINE
  5
166
330
1F
100
AcDbEntity
  8
0
  6
Continuous
 62
     7
370
    15
100
AcDbLine
 10
331.8389962477
 20
112.7430206379
 30
0.0
 11
331.8389962477
 21
118.2430206379
 31
0.0
  0
ARC
  5
167
330
1F
100
AcDbEntity
  8
0
  6
Continuous
 62
     7
370
    15
100
AcDbCircle
 10
330.4639962477
 20
112.7430206379
 30
0.0
 40
1.375
100
AcDbArc
 50
270.0
 51
0.0
  0
LINE
  5
168
330
1F
100
AcDbEntity
  8
0
  6
Continuous
 62
     7
370
    15
100
AcDbLine
 10
239.9639962477
 20
111.3680206379
 30
0.0
 11
330.4639962477
 21
111.3680206379
 31
0.0
  0
ARC
  5
169
330
1F
100
AcDbEntity
  8
0
  6
Continuous
 62
     7
370
    15
100
AcDbCircle
 10
239.9639962477
 20
112.7430206379
 30
0.0
 40
1.375
100
AcDbArc
 50
180.0
 51
270.0
  0
LINE
  5
16A
330
1F
100
AcDbEntity
  8
0
  6
Continuous
 62
     7
370
    15
100
AcDbLine
 10
238.5889962477
 20
118.2430206379
 30
0.0
 11
238.5889962477
 21
112.7430206379
 31
0.0
  0
ARC
  5
16B
330
1F
100
AcDbEntity
  8
0
  6
Continuous
 62
     7
370
    15
100
AcDbCircle
 10
234.2139962477
 20
118.2430206379
 30
0.0
 40
4.375
100
AcDbArc
 50
0.0
 51
90.0
  0
ARC
  5
16C
330
1F
100
AcDbEntity
  8
0
  6
Continuous
 62
     7
370
    15
100
AcDbCircle
 10
234.2139962477
 20
123.9930206379
 30
0.0
 40
1.375
100
AcDbArc
 50
180.0
 51
270.0
  0
LINE
  5
16D
330
1F
100
AcDbEntity
  8
0
  6
Continuous
 62
     7
370
    15
100
AcDbLine
 10
232.8389962477
 20
153.4930206379
 30
0.0
 11
232.8389962477
 21
123.9930206379
 31
0.0
  0
ARC
  5
16E
330
1F
100
AcDbEntity
  8
0
  6
Continuous
 62
     7
370
    15
100
AcDbCircle
 10
234.2139962477
 20
153.4930206379
 30
0.0
 40
1.374999999999972
100
AcDbArc
 50
90.0
 51
180.0
  0
ARC
  5
16F
330
1F
100
AcDbEntity
  8
0
  6
Continuous
 62
     7
370
    15
100
AcDbCircle
 10
234.2139962477
 20
159.2430206379
 30
0.0
 40
4.375000000000028
100
AcDbArc
 50
270.0
 51
0.0
  0
LINE
  5
170
330
1F
100
AcDbEntity
  8
0
  6
Continuous
 62
     7
370
    15
100
AcDbLine
 10
238.5889962477
 20
164.7430206379
 30
0.0
 11
238.5889962477
 21
159.2430206379
 31
0.0
  0
ARC
  5
171
330
1F
100
AcDbEntity
  8
0
  6
Continuous
 62
     7
370
    15
100
AcDbCircle
 10
239.9639962477
 20
164.7430206379
 30
0.0
 40
1.375
100
AcDbArc
 50
90.0
 51
180.0
  0
LINE
  5
172
330
1F
100
AcDbEntity
  8
0
  6
Continuous
 62
     7
370
    15
100
AcDbLine
 10
330.4639962477
 20
166.1180206379
 30
0.0
 11
239.9639962477
 21
166.1180206379
 31
0.0
  0
LINE
  5
173
330
1F
100
AcDbEntity
  8
0
  6
Continuous
 62
     7
370
    15
100
AcDbLine
 10
234.093813882
 20
123.9930206379
 30
0.0
 11
233.893844344
 21
123.9930206379
 31
0.0
  0
SPLINE
  5
174
330
1F
100
AcDbEntity
  8
0
  6
Continuous
 62
     7
370
    15
100
AcDbSpline
210
0.0
220
0.0
230
1.0
 70
     8
 71
     3
 72
    15
 73
    11
 74
     0
 42
0.000000001
 43
0.00000001
 40
0.0
 40
0.0
 40
0.0
 40
0.0
 40
0.1270029694826377
 40
0.2493598838801582
 40
0.3721240258636567
 40
0.5003005230290564
 40
0.6287153120898183
 40
0.7601232852901924
 40
0.8793386037238846
 40
1.0
 40
1.0
 40
1.0
 40
1.0
 10
234.0938146733548
 20
123.9930206378987
 30
0.0
 10
234.0942153057065
 20
123.9850206569101
 30
0.0
 10
234.0950019143748
 20
123.9693133522816
 30
0.0
 10
234.101917899088
 20
123.946713067474
 30
0.0
 10
234.1131611530874
 20
123.9259603068761
 30
0.0
 10
234.1284824849672
 20
123.9074892355781
 30
0.0
 10
234.1474384109673
 20
123.8918566531789
 30
0.0
 10
234.1687726963104
 20
123.8809228696144
 30
0.0
 10
234.1912822463416
 20
123.8740090613476
 30
0.0
 10
234.2063945461149
 20
123.8732289817278
 30
0.0
 10
234.2139962476548
 20
123.8728365905937
 30
0.0
  0
LINE
  5
175
330
1F
100
AcDbEntity
  8
0
  6
Continuous
 62
     7
370
    15
100
AcDbLine
 10
234.2139962477
 20
123.6728687332
 30
0.0
 11
234.2139962477
 21
123.8728374314
 31
0.0
  0
LINE
  5
176
330
1F
100
AcDbEntity
  8
0
  6
Continuous
 62
     7
370
    15
100
AcDbLine
 10
336.3341786133
 20
153.4930206379
 30
0.0
 11
336.5341481513
 21
153.4930206379
 31
0.0
  0
SPLINE
  5
177
330
1F
100
AcDbEntity
  8
0
  6
Continuous
 62
     7
370
    15
100
AcDbSpline
210
0.0
220
0.0
230
1.0
 70
     8
 71
     3
 72
    15
 73
    11
 74
     0
 42
0.000000001
 43
0.00000001
 40
0.0
 40
0.0
 40
0.0
 40
0.0
 40
0.1270029694826377
 40
0.2493598838801582
 40
0.3721240258636567
 40
0.5003005230290564
 40
0.6287153120898183
 40
0.7601232852901924
 40
0.8793386037238846
 40
1.0
 40
1.0
 40
1.0
 40
1.0
 10
336.3341778219548
 20
153.4930206378988
 30
0.0
 10
336.3337771896031
 20
153.5010206188874
 30
0.0
 10
336.3329905809347
 20
153.5167279235158
 30
0.0
 10
336.3260745962216
 20
153.5393282083234
 30
0.0
 10
336.3148313422222
 20
153.5600809689213
 30
0.0
 10
336.2995100103424
 20
153.5785520402194
 30
0.0
 10
336.2805540843423
 20
153.5941846226186
 30
0.0
 10
336.2592197989991
 20
153.605118406183
 30
0.0
 10
336.2367102489679
 20
153.6120322144498
 30
0.0
 10
336.2215979491947
 20
153.6128122940696
 30
0.0
 10
336.2139962476548
 20
153.6132046852037
 30
0.0
  0
LINE
  5
178
330
1F
100
AcDbEntity
  8
0
  6
Continuous
 62
     7
370
    15
100
AcDbLine
 10
336.2139962477
 20
153.8131725426
 30
0.0
 11
336.2139962477
 21
153.6132038444
 31
0.0
  0
LINE
  5
179
330
1F
100
AcDbEntity
  8
0
  6
Continuous
 62
     7
370
    15
100
AcDbLine
 10
239.9639962477
 20
164.8632022122
 30
0.0
 11
239.9639962477
 21
165.0631725415
 31
0.0
  0
SPLINE
  5
17A
330
1F
100
AcDbEntity
  8
0
  6
Continuous
 62
     7
370
    15
100
AcDbSpline
210
0.0
220
0.0
230
1.0
 70
     8
 71
     3
 72
    15
 73
    11
 74
     0
 42
0.000000001
 43
0.00000001
 40
0.0
 40
0.0
 40
0.0
 40
0.0
 40
0.12700337463957
 40
0.2493603667630509
 40
0.3721243393802576
 40
0.5003005287588652
 40
0.6287150112055494
 40
0.7601228194770581
 40
0.8793382202411101
 40
0.9999999999999999
 40
0.9999999999999999
 40
0.9999999999999999
 40
0.9999999999999999
 10
239.9639962476548
 20
164.8632022121938
 30
0.0
 10
239.955996276715
 20
164.8628015811066
 30
0.0
 10
239.940289011508
 20
164.8620149759073
 30
0.0
 10
239.9176888118147
 20
164.8550989965103
 30
0.0
 10
239.8969361972004
 20
164.8438557395227
 30
0.0
 10
239.8784653298771
 20
164.8285344010608
 30
0.0
 10
239.8628330051301
 20
164.8095784627993
 30
0.0
 10
239.8518995188559
 20
164.7882441685837
 30
0.0
 10
239.844986030334
 20
164.7657346083129
 30
0.0
 10
239.8442061655689
 20
164.7506223353503
 30
0.0
 10
239.8438138820248
 20
164.7430206378988
 30
0.0
  0
LINE
  5
17B
330
1F
100
AcDbEntity
  8
0
  6
Continuous
 62
     7
370
    15
100
AcDbLine
 10
239.6438443425
 20
164.7430206379
 30
0.0
 11
239.843813882
 21
164.7430206379
 31
0.0
  0
LINE
  5
17C
330
1F
100
AcDbEntity
  8
0
  6
Continuous
 62
     7
370
    15
100
AcDbLine
 10
330.4639962477
 20
112.6228382723
 30
0.0
 11
330.4639962477
 21
112.4228687343
 31
0.0
  0
SPLINE
  5
17D
330
1F
100
AcDbEntity
  8
0
  6
Continuous
 62
     7
370
    15
100
AcDbSpline
210
0.0
220
0.0
230
1.0
 70
     8
 71
     3
 72
    15
 73
    11
 74
     0
 42
0.000000001
 43
0.00000001
 40
0.0
 40
0.0
 40
0.0
 40
0.0
 40
0.12700337463957
 40
0.2493603667630509
 40
0.3721243393802576
 40
0.5003005287588652
 40
0.6287150112055494
 40
0.7601228194770581
 40
0.8793382202411101
 40
0.9999999999999999
 40
0.9999999999999999
 40
0.9999999999999999
 40
0.9999999999999999
 10
330.4639962476548
 20
112.6228390636037
 30
0.0
 10
330.4719962185946
 20
112.6232396946909
 30
0.0
 10
330.4877034838016
 20
112.6240262998901
 30
0.0
 10
330.5103036834949
 20
112.6309422792871
 30
0.0
 10
330.5310562981092
 20
112.6421855362748
 30
0.0
 10
330.5495271654325
 20
112.6575068747367
 30
0.0
 10
330.5651594901795
 20
112.6764628129982
 30
0.0
 10
330.5760929764538
 20
112.6977971072138
 30
0.0
 10
330.5830064649757
 20
112.7203066674846
 30
0.0
 10
330.5837863297407
 20
112.7354189404472
 30
0.0
 10
330.5841786132848
 20
112.7430206378987
 30
0.0
  0
LINE
  5
17E
330
1F
100
AcDbEntity
  8
0
  6
Continuous
 62
     7
370
    15
100
AcDbLine
 10
330.7841481528
 20
112.7430206379
 30
0.0
 11
330.5841786133
 21
112.7430206379
 31
0.0
  0
SPLINE
  5
17F
330
1F
100
AcDbEntity
  8
0
  6
Continuous
 62
     7
370
    15
100
AcDbSpline
210
0.0
220
0.0
230
1.0
 70
     8
 71
     3
 72
    27
 73
    23
 74
     0
 42
0.000000001
 43
0.00000001
 40
0.0
 40
0.0
 40
0.0
 40
0.0
 40
0.0194536439102713
 40
0.0388727473756922
 40
0.0582753924635061
 40
0.0776797072516214
 40
0.0971038151430699
 40
0.1165657842456754
 40
0.1783139178406366
 40
0.2400917246528943
 40
0.3044140406644902
 40
0.3687661498639712
 40
0.5000027431078627
 40
0.6312393363517783
 40
0.6955616558852081
 40
0.759913766359509
 40
0.821661899261201
 40
0.8834397033999681
 40
0.9126047552629296
 40
0.9417123561177748
 40
0.9708237106694745
 40
0.9999999999999999
 40
0.9999999999999999
 40
0.9999999999999999
 40
0.9999999999999999
 10
234.2139962476548
 20
123.8728365905937
 30
0.0
 10
234.2713041007321
 20
123.872335260961
 30
0.0
 10
234.3858180553205
 20
123.8713334918193
 30
0.0
 10
234.5573308174666
 20
123.8632066434173
 30
0.0
 10
234.7283795317047
 20
123.8502263297556
 30
0.0
 10
234.8989625978136
 20
123.8319203331083
 30
0.0
 10
235.0690840034115
 20
123.8084124973225
 30
0.0
 10
235.3613909957365
 20
123.7589037788219
 30
0.0
 10
235.7721284912941
 20
123.6622453969084
 30
0.0
 10
236.2966199164165
 20
123.4833036471876
 30
0.0
 10
236.8081599921385
 20
123.2504709259562
 30
0.0
 10
237.470188437785
 20
122.8637302899872
 30
0.0
 10
238.2233479934574
 20
122.2523717204954
 30
0.0
 10
238.8346501118472
 20
121.4992809376266
 30
0.0
 10
239.2214081970874
 20
120.8372628937186
 30
0.0
 10
239.454212144716
 20
120.3258081370234
 30
0.0
 10
239.633210089095
 20
119.8012329474919
 30
0.0
 10
239.7363890359495
 20
119.3626424003529
 30
0.0
 10
239.7929075179216
 20
119.0134427847421
 30
0.0
 10
239.8221399031734
 20
118.7576201401967
 30
0.0
 10
239.8404352041561
 20
118.5006907490556
 30
0.0
 10
239.8426868198917
 20
118.328974441238
 30
0.0
 10
239.8438138819548
 20
118.2430206378937
 30
0.0
  0
LINE
  5
180
330
1F
100
AcDbEntity
  8
0
  6
Continuous
 62
     7
370
    15
100
AcDbLine
 10
239.643844344
 20
118.2430206369
 30
0.0
 11
239.843813882
 21
118.2430206369
 31
0.0
  0
SPLINE
  5
181
330
1F
100
AcDbEntity
  8
0
  6
Continuous
 62
     7
370
    15
100
AcDbSpline
210
0.0
220
0.0
230
1.0
 70
     8
 71
     3
 72
    27
 73
    23
 74
     0
 42
0.000000001
 43
0.00000001
 40
0.0
 40
0.0
 40
0.0
 40
0.0
 40
0.0194536439102713
 40
0.0388727473756922
 40
0.0582753924635061
 40
0.0776797072516214
 40
0.0971038151430699
 40
0.1165657842456754
 40
0.1783139178406366
 40
0.2400917246528943
 40
0.3044140406644902
 40
0.3687661498639712
 40
0.5000027431078627
 40
0.6312393363517783
 40
0.6955616558852081
 40
0.759913766359509
 40
0.821661899261201
 40
0.8834397033999681
 40
0.9126047552629296
 40
0.9417123561177748
 40
0.9708237106694745
 40
0.9999999999999999
 40
0.9999999999999999
 40
0.9999999999999999
 40
0.9999999999999999
 10
336.2139962476548
 20
153.6132046852037
 30
0.0
 10
336.1566883945775
 20
153.6137060148365
 30
0.0
 10
336.0421744399891
 20
153.6147077839782
 30
0.0
 10
335.870661677843
 20
153.6228346323802
 30
0.0
 10
335.6996129636049
 20
153.6358149460419
 30
0.0
 10
335.5290298974961
 20
153.6541209426892
 30
0.0
 10
335.3589084918981
 20
153.6776287784749
 30
0.0
 10
335.0666014995732
 20
153.7271374969755
 30
0.0
 10
334.6558640040155
 20
153.8237958788891
 30
0.0
 10
334.1313725788931
 20
154.0027376286099
 30
0.0
 10
333.619832503171
 20
154.2355703498413
 30
0.0
 10
332.9578040575246
 20
154.6223109858102
 30
0.0
 10
332.2046445018522
 20
155.2336695553021
 30
0.0
 10
331.5933423834624
 20
155.9867603381709
 30
0.0
 10
331.2065842982223
 20
156.6487783820789
 30
0.0
 10
330.9737803505936
 20
157.1602331387741
 30
0.0
 10
330.7947824062146
 20
157.6848083283056
 30
0.0
 10
330.6916034593601
 20
158.1233988754446
 30
0.0
 10
330.635084977388
 20
158.4725984910554
 30
0.0
 10
330.6058525921362
 20
158.7284211356008
 30
0.0
 10
330.5875572911535
 20
158.9853505267419
 30
0.0
 10
330.5853056754179
 20
159.1570668345595
 30
0.0
 10
330.5841786133548
 20
159.2430206379038
 30
0.0
  0
LINE
  5
182
330
1F
100
AcDbEntity
  8
0
  6
Continuous
 62
     7
370
    15
100
AcDbLine
 10
330.7841481513
 20
159.2430206389
 30
0.0
 11
330.5841786134
 21
159.2430206389
 31
0.0
  0
LINE
  5
183
330
1F
100
AcDbEntity
  8
0
  6
Continuous
 62
     7
370
    15
100
AcDbLine
 10
239.643844344
 20
159.2430206379
 30
0.0
 11
239.8438130471
 21
159.2430206379
 31
0.0
  0
SPLINE
  5
184
330
1F
100
AcDbEntity
  8
0
  6
Continuous
 62
     7
370
    15
100
AcDbSpline
210
0.0
220
0.0
230
1.0
 70
     8
 71
     3
 72
    27
 73
    23
 74
     0
 42
0.000000001
 43
0.00000001
 40
0.0
 40
0.0
 40
0.0
 40
0.0
 40
0.0194536430880294
 40
0.0388727458155536
 40
0.0582753902486688
 40
0.0776797044639065
 40
0.0971038118626927
 40
0.1165657805510223
 40
0.1783139133208472
 40
0.2400917200159113
 40
0.3044140365482308
 40
0.3687661467756173
 40
0.5000027431077922
 40
0.6312393394399705
 40
0.6955616600080163
 40
0.759913770996247
 40
0.8216619037803823
 40
0.8834397070942346
 40
0.9126047583048301
 40
0.9417123583300508
 40
0.9708237118692665
 40
1.0
 40
1.0
 40
1.0
 40
1.0
 10
239.8438122121348
 20
159.2430206378988
 30
0.0
 10
239.8433108824987
 20
159.1857127845894
 30
0.0
 10
239.8423091133481
 20
159.0711988292932
 30
0.0
 10
239.834182264915
 20
158.8996860657207
 30
0.0
 10
239.8212019512166
 20
158.7286373493257
 30
0.0
 10
239.8028959545202
 20
158.5580542803291
 30
0.0
 10
239.7793881186755
 20
158.3879328711133
 30
0.0
 10
239.7298793998529
 20
158.0956258700919
 30
0.0
 10
239.6332210171505
 20
157.684888358847
 30
0.0
 10
239.4542792668734
 20
157.1603969082572
 30
0.0
 10
239.2214465451258
 20
156.6488567997644
 30
0.0
 10
238.8347059075142
 20
155.9868282983947
 30
0.0
 10
238.2233473383993
 20
155.2336686595976
 30
0.0
 10
237.4702565570323
 20
154.6223664373033
 30
0.0
 10
236.8082385109415
 20
154.2356082587732
 30
0.0
 10
236.2967837537141
 20
154.0028042398154
 30
0.0
 10
235.772208563509
 20
153.823806222269
 30
0.0
 10
235.3336180143234
 20
153.7206272139434
 30
0.0
 10
234.9844183968879
 20
153.6641086832804
 30
0.0
 10
234.7285957518013
 20
153.6348762625187
 30
0.0
 10
234.4716663602303
 20
153.6165809258792
 30
0.0
 10
234.2999500512892
 20
153.6143292863422
 30
0.0
 10
234.2139962476548
 20
153.6132022123687
 30
0.0
  0
LINE
  5
185
330
1F
100
AcDbEntity
  8
0
  6
Continuous
 62
     7
370
    15
100
AcDbLine
 10
234.2139962477
 20
153.6132038385
 30
0.0
 11
234.2139962477
 21
153.8131725415
 31
0.0
  0
LINE
  5
186
330
1F
100
AcDbEntity
  8
0
  6
Continuous
 62
     7
370
    15
100
AcDbLine
 10
330.7841481513
 20
118.2430206379
 30
0.0
 11
330.5841794482
 21
118.2430206379
 31
0.0
  0
SPLINE
  5
187
330
1F
100
AcDbEntity
  8
0
  6
Continuous
 62
     7
370
    15
100
AcDbSpline
210
0.0
220
0.0
230
1.0
 70
     8
 71
     3
 72
    27
 73
    23
 74
     0
 42
0.000000001
 43
0.00000001
 40
0.0
 40
0.0
 40
0.0
 40
0.0
 40
0.0194536430880294
 40
0.0388727458155536
 40
0.0582753902486688
 40
0.0776797044639065
 40
0.0971038118626927
 40
0.1165657805510223
 40
0.1783139133208472
 40
0.2400917200159113
 40
0.3044140365482308
 40
0.3687661467756173
 40
0.5000027431077922
 40
0.6312393394399705
 40
0.6955616600080163
 40
0.759913770996247
 40
0.8216619037803823
 40
0.8834397070942346
 40
0.9126047583048301
 40
0.9417123583300508
 40
0.9708237118692665
 40
1.0
 40
1.0
 40
1.0
 40
1.0
 10
330.5841802831748
 20
118.2430206378987
 30
0.0
 10
330.5846816128109
 20
118.3003284912081
 30
0.0
 10
330.5856833819615
 20
118.4148424465043
 30
0.0
 10
330.5938102303946
 20
118.5863552100768
 30
0.0
 10
330.6067905440929
 20
118.7574039264718
 30
0.0
 10
330.6250965407894
 20
118.9279869954683
 30
0.0
 10
330.6486043766341
 20
119.0981084046842
 30
0.0
 10
330.6981130954567
 20
119.3904154057056
 30
0.0
 10
330.7947714781591
 20
119.8011529169505
 30
0.0
 10
330.9737132284362
 20
120.3256443675403
 30
0.0
 10
331.2065459501838
 20
120.8371844760331
 30
0.0
 10
331.5932865877954
 20
121.4992129774028
 30
0.0
 10
332.2046451569103
 20
122.2523726161998
 30
0.0
 10
332.9577359382773
 20
122.8636748384942
 30
0.0
 10
333.6197539843681
 20
123.2504330170243
 30
0.0
 10
334.1312087415955
 20
123.483237035982
 30
0.0
 10
334.6557839318006
 20
123.6622350535285
 30
0.0
 10
335.0943744809862
 20
123.7654140618541
 30
0.0
 10
335.4435740984217
 20
123.8219325925171
 30
0.0
 10
335.6993967435083
 20
123.8511650132787
 30
0.0
 10
335.9563261350793
 20
123.8694603499183
 30
0.0
 10
336.1280424440204
 20
123.8717119894553
 30
0.0
 10
336.2139962476548
 20
123.8728390634287
 30
0.0
  0
LINE
  5
188
330
1F
100
AcDbEntity
  8
0
  6
Continuous
 62
     7
370
    15
100
AcDbLine
 10
336.2139962477
 20
123.8728374373
 30
0.0
 11
336.2139962477
 21
123.6728687343
 31
0.0
  0
SPLINE
  5
189
330
1F
100
AcDbEntity
  8
0
  6
Continuous
 62
     7
370
    15
100
AcDbSpline
210
0.0
220
0.0
230
1.0
 70
     8
 71
     3
 72
    15
 73
    11
 74
     0
 42
0.000000001
 43
0.00000001
 40
0.0
 40
0.0
 40
0.0
 40
0.0
 40
0.1270033746782308
 40
0.2493603668092693
 40
0.3721243394104007
 40
0.5003005287594994
 40
0.6287150111773815
 40
0.7601228194340189
 40
0.8793382202039435
 40
1.0
 40
1.0
 40
1.0
 40
1.0
 10
234.2139962476548
 20
153.6132022123687
 30
0.0
 10
234.2059962767042
 20
153.6128015812812
 30
0.0
 10
234.1902890114778
 20
153.6120149760811
 30
0.0
 10
234.1676888117594
 20
153.6050989966745
 30
0.0
 10
234.1469361971283
 20
153.5938557396703
 30
0.0
 10
234.1284653297971
 20
153.5785344011854
 30
0.0
 10
234.1128330050513
 20
153.5595784628951
 30
0.0
 10
234.1018995187885
 20
153.5382441686478
 30
0.0
 10
234.0949860302858
 20
153.5157346083433
 30
0.0
 10
234.0942061655395
 20
153.5006223353611
 30
0.0
 10
234.0938138820048
 20
153.4930206378988
 30
0.0
  0
LINE
  5
18A
330
1F
100
AcDbEntity
  8
0
  6
Continuous
 62
     7
370
    15
100
AcDbLine
 10
233.893844344
 20
153.4930206379
 30
0.0
 11
234.093813882
 21
153.4930206379
 31
0.0
  0
SPLINE
  5
18B
330
1F
100
AcDbEntity
  8
0
  6
Continuous
 62
     7
370
    15
100
AcDbSpline
210
0.0
220
0.0
230
1.0
 70
     8
 71
     3
 72
    15
 73
    11
 74
     0
 42
0.000000001
 43
0.00000001
 40
0.0
 40
0.0
 40
0.0
 40
0.0
 40
0.1270033746782308
 40
0.2493603668092693
 40
0.3721243394104007
 40
0.5003005287594994
 40
0.6287150111773815
 40
0.7601228194340189
 40
0.8793382202039435
 40
1.0
 40
1.0
 40
1.0
 40
1.0
 10
336.2139962476548
 20
123.8728390634287
 30
0.0
 10
336.2219962186055
 20
123.8732396945163
 30
0.0
 10
336.2377034838318
 20
123.8740262997164
 30
0.0
 10
336.2603036835502
 20
123.880942279123
 30
0.0
 10
336.2810562981813
 20
123.8921855361272
 30
0.0
 10
336.2995271655125
 20
123.9075068746121
 30
0.0
 10
336.3151594902582
 20
123.9264628129024
 30
0.0
 10
336.3260929765212
 20
123.9477971071497
 30
0.0
 10
336.3330064650237
 20
123.9703066674542
 30
0.0
 10
336.3337863297701
 20
123.9854189404363
 30
0.0
 10
336.3341786133048
 20
123.9930206378987
 30
0.0
  0
LINE
  5
18C
330
1F
100
AcDbEntity
  8
0
  6
Continuous
 62
     7
370
    15
100
AcDbLine
 10
336.5341481513
 20
123.9930206379
 30
0.0
 11
336.3341786133
 21
123.9930206379
 31
0.0
  0
LINE
  5
18D
330
1F
100
AcDbEntity
  8
0
  6
Continuous
 62
     7
370
    15
100
AcDbLine
 10
239.843813882
 20
112.7430206379
 30
0.0
 11
239.643844344
 21
112.7430206379
 31
0.0
  0
SPLINE
  5
18E
330
1F
100
AcDbEntity
  8
0
  6
Continuous
 62
     7
370
    15
100
AcDbSpline
210
0.0
220
0.0
230
1.0
 70
     8
 71
     3
 72
    15
 73
    11
 74
     0
 42
0.000000001
 43
0.00000001
 40
0.0
 40
0.0
 40
0.0
 40
0.0
 40
0.1270033746392664
 40
0.2493603667626018
 40
0.3721243393798704
 40
0.5003005287586995
 40
0.6287150112045953
 40
0.7601228194769675
 40
0.8793382202406297
 40
0.9999999999999999
 40
0.9999999999999999
 40
0.9999999999999999
 40
0.9999999999999999
 10
239.8438146733598
 20
112.7430206378987
 30
0.0
 10
239.8442153044469
 20
112.7350206669589
 30
0.0
 10
239.8450019096462
 20
112.719313401752
 30
0.0
 10
239.8519178890432
 20
112.6967132020587
 30
0.0
 10
239.8631611460308
 20
112.6759605874444
 30
0.0
 10
239.8784824844927
 20
112.6574897201211
 30
0.0
 10
239.8974384227542
 20
112.6418573953741
 30
0.0
 10
239.9187727169698
 20
112.6309239090999
 30
0.0
 10
239.9412822772406
 20
112.6240104205779
 30
0.0
 10
239.9563945502032
 20
112.6232305558128
 30
0.0
 10
239.9639962476548
 20
112.6228382722687
 30
0.0
  0
LINE
  5
18F
330
1F
100
AcDbEntity
  8
0
  6
Continuous
 62
     7
370
    15
100
AcDbLine
 10
239.9639962477
 20
112.4228687343
 30
0.0
 11
239.9639962477
 21
112.6228382723
 31
0.0
  0
LINE
  5
190
330
1F
100
AcDbEntity
  8
0
  6
Continuous
 62
     7
370
    15
100
AcDbLine
 10
330.5841786134
 20
164.7430206379
 30
0.0
 11
330.7841481513
 21
164.7430206379
 31
0.0
  0
SPLINE
  5
191
330
1F
100
AcDbEntity
  8
0
  6
Continuous
 62
     7
370
    15
100
AcDbSpline
210
0.0
220
0.0
230
1.0
 70
     8
 71
     3
 72
    15
 73
    11
 74
     0
 42
0.000000001
 43
0.00000001
 40
0.0
 40
0.0
 40
0.0
 40
0.0
 40
0.1270035652888735
 40
0.2493605939840712
 40
0.3721244869008135
 40
0.5003005314448676
 40
0.6287148696110146
 40
0.7601226002730646
 40
0.8793380397825707
 40
0.9999999999999999
 40
0.9999999999999999
 40
0.9999999999999999
 40
0.9999999999999999
 10
330.5841778219498
 20
164.7430206378988
 30
0.0
 10
330.5837771914577
 20
164.7510206041099
 30
0.0
 10
330.5829905878908
 20
164.7667278507667
 30
0.0
 10
330.5760746109951
 20
164.7893280104083
 30
0.0
 10
330.5648313526007
 20
164.8100805563282
 30
0.0
 10
330.5495100110406
 20
164.8285513276683
 30
0.0
 10
330.5305540670088
 20
164.8441835311733
 30
0.0
 10
330.509219768618
 20
164.8551168775536
 30
0.0
 10
330.4867102035289
 20
164.8620302156151
 30
0.0
 10
330.4715979431825
 20
164.8628099792776
 30
0.0
 10
330.4639962476548
 20
164.8632022121938
 30
0.0
  0
LINE
  5
192
330
1F
100
AcDbEntity
  8
0
  6
Continuous
 62
     7
370
    15
100
AcDbLine
 10
330.4639962477
 20
165.0631725415
 30
0.0
 11
330.4639962477
 21
164.8632022122
 31
0.0
  0
LINE
  5
193
330
1F
100
AcDbEntity
  8
0
  6
Continuous
 62
     7
370
    15
100
AcDbLine
 10
239.843813882
 20
164.7430206379
 30
0.0
 11
239.843813882
 21
159.2430206379
 31
0.0
  0
LINE
  5
194
330
1F
100
AcDbEntity
  8
0
  6
Continuous
 62
     7
370
    15
100
AcDbLine
 10
330.5841786133
 20
112.7430206379
 30
0.0
 11
330.5841786133
 21
118.2430206379
 31
0.0
  0
LINE
  5
195
330
1F
100
AcDbEntity
  8
0
  6
Continuous
 62
     7
370
    15
100
AcDbLine
 10
239.843813882
 20
118.2430206369
 30
0.0
 11
239.843813882
 21
112.7430206379
 31
0.0
  0
LINE
  5
196
330
1F
100
AcDbEntity
  8
0
  6
Continuous
 62
     7
370
    15
100
AcDbLine
 10
330.5841786134
 20
159.2430206389
 30
0.0
 11
330.5841786134
 21
164.7430206379
 31
0.0
  0
LINE
  5
197
330
1F
100
AcDbEntity
  8
0
  6
Continuous
 62
     7
370
    15
100
AcDbLine
 10
239.9639962477
 20
112.6228382723
 30
0.0
 11
330.4639962477
 21
112.6228382723
 31
0.0
  0
LINE
  5
198
330
1F
100
AcDbEntity
  8
0
  6
Continuous
 62
     7
370
    15
100
AcDbLine
 10
234.093813882
 20
153.4930206379
 30
0.0
 11
234.093813882
 21
123.9930206379
 31
0.0
  0
LINE
  5
199
330
1F
100
AcDbEntity
  8
0
  6
Continuous
 62
     7
370
    15
100
AcDbLine
 10
336.3341786133
 20
123.9930206379
 30
0.0
 11
336.3341786133
 21
153.4930206379
 31
0.0
  0
LINE
  5
19A
330
1F
100
AcDbEntity
  8
0
  6
Continuous
 62
     7
370
    15
100
AcDbLine
 10
330.4639962477
 20
164.8632022122
 30
0.0
 11
239.9639962477
 21
164.8632022122
 31
0.0
  0
ENDSEC
  0
SECTION
  2
OBJECTS
  0
DICTIONARY
  5
C
330
0
100
AcDbDictionary
281
     1
  3
ACAD_GROUP
350
D
  3
ACAD_LAYOUT
350
1A
  3
ACAD_MLINESTYLE
350
17
  3
ACAD_PLOTSETTINGS
350
19
  3
ACAD_PLOTSTYLENAME
350
E
  3
ACAD_SCALELIST
350
47
  0
DICTIONARY
  5
D
102
{ACAD_REACTORS
330
C
102
}
330
C
100
AcDbDictionary
281
     1
  0
DICTIONARY
  5
1A
102
{ACAD_REACTORS
330
C
102
}
330
C
100
AcDbDictionary
281
     1
  3
Layout1
350
1E
  3
Layout2
350
26
  3
Model
350
22
  0
DICTIONARY
  5
17
102
{ACAD_REACTORS
330
C
102
}
330
C
100
AcDbDictionary
281
     1
  3
Standard
350
18
  0
DICTIONARY
  5
19
102
{ACAD_REACTORS
330
C
102
}
330
C
100
AcDbDictionary
281
     1
  0
ACDBDICTIONARYWDFLT
  5
E
102
{ACAD_REACTORS
330
C
102
}
330
C
100
AcDbDictionary
281
     1
  3
Normal
350
F
100
AcDbDictionaryWithDefault
340
F
  0
DICTIONARY
  5
47
102
{ACAD_REACTORS
330
C
102
}
330
C
100
AcDbDictionary
281
     1
  3
A0
350
48
  3
A1
350
49
  3
A2
350
4A
  3
A3
350
4B
  3
A4
350
4C
  3
A5
350
4D
  3
A6
350
4E
  3
A7
350
4F
  3
A8
350
50
  3
A9
350
51
  3
B0
350
52
  3
B1
350
53
  3
B2
350
54
  3
B3
350
55
  3
B4
350
56
  3
B5
350
57
  3
B6
350
58
  3
B7
350
59
  3
B8
350
5A
  3
B9
350
5B
  3
C0
350
5C
  3
C1
350
5D
  3
C2
350
5E
  3
C3
350
5F
  3
C4
350
60
  3
C5
350
61
  3
C6
350
62
  3
C7
350
63
  3
C8
350
64
  3
C9
350
65
  3
D0
350
66
  3
D1
350
67
  3
D2
350
68
  0
LAYOUT
  5
1E
102
{ACAD_REACTORS
330
1A
102
}
330
1A
100
AcDbPlotSettings
  1

  2
none_device
  4

  6

 40
0.0
 41
0.0
 42
0.0
 43
0.0
 44
0.0
 45
0.0
 46
0.0
 47
0.0
 48
0.0
 49
0.0
140
0.0
141
0.0
142
1.0
143
1.0
 70
   688
 72
     1
 73
     0
 74
     5
  7

 75
    16
147
1.0
148
0.0
149
0.0
100
AcDbLayout
  1
Layout1
 70
     1
 71
     1
 10
0.0
 20
0.0
 11
420.0
 21
297.0
 12
0.0
 22
0.0
 32
0.0
 14
1.0000000000E+20
 24
1.0000000000E+20
 34
1.0000000000E+20
 15
-1.0000000000E+20
 25
-1.0000000000E+20
 35
-1.0000000000E+20
146
0.0
 13
0.0
 23
0.0
 33
0.0
 16
1.0
 26
0.0
 36
0.0
 17
0.0
 27
1.0
 37
0.0
 76
     0
330
1B
  0
LAYOUT
  5
26
102
{ACAD_REACTORS
330
1A
102
}
330
1A
100
AcDbPlotSettings
  1

  2
none_device
  4

  6

 40
0.0
 41
0.0
 42
0.0
 43
0.0
 44
0.0
 45
0.0
 46
0.0
 47
0.0
 48
0.0
 49
0.0
140
0.0
141
0.0
142
1.0
143
1.0
 70
   688
 72
     1
 73
     0
 74
     5
  7

 75
    16
147
1.0
148
0.0
149
0.0
100
AcDbLayout
  1
Layout2
 70
     1
 71
     2
 10
0.0
 20
0.0
 11
0.0
 21
0.0
 12
0.0
 22
0.0
 32
0.0
 14
0.0
 24
0.0
 34
0.0
 15
0.0
 25
0.0
 35
0.0
146
0.0
 13
0.0
 23
0.0
 33
0.0
 16
1.0
 26
0.0
 36
0.0
 17
0.0
 27
1.0
 37
0.0
 76
     0
330
23
  0
LAYOUT
  5
22
102
{ACAD_REACTORS
330
1A
102
}
330
1A
100
AcDbPlotSettings
  1

  2
none_device
  4
Letter_(8.50_x_11.00_Inches)
  6

 40
6.35
 41
6.35
 42
6.35000508
 43
6.35000508
 44
215.9
 45
279.4
 46
0.0
 47
0.0
 48
0.0
 49
0.0
140
0.0
141
0.0
142
1.0
143
1.0
 70
  1712
 72
     1
 73
     0
 74
     0
  7

 75
     0
147
1.0
148
0.0
149
0.0
100
AcDbLayout
  1
Model
 70
     1
 71
     0
 10
0.0
 20
0.0
 11
420.0
 21
297.0
 12
0.0
 22
0.0
 32
0.0
 14
0.0
 24
0.0
 34
0.0
 15
420.0
 25
297.0
 35
0.0
146
0.0
 13
0.0
 23
0.0
 33
0.0
 16
1.0
 26
0.0
 36
0.0
 17
0.0
 27
1.0
 37
0.0
 76
     0
330
1F
331
29
  0
MLINESTYLE
  5
18
102
{ACAD_REACTORS
330
17
102
}
330
17
100
AcDbMlineStyle
  2
Standard
 70
     0
  3

 62
   256
 51
90.0
 52
90.0
 71
     2
 49
0.5
 62
   256
  6
BYLAYER
 49
-0.5
 62
   256
  6
BYLAYER
  0
ACDBPLACEHOLDER
  5
F
102
{ACAD_REACTORS
330
E
102
}
330
E
  0
SCALE
  5
48
102
{ACAD_REACTORS
330
47
102
}
330
47
100
AcDbScale
 70
     0
300
1:1
140
1.0
141
1.0
290
     1
  0
SCALE
  5
49
102
{ACAD_REACTORS
330
47
102
}
330
47
100
AcDbScale
 70
     0
300
1:2
140
1.0
141
2.0
290
     0
  0
SCALE
  5
4A
102
{ACAD_REACTORS
330
47
102
}
330
47
100
AcDbScale
 70
     0
300
1:4
140
1.0
141
4.0
290
     0
  0
SCALE
  5
4B
102
{ACAD_REACTORS
330
47
102
}
330
47
100
AcDbScale
 70
     0
300
1:5
140
1.0
141
5.0
290
     0
  0
SCALE
  5
4C
102
{ACAD_REACTORS
330
47
102
}
330
47
100
AcDbScale
 70
     0
300
1:8
140
1.0
141
8.0
290
     0
  0
SCALE
  5
4D
102
{ACAD_REACTORS
330
47
102
}
330
47
100
AcDbScale
 70
     0
300
1:10
140
1.0
141
10.0
290
     0
  0
SCALE
  5
4E
102
{ACAD_REACTORS
330
47
102
}
330
47
100
AcDbScale
 70
     0
300
1:16
140
1.0
141
16.0
290
     0
  0
SCALE
  5
4F
102
{ACAD_REACTORS
330
47
102
}
330
47
100
AcDbScale
 70
     0
300
1:20
140
1.0
141
20.0
290
     0
  0
SCALE
  5
50
102
{ACAD_REACTORS
330
47
102
}
330
47
100
AcDbScale
 70
     0
300
1:30
140
1.0
141
30.0
290
     0
  0
SCALE
  5
51
102
{ACAD_REACTORS
330
47
102
}
330
47
100
AcDbScale
 70
     0
300
1:40
140
1.0
141
40.0
290
     0
  0
SCALE
  5
52
102
{ACAD_REACTORS
330
47
102
}
330
47
100
AcDbScale
 70
     0
300
1:50
140
1.0
141
50.0
290
     0
  0
SCALE
  5
53
102
{ACAD_REACTORS
330
47
102
}
330
47
100
AcDbScale
 70
     0
300
1:100
140
1.0
141
100.0
290
     0
  0
SCALE
  5
54
102
{ACAD_REACTORS
330
47
102
}
330
47
100
AcDbScale
 70
     0
300
2:1
140
2.0
141
1.0
290
     0
  0
SCALE
  5
55
102
{ACAD_REACTORS
330
47
102
}
330
47
100
AcDbScale
 70
     0
300
4:1
140
4.0
141
1.0
290
     0
  0
SCALE
  5
56
102
{ACAD_REACTORS
330
47
102
}
330
47
100
AcDbScale
 70
     0
300
8:1
140
8.0
141
1.0
290
     0
  0
SCALE
  5
57
102
{ACAD_REACTORS
330
47
102
}
330
47
100
AcDbScale
 70
     0
300
10:1
140
10.0
141
1.0
290
     0
  0
SCALE
  5
58
102
{ACAD_REACTORS
330
47
102
}
330
47
100
AcDbScale
 70
     0
300
100:1
140
100.0
141
1.0
290
     0
  0
SCALE
  5
59
102
{ACAD_REACTORS
330
47
102
}
330
47
100
AcDbScale
 70
     0
300
1/128" = 1'-0"
140
0.0078125
141
12.0
290
     0
  0
SCALE
  5
5A
102
{ACAD_REACTORS
330
47
102
}
330
47
100
AcDbScale
 70
     0
300
1/64" = 1'-0"
140
0.015625
141
12.0
290
     0
  0
SCALE
  5
5B
102
{ACAD_REACTORS
330
47
102
}
330
47
100
AcDbScale
 70
     0
300
1/32" = 1'-0"
140
0.03125
141
12.0
290
     0
  0
SCALE
  5
5C
102
{ACAD_REACTORS
330
47
102
}
330
47
100
AcDbScale
 70
     0
300
1/16" = 1'-0"
140
0.0625
141
12.0
290
     0
  0
SCALE
  5
5D
102
{ACAD_REACTORS
330
47
102
}
330
47
100
AcDbScale
 70
     0
300
3/32" = 1'-0"
140
0.09375
141
12.0
290
     0
  0
SCALE
  5
5E
102
{ACAD_REACTORS
330
47
102
}
330
47
100
AcDbScale
 70
     0
300
1/8" = 1'-0"
140
0.125
141
12.0
290
     0
  0
SCALE
  5
5F
102
{ACAD_REACTORS
330
47
102
}
330
47
100
AcDbScale
 70
     0
300
3/16" = 1'-0"
140
0.1875
141
12.0
290
     0
  0
SCALE
  5
60
102
{ACAD_REACTORS
330
47
102
}
330
47
100
AcDbScale
 70
     0
300
1/4" = 1'-0"
140
0.25
141
12.0
290
     0
  0
SCALE
  5
61
102
{ACAD_REACTORS
330
47
102
}
330
47
100
AcDbScale
 70
     0
300
3/8" = 1'-0"
140
0.375
141
12.0
290
     0
  0
SCALE
  5
62
102
{ACAD_REACTORS
330
47
102
}
330
47
100
AcDbScale
 70
     0
300
1/2" = 1'-0"
140
0.5
141
12.0
290
     0
  0
SCALE
  5
63
102
{ACAD_REACTORS
330
47
102
}
330
47
100
AcDbScale
 70
     0
300
3/4" = 1'-0"
140
0.75
141
12.0
290
     0
  0
SCALE
  5
64
102
{ACAD_REACTORS
330
47
102
}
330
47
100
AcDbScale
 70
     0
300
1" = 1'-0"
140
1.0
141
12.0
290
     0
  0
SCALE
  5
65
102
{ACAD_REACTORS
330
47
102
}
330
47
100
AcDbScale
 70
     0
300
1-1/2" = 1'-0"
140
1.5
141
12.0
290
     0
  0
SCALE
  5
66
102
{ACAD_REACTORS
330
47
102
}
330
47
100
AcDbScale
 70
     0
300
3" = 1'-0"
140
3.0
141
12.0
290
     0
  0
SCALE
  5
67
102
{ACAD_REACTORS
330
47
102
}
330
47
100
AcDbScale
 70
     0
300
6" = 1'-0"
140
6.0
141
12.0
290
     0
  0
SCALE
  5
68
102
{ACAD_REACTORS
330
47
102
}
330
47
100
AcDbScale
 70
     0
300
1'-0" = 1'-0"
140
12.0
141
12.0
290
     0
  0
ENDSEC
  0
EOF
