  0
SECTION
  2
HEADER
  9
$ACADVER
  1
AC1015
  9
$ACADMAINTVER
 70
     6
  9
$DWGCODEPAGE
  3
ANSI_1252
  9
$INSBASE
 10
0.0
 20
0.0
 30
0.0
  9
$EXTMIN
 10
0.0
 20
0.0
 30
0.0
  9
$EXTMAX
 10
420.0
 20
297.0
 30
0.0
  9
$LIMMIN
 10
0.0
 20
0.0
  9
$LIMMAX
 10
420.0
 20
297.0
  9
$ORTHOMODE
 70
     0
  9
$REGENMODE
 70
     1
  9
$FILLMODE
 70
     1
  9
$QTEXTMODE
 70
     0
  9
$MIRRTEXT
 70
     1
  9
$LTSCALE
 40
1.0
  9
$ATTMODE
 70
     1
  9
$TEXTSIZE
 40
3.5
  9
$TRACEWID
 40
1.0
  9
$TEXTSTYLE
  7
Standard
  9
$CLAYER
  8
0
  9
$CELTYPE
  6
ByLayer
  9
$CECOLOR
 62
   256
  9
$CELTSCALE
 40
1.0
  9
$DISPSILH
 70
     0
  9
$DIMSCALE
 40
1.0
  9
$DIMASZ
 40
6.0
  9
$DIMEXO
 40
1.0
  9
$DIMDLI
 40
3.75
  9
$DIMRND
 40
0.0
  9
$DIMDLE
 40
0.0
  9
$DIMEXE
 40
1.0
  9
$DIMTP
 40
0.0
  9
$DIMTM
 40
0.0
  9
$DIMTXT
 40
3.5
  9
$DIMCEN
 40
2.5
  9
$DIMTSZ
 40
0.0
  9
$DIMTOL
 70
     0
  9
$DIMLIM
 70
     0
  9
$DIMTIH
 70
     1
  9
$DIMTOH
 70
     1
  9
$DIMSE1
 70
     0
  9
$DIMSE2
 70
     0
  9
$DIMTAD
 70
     1
  9
$DIMZIN
 70
     0
  9
$DIMBLK
  1

  9
$DIMASO
 70
     1
  9
$DIMSHO
 70
     1
  9
$DIMPOST
  1

  9
$DIMAPOST
  1

  9
$DIMALT
 70
     0
  9
$DIMALTD
 70
     3
  9
$DIMALTF
 40
0.0393700787
  9
$DIMLFAC
 40
2.0
  9
$DIMTOFL
 70
     1
  9
$DIMTVP
 40
0.0
  9
$DIMTIX
 70
     0
  9
$DIMSOXD
 70
     0
  9
$DIMSAH
 70
     0
  9
$DIMBLK1
  1

  9
$DIMBLK2
  1

  9
$DIMSTYLE
  2
ISO-25
  9
$DIMCLRD
 70
     0
  9
$DIMCLRE
 70
     0
  9
$DIMCLRT
 70
     0
  9
$DIMTFAC
 40
1.0
  9
$DIMGAP
 40
1.524
  9
$DIMJUST
 70
     0
  9
$DIMSD1
 70
     0
  9
$DIMSD2
 70
     0
  9
$DIMTOLJ
 70
     0
  9
$DIMTZIN
 70
     0
  9
$DIMALTZ
 70
     0
  9
$DIMALTTZ
 70
     0
  9
$DIMUPT
 70
     0
  9
$DIMDEC
 70
     2
  9
$DIMTDEC
 70
     2
  9
$DIMALTU
 70
     2
  9
$DIMALTTD
 70
     3
  9
$DIMTXSTY
  7
Standard
  9
$DIMAUNIT
 70
     0
  9
$DIMADEC
 70
     2
  9
$DIMALTRND
 40
0.0
  9
$DIMAZIN
 70
     0
  9
$DIMDSEP
 70
    44
  9
$DIMATFIT
 70
     3
  9
$DIMFRAC
 70
     0
  9
$DIMLDRBLK
  1

  9
$DIMLUNIT
 70
     2
  9
$DIMLWD
 70
    -2
  9
$DIMLWE
 70
    -2
  9
$DIMTMOVE
 70
     0
  9
$LUNITS
 70
     2
  9
$LUPREC
 70
     2
  9
$SKETCHINC
 40
1.0
  9
$FILLETRAD
 40
10.0
  9
$AUNITS
 70
     0
  9
$AUPREC
 70
     2
  9
$MENU
  1
.
  9
$ELEVATION
 40
0.0
  9
$PELEVATION
 40
0.0
  9
$THICKNESS
 40
0.0
  9
$LIMCHECK
 70
     0
  9
$CHAMFERA
 40
0.0
  9
$CHAMFERB
 40
0.0
  9
$CHAMFERC
 40
0.0
  9
$CHAMFERD
 40
0.0
  9
$SKPOLY
 70
     0
  9
$TDCREATE
 40
2456937.545409838
  9
$TDUCREATE
 40
2456937.420409838
  9
$TDUPDATE
 40
2456937.545410752
  9
$TDUUPDATE
 40
2456937.420410752
  9
$TDINDWG
 40
0.0000000116
  9
$TDUSRTIMER
 40
0.0000000116
  9
$USRTIMER
 70
     1
  9
$ANGBASE
 50
0.0
  9
$ANGDIR
 70
     0
  9
$PDMODE
 70
     0
  9
$PDSIZE
 40
-1.0
  9
$PLINEWID
 40
0.0
  9
$SPLFRAME
 70
     0
  9
$SPLINETYPE
 70
     6
  9
$SPLINESEGS
 70
     8
  9
$HANDSEED
  5
1ED
  9
$SURFTAB1
 70
     6
  9
$SURFTAB2
 70
     6
  9
$SURFTYPE
 70
     6
  9
$SURFU
 70
     6
  9
$SURFV
 70
     6
  9
$UCSBASE
  2

  9
$UCSNAME
  2

  9
$UCSORG
 10
0.0
 20
0.0
 30
0.0
  9
$UCSXDIR
 10
1.0
 20
0.0
 30
0.0
  9
$UCSYDIR
 10
0.0
 20
1.0
 30
0.0
  9
$UCSORTHOREF
  2

  9
$UCSORTHOVIEW
 70
     0
  9
$UCSORGTOP
 10
0.0
 20
0.0
 30
0.0
  9
$UCSORGBOTTOM
 10
0.0
 20
0.0
 30
0.0
  9
$UCSORGLEFT
 10
0.0
 20
0.0
 30
0.0
  9
$UCSORGRIGHT
 10
0.0
 20
0.0
 30
0.0
  9
$UCSORGFRONT
 10
0.0
 20
0.0
 30
0.0
  9
$UCSORGBACK
 10
0.0
 20
0.0
 30
0.0
  9
$PUCSBASE
  2

  9
$PUCSNAME
  2

  9
$PUCSORG
 10
0.0
 20
0.0
 30
0.0
  9
$PUCSXDIR
 10
1.0
 20
0.0
 30
0.0
  9
$PUCSYDIR
 10
0.0
 20
1.0
 30
0.0
  9
$PUCSORTHOREF
  2

  9
$PUCSORTHOVIEW
 70
     0
  9
$PUCSORGTOP
 10
0.0
 20
0.0
 30
0.0
  9
$PUCSORGBOTTOM
 10
0.0
 20
0.0
 30
0.0
  9
$PUCSORGLEFT
 10
0.0
 20
0.0
 30
0.0
  9
$PUCSORGRIGHT
 10
0.0
 20
0.0
 30
0.0
  9
$PUCSORGFRONT
 10
0.0
 20
0.0
 30
0.0
  9
$PUCSORGBACK
 10
0.0
 20
0.0
 30
0.0
  9
$USERI1
 70
     0
  9
$USERI2
 70
     0
  9
$USERI3
 70
     0
  9
$USERI4
 70
     0
  9
$USERI5
 70
     0
  9
$USERR1
 40
0.0
  9
$USERR2
 40
0.0
  9
$USERR3
 40
0.0
  9
$USERR4
 40
0.0
  9
$USERR5
 40
0.0
  9
$WORLDVIEW
 70
     1
  9
$SHADEDGE
 70
     3
  9
$SHADEDIF
 70
    70
  9
$TILEMODE
 70
     1
  9
$MAXACTVP
 70
    64
  9
$PINSBASE
 10
0.0
 20
0.0
 30
0.0
  9
$PLIMCHECK
 70
     0
  9
$PEXTMIN
 10
1.0000000000E+20
 20
1.0000000000E+20
 30
1.0000000000E+20
  9
$PEXTMAX
 10
-1.0000000000E+20
 20
-1.0000000000E+20
 30
-1.0000000000E+20
  9
$PLIMMIN
 10
0.0
 20
0.0
  9
$PLIMMAX
 10
420.0
 20
297.0
  9
$UNITMODE
 70
     0
  9
$VISRETAIN
 70
     1
  9
$PLINEGEN
 70
     0
  9
$PSLTSCALE
 70
     1
  9
$TREEDEPTH
 70
  3020
  9
$CMLSTYLE
  2
Standard
  9
$CMLJUST
 70
     0
  9
$CMLSCALE
 40
20.0
  9
$PROXYGRAPHICS
 70
     1
  9
$MEASUREMENT
 70
     1
  9
$CELWEIGHT
370
    -1
  9
$ENDCAPS
280
     0
  9
$JOINSTYLE
280
     0
  9
$LWDISPLAY
290
     1
  9
$INSUNITS
 70
     4
  9
$HYPERLINKBASE
  1

  9
$STYLESHEET
  1

  9
$XEDIT
290
     1
  9
$CEPSNTYPE
380
     0
  9
$PSTYLEMODE
290
     1
  9
$FINGERPRINTGUID
  2
{3F8EACFD-1E85-4B15-87F1-AB3C3AB74444}
  9
$VERSIONGUID
  2
{FAEB1C32-E019-11D5-929B-00C0DF256EC4}
  9
$EXTNAMES
290
     1
  9
$PSVPSCALE
 40
0.0
  9
$OLESTARTUP
290
     0
  0
ENDSEC
  0
SECTION
  2
CLASSES
  0
CLASS
  1
ACDBDICTIONARYWDFLT
  2
AcDbDictionaryWithDefault
  3
ObjectDBX Classes
 90
        0
280
     0
281
     0
  0
CLASS
  1
VISUALSTYLE
  2
AcDbVisualStyle
  3
ObjectDBX Classes
 90
     4095
280
     0
281
     0
  0
CLASS
  1
MATERIAL
  2
AcDbMaterial
  3
ObjectDBX Classes
 90
     1153
280
     0
281
     0
  0
CLASS
  1
SCALE
  2
AcDbScale
  3
ObjectDBX Classes
 90
     1153
280
     0
281
     0
  0
CLASS
  1
SUN
  2
AcDbSun
  3
SCENEOE
 90
     1153
280
     0
281
     0
  0
CLASS
  1
ACDBPLACEHOLDER
  2
AcDbPlaceHolder
  3
ObjectDBX Classes
 90
        0
280
     0
281
     0
  0
CLASS
  1
LAYOUT
  2
AcDbLayout
  3
ObjectDBX Classes
 90
        0
280
     0
281
     0
  0
ENDSEC
  0
SECTION
  2
TABLES
  0
TABLE
  2
VPORT
  5
8
330
0
100
AcDbSymbolTable
 70
     1
  0
VPORT
  5
29
330
8
100
AcDbSymbolTableRecord
100
AcDbViewportTableRecord
  2
*Active
 70
     0
 10
0.0
 20
0.0
 11
1.0
 21
1.0
 12
210.0
 22
148.5
 13
0.0
 23
0.0
 14
10.0
 24
10.0
 15
10.0
 25
10.0
 16
0.0
 26
0.0
 36
1.0
 17
0.0
 27
0.0
 37
0.0
 40
297.0
 41
1.4141414141
 42
50.0
 43
0.0
 44
0.0
 50
0.0
 51
0.0
 71
     0
 72
  2000
 73
     1
 74
     3
 75
     0
 76
     0
 77
     0
 78
     0
281
     0
 65
     1
110
0.0
120
0.0
130
0.0
111
1.0
121
0.0
131
0.0
112
0.0
122
1.0
132
0.0
 79
     0
146
0.0
  0
ENDTAB
  0
TABLE
  2
LTYPE
  5
5
330
0
100
AcDbSymbolTable
 70
     6
  0
LTYPE
  5
14
330
5
100
AcDbSymbolTableRecord
100
AcDbLinetypeTableRecord
  2
ByBlock
 70
     0
  3

 72
    65
 73
     0
 40
0.0
  0
LTYPE
  5
15
330
5
100
AcDbSymbolTableRecord
100
AcDbLinetypeTableRecord
  2
ByLayer
 70
     0
  3

 72
    65
 73
     0
 40
0.0
  0
LTYPE
  5
16
330
5
100
AcDbSymbolTableRecord
100
AcDbLinetypeTableRecord
  2
Continuous
 70
     0
  3
Solid line
 72
    65
 73
     0
 40
0.0
  0
LTYPE
  5
6A
330
5
100
AcDbSymbolTableRecord
100
AcDbLinetypeTableRecord
  2
HIDDEN
 70
     0
  3
Hidden __ __ __ __ __ __ __ __ __ __ __ __ __ __
 72
    65
 73
     2
 40
1.905
 49
1.27
 74
     0
 49
-0.635
 74
     0
  0
LTYPE
  5
6B
330
5
100
AcDbSymbolTableRecord
100
AcDbLinetypeTableRecord
  2
PHANTOM
 70
     0
  3
Phantom ______  __  __  ______  __  __  ______
 72
    65
 73
     6
 40
12.7
 49
6.35
 74
     0
 49
-1.27
 74
     0
 49
1.27
 74
     0
 49
-1.27
 74
     0
 49
1.27
 74
     0
 49
-1.27
 74
     0
  0
LTYPE
  5
6C
330
5
100
AcDbSymbolTableRecord
100
AcDbLinetypeTableRecord
  2
CENTER
 70
     0
  3
Center ____ _ ____ _ ____ _ ____ _ ____ _ ____
 72
    65
 73
     4
 40
10.16
 49
6.35
 74
     0
 49
-1.27
 74
     0
 49
1.27
 74
     0
 49
-1.27
 74
     0
  0
LTYPE
  5
6D
330
5
100
AcDbSymbolTableRecord
100
AcDbLinetypeTableRecord
  2
CENTERX2
 70
     0
  3
Center (2x) ________  __  ________  __  _____
 72
    65
 73
     4
 40
20.32
 49
12.7
 74
     0
 49
-2.54
 74
     0
 49
2.54
 74
     0
 49
-2.54
 74
     0
  0
LTYPE
  5
6E
330
5
100
AcDbSymbolTableRecord
100
AcDbLinetypeTableRecord
  2
DOT2
 70
     0
  3
Dot (.5x) ........................................
 72
    65
 73
     2
 40
0.635
 49
0.0
 74
     0
 49
-0.635
 74
     0
  0
ENDTAB
  0
TABLE
  2
LAYER
  5
2
330
0
100
AcDbSymbolTable
 70
     1
  0
LAYER
  5
10
330
2
100
AcDbSymbolTableRecord
100
AcDbLayerTableRecord
  2
0
 70
     0
 62
     7
  6
Continuous
370
    -3
390
F
  0
ENDTAB
  0
TABLE
  2
STYLE
  5
3
330
0
100
AcDbSymbolTable
 70
     1
  0
STYLE
  5
11
330
3
100
AcDbSymbolTableRecord
100
AcDbTextStyleTableRecord
  2
Standard
 70
     0
 40
0.0
 41
1.0
 50
0.0
 71
     0
 42
3.5
  3
txt
  4

  0
ENDTAB
  0
TABLE
  2
VIEW
  5
6
330
0
100
AcDbSymbolTable
 70
     0
  0
ENDTAB
  0
TABLE
  2
UCS
  5
7
330
0
100
AcDbSymbolTable
 70
     0
  0
ENDTAB
  0
TABLE
  2
APPID
  5
9
330
0
100
AcDbSymbolTable
 70
     1
  0
APPID
  5
12
330
9
100
AcDbSymbolTableRecord
100
AcDbRegAppTableRecord
  2
ACAD
 70
     0
  0
ENDTAB
  0
TABLE
  2
DIMSTYLE
  5
A
330
0
100
AcDbSymbolTable
 70
     1
100
AcDbDimStyleTable
  0
DIMSTYLE
105
27
330
A
100
AcDbSymbolTableRecord
100
AcDbDimStyleTableRecord
  2
ISO-25
 70
     0
 41
2.5
 42
0.625
 43
3.75
 44
1.25
 73
     0
 74
     0
 77
     1
 78
     8
140
2.5
141
2.5
143
0.0393700787
147
0.625
171
     3
172
     1
178
     0
271
     2
272
     2
274
     3
278
    44
283
     0
284
     8
340
11
  0
ENDTAB
  0
TABLE
  2
BLOCK_RECORD
  5
1
330
0
100
AcDbSymbolTable
 70
     1
  0
BLOCK_RECORD
  5
1F
330
1
100
AcDbSymbolTableRecord
100
AcDbBlockTableRecord
  2
*Model_Space
340
22
  0
BLOCK_RECORD
  5
1B
330
1
100
AcDbSymbolTableRecord
100
AcDbBlockTableRecord
  2
*Paper_Space
340
1E
  0
BLOCK_RECORD
  5
23
330
1
100
AcDbSymbolTableRecord
100
AcDbBlockTableRecord
  2
*Paper_Space0
340
26
  0
ENDTAB
  0
ENDSEC
  0
SECTION
  2
BLOCKS
  0
BLOCK
  5
20
330
1F
100
AcDbEntity
  8
0
100
AcDbBlockBegin
  2
*Model_Space
 70
     0
 10
0.0
 20
0.0
 30
0.0
  3
*Model_Space
  1
*Model_Space
  0
ENDBLK
  5
21
330
1F
100
AcDbEntity
  8
0
100
AcDbBlockEnd
  0
BLOCK
  5
1C
330
1B
100
AcDbEntity
 67
     1
  8
0
100
AcDbBlockBegin
  2
*Paper_Space
 70
     0
 10
0.0
 20
0.0
 30
0.0
  3
*Paper_Space
  1
*Paper_Space
  0
ENDBLK
  5
1D
330
1B
100
AcDbEntity
 67
     1
  8
0
100
AcDbBlockEnd
  0
BLOCK
  5
24
330
23
100
AcDbEntity
  8
0
100
AcDbBlockBegin
  2
*Paper_Space0
 70
     0
 10
0.0
 20
0.0
 30
0.0
  3
*Paper_Space0
  1
*Paper_Space0
  0
ENDBLK
  5
25
330
23
100
AcDbEntity
  8
0
100
AcDbBlockEnd
  0
ENDSEC
  0
SECTION
  2
ENTITIES
  0
LINE
  5
6F
330
1F
100
AcDbEntity
  8
0
  6
Continuous
 62
     7
370
    15
100
AcDbLine
 10
77.0944408385
 20
131.5050281896
 30
0.0
 11
77.0944408385
 21
161.5163977016
 31
0.0
  0
LINE
  5
70
330
1F
100
AcDbEntity
  8
0
  6
Continuous
 62
     7
370
    15
100
AcDbLine
 10
77.5892823812
 20
161.5163977016
 30
0.0
 11
77.0944408385
 21
161.5163977016
 31
0.0
  0
LINE
  5
71
330
1F
100
AcDbEntity
  8
0
  6
Continuous
 62
     7
370
    15
100
AcDbLine
 10
77.5892823812
 20
131.5050281896
 30
0.0
 11
77.0944408385
 21
131.5050281896
 31
0.0
  0
ARC
  5
72
330
1F
100
AcDbEntity
  8
0
  6
Continuous
 62
     7
370
    15
100
AcDbCircle
 10
181.1101500938
 20
161.5163977016
 30
0.0
 40
1.515709255324112
100
AcDbArc
 50
0.0
 51
92.6052512651
  0
LINE
  5
73
330
1F
100
AcDbEntity
  8
0
  6
Continuous
 62
     7
370
    15
100
AcDbLine
 10
182.1310178064
 20
161.5163977016
 30
0.0
 11
182.6258593491
 21
161.5163977016
 31
0.0
  0
LINE
  5
74
330
1F
100
AcDbEntity
  8
0
  6
Continuous
 62
     7
370
    15
100
AcDbLine
 10
181.063747016
 20
162.5362102536
 30
0.0
 11
181.0412542186
 21
163.030540332
 31
0.0
  0
LINE
  5
75
330
1F
100
AcDbEntity
  8
0
  6
Continuous
 62
     7
370
    15
100
AcDbLine
 10
182.6258593491
 20
161.5163977016
 30
0.0
 11
182.6258593491
 21
131.5050281896
 31
0.0
  0
LINE
  5
76
330
1F
100
AcDbEntity
  8
0
  6
Continuous
 62
     7
370
    15
100
AcDbLine
 10
182.1310178064
 20
131.5050281896
 30
0.0
 11
182.6258593491
 21
131.5050281896
 31
0.0
  0
ARC
  5
77
330
1F
100
AcDbEntity
  8
0
  6
Continuous
 62
     7
370
    15
100
AcDbCircle
 10
181.1101500938
 20
131.5050281896
 30
0.0
 40
1.515709255324238
100
AcDbArc
 50
267.3947487348
 51
0.0
  0
LINE
  5
78
330
1F
100
AcDbEntity
  8
0
  6
Continuous
 62
     7
370
    15
100
AcDbLine
 10
181.0412542186
 20
129.9908855592
 30
0.0
 11
181.063747016
 21
130.4852156376
 31
0.0
  0
ARC
  5
79
330
1F
100
AcDbEntity
  8
0
  6
Continuous
 62
     7
370
    15
100
AcDbCircle
 10
78.6101500938
 20
161.5163977016
 30
0.0
 40
1.51570925532421
100
AcDbArc
 50
87.3947487348
 51
180.0
  0
LINE
  5
7A
330
1F
100
AcDbEntity
  8
0
  6
Continuous
 62
     7
370
    15
100
AcDbLine
 10
78.6790459691
 20
163.030540332
 30
0.0
 11
78.6565531717
 21
162.5362102536
 31
0.0
  0
ARC
  5
7B
330
1F
100
AcDbEntity
  8
0
  6
Continuous
 62
     7
370
    15
100
AcDbCircle
 10
78.6101500938
 20
131.5050281896
 30
0.0
 40
1.515709255324111
100
AcDbArc
 50
180.0
 51
272.6052512651
  0
LINE
  5
7C
330
1F
100
AcDbEntity
  8
0
  6
Continuous
 62
     7
370
    15
100
AcDbLine
 10
78.6565531717
 20
130.4852156376
 30
0.0
 11
78.6790459691
 21
129.9908855592
 31
0.0
  0
LINE
  5
7D
330
1F
100
AcDbEntity
  8
0
  6
Continuous
 62
     7
370
    15
100
AcDbLine
 10
176.8758593491
 20
167.0107129456
 30
0.0
 11
176.3810178064
 21
167.0107129456
 31
0.0
  0
ARC
  5
7E
330
1F
100
AcDbEntity
  8
0
  6
Continuous
 62
     7
370
    15
100
AcDbCircle
 10
180.8601500938
 20
167.0107129456
 30
0.0
 40
3.984290744676896
100
AcDbArc
 50
180.0
 51
272.605251265
  0
LINE
  5
7F
330
1F
100
AcDbEntity
  8
0
  6
Continuous
 62
     7
370
    15
100
AcDbLine
 10
82.8444408385
 20
126.0107129456
 30
0.0
 11
83.3392823812
 21
126.0107129456
 31
0.0
  0
ARC
  5
80
330
1F
100
AcDbEntity
  8
0
  6
Continuous
 62
     7
370
    15
100
AcDbCircle
 10
78.8601500938
 20
126.0107129456
 30
0.0
 40
3.984290744676898
100
AcDbArc
 50
0.0
 51
92.605251265
  0
ARC
  5
81
330
1F
100
AcDbEntity
  8
0
  6
Continuous
 62
     7
370
    15
100
AcDbCircle
 10
180.8601500938
 20
126.0107129456
 30
0.0
 40
3.984290744676771
100
AcDbArc
 50
87.394748735
 51
180.0
  0
LINE
  5
82
330
1F
100
AcDbEntity
  8
0
  6
Continuous
 62
     7
370
    15
100
AcDbLine
 10
176.3810178064
 20
126.0107129456
 30
0.0
 11
176.8758593491
 21
126.0107129456
 31
0.0
  0
ARC
  5
83
330
1F
100
AcDbEntity
  8
0
  6
Continuous
 62
     7
370
    15
100
AcDbCircle
 10
78.8601500938
 20
167.0107129456
 30
0.0
 40
3.9842907446768
100
AcDbArc
 50
267.394748735
 51
0.0
  0
LINE
  5
84
330
1F
100
AcDbEntity
  8
0
  6
Continuous
 62
     7
370
    15
100
AcDbLine
 10
83.3392823812
 20
167.0107129456
 30
0.0
 11
82.8444408385
 21
167.0107129456
 31
0.0
  0
LINE
  5
85
330
1F
100
AcDbEntity
  8
0
  6
Continuous
 62
     7
370
    15
100
AcDbLine
 10
82.8444408385
 20
120.2607129456
 30
0.0
 11
82.8444408385
 21
126.0107129456
 31
0.0
  0
LINE
  5
86
330
1F
100
AcDbEntity
  8
0
  6
Continuous
 62
     7
370
    15
100
AcDbLine
 10
83.3392823812
 20
126.0107129456
 30
0.0
 11
83.3392823812
 21
120.2607129456
 31
0.0
  0
LINE
  5
87
330
1F
100
AcDbEntity
  8
0
  6
Continuous
 62
     7
370
    15
100
AcDbLine
 10
83.3392823812
 20
120.2607129456
 30
0.0
 11
82.8444408385
 21
120.2607129456
 31
0.0
  0
LINE
  5
88
330
1F
100
AcDbEntity
  8
0
  6
Continuous
 62
     7
370
    15
100
AcDbLine
 10
176.8758593491
 20
172.7607129456
 30
0.0
 11
176.8758593491
 21
167.0107129456
 31
0.0
  0
LINE
  5
89
330
1F
100
AcDbEntity
  8
0
  6
Continuous
 62
     7
370
    15
100
AcDbLine
 10
176.3810178064
 20
167.0107129456
 30
0.0
 11
176.3810178064
 21
172.7607129456
 31
0.0
  0
LINE
  5
8A
330
1F
100
AcDbEntity
  8
0
  6
Continuous
 62
     7
370
    15
100
AcDbLine
 10
176.3810178064
 20
172.7607129456
 30
0.0
 11
176.8758593491
 21
172.7607129456
 31
0.0
  0
LINE
  5
8B
330
1F
100
AcDbEntity
  8
0
  6
Continuous
 62
     7
370
    15
100
AcDbLine
 10
83.3392823812
 20
172.7607129456
 30
0.0
 11
83.3392823812
 21
167.0107129456
 31
0.0
  0
LINE
  5
8C
330
1F
100
AcDbEntity
  8
0
  6
Continuous
 62
     7
370
    15
100
AcDbLine
 10
82.8444408385
 20
167.0107129456
 30
0.0
 11
82.8444408385
 21
172.7607129456
 31
0.0
  0
LINE
  5
8D
330
1F
100
AcDbEntity
  8
0
  6
Continuous
 62
     7
370
    15
100
AcDbLine
 10
83.3392823812
 20
172.7607129456
 30
0.0
 11
82.8444408385
 21
172.7607129456
 31
0.0
  0
LINE
  5
8E
330
1F
100
AcDbEntity
  8
0
  6
Continuous
 62
     7
370
    15
100
AcDbLine
 10
176.3810178064
 20
120.2607129456
 30
0.0
 11
176.3810178064
 21
126.0107129456
 31
0.0
  0
LINE
  5
8F
330
1F
100
AcDbEntity
  8
0
  6
Continuous
 62
     7
370
    15
100
AcDbLine
 10
176.8758593491
 20
126.0107129456
 30
0.0
 11
176.8758593491
 21
120.2607129456
 31
0.0
  0
LINE
  5
90
330
1F
100
AcDbEntity
  8
0
  6
Continuous
 62
     7
370
    15
100
AcDbLine
 10
176.3810178064
 20
120.2607129456
 30
0.0
 11
176.8758593491
 21
120.2607129456
 31
0.0
  0
LINE
  5
91
330
1F
100
AcDbEntity
  8
0
  6
Continuous
 62
     7
370
    15
100
AcDbLine
 10
177.7101500938
 20
172.7607129456
 30
0.0
 11
177.7101500938
 21
167.0107129456
 31
0.0
  0
ARC
  5
92
330
1F
100
AcDbEntity
  8
0
  6
Continuous
 62
     7
370
    15
100
AcDbCircle
 10
180.8601500938
 20
167.0107129456
 30
0.0
 40
3.15000000000051
100
AcDbArc
 50
180.0
 51
272.6052512652
  0
ARC
  5
93
330
1F
100
AcDbEntity
  8
0
  6
Continuous
 62
     7
370
    15
100
AcDbCircle
 10
181.1101500938
 20
161.5163977016
 30
0.0
 40
2.350000000000499
100
AcDbArc
 50
0.0
 51
92.6052512648
  0
LINE
  5
94
330
1F
100
AcDbEntity
  8
0
  6
Continuous
 62
     7
370
    15
100
AcDbLine
 10
183.4601500938
 20
161.5163977016
 30
0.0
 11
183.4601500938
 21
131.5050281896
 31
0.0
  0
ARC
  5
95
330
1F
100
AcDbEntity
  8
0
  6
Continuous
 62
     7
370
    15
100
AcDbCircle
 10
181.1101500938
 20
131.5050281896
 30
0.0
 40
2.350000000000499
100
AcDbArc
 50
267.3947487352
 51
0.0
  0
ARC
  5
96
330
1F
100
AcDbEntity
  8
0
  6
Continuous
 62
     7
370
    15
100
AcDbCircle
 10
180.8601500938
 20
126.0107129456
 30
0.0
 40
3.15000000000051
100
AcDbArc
 50
87.3947487348
 51
180.0
  0
LINE
  5
97
330
1F
100
AcDbEntity
  8
0
  6
Continuous
 62
     7
370
    15
100
AcDbLine
 10
177.7101500938
 20
126.0107129456
 30
0.0
 11
177.7101500938
 21
120.2607129456
 31
0.0
  0
ARC
  5
98
330
1F
100
AcDbEntity
  8
0
  6
Continuous
 62
     7
370
    15
100
AcDbCircle
 10
175.3601500938
 20
120.2607129456
 30
0.0
 40
2.349999999999994
100
AcDbArc
 50
270.0
 51
0.0
  0
LINE
  5
99
330
1F
100
AcDbEntity
  8
0
  6
Continuous
 62
     7
370
    15
100
AcDbLine
 10
175.3601500938
 20
117.9107129456
 30
0.0
 11
84.3601500938
 21
117.9107129456
 31
0.0
  0
ARC
  5
9A
330
1F
100
AcDbEntity
  8
0
  6
Continuous
 62
     7
370
    15
100
AcDbCircle
 10
84.3601500938
 20
120.2607129456
 30
0.0
 40
2.350000000000009
100
AcDbArc
 50
180.0
 51
270.0
  0
LINE
  5
9B
330
1F
100
AcDbEntity
  8
0
  6
Continuous
 62
     7
370
    15
100
AcDbLine
 10
82.0101500938
 20
120.2607129456
 30
0.0
 11
82.0101500938
 21
126.0107129456
 31
0.0
  0
ARC
  5
9C
330
1F
100
AcDbEntity
  8
0
  6
Continuous
 62
     7
370
    15
100
AcDbCircle
 10
78.8601500938
 20
126.0107129456
 30
0.0
 40
3.150000000000511
100
AcDbArc
 50
0.0
 51
92.6052512652
  0
ARC
  5
9D
330
1F
100
AcDbEntity
  8
0
  6
Continuous
 62
     7
370
    15
100
AcDbCircle
 10
78.6101500938
 20
131.5050281896
 30
0.0
 40
2.350000000000499
100
AcDbArc
 50
180.0
 51
272.6052512648
  0
LINE
  5
9E
330
1F
100
AcDbEntity
  8
0
  6
Continuous
 62
     7
370
    15
100
AcDbLine
 10
76.2601500938
 20
131.5050281896
 30
0.0
 11
76.2601500938
 21
161.5163977016
 31
0.0
  0
ARC
  5
9F
330
1F
100
AcDbEntity
  8
0
  6
Continuous
 62
     7
370
    15
100
AcDbCircle
 10
78.6101500938
 20
161.5163977016
 30
0.0
 40
2.350000000000499
100
AcDbArc
 50
87.3947487352
 51
180.0
  0
ARC
  5
A0
330
1F
100
AcDbEntity
  8
0
  6
Continuous
 62
     7
370
    15
100
AcDbCircle
 10
78.8601500938
 20
167.0107129456
 30
0.0
 40
3.150000000000511
100
AcDbArc
 50
267.3947487348
 51
0.0
  0
LINE
  5
A1
330
1F
100
AcDbEntity
  8
0
  6
Continuous
 62
     7
370
    15
100
AcDbLine
 10
82.0101500938
 20
167.0107129456
 30
0.0
 11
82.0101500938
 21
172.7607129456
 31
0.0
  0
ARC
  5
A2
330
1F
100
AcDbEntity
  8
0
  6
Continuous
 62
     7
370
    15
100
AcDbCircle
 10
84.3601500938
 20
172.7607129456
 30
0.0
 40
2.350000000000023
100
AcDbArc
 50
90.0
 51
180.0
  0
LINE
  5
A3
330
1F
100
AcDbEntity
  8
0
  6
Continuous
 62
     7
370
    15
100
AcDbLine
 10
84.3601500938
 20
175.1107129456
 30
0.0
 11
175.3601500938
 21
175.1107129456
 31
0.0
  0
ARC
  5
A4
330
1F
100
AcDbEntity
  8
0
  6
Continuous
 62
     7
370
    15
100
AcDbCircle
 10
175.3601500938
 20
172.7607129456
 30
0.0
 40
2.350000000000023
100
AcDbArc
 50
0.0
 51
90.0
  0
ARC
  5
A5
330
1F
100
AcDbEntity
  8
0
  6
Continuous
 62
     7
370
    15
100
AcDbCircle
 10
84.3601500938
 20
120.2607129456
 30
0.0
 40
1.515709255324708
100
AcDbArc
 50
179.9999999998
 51
270.0
  0
LINE
  5
A6
330
1F
100
AcDbEntity
  8
0
  6
Continuous
 62
     7
370
    15
100
AcDbLine
 10
175.3601500938
 20
118.7450036903
 30
0.0
 11
84.3601500938
 21
118.7450036903
 31
0.0
  0
ARC
  5
A7
330
1F
100
AcDbEntity
  8
0
  6
Continuous
 62
     7
370
    15
100
AcDbCircle
 10
175.3601500938
 20
120.2607129456
 30
0.0
 40
1.515709255324666
100
AcDbArc
 50
270.0
 51
0.0000000006
  0
ARC
  5
A8
330
1F
100
AcDbEntity
  8
0
  6
Continuous
 62
     7
370
    15
100
AcDbCircle
 10
175.3601500938
 20
172.7607129456
 30
0.0
 40
1.515709255324651
100
AcDbArc
 50
0.0000000002
 51
90.0
  0
LINE
  5
A9
330
1F
100
AcDbEntity
  8
0
  6
Continuous
 62
     7
370
    15
100
AcDbLine
 10
84.3601500938
 20
174.2764222009
 30
0.0
 11
175.3601500938
 21
174.2764222009
 31
0.0
  0
ARC
  5
AA
330
1F
100
AcDbEntity
  8
0
  6
Continuous
 62
     7
370
    15
100
AcDbCircle
 10
84.3601500938
 20
172.7607129456
 30
0.0
 40
1.515709255324722
100
AcDbArc
 50
90.0
 51
179.9999999994
  0
LINE
  5
AB
330
1F
100
AcDbEntity
  8
0
  6
Continuous
 62
     7
370
    15
100
AcDbLine
 10
175.3601500938
 20
173.7815806582
 30
0.0
 11
175.3601500938
 21
174.2764222009
 31
0.0
  0
LINE
  5
AC
330
1F
100
AcDbEntity
  8
0
  6
Continuous
 62
     7
370
    15
100
AcDbLine
 10
175.3601500938
 20
173.7815806582
 30
0.0
 11
84.3601500938
 21
173.7815806582
 31
0.0
  0
LINE
  5
AD
330
1F
100
AcDbEntity
  8
0
  6
Continuous
 62
     7
370
    15
100
AcDbLine
 10
84.3601500938
 20
174.2764222009
 30
0.0
 11
84.3601500938
 21
173.7815806582
 31
0.0
  0
ARC
  5
AE
330
1F
100
AcDbEntity
  8
0
  6
Continuous
 62
     7
370
    15
100
AcDbCircle
 10
84.3601500938
 20
172.7607129456
 30
0.0
 40
1.020867712628558
100
AcDbArc
 50
90.0
 51
179.9999999981
  0
LINE
  5
AF
330
1F
100
AcDbEntity
  8
0
  6
Continuous
 62
     7
370
    15
100
AcDbLine
 10
175.3601500938
 20
119.239845233
 30
0.0
 11
175.3601500938
 21
118.7450036903
 31
0.0
  0
ARC
  5
B0
330
1F
100
AcDbEntity
  8
0
  6
Continuous
 62
     7
370
    15
100
AcDbCircle
 10
175.3601500938
 20
120.2607129456
 30
0.0
 40
1.020867712628345
100
AcDbArc
 50
270.0
 51
0.0000000019
  0
ARC
  5
B1
330
1F
100
AcDbEntity
  8
0
  6
Continuous
 62
     7
370
    15
100
AcDbCircle
 10
84.3601500938
 20
120.2607129456
 30
0.0
 40
1.020867712628529
100
AcDbArc
 50
179.9999999994
 51
270.0
  0
LINE
  5
B2
330
1F
100
AcDbEntity
  8
0
  6
Continuous
 62
     7
370
    15
100
AcDbLine
 10
84.3601500938
 20
119.239845233
 30
0.0
 11
84.3601500938
 21
118.7450036903
 31
0.0
  0
LINE
  5
B3
330
1F
100
AcDbEntity
  8
0
  6
Continuous
 62
     7
370
    15
100
AcDbLine
 10
84.3601500938
 20
119.239845233
 30
0.0
 11
175.3601500938
 21
119.239845233
 31
0.0
  0
ARC
  5
B4
330
1F
100
AcDbEntity
  8
0
  6
Continuous
 62
     7
370
    15
100
AcDbCircle
 10
175.3601500938
 20
172.7607129456
 30
0.0
 40
1.020867712628331
100
AcDbArc
 50
0.0000000006
 51
90.0
  0
CIRCLE
  5
B5
330
1F
100
AcDbEntity
  8
0
  6
Continuous
 62
     7
370
    15
100
AcDbCircle
 10
78.8601500938
 20
172.5107129456
 30
0.0
 40
2.274999999999977
  0
CIRCLE
  5
B6
330
1F
100
AcDbEntity
  8
0
  6
Continuous
 62
     7
370
    15
100
AcDbCircle
 10
180.8601500938
 20
172.5107129456
 30
0.0
 40
2.274999999999977
  0
CIRCLE
  5
B7
330
1F
100
AcDbEntity
  8
0
  6
Continuous
 62
     7
370
    15
100
AcDbCircle
 10
180.8601500938
 20
120.5107129456
 30
0.0
 40
2.274999999999991
  0
CIRCLE
  5
B8
330
1F
100
AcDbEntity
  8
0
  6
Continuous
 62
     7
370
    15
100
AcDbCircle
 10
78.8601500938
 20
120.5107129456
 30
0.0
 40
2.274999999999991
  0
CIRCLE
  5
B9
330
1F
100
AcDbEntity
  8
0
  6
Continuous
 62
     7
370
    15
100
AcDbCircle
 10
78.8601500938
 20
167.0107129456
 30
0.0
 40
2.624999999999972
  0
CIRCLE
  5
BA
330
1F
100
AcDbEntity
  8
0
  6
Continuous
 62
     7
370
    15
100
AcDbCircle
 10
180.8601500938
 20
167.0107129456
 30
0.0
 40
2.624999999999972
  0
CIRCLE
  5
BB
330
1F
100
AcDbEntity
  8
0
  6
Continuous
 62
     7
370
    15
100
AcDbCircle
 10
180.8601500938
 20
126.0107129456
 30
0.0
 40
2.625000000000014
  0
CIRCLE
  5
BC
330
1F
100
AcDbEntity
  8
0
  6
Continuous
 62
     7
370
    15
100
AcDbCircle
 10
78.8601500938
 20
126.0107129456
 30
0.0
 40
2.625000000000014
  0
ELLIPSE
  5
BD
330
1F
100
AcDbEntity
  8
0
  6
Continuous
 62
     7
370
    15
100
AcDbEllipse
 10
78.860759406
 20
172.5101036334
 30
0.0
 11
2.829288756678324
 21
-2.829288756678296
 31
0.0
210
0.0
220
0.0
230
1.0
 40
0.9996954599
 41
2.356346783439928
 42
3.926838523739494
  0
LINE
  5
BE
330
1F
100
AcDbEntity
  8
0
  6
Continuous
 62
     7
370
    15
100
AcDbLine
 10
184.8601500938
 20
172.511322165
 30
0.0
 11
184.8601500938
 21
120.5101037262
 31
0.0
  0
LINE
  5
BF
330
1F
100
AcDbEntity
  8
0
  6
Continuous
 62
     7
370
    15
100
AcDbLine
 10
180.8607593132
 20
116.5107129456
 30
0.0
 11
78.8595408744
 21
116.5107129456
 31
0.0
  0
LINE
  5
C0
330
1F
100
AcDbEntity
  8
0
  6
Continuous
 62
     7
370
    15
100
AcDbLine
 10
74.8601500938
 20
120.5101037262
 30
0.0
 11
74.8601500938
 21
172.511322165
 31
0.0
  0
ELLIPSE
  5
C1
330
1F
100
AcDbEntity
  8
0
  6
Continuous
 62
     7
370
    15
100
AcDbEllipse
 10
78.860759406
 20
120.5113222578
 30
0.0
 11
2.829288756678324
 21
2.829288756678338
 31
0.0
210
0.0
220
0.0
230
1.0
 40
0.9996954599
 41
2.356346783440087
 42
3.926838523744502
  0
ELLIPSE
  5
C2
330
1F
100
AcDbEntity
  8
0
  6
Continuous
 62
     7
370
    15
100
AcDbEllipse
 10
180.8595407816
 20
120.5113222578
 30
0.0
 11
-2.829288756678324
 21
2.829288756678338
 31
0.0
210
0.0
220
0.0
230
1.0
 40
0.9996954599
 41
2.356346783435102
 42
3.926838523739508
  0
ELLIPSE
  5
C3
330
1F
100
AcDbEntity
  8
0
  6
Continuous
 62
     7
370
    15
100
AcDbEllipse
 10
180.8595407816
 20
172.5101036334
 30
0.0
 11
-2.829288756678324
 21
-2.829288756678296
 31
0.0
210
0.0
220
0.0
230
1.0
 40
0.9996954599
 41
2.356346783440114
 42
3.926838523744505
  0
LINE
  5
C4
330
1F
100
AcDbEntity
  8
0
  6
Continuous
 62
     7
370
    15
100
AcDbLine
 10
78.8595408744
 20
176.5107129456
 30
0.0
 11
180.8607593132
 21
176.5107129456
 31
0.0
  0
CIRCLE
  5
C5
330
1F
100
AcDbEntity
  8
0
  6
Continuous
 62
     7
370
    15
100
AcDbCircle
 10
180.8601500938
 20
120.5107129456
 30
0.0
 40
1.625000000046839
  0
CIRCLE
  5
C6
330
1F
100
AcDbEntity
  8
0
  6
Continuous
 62
     7
370
    15
100
AcDbCircle
 10
78.8601500938
 20
172.5107129456
 30
0.0
 40
1.625000000046839
  0
CIRCLE
  5
C7
330
1F
100
AcDbEntity
  8
0
  6
Continuous
 62
     7
370
    15
100
AcDbCircle
 10
78.8601500938
 20
172.5107129456
 30
0.0
 40
1.24999999998272
  0
CIRCLE
  5
C8
330
1F
100
AcDbEntity
  8
0
  6
Continuous
 62
     7
370
    15
100
AcDbCircle
 10
180.8601500938
 20
120.5107129456
 30
0.0
 40
1.249999999982748
  0
CIRCLE
  5
C9
330
1F
100
AcDbEntity
  8
0
  6
Continuous
 62
     7
370
    15
100
AcDbCircle
 10
78.8601500938
 20
120.5107129456
 30
0.0
 40
1.624999999977717
  0
CIRCLE
  5
CA
330
1F
100
AcDbEntity
  8
0
  6
Continuous
 62
     7
370
    15
100
AcDbCircle
 10
78.8601500938
 20
120.5107129456
 30
0.0
 40
1.249999999986585
  0
CIRCLE
  5
CB
330
1F
100
AcDbEntity
  8
0
  6
Continuous
 62
     7
370
    15
100
AcDbCircle
 10
180.8601500938
 20
172.5107129456
 30
0.0
 40
1.624999999977689
  0
CIRCLE
  5
CC
330
1F
100
AcDbEntity
  8
0
  6
Continuous
 62
     7
370
    15
100
AcDbCircle
 10
180.8601500938
 20
172.5107129456
 30
0.0
 40
1.249999999986557
  0
CIRCLE
  5
CD
330
1F
100
AcDbEntity
  8
0
  6
Continuous
 62
     7
370
    15
100
AcDbCircle
 10
78.8601500938
 20
167.0107129456
 30
0.0
 40
1.624999999999972
  0
CIRCLE
  5
CE
330
1F
100
AcDbEntity
  8
0
  6
Continuous
 62
     7
370
    15
100
AcDbCircle
 10
78.8601500938
 20
126.0107129456
 30
0.0
 40
1.625000000000014
  0
CIRCLE
  5
CF
330
1F
100
AcDbEntity
  8
0
  6
Continuous
 62
     7
370
    15
100
AcDbCircle
 10
180.8601500938
 20
167.0107129456
 30
0.0
 40
1.624999999999972
  0
CIRCLE
  5
D0
330
1F
100
AcDbEntity
  8
0
  6
Continuous
 62
     7
370
    15
100
AcDbCircle
 10
180.8601500938
 20
126.0107129456
 30
0.0
 40
1.625000000000014
  0
CIRCLE
  5
D1
330
1F
100
AcDbEntity
  8
0
  6
Continuous
 62
     7
370
    15
100
AcDbCircle
 10
81.6101500938
 20
146.5107129456
 30
0.0
 40
1.624999999994117
  0
CIRCLE
  5
D2
330
1F
100
AcDbEntity
  8
0
  6
Continuous
 62
     7
370
    15
100
AcDbCircle
 10
81.6101500938
 20
146.5107129456
 30
0.0
 40
1.249999999974534
  0
CIRCLE
  5
D3
330
1F
100
AcDbEntity
  8
0
  6
Continuous
 62
     7
370
    15
100
AcDbCircle
 10
81.6101500938
 20
133.5107129456
 30
0.0
 40
1.62499999999406
  0
CIRCLE
  5
D4
330
1F
100
AcDbEntity
  8
0
  6
Continuous
 62
     7
370
    15
100
AcDbCircle
 10
81.6101500938
 20
133.5107129456
 30
0.0
 40
1.249999999974534
  0
CIRCLE
  5
D5
330
1F
100
AcDbEntity
  8
0
  6
Continuous
 62
     7
370
    15
100
AcDbCircle
 10
81.6101500938
 20
159.5107129456
 30
0.0
 40
1.624999999994117
  0
CIRCLE
  5
D6
330
1F
100
AcDbEntity
  8
0
  6
Continuous
 62
     7
370
    15
100
AcDbCircle
 10
81.6101500938
 20
159.5107129456
 30
0.0
 40
1.249999999974534
  0
ARC
  5
D7
330
1F
100
AcDbEntity
  8
0
  6
Continuous
 62
     7
370
    15
100
AcDbCircle
 10
81.6101500938
 20
133.5107129456
 30
0.0
 40
3.250000000000014
100
AcDbArc
 50
302.1434409327
 51
0.0
  0
ARC
  5
D8
330
1F
100
AcDbEntity
  8
0
  6
Continuous
 62
     7
370
    15
100
AcDbCircle
 10
81.6101500938
 20
159.5107129456
 30
0.0
 40
3.250000000000014
100
AcDbArc
 50
0.0
 51
57.8565590673
  0
LINE
  5
D9
330
1F
100
AcDbEntity
  8
0
  6
Continuous
 62
     7
370
    15
100
AcDbLine
 10
84.8601500938
 20
159.5107129456
 30
0.0
 11
84.8601500938
 21
133.5107129456
 31
0.0
  0
LINE
  5
DA
330
1F
100
AcDbEntity
  8
0
  6
Continuous
 62
     7
370
    15
100
AcDbLine
 10
83.3392823812
 20
130.7588769162
 30
0.0
 11
83.3392823812
 21
126.0107129456
 31
0.0
  0
LINE
  5
DB
330
1F
100
AcDbEntity
  8
0
  6
Continuous
 62
     7
370
    15
100
AcDbLine
 10
83.3392823812
 20
167.0107129456
 30
0.0
 11
83.3392823812
 21
162.262548975
 31
0.0
  0
LINE
  5
DC
330
1F
100
AcDbEntity
  8
0
  6
Continuous
 62
     7
370
    15
100
AcDbLine
 10
77.5892823812
 20
131.5050281896
 30
0.0
 11
77.5892823812
 21
161.5163977016
 31
0.0
  0
ARC
  5
DD
330
1F
100
AcDbEntity
  8
0
  6
Continuous
 62
     7
370
    15
100
AcDbCircle
 10
78.8601500938
 20
167.0107129456
 30
0.0
 40
4.479132287372508
100
AcDbArc
 50
267.394748735
 51
0.0
  0
ARC
  5
DE
330
1F
100
AcDbEntity
  8
0
  6
Continuous
 62
     7
370
    15
100
AcDbCircle
 10
78.6101500938
 20
161.5163977016
 30
0.0
 40
1.020867712638989
100
AcDbArc
 50
87.3947487349
 51
180.0
  0
ARC
  5
DF
330
1F
100
AcDbEntity
  8
0
  6
Continuous
 62
     7
370
    15
100
AcDbCircle
 10
78.6101500938
 20
131.5050281896
 30
0.0
 40
1.020867712649988
100
AcDbArc
 50
180.0
 51
272.6052512651
  0
ARC
  5
E0
330
1F
100
AcDbEntity
  8
0
  6
Continuous
 62
     7
370
    15
100
AcDbCircle
 10
78.8601500938
 20
126.0107129456
 30
0.0
 40
4.479132287372508
100
AcDbArc
 50
0.0
 51
92.605251265
  0
ARC
  5
E1
330
1F
100
AcDbEntity
  8
0
  6
Continuous
 62
     7
370
    15
100
AcDbCircle
 10
178.1101500938
 20
133.5107129456
 30
0.0
 40
3.249999999999987
100
AcDbArc
 50
180.0
 51
237.8565590673
  0
LINE
  5
E2
330
1F
100
AcDbEntity
  8
0
  6
Continuous
 62
     7
370
    15
100
AcDbLine
 10
174.8601500938
 20
133.5107129456
 30
0.0
 11
174.8601500938
 21
159.5107129456
 31
0.0
  0
ARC
  5
E3
330
1F
100
AcDbEntity
  8
0
  6
Continuous
 62
     7
370
    15
100
AcDbCircle
 10
178.1101500938
 20
159.5107129456
 30
0.0
 40
3.249999999999972
100
AcDbArc
 50
122.1434409327
 51
180.0
  0
CIRCLE
  5
E4
330
1F
100
AcDbEntity
  8
0
  6
Continuous
 62
     7
370
    15
100
AcDbCircle
 10
178.1101500938
 20
146.5107129456
 30
0.0
 40
1.624999999985903
  0
CIRCLE
  5
E5
330
1F
100
AcDbEntity
  8
0
  6
Continuous
 62
     7
370
    15
100
AcDbCircle
 10
178.1101500938
 20
159.5107129456
 30
0.0
 40
1.624999999985903
  0
CIRCLE
  5
E6
330
1F
100
AcDbEntity
  8
0
  6
Continuous
 62
     7
370
    15
100
AcDbCircle
 10
178.1101500938
 20
133.5107129456
 30
0.0
 40
1.624999999985874
  0
LINE
  5
E7
330
1F
100
AcDbEntity
  8
0
  6
Continuous
 62
     7
370
    15
100
AcDbLine
 10
176.3810178064
 20
162.262548975
 30
0.0
 11
176.3810178064
 21
167.0107129456
 31
0.0
  0
LINE
  5
E8
330
1F
100
AcDbEntity
  8
0
  6
Continuous
 62
     7
370
    15
100
AcDbLine
 10
176.3810178064
 20
126.0107129456
 30
0.0
 11
176.3810178064
 21
130.7588769162
 31
0.0
  0
ARC
  5
E9
330
1F
100
AcDbEntity
  8
0
  6
Continuous
 62
     7
370
    15
100
AcDbCircle
 10
180.8601500938
 20
126.0107129456
 30
0.0
 40
4.479132287372506
100
AcDbArc
 50
87.394748735
 51
180.0
  0
ARC
  5
EA
330
1F
100
AcDbEntity
  8
0
  6
Continuous
 62
     7
370
    15
100
AcDbCircle
 10
181.1101500938
 20
131.5050281896
 30
0.0
 40
1.020867712639017
100
AcDbArc
 50
267.3947487349
 51
0.0
  0
ARC
  5
EB
330
1F
100
AcDbEntity
  8
0
  6
Continuous
 62
     7
370
    15
100
AcDbCircle
 10
180.8601500938
 20
167.0107129456
 30
0.0
 40
4.479132287372506
100
AcDbArc
 50
180.0
 51
272.605251265
  0
ARC
  5
EC
330
1F
100
AcDbEntity
  8
0
  6
Continuous
 62
     7
370
    15
100
AcDbCircle
 10
181.1101500938
 20
161.5163977016
 30
0.0
 40
1.020867712649988
100
AcDbArc
 50
0.0
 51
92.6052512651
  0
LINE
  5
ED
330
1F
100
AcDbEntity
  8
0
  6
Continuous
 62
     7
370
    15
100
AcDbLine
 10
182.1310178065
 20
161.5163977016
 30
0.0
 11
182.1310178064
 21
131.5050281896
 31
0.0
  0
CIRCLE
  5
EE
330
1F
100
AcDbEntity
  8
0
  6
Continuous
 62
     7
370
    15
100
AcDbCircle
 10
178.1101500938
 20
159.5107129456
 30
0.0
 40
1.24999999999477
  0
CIRCLE
  5
EF
330
1F
100
AcDbEntity
  8
0
  6
Continuous
 62
     7
370
    15
100
AcDbCircle
 10
178.1101500938
 20
133.5107129456
 30
0.0
 40
1.24999999999477
  0
CIRCLE
  5
F0
330
1F
100
AcDbEntity
  8
0
  6
Continuous
 62
     7
370
    15
100
AcDbCircle
 10
178.1101500938
 20
146.5107129456
 30
0.0
 40
1.24999999999477
  0
SPLINE
  5
F1
330
1F
100
AcDbEntity
  8
0
  6
Continuous
 62
     7
370
    15
100
AcDbSpline
210
0.0
220
0.0
230
1.0
 70
     8
 71
     3
 72
    11
 73
     7
 74
     0
 42
0.000000001
 43
0.00000001
 40
0.0
 40
0.0
 40
0.0
 40
0.0
 40
0.2500268664339271
 40
0.5000054712804731
 40
0.7499802857813009
 40
1.0
 40
1.0
 40
1.0
 40
1.0
 10
56.41334204136546
 20
117.8880458931273
 30
0.0
 10
56.41334236455987
 20
117.9363573698739
 30
0.0
 10
56.41334301088631
 20
118.032970998015
 30
0.0
 10
56.41334398057565
 20
118.7760123484558
 30
0.0
 10
56.41334495024871
 20
119.8369125711287
 30
0.0
 10
56.41334559650937
 20
120.6752934457238
 30
0.0
 10
56.41334591966872
 20
121.0945215264981
 30
0.0
  0
SPLINE
  5
F2
330
1F
100
AcDbEntity
  8
0
  6
Continuous
 62
     7
370
    15
100
AcDbSpline
210
0.0
220
0.0
230
1.0
 70
     8
 71
     3
 72
    11
 73
     7
 74
     0
 42
0.000000001
 43
0.00000001
 40
0.0
 40
0.0
 40
0.0
 40
0.0
 40
0.2499705002752983
 40
0.4999123174850637
 40
0.7499292139135948
 40
1.0
 40
1.0
 40
1.0
 40
1.0
 10
56.41334591970214
 20
171.9568191366773
 30
0.0
 10
56.41330033656776
 20
172.2709275046027
 30
0.0
 10
56.4132091755295
 20
172.8991081978371
 30
0.0
 10
56.41307158777541
 20
173.7549966275285
 30
0.0
 10
56.41293351596671
 20
174.4728395636328
 30
0.0
 10
56.41284094388877
 20
174.7595552622816
 30
0.0
 10
56.41279465286199
 20
174.9029285599078
 30
0.0
  0
SPLINE
  5
F3
330
1F
100
AcDbEntity
  8
0
  6
Continuous
 62
     7
370
    15
100
AcDbSpline
210
0.0
220
0.0
230
1.0
 70
     8
 71
     3
 72
     9
 73
     5
 74
     0
 42
0.000000001
 43
0.00000001
 40
0.0
 40
0.0
 40
0.0
 40
0.0
 40
0.5882967959724482
 40
1.0
 40
1.0
 40
1.0
 40
1.0
 10
56.41334619542181
 20
175.1332391705075
 30
0.0
 10
56.39950985768448
 20
175.1889490521497
 30
0.0
 10
56.37599054254957
 20
175.2836459500821
 30
0.0
 10
56.32412487980393
 20
175.2537863965073
 30
0.0
 10
56.30277162027252
 20
175.2414931226297
 30
0.0
  0
SPLINE
  5
F4
330
1F
100
AcDbEntity
  8
0
  6
Continuous
 62
     7
370
    15
100
AcDbSpline
210
0.0
220
0.0
230
1.0
 70
     8
 71
     3
 72
    11
 73
     7
 74
     0
 42
0.000000001
 43
0.00000001
 40
0.0
 40
0.0
 40
0.0
 40
0.0
 40
0.2554158766037529
 40
0.5148615501480556
 40
0.7663727698863897
 40
1.0
 40
1.0
 40
1.0
 40
1.0
 10
56.3620315804142
 20
175.2524689177358
 30
0.0
 10
56.31702608121297
 20
175.3425629250239
 30
0.0
 10
56.22630501331365
 20
175.5241723882575
 30
0.0
 10
55.99393904107789
 20
175.7264172415977
 30
0.0
 10
55.72392483356688
 20
175.8569393761466
 30
0.0
 10
55.53107127810325
 20
175.8744971566273
 30
0.0
 10
55.4381991464586
 20
175.882952424648
 30
0.0
  0
SPLINE
  5
F5
330
1F
100
AcDbEntity
  8
0
  6
Continuous
 62
     7
370
    15
100
AcDbSpline
210
0.0
220
0.0
230
1.0
 70
     8
 71
     3
 72
     9
 73
     5
 74
     0
 42
0.000000001
 43
0.00000001
 40
0.0
 40
0.0
 40
0.0
 40
0.0
 40
0.7012150520273064
 40
1.0
 40
1.0
 40
1.0
 40
1.0
 10
56.36203158041418
 20
174.7672436864496
 30
0.0
 10
56.38352684345963
 20
174.8259807181464
 30
0.0
 10
56.41418115269513
 20
174.9097453657064
 30
0.0
 10
56.41927222609691
 20
174.8984783529185
 30
0.0
 10
56.4207933621984
 20
174.8951119390888
 30
0.0
  0
LINE
  5
F6
330
1F
100
AcDbEntity
  8
0
  6
Continuous
 62
     7
370
    15
100
AcDbLine
 10
56.6791432106
 20
170.0107129456
 30
0.0
 11
56.4291432106
 21
170.0107129456
 31
0.0
  0
LINE
  5
F7
330
1F
100
AcDbEntity
  8
0
  6
Continuous
 62
     7
370
    15
100
AcDbLine
 10
56.4291432106
 20
164.0107129456
 30
0.0
 11
56.6791432106
 21
164.0107129456
 31
0.0
  0
LINE
  5
F8
330
1F
100
AcDbEntity
  8
0
  6
Continuous
 62
     7
370
    15
100
AcDbLine
 10
56.6791432106
 20
129.0107129456
 30
0.0
 11
56.4291432106
 21
129.0107129456
 31
0.0
  0
LINE
  5
F9
330
1F
100
AcDbEntity
  8
0
  6
Continuous
 62
     7
370
    15
100
AcDbLine
 10
56.4291432106
 20
123.0107129456
 30
0.0
 11
56.6791432106
 21
123.0107129456
 31
0.0
  0
LINE
  5
FA
330
1F
100
AcDbEntity
  8
0
  6
Continuous
 62
     7
370
    15
100
AcDbLine
 10
22.6791432106
 20
129.1550281896
 30
0.0
 11
23.6791432106
 21
129.1550281896
 31
0.0
  0
LINE
  5
FB
330
1F
100
AcDbEntity
  8
0
  6
Continuous
 62
     7
370
    15
100
AcDbLine
 10
23.6791432106
 20
163.8663977016
 30
0.0
 11
22.6791432106
 21
163.8663977016
 31
0.0
  0
SPLINE
  5
FC
330
1F
100
AcDbEntity
  8
0
  6
Continuous
 62
     7
370
    15
100
AcDbSpline
210
0.0
220
0.0
230
1.0
 70
     8
 71
     3
 72
    10
 73
     6
 74
     0
 42
0.000000001
 43
0.00000001
 40
0.0
 40
0.0
 40
0.0
 40
0.0
 40
0.3511817390255295
 40
0.7023004111806902
 40
1.0
 40
1.0
 40
1.0
 40
1.0
 10
56.41334591966874
 20
171.9269043646838
 30
0.0
 10
56.41334559651011
 20
172.3433313486939
 30
0.0
 10
56.41334495025088
 20
173.1761105327953
 30
0.0
 10
56.4133440297408
 20
174.2230839289682
 30
0.0
 10
56.41334343253158
 20
174.6067514622195
 30
0.0
 10
56.41334315851196
 20
174.7827910001954
 30
0.0
  0
LINE
  5
FD
330
1F
100
AcDbEntity
  8
0
  6
Continuous
 62
     7
370
    15
100
AcDbLine
 10
23.6791432106
 20
120.5101037262
 30
0.0
 11
23.6791432106
 21
116.5107129456
 31
0.0
  0
LINE
  5
FE
330
1F
100
AcDbEntity
  8
0
  6
Continuous
 62
     7
370
    15
100
AcDbLine
 10
23.6791432106
 20
120.5101037262
 30
0.0
 11
55.446595617
 21
121.0646066751
 31
0.0
  0
SPLINE
  5
FF
330
1F
100
AcDbEntity
  8
0
  6
Continuous
 62
     7
370
    15
100
AcDbSpline
210
0.0
220
0.0
230
1.0
 70
     8
 71
     3
 72
    53
 73
    49
 74
     0
 42
0.000000001
 43
0.00000001
 40
0.0
 40
0.0
 40
0.0
 40
0.0
 40
0.02172790833009
 40
0.0434663377455907
 40
0.0652116975607167
 40
0.086960429059782
 40
0.1087091175362844
 40
0.1304546644464723
 40
0.152196038437879
 40
0.1739341797256269
 40
0.1956699436692818
 40
0.2174040663064356
 40
0.2391372475716472
 40
0.2608702345616804
 40
0.2826038986227076
 40
0.3043388834059269
 40
0.3260751282120012
 40
0.3478123361999643
 40
0.3695501132843562
 40
0.3912880586878457
 40
0.4130258554852343
 40
0.4347633617837782
 40
0.4565007306664412
 40
0.4782382041727434
 40
0.4999758428216313
 40
0.5217135894612484
 40
0.5434513578648996
 40
0.5651891213307446
 40
0.586927001239124
 40
0.6086652638925719
 40
0.6304039508456227
 40
0.6521428494728282
 40
0.6738816038628577
 40
0.6956198053783216
 40
0.7173570832190257
 40
0.7390931950124898
 40
0.7608282757275722
 40
0.7825631542891973
 40
0.8042986543539935
 40
0.8260354978625833
 40
0.8477743883406907
 40
0.8695160941905895
 40
0.8912615319304851
 40
0.913011335932295
 40
0.934763442991492
 40
0.9565145926859471
 40
0.9782613063712371
 40
1.0
 40
1.0
 40
1.0
 40
1.0
 10
55.44659494337763
 20
121.0646066817747
 30
0.0
 10
55.44679086315947
 20
121.0191080745486
 30
0.0
 10
55.44718279759141
 20
120.9280888287657
 30
0.0
 10
55.44773777029159
 20
120.7916943704916
 30
0.0
 10
55.44826885367339
 20
120.655573224329
 30
0.0
 10
55.44877365192066
 20
120.5199054171448
 30
0.0
 10
55.44925278724448
 20
120.3848704073042
 30
0.0
 10
55.44970609496269
 20
120.2506451148135
 30
0.0
 10
55.4501336020296
 20
120.117395375876
 30
0.0
 10
55.45053525747329
 20
119.9852715194236
 30
0.0
 10
55.45091105528012
 20
119.8544200497632
 30
0.0
 10
55.45126098343624
 20
119.724986927721
 30
0.0
 10
55.45158503243609
 20
119.597118294847
 30
0.0
 10
55.45188319311183
 20
119.4709599434642
 30
0.0
 10
55.45215545406214
 20
119.3466598627723
 30
0.0
 10
55.45240180437107
 20
119.2243632327223
 30
0.0
 10
55.45262224115628
 20
119.1042045777517
 30
0.0
 10
55.45281675839662
 20
118.9863212511298
 30
0.0
 10
55.45298535088952
 20
118.8708501821232
 30
0.0
 10
55.45312801388283
 20
118.7579285640081
 30
0.0
 10
55.45324474319086
 20
118.647693191344
 30
0.0
 10
55.45333553531311
 20
118.5402822986973
 30
0.0
 10
55.45340038664981
 20
118.4358288403821
 30
0.0
 10
55.4534392949651
 20
118.3344423966687
 30
0.0
 10
55.45345225951804
 20
118.2362346250069
 30
0.0
 10
55.45343928006488
 20
118.1413164273324
 30
0.0
 10
55.45340035693695
 20
118.0497989979774
 30
0.0
 10
55.45333549103972
 20
117.961793277867
 30
0.0
 10
55.45324468388253
 20
117.8774112645229
 30
0.0
 10
55.45312793915986
 20
117.7967624083574
 30
0.0
 10
55.45298526085257
 20
117.7199255971651
 30
0.0
 10
55.45281665316437
 20
117.6469818958412
 30
0.0
 10
55.45262212094719
 20
117.5780118334695
 30
0.0
 10
55.4524016695908
 20
117.5130961426046
 30
0.0
 10
55.45215530509056
 20
117.452315547979
 30
0.0
 10
55.45188303320337
 20
117.395750720497
 30
0.0
 10
55.45158485802617
 20
117.3434818832382
 30
0.0
 10
55.45126079389712
 20
117.2955559677705
 30
0.0
 10
55.45091085096728
 20
117.2520189606209
 30
0.0
 10
55.4505350390172
 20
117.2129167916103
 30
0.0
 10
55.45013336935568
 20
117.1782951845799
 30
0.0
 10
55.44970585035179
 20
117.148200847228
 30
0.0
 10
55.44925250783614
 20
117.1226772094549
 30
0.0
 10
55.44877334549136
 20
117.1017818559993
 30
0.0
 10
55.44826852973318
 20
117.0854905573725
 30
0.0
 10
55.44773743020459
 20
117.0739205733974
 30
0.0
 10
55.44718243704173
 20
117.0666535079567
 30
0.0
 10
55.44679052444898
 20
117.0657337222023
 30
0.0
 10
55.446594604293
 20
117.0652739141436
 30
0.0
  0
LINE
  5
100
330
1F
100
AcDbEntity
  8
0
  6
Continuous
 62
     7
370
    15
100
AcDbLine
 10
23.6791432106
 20
116.5107129456
 30
0.0
 11
55.4465956171
 21
117.06521589
 31
0.0
  0
LINE
  5
101
330
1F
100
AcDbEntity
  8
0
  6
Continuous
 62
     7
370
    15
100
AcDbLine
 10
23.6791432106
 20
172.511322165
 30
0.0
 11
23.6791432106
 21
120.5101037262
 31
0.0
  0
LINE
  5
102
330
1F
100
AcDbEntity
  8
0
  6
Continuous
 62
     7
370
    15
100
AcDbLine
 10
55.446595617
 20
171.9568192178
 30
0.0
 11
23.6791432106
 21
172.511322165
 31
0.0
  0
LINE
  5
103
330
1F
100
AcDbEntity
  8
0
  6
Continuous
 62
     7
370
    15
100
AcDbLine
 10
55.4465956171
 20
171.9568192206
 30
0.0
 11
55.4465956171
 21
121.0646066751
 31
0.0
  0
LINE
  5
104
330
1F
100
AcDbEntity
  8
0
  6
Continuous
 62
     7
370
    15
100
AcDbLine
 10
23.6791432106
 20
176.5107129456
 30
0.0
 11
23.6791432106
 21
172.511322165
 31
0.0
  0
LINE
  5
105
330
1F
100
AcDbEntity
  8
0
  6
Continuous
 62
     7
370
    15
100
AcDbLine
 10
23.6791432106
 20
176.5107129456
 30
0.0
 11
55.4465956171
 21
175.9562100012
 31
0.0
  0
LINE
  5
106
330
1F
100
AcDbEntity
  8
0
  6
Continuous
 62
     7
370
    15
100
AcDbLine
 10
55.4465956171
 20
175.9562100012
 30
0.0
 11
55.449627468
 21
175.8779814817
 31
0.0
  0
LINE
  5
107
330
1F
100
AcDbEntity
  8
0
  6
Continuous
 62
     7
370
    15
100
AcDbLine
 10
56.3961687524
 20
121.0646066751
 30
0.0
 11
56.4291432106
 21
121.0646066751
 31
0.0
  0
SPLINE
  5
108
330
1F
100
AcDbEntity
  8
0
  6
Continuous
 62
     7
370
    15
100
AcDbSpline
210
0.0
220
0.0
230
1.0
 70
     8
 71
     3
 72
    11
 73
     7
 74
     0
 42
0.000000001
 43
0.00000001
 40
0.0
 40
0.0
 40
0.0
 40
0.0
 40
0.2822967596455647
 40
0.5645935192911277
 40
0.8468902789366939
 40
0.9999999999999999
 40
0.9999999999999999
 40
0.9999999999999999
 40
0.9999999999999999
 10
55.44659561705678
 20
117.0652158899498
 30
0.0
 10
55.5761188120813
 20
117.0820948890823
 30
0.0
 10
55.83516520213035
 20
117.1158528873472
 30
0.0
 10
56.15606597641323
 20
117.3490068104334
 30
0.0
 10
56.35849542213958
 20
117.6236159724192
 30
0.0
 10
56.38555350835535
 20
117.8220161946787
 30
0.0
 10
56.39506842422491
 20
117.8917831918065
 30
0.0
  0
SPLINE
  5
109
330
1F
100
AcDbEntity
  8
0
  6
Continuous
 62
     7
370
    15
100
AcDbSpline
210
0.0
220
0.0
230
1.0
 70
     8
 71
     3
 72
    22
 73
    18
 74
     0
 42
0.000000001
 43
0.00000001
 40
0.0
 40
0.0
 40
0.0
 40
0.0
 40
0.125
 40
0.125
 40
0.25
 40
0.25
 40
0.375
 40
0.375
 40
0.5
 40
0.5
 40
0.625
 40
0.625
 40
0.75
 40
0.75
 40
0.875
 40
0.875
 40
1.0
 40
1.0
 40
1.0
 40
1.0
 10
56.42914321027885
 20
127.7481463122818
 30
0.0
 10
56.42914089851013
 20
127.6203007169905
 30
0.0
 10
56.41710200187472
 20
127.4876907545063
 30
0.0
 10
56.38333660264625
 20
127.212459792581
 30
0.0
 10
56.36127392672761
 20
127.068912089435
 30
0.0
 10
56.31884159588495
 20
126.7750821522432
 30
0.0
 10
56.29868086855623
 20
126.6258116741102
 30
0.0
 10
56.26987780177051
 20
126.3216607121395
 30
0.0
 10
56.26137410535599
 20
126.1658331180423
 30
0.0
 10
56.26147927575567
 20
125.8525685042655
 30
0.0
 10
56.26997356476707
 20
125.6984098373154
 30
0.0
 10
56.29882475554629
 20
125.394441807667
 30
0.0
 10
56.31918076836239
 20
125.2438908294506
 30
0.0
 10
56.36168803732674
 20
124.9497523458535
 30
0.0
 10
56.38346982856719
 20
124.8079684378869
 30
0.0
 10
56.41709195158695
 20
124.5337284353919
 30
0.0
 10
56.42914089563367
 20
124.4012842577573
 30
0.0
 10
56.42914321027902
 20
124.2732795789001
 30
0.0
  0
LINE
  5
10A
330
1F
100
AcDbEntity
  8
0
  6
Continuous
 62
     7
370
    15
100
AcDbLine
 10
56.4291432106
 20
121.0646066706
 30
0.0
 11
56.4291432106
 21
124.2732976614
 31
0.0
  0
LINE
  5
10B
330
1F
100
AcDbEntity
  8
0
  6
Continuous
 62
     7
370
    15
100
AcDbLine
 10
56.4291432106
 20
171.9568192206
 30
0.0
 11
56.3950604735
 21
171.9568192206
 31
0.0
  0
LINE
  5
10C
330
1F
100
AcDbEntity
  8
0
  6
Continuous
 62
     7
370
    15
100
AcDbLine
 10
56.4291432106
 20
168.7481282298
 30
0.0
 11
56.4291432106
 21
171.9568192206
 31
0.0
  0
SPLINE
  5
10D
330
1F
100
AcDbEntity
  8
0
  6
Continuous
 62
     7
370
    15
100
AcDbSpline
210
0.0
220
0.0
230
1.0
 70
     8
 71
     3
 72
    22
 73
    18
 74
     0
 42
0.000000001
 43
0.00000001
 40
0.0
 40
0.0
 40
0.0
 40
0.0
 40
0.125
 40
0.125
 40
0.25
 40
0.25
 40
0.375
 40
0.375
 40
0.5
 40
0.5
 40
0.625
 40
0.625
 40
0.75
 40
0.75
 40
0.875
 40
0.875
 40
1.0
 40
1.0
 40
1.0
 40
1.0
 10
56.42914321027885
 20
165.2732795789001
 30
0.0
 10
56.42914089851013
 20
165.4011251741913
 30
0.0
 10
56.41710200187472
 20
165.5337351366755
 30
0.0
 10
56.38333660264625
 20
165.8089660986008
 30
0.0
 10
56.36127392672761
 20
165.9525138017468
 30
0.0
 10
56.31884159588495
 20
166.2463437389386
 30
0.0
 10
56.29868086855623
 20
166.3956142170716
 30
0.0
 10
56.26987780177051
 20
166.6997651790424
 30
0.0
 10
56.26137410535599
 20
166.8555927731396
 30
0.0
 10
56.26147927575567
 20
167.1688573869164
 30
0.0
 10
56.26997356476707
 20
167.3230160538665
 30
0.0
 10
56.29882475554629
 20
167.6269840835149
 30
0.0
 10
56.31918076836239
 20
167.7775350617312
 30
0.0
 10
56.36168803732673
 20
168.0716735453283
 30
0.0
 10
56.38346982856718
 20
168.213457453295
 30
0.0
 10
56.41709195158695
 20
168.4876974557899
 30
0.0
 10
56.42914089563367
 20
168.6201416334246
 30
0.0
 10
56.42914321027902
 20
168.7481463122817
 30
0.0
  0
LINE
  5
10E
330
1F
100
AcDbEntity
  8
0
  6
Continuous
 62
     7
370
    15
100
AcDbLine
 10
56.4291432106
 20
127.7481282298
 30
0.0
 11
56.4291432106
 21
165.2732976614
 31
0.0
  0
LINE
  5
10F
330
1F
100
AcDbEntity
  8
0
  6
Continuous
 62
     7
370
    15
100
AcDbLine
 10
56.3938872771
 20
175.1356491827
 30
0.0
 11
56.4291432106
 21
174.9563623061
 31
0.0
  0
LINE
  5
110
330
1F
100
AcDbEntity
  8
0
  6
Continuous
 62
     7
370
    15
100
AcDbLine
 10
56.4291432106
 20
174.8066828128
 30
0.0
 11
56.4291432106
 21
174.9563623061
 31
0.0
  0
LINE
  5
111
330
1F
100
AcDbEntity
  8
0
  6
Continuous
 62
     7
370
    15
100
AcDbLine
 10
56.6791432106
 20
164.0107129456
 30
0.0
 11
56.6791432106
 21
170.0107129456
 31
0.0
  0
LINE
  5
112
330
1F
100
AcDbEntity
  8
0
  6
Continuous
 62
     7
370
    15
100
AcDbLine
 10
56.6791432106
 20
123.0107129456
 30
0.0
 11
56.6791432106
 21
129.0107129456
 31
0.0
  0
LINE
  5
113
330
1F
100
AcDbEntity
  8
0
  6
Continuous
 62
     7
370
    15
100
AcDbLine
 10
22.6791432106
 20
161.5163977016
 30
0.0
 11
22.6791432106
 21
131.5050281896
 31
0.0
  0
LINE
  5
114
330
1F
100
AcDbEntity
  8
0
  6
Continuous
 62
     7
370
    15
100
AcDbLine
 10
23.6791432106
 20
161.5163977016
 30
0.0
 11
22.6791432106
 21
161.5163977016
 31
0.0
  0
LINE
  5
115
330
1F
100
AcDbEntity
  8
0
  6
Continuous
 62
     7
370
    15
100
AcDbLine
 10
23.6791432106
 20
131.5050281896
 30
0.0
 11
22.6791432106
 21
131.5050281896
 31
0.0
  0
LINE
  5
116
330
1F
100
AcDbEntity
  8
0
  6
Continuous
 62
     7
370
    15
100
AcDbLine
 10
22.6791432106
 20
131.5050281896
 30
0.0
 11
22.6791432106
 21
129.1550281896
 31
0.0
  0
LINE
  5
117
330
1F
100
AcDbEntity
  8
0
  6
Continuous
 62
     7
370
    15
100
AcDbLine
 10
22.6791432106
 20
163.8663977016
 30
0.0
 11
22.6791432106
 21
161.5163977016
 31
0.0
  0
LINE
  5
118
330
1F
100
AcDbEntity
  8
0
  6
Continuous
 62
     7
370
    15
100
AcDbLine
 10
22.6791432106
 20
167.0107129456
 30
0.0
 11
23.6791432106
 21
167.0107129456
 31
0.0
  0
LINE
  5
119
330
1F
100
AcDbEntity
  8
0
  6
Continuous
 62
     7
370
    15
100
AcDbLine
 10
22.6791432106
 20
163.8663977016
 30
0.0
 11
22.6791432106
 21
167.0107129456
 31
0.0
  0
LINE
  5
11A
330
1F
100
AcDbEntity
  8
0
  6
Continuous
 62
     7
370
    15
100
AcDbLine
 10
23.6791432106
 20
126.0107129456
 30
0.0
 11
22.6791432106
 21
126.0107129456
 31
0.0
  0
LINE
  5
11B
330
1F
100
AcDbEntity
  8
0
  6
Continuous
 62
     7
370
    15
100
AcDbLine
 10
22.6791432106
 20
126.0107129456
 30
0.0
 11
22.6791432106
 21
129.1550281896
 31
0.0
  0
LINE
  5
11C
330
1F
100
AcDbEntity
  8
0
  6
Continuous
 62
     7
370
    15
100
AcDbLine
 10
23.6791432106
 20
120.2607129456
 30
0.0
 11
22.6791432106
 21
120.2607129456
 31
0.0
  0
LINE
  5
11D
330
1F
100
AcDbEntity
  8
0
  6
Continuous
 62
     7
370
    15
100
AcDbLine
 10
23.6791432106
 20
117.9107129456
 30
0.0
 11
22.6791432106
 21
117.9107129456
 31
0.0
  0
LINE
  5
11E
330
1F
100
AcDbEntity
  8
0
  6
Continuous
 62
     7
370
    15
100
AcDbLine
 10
22.6791432106
 20
120.2607129456
 30
0.0
 11
22.6791432106
 21
117.9107129456
 31
0.0
  0
LINE
  5
11F
330
1F
100
AcDbEntity
  8
0
  6
Continuous
 62
     7
370
    15
100
AcDbLine
 10
23.6791432106
 20
172.7607129456
 30
0.0
 11
22.6791432106
 21
172.7607129456
 31
0.0
  0
LINE
  5
120
330
1F
100
AcDbEntity
  8
0
  6
Continuous
 62
     7
370
    15
100
AcDbLine
 10
22.6791432106
 20
172.7607129456
 30
0.0
 11
22.6791432106
 21
167.0107129456
 31
0.0
  0
LINE
  5
121
330
1F
100
AcDbEntity
  8
0
  6
Continuous
 62
     7
370
    15
100
AcDbLine
 10
22.6791432106
 20
175.1107129456
 30
0.0
 11
23.6791432106
 21
175.1107129456
 31
0.0
  0
LINE
  5
122
330
1F
100
AcDbEntity
  8
0
  6
Continuous
 62
     7
370
    15
100
AcDbLine
 10
22.6791432106
 20
175.1107129456
 30
0.0
 11
22.6791432106
 21
172.7607129456
 31
0.0
  0
LINE
  5
123
330
1F
100
AcDbEntity
  8
0
  6
Continuous
 62
     7
370
    15
100
AcDbLine
 10
22.6791432106
 20
126.0107129456
 30
0.0
 11
22.6791432106
 21
120.2607129456
 31
0.0
  0
SPLINE
  5
124
330
1F
100
AcDbEntity
  8
0
  6
Continuous
 62
     8
370
    15
100
AcDbSpline
210
0.0
220
0.0
230
1.0
 70
     8
 71
     3
 72
    15
 73
    11
 74
     0
 42
0.000000001
 43
0.00000001
 40
0.0
 40
0.0
 40
0.0
 40
0.0
 40
0.0091095136856578
 40
0.1534553489945408
 40
0.2938896088160513
 40
0.4304128527046917
 40
0.566970390661561
 40
0.7074204068639782
 40
0.8517634710703536
 40
1.0
 40
1.0
 40
1.0
 40
1.0
 10
55.44962746802246
 20
175.8779814816961
 30
0.0
 10
55.44969408163561
 20
175.8763641049573
 30
0.0
 10
55.45081622883326
 20
175.8491184011288
 30
0.0
 10
55.4522278081707
 20
175.6506391286886
 30
0.0
 10
55.45359082922213
 20
175.290986976357
 30
0.0
 10
55.45393760711711
 20
174.8007857024866
 30
0.0
 10
55.45357993660148
 20
174.2135509332364
 30
0.0
 10
55.45227128687769
 20
173.5305158420672
 30
0.0
 10
55.44997025458643
 20
172.7672718134632
 30
0.0
 10
55.44773043161731
 20
172.2293561637464
 30
0.0
 10
55.44659561705694
 20
171.9568192177609
 30
0.0
  0
SPLINE
  5
125
330
1F
100
AcDbEntity
  8
0
  6
Continuous
 62
     8
370
    15
100
AcDbSpline
210
0.0
220
0.0
230
1.0
 70
    24
 71
     3
 72
    11
 73
     7
 74
     0
 42
0.000000001
 43
0.00000001
 40
0.0
 40
0.0
 40
0.0
 40
0.0
 40
0.2811240081787306
 40
0.5622480163574658
 40
0.8433720245361941
 40
1.0
 40
1.0
 40
1.0
 40
1.0
 10
55.44659561705695
 20
121.0646066750559
 30
0.0
 10
55.57610952899444
 20
121.0646066750559
 30
0.0
 10
55.83513735286941
 20
121.0646066750559
 30
0.0
 10
56.15617737345755
 20
121.0646066750559
 30
0.0
 10
56.35933241430619
 20
121.0646066750559
 30
0.0
 10
56.38646182847822
 20
121.0646066750559
 30
0.0
 10
56.39616875243531
 20
121.0646066750559
 30
0.0
  0
SPLINE
  5
126
330
1F
100
AcDbEntity
  8
0
  6
Continuous
 62
     8
370
    15
100
AcDbSpline
210
0.0
220
0.0
230
1.0
 70
    24
 71
     3
 72
    11
 73
     7
 74
     0
 42
0.000000001
 43
0.00000001
 40
0.0
 40
0.0
 40
0.0
 40
0.0
 40
0.153084192203005
 40
0.4353894614686669
 40
0.7176947307343358
 40
0.9999999999999999
 40
0.9999999999999999
 40
0.9999999999999999
 40
0.9999999999999999
 10
56.39506047352455
 20
171.9568192206059
 30
0.0
 10
56.3855469530419
 20
171.9568192206059
 30
0.0
 10
56.35848938099608
 20
171.9568192206059
 30
0.0
 10
56.15606516298226
 20
171.9568192206059
 30
0.0
 10
55.83516540548823
 20
171.9568192206059
 30
0.0
 10
55.57611887986738
 20
171.9568192206059
 30
0.0
 10
55.44659561705695
 20
171.9568192206059
 30
0.0
  0
SPLINE
  5
127
330
1F
100
AcDbEntity
  8
0
  6
Continuous
 62
     7
370
    15
100
AcDbSpline
210
0.0
220
0.0
230
1.0
 70
     8
 71
     3
 72
    11
 73
     7
 74
     0
 42
0.000000001
 43
0.00000001
 40
0.0
 40
0.0
 40
0.0
 40
0.0
 40
0.2500268664558099
 40
0.5000054713090224
 40
0.7499802858016297
 40
1.0
 40
1.0
 40
1.0
 40
1.0
 10
76.23748304054612
 20
200.6330181839202
 30
0.0
 10
76.28579451736766
 20
200.6330178607136
 30
0.0
 10
76.38240814565577
 20
200.6330172143627
 30
0.0
 10
77.12544949638139
 20
200.6330162446367
 30
0.0
 10
78.18634971925165
 20
200.6330152749269
 30
0.0
 10
79.02473059391676
 20
200.6330146286419
 30
0.0
 10
79.44395867471584
 20
200.6330143054703
 30
0.0
  0
SPLINE
  5
128
330
1F
100
AcDbEntity
  8
0
  6
Continuous
 62
     7
370
    15
100
AcDbSpline
210
0.0
220
0.0
230
1.0
 70
     8
 71
     3
 72
    11
 73
     7
 74
     0
 42
0.000000001
 43
0.00000001
 40
0.0
 40
0.0
 40
0.0
 40
0.0
 40
0.2499705002770105
 40
0.4999123174861012
 40
0.7499292139158109
 40
1.0
 40
1.0
 40
1.0
 40
1.0
 10
180.306256284865
 20
200.6330143054402
 30
0.0
 10
180.6203646527968
 20
200.6330598885745
 30
0.0
 10
181.248545346041
 20
200.6331510496126
 30
0.0
 10
182.1044337757421
 20
200.6332886373664
 30
0.0
 10
182.8222767118575
 20
200.6334267091748
 30
0.0
 10
183.1089924105003
 20
200.6335192812525
 30
0.0
 10
183.2523657081225
 20
200.6335655722792
 30
0.0
  0
SPLINE
  5
129
330
1F
100
AcDbEntity
  8
0
  6
Continuous
 62
     7
370
    15
100
AcDbSpline
210
0.0
220
0.0
230
1.0
 70
     8
 71
     3
 72
     9
 73
     5
 74
     0
 42
0.000000001
 43
0.00000001
 40
0.0
 40
0.0
 40
0.0
 40
0.0
 40
0.5882967959807749
 40
0.9999999999999999
 40
0.9999999999999999
 40
0.9999999999999999
 40
0.9999999999999999
 10
183.4826763187428
 20
200.6330140297221
 30
0.0
 10
183.5383862003865
 20
200.6468503674607
 30
0.0
 10
183.63308309832
 20
200.6703696825973
 30
0.0
 10
183.6032235447429
 20
200.7222353453445
 30
0.0
 10
183.5909302708646
 20
200.7435886048762
 30
0.0
  0
SPLINE
  5
12A
330
1F
100
AcDbEntity
  8
0
  6
Continuous
 62
     7
370
    15
100
AcDbSpline
210
0.0
220
0.0
230
1.0
 70
     8
 71
     3
 72
    11
 73
     7
 74
     0
 42
0.000000001
 43
0.00000001
 40
0.0
 40
0.0
 40
0.0
 40
0.0
 40
0.2554158766048173
 40
0.5148615501488634
 40
0.766372769886714
 40
1.0
 40
1.0
 40
1.0
 40
1.0
 10
183.6019060659794
 20
200.684328644732
 30
0.0
 10
183.6920000732649
 20
200.7293341439339
 30
0.0
 10
183.8736095364931
 20
200.8200552118344
 30
0.0
 10
184.0758543898241
 20
201.0524211840694
 30
0.0
 10
184.2063765243641
 20
201.3224353915774
 30
0.0
 10
184.2239343048409
 20
201.5152889470383
 30
0.0
 10
184.2323895728597
 20
201.6081610786817
 30
0.0
  0
SPLINE
  5
12B
330
1F
100
AcDbEntity
  8
0
  6
Continuous
 62
     7
370
    15
100
AcDbSpline
210
0.0
220
0.0
230
1.0
 70
     8
 71
     3
 72
     9
 73
     5
 74
     0
 42
0.000000001
 43
0.00000001
 40
0.0
 40
0.0
 40
0.0
 40
0.0
 40
0.7012150519911494
 40
1.0
 40
1.0
 40
1.0
 40
1.0
 10
183.1166808346665
 20
200.6843286447319
 30
0.0
 10
183.175417866364
 20
200.662833381686
 30
0.0
 10
183.2591825139293
 20
200.6321790724482
 30
0.0
 10
183.2479155011447
 20
200.6270879990447
 30
0.0
 10
183.2445490873156
 20
200.6255668629425
 30
0.0
  0
LINE
  5
12C
330
1F
100
AcDbEntity
  8
0
  6
Continuous
 62
     7
370
    15
100
AcDbLine
 10
81.8601500938
 20
200.3672170145
 30
0.0
 11
81.8601500938
 21
200.6172170145
 31
0.0
  0
LINE
  5
12D
330
1F
100
AcDbEntity
  8
0
  6
Continuous
 62
     7
370
    15
100
AcDbLine
 10
75.8601500938
 20
200.7849337884
 30
0.0
 11
75.8601500938
 21
200.3672170145
 31
0.0
  0
LINE
  5
12E
330
1F
100
AcDbEntity
  8
0
  6
Continuous
 62
     7
370
    15
100
AcDbLine
 10
183.8601500938
 20
200.3672170145
 30
0.0
 11
183.8601500938
 21
200.7849337884
 31
0.0
  0
LINE
  5
12F
330
1F
100
AcDbEntity
  8
0
  6
Continuous
 62
     7
370
    15
100
AcDbLine
 10
177.8601500938
 20
200.6172170145
 30
0.0
 11
177.8601500938
 21
200.3672170145
 31
0.0
  0
LINE
  5
130
330
1F
100
AcDbEntity
  8
0
  6
Continuous
 62
     7
370
    15
100
AcDbLine
 10
78.8595408744
 20
233.3672170145
 30
0.0
 11
74.8601500938
 21
233.3672170145
 31
0.0
  0
LINE
  5
131
330
1F
100
AcDbEntity
  8
0
  6
Continuous
 62
     7
370
    15
100
AcDbLine
 10
78.8595408744
 20
233.3672170145
 30
0.0
 11
79.4140438233
 21
201.5997646081
 31
0.0
  0
SPLINE
  5
132
330
1F
100
AcDbEntity
  8
0
  6
Continuous
 62
     7
370
    15
100
AcDbSpline
210
0.0
220
0.0
230
1.0
 70
     8
 71
     3
 72
    53
 73
    49
 74
     0
 42
0.000000001
 43
0.00000001
 40
0.0
 40
0.0
 40
0.0
 40
0.0
 40
0.0217279083697907
 40
0.0434663378232209
 40
0.0652116976744772
 40
0.0869604292078702
 40
0.1087091177169083
 40
0.1304546646578293
 40
0.1521960386782235
 40
0.1739341799932251
 40
0.1956699439624109
 40
0.2174040666233932
 40
0.2391372479107449
 40
0.260870234921239
 40
0.2826038990010762
 40
0.3043388838014401
 40
0.3260751286229449
 40
0.3478123366245893
 40
0.3695501137208684
 40
0.3912880591344048
 40
0.4130258559399672
 40
0.4347633622447674
 40
0.4565007311317657
 40
0.4782382046405077
 40
0.4999758432899797
 40
0.5217135899283635
 40
0.543451358329009
 40
0.5651891217901227
 40
0.5869270016920837
 40
0.6086652643374648
 40
0.6304039512807692
 40
0.6521428498965299
 40
0.6738816042733932
 40
0.6956198057739518
 40
0.7173570835979921
 40
0.7390931953730208
 40
0.7608282760678889
 40
0.7825631546075026
 40
0.8042986546484656
 40
0.8260354981313773
 40
0.8477743885819372
 40
0.8695160944023969
 40
0.8912615321109324
 40
0.913011336079477
 40
0.934763443103699
 40
0.9565145927617615
 40
0.9782613064095518
 40
1.0
 40
1.0
 40
1.0
 40
1.0
 10
79.41404382997924
 20
201.5997652817532
 30
0.0
 10
79.36854522267015
 20
201.5995693619718
 30
0.0
 10
79.27752597672504
 20
201.5991774275408
 30
0.0
 10
79.14113151821425
 20
201.5986224548417
 30
0.0
 10
79.00501037182775
 20
201.5980913714611
 30
0.0
 10
78.8693425644332
 20
201.597586573215
 30
0.0
 10
78.73430755439634
 20
201.5971074378922
 30
0.0
 10
78.6000822617241
 20
201.596654130175
 30
0.0
 10
78.46683252262002
 20
201.5962266231092
 30
0.0
 10
78.33470866601606
 20
201.5958249676664
 30
0.0
 10
78.20385719621953
 20
201.5954491698605
 30
0.0
 10
78.07442407405651
 20
201.5950992417052
 30
0.0
 10
77.94655544107738
 20
201.5947751927062
 30
0.0
 10
77.82039708960498
 20
201.5944770320312
 30
0.0
 10
77.69609700883895
 20
201.5942047710816
 30
0.0
 10
77.5738003787301
 20
201.5939584207733
 30
0.0
 10
77.45364172371593
 20
201.5937379839887
 30
0.0
 10
77.33575839706562
 20
201.5935434667489
 30
0.0
 10
77.22028732804547
 20
201.5933748742565
 30
0.0
 10
77.10736570993166
 20
201.5932322112638
 30
0.0
 10
76.99713033728322
 20
201.5931154819561
 30
0.0
 10
76.88971944466641
 20
201.5930246898343
 30
0.0
 10
76.78526598639417
 20
201.5929598384979
 30
0.0
 10
76.6838795427358
 20
201.5929209301829
 30
0.0
 10
76.58567177114051
 20
201.5929079656302
 30
0.0
 10
76.49075357354293
 20
201.5929209450836
 30
0.0
 10
76.39923614427406
 20
201.5929598682116
 30
0.0
 10
76.31123042425833
 20
201.593024734109
 30
0.0
 10
76.22684841101615
 20
201.5931155412662
 30
0.0
 10
76.14619955495826
 20
201.5932322859889
 30
0.0
 10
76.06936274387826
 20
201.5933749642961
 30
0.0
 10
75.99641904267007
 20
201.5935435719843
 30
0.0
 10
75.92744898041687
 20
201.5937381042013
 30
0.0
 10
75.862533289672
 20
201.5939585555575
 30
0.0
 10
75.80175269516697
 20
201.5942049200576
 30
0.0
 10
75.74518786780513
 20
201.5944771919445
 30
0.0
 10
75.69291903066447
 20
201.5947753671214
 30
0.0
 10
75.64499311531145
 20
201.5950994312501
 30
0.0
 10
75.60145610827192
 20
201.5954493741795
 30
0.0
 10
75.56235393936578
 20
201.5958251861291
 30
0.0
 10
75.52773233243285
 20
201.5962268557901
 30
0.0
 10
75.49763799517031
 20
201.5966543747935
 30
0.0
 10
75.47211435747714
 20
201.5971077173085
 30
0.0
 10
75.45121900409073
 20
201.5975868796527
 30
0.0
 10
75.43492770552095
 20
201.5980916954101
 30
0.0
 10
75.42335772158943
 20
201.598622794938
 30
0.0
 10
75.41609065617924
 20
201.5991777881001
 30
0.0
 10
75.41517087043184
 20
201.5995697006923
 30
0.0
 10
75.41471106237664
 20
201.599765620848
 30
0.0
  0
LINE
  5
133
330
1F
100
AcDbEntity
  8
0
  6
Continuous
 62
     7
370
    15
100
AcDbLine
 10
74.8601500938
 20
233.3672170145
 30
0.0
 11
75.4146530382
 21
201.5997646081
 31
0.0
  0
LINE
  5
134
330
1F
100
AcDbEntity
  8
0
  6
Continuous
 62
     7
370
    15
100
AcDbLine
 10
180.8607593132
 20
233.3672170145
 30
0.0
 11
78.8595408744
 21
233.3672170145
 31
0.0
  0
LINE
  5
135
330
1F
100
AcDbEntity
  8
0
  6
Continuous
 62
     7
370
    15
100
AcDbLine
 10
180.8607593132
 20
233.3672170145
 30
0.0
 11
180.306256366
 21
201.5997646081
 31
0.0
  0
LINE
  5
136
330
1F
100
AcDbEntity
  8
0
  6
Continuous
 62
     7
370
    15
100
AcDbLine
 10
180.3062563688
 20
201.5997646081
 30
0.0
 11
79.4140438233
 21
201.5997646081
 31
0.0
  0
LINE
  5
137
330
1F
100
AcDbEntity
  8
0
  6
Continuous
 62
     7
370
    15
100
AcDbLine
 10
184.8601500938
 20
233.3672170145
 30
0.0
 11
180.8607593132
 21
233.3672170145
 31
0.0
  0
LINE
  5
138
330
1F
100
AcDbEntity
  8
0
  6
Continuous
 62
     7
370
    15
100
AcDbLine
 10
184.8601500938
 20
233.3672170145
 30
0.0
 11
184.3056471495
 21
201.5997646081
 31
0.0
  0
LINE
  5
139
330
1F
100
AcDbEntity
  8
0
  6
Continuous
 62
     7
370
    15
100
AcDbLine
 10
184.3056471495
 20
201.5997646081
 30
0.0
 11
184.2274186297
 21
201.5967327572
 31
0.0
  0
LINE
  5
13A
330
1F
100
AcDbEntity
  8
0
  6
Continuous
 62
     7
370
    15
100
AcDbLine
 10
79.4140438233
 20
200.6501914727
 30
0.0
 11
79.4140438233
 21
200.6172170145
 31
0.0
  0
SPLINE
  5
13B
330
1F
100
AcDbEntity
  8
0
  6
Continuous
 62
     7
370
    15
100
AcDbSpline
210
0.0
220
0.0
230
1.0
 70
     8
 71
     3
 72
    11
 73
     7
 74
     0
 42
0.000000001
 43
0.00000001
 40
0.0
 40
0.0
 40
0.0
 40
0.0
 40
0.2822967598111883
 40
0.5645935196223812
 40
0.8468902794335672
 40
1.0
 40
1.0
 40
1.0
 40
1.0
 10
75.41465303815434
 20
201.5997646080837
 30
0.0
 10
75.43153203728636
 20
201.4702414130579
 30
0.0
 10
75.46529003555041
 20
201.2111950230062
 30
0.0
 10
75.6984439586432
 20
200.8902942487432
 30
0.0
 10
75.97305312038336
 20
200.6878648031187
 30
0.0
 10
76.17145334236672
 20
200.6608067169129
 30
0.0
 10
76.24122033922409
 20
200.6512918010705
 30
0.0
  0
LINE
  5
13C
330
1F
100
AcDbEntity
  8
0
  6
Continuous
 62
     7
370
    15
100
AcDbLine
 10
180.3062563688
 20
200.6512997516
 30
0.0
 11
180.3062563688
 21
200.6172170145
 31
0.0
  0
LINE
  5
13D
330
1F
100
AcDbEntity
  8
0
  6
Continuous
 62
     7
370
    15
100
AcDbLine
 10
79.4140438188
 20
200.6172170145
 30
0.0
 11
180.3062563688
 21
200.6172170145
 31
0.0
  0
LINE
  5
13E
330
1F
100
AcDbEntity
  8
0
  6
Continuous
 62
     7
370
    15
100
AcDbLine
 10
183.485086331
 20
200.652472948
 30
0.0
 11
183.3057994543
 21
200.6172170145
 31
0.0
  0
LINE
  5
13F
330
1F
100
AcDbEntity
  8
0
  6
Continuous
 62
     7
370
    15
100
AcDbLine
 10
183.156119961
 20
200.6172170145
 30
0.0
 11
183.3057994543
 21
200.6172170145
 31
0.0
  0
LINE
  5
140
330
1F
100
AcDbEntity
  8
0
  6
Continuous
 62
     7
370
    15
100
AcDbLine
 10
177.7101500938
 20
233.3672170145
 30
0.0
 11
177.7101500938
 21
234.3672170145
 31
0.0
  0
LINE
  5
141
330
1F
100
AcDbEntity
  8
0
  6
Continuous
 62
     7
370
    15
100
AcDbLine
 10
175.3601500938
 20
233.3672170145
 30
0.0
 11
175.3601500938
 21
234.3672170145
 31
0.0
  0
LINE
  5
142
330
1F
100
AcDbEntity
  8
0
  6
Continuous
 62
     7
370
    15
100
AcDbLine
 10
177.7101500938
 20
234.3672170145
 30
0.0
 11
175.3601500938
 21
234.3672170145
 31
0.0
  0
LINE
  5
143
330
1F
100
AcDbEntity
  8
0
  6
Continuous
 62
     7
370
    15
100
AcDbLine
 10
84.3601500938
 20
233.3672170145
 30
0.0
 11
84.3601500938
 21
234.3672170145
 31
0.0
  0
LINE
  5
144
330
1F
100
AcDbEntity
  8
0
  6
Continuous
 62
     7
370
    15
100
AcDbLine
 10
82.0101500938
 20
233.3672170145
 30
0.0
 11
82.0101500938
 21
234.3672170145
 31
0.0
  0
LINE
  5
145
330
1F
100
AcDbEntity
  8
0
  6
Continuous
 62
     7
370
    15
100
AcDbLine
 10
84.3601500938
 20
234.3672170145
 30
0.0
 11
82.0101500938
 21
234.3672170145
 31
0.0
  0
LINE
  5
146
330
1F
100
AcDbEntity
  8
0
  6
Continuous
 62
     7
370
    15
100
AcDbLine
 10
175.3601500938
 20
234.3672170145
 30
0.0
 11
84.3601500938
 21
234.3672170145
 31
0.0
  0
LINE
  5
147
330
1F
100
AcDbEntity
  8
0
  6
Continuous
 62
     7
370
    15
100
AcDbLine
 10
75.8601500938
 20
200.3672170145
 30
0.0
 11
81.8601500938
 21
200.3672170145
 31
0.0
  0
LINE
  5
148
330
1F
100
AcDbEntity
  8
0
  6
Continuous
 62
     7
370
    15
100
AcDbLine
 10
177.8601500938
 20
200.3672170145
 30
0.0
 11
183.8601500938
 21
200.3672170145
 31
0.0
  0
LINE
  5
149
330
1F
100
AcDbEntity
  8
0
  6
Continuous
 62
     7
370
    15
100
AcDbLine
 10
181.003331912
 20
234.3672170145
 30
0.0
 11
181.003331912
 21
233.3672170145
 31
0.0
  0
LINE
  5
14A
330
1F
100
AcDbEntity
  8
0
  6
Continuous
 62
     7
370
    15
100
AcDbLine
 10
177.7101500938
 20
234.3672170145
 30
0.0
 11
181.003331912
 21
234.3672170145
 31
0.0
  0
LINE
  5
14B
330
1F
100
AcDbEntity
  8
0
  6
Continuous
 62
     7
370
    15
100
AcDbLine
 10
78.7169682756
 20
233.3672170145
 30
0.0
 11
78.7169682756
 21
234.3672170145
 31
0.0
  0
LINE
  5
14C
330
1F
100
AcDbEntity
  8
0
  6
Continuous
 62
     7
370
    15
100
AcDbLine
 10
78.7169682756
 20
234.3672170145
 30
0.0
 11
82.0101500938
 21
234.3672170145
 31
0.0
  0
LINE
  5
14D
330
1F
100
AcDbEntity
  8
0
  6
Continuous
 62
     7
370
    15
100
AcDbLine
 10
183.4601500938
 20
233.3672170145
 30
0.0
 11
183.4601500938
 21
234.3672170145
 31
0.0
  0
LINE
  5
14E
330
1F
100
AcDbEntity
  8
0
  6
Continuous
 62
     7
370
    15
100
AcDbLine
 10
183.4601500938
 20
234.3672170145
 30
0.0
 11
181.003331912
 21
234.3672170145
 31
0.0
  0
LINE
  5
14F
330
1F
100
AcDbEntity
  8
0
  6
Continuous
 62
     7
370
    15
100
AcDbLine
 10
76.2601500938
 20
233.3672170145
 30
0.0
 11
76.2601500938
 21
234.3672170145
 31
0.0
  0
LINE
  5
150
330
1F
100
AcDbEntity
  8
0
  6
Continuous
 62
     7
370
    15
100
AcDbLine
 10
78.7169682756
 20
234.3672170145
 30
0.0
 11
76.2601500938
 21
234.3672170145
 31
0.0
  0
SPLINE
  5
151
330
1F
100
AcDbEntity
  8
0
  6
Continuous
 62
     8
370
    15
100
AcDbSpline
210
0.0
220
0.0
230
1.0
 70
     8
 71
     3
 72
    15
 73
    11
 74
     0
 42
0.000000001
 43
0.00000001
 40
0.0
 40
0.0
 40
0.0
 40
0.0
 40
0.0091095140868621
 40
0.1534553499385504
 40
0.2938896096233158
 40
0.4304128526953476
 40
0.5669703917343097
 40
0.7074204082987555
 40
0.8517634721474239
 40
1.0
 40
1.0
 40
1.0
 40
1.0
 10
184.2274186296804
 20
201.5967327571798
 30
0.0
 10
184.225801252879
 20
201.5966661435635
 30
0.0
 10
184.1985555490269
 20
201.5955439963554
 30
0.0
 10
184.0000762753712
 20
201.5941324170327
 30
0.0
 10
183.6404241225855
 20
201.5927693959925
 30
0.0
 10
183.150222848286
 20
201.5924226180224
 30
0.0
 10
182.5629880777236
 20
201.5927802884703
 30
0.0
 10
181.8799529841234
 20
201.5940889382274
 30
0.0
 10
181.1167089570182
 20
201.5963899705595
 30
0.0
 10
180.5787933099568
 20
201.598629793527
 30
0.0
 10
180.3062563659604
 20
201.5997646080839
 30
0.0
  0
SPLINE
  5
152
330
1F
100
AcDbEntity
  8
0
  6
Continuous
 62
     8
370
    15
100
AcDbSpline
210
0.0
220
0.0
230
1.0
 70
    24
 71
     3
 72
    11
 73
     7
 74
     0
 42
0.000000001
 43
0.00000001
 40
0.0
 40
0.0
 40
0.0
 40
0.0
 40
0.2811240081808092
 40
0.5622480163616167
 40
0.8433720245424273
 40
0.9999999999999999
 40
0.9999999999999999
 40
0.9999999999999999
 40
0.9999999999999999
 10
79.41404382326044
 20
201.5997646080839
 30
0.0
 10
79.41404382326044
 20
201.4702506961464
 30
0.0
 10
79.41404382326044
 20
201.2112228722713
 30
0.0
 10
79.41404382326044
 20
200.8901828516834
 30
0.0
 10
79.41404382326044
 20
200.687027810836
 30
0.0
 10
79.41404382326044
 20
200.6598983966641
 30
0.0
 10
79.41404382326044
 20
200.6501914727073
 30
0.0
  0
SPLINE
  5
153
330
1F
100
AcDbEntity
  8
0
  6
Continuous
 62
     8
370
    15
100
AcDbSpline
210
0.0
220
0.0
230
1.0
 70
    24
 71
     3
 72
    11
 73
     7
 74
     0
 42
0.000000001
 43
0.00000001
 40
0.0
 40
0.0
 40
0.0
 40
0.0
 40
0.2823052692711621
 40
0.5646105385423226
 40
0.8469158078134863
 40
1.0
 40
1.0
 40
1.0
 40
1.0
 10
180.3062563688104
 20
201.5997646080839
 30
0.0
 10
180.3062563688104
 20
201.4702413452734
 30
0.0
 10
180.3062563688105
 20
201.2111948196524
 30
0.0
 10
180.3062563688104
 20
200.890295062159
 30
0.0
 10
180.3062563688105
 20
200.6878708441485
 30
0.0
 10
180.3062563688104
 20
200.660813272103
 30
0.0
 10
180.3062563688104
 20
200.6512997516213
 30
0.0
  0
SPLINE
  5
154
330
1F
100
AcDbEntity
  8
0
  6
Continuous
 62
     7
370
    15
100
AcDbSpline
210
0.0
220
0.0
230
1.0
 70
     8
 71
     3
 72
    11
 73
     7
 74
     0
 42
0.000000001
 43
0.00000001
 40
0.0
 40
0.0
 40
0.0
 40
0.0
 40
0.250026866455598
 40
0.5000054713087391
 40
0.7499802858014181
 40
1.0
 40
1.0
 40
1.0
 40
1.0
 10
183.4828171470677
 20
88.40983359844496
 30
0.0
 10
183.4345056702468
 20
88.4098339216515
 30
0.0
 10
183.33789204196
 20
88.40983456800215
 30
0.0
 10
182.5948506912368
 20
88.40983553772786
 30
0.0
 10
181.5339504683685
 20
88.40983650743726
 30
0.0
 10
180.6955695937039
 20
88.40983715372214
 30
0.0
 10
180.276341512905
 20
88.4098374768936
 30
0.0
  0
SPLINE
  5
155
330
1F
100
AcDbEntity
  8
0
  6
Continuous
 62
     7
370
    15
100
AcDbSpline
210
0.0
220
0.0
230
1.0
 70
     8
 71
     3
 72
    11
 73
     7
 74
     0
 42
0.000000001
 43
0.00000001
 40
0.0
 40
0.0
 40
0.0
 40
0.0
 40
0.249970500277011
 40
0.4999123174861015
 40
0.74992921391581
 40
1.0
 40
1.0
 40
1.0
 40
1.0
 10
79.41404390275592
 20
88.40983747692367
 30
0.0
 10
79.09993553482403
 20
88.40979189378938
 30
0.0
 10
78.4717548415799
 20
88.40970073275129
 30
0.0
 10
77.61586641187878
 20
88.40956314499746
 30
0.0
 10
76.89802347576335
 20
88.40942507318908
 30
0.0
 10
76.61130777712059
 20
88.40933250111134
 30
0.0
 10
76.46793447949834
 20
88.40928621008467
 30
0.0
  0
SPLINE
  5
156
330
1F
100
AcDbEntity
  8
0
  6
Continuous
 62
     7
370
    15
100
AcDbSpline
210
0.0
220
0.0
230
1.0
 70
     8
 71
     3
 72
     9
 73
     5
 74
     0
 42
0.000000001
 43
0.00000001
 40
0.0
 40
0.0
 40
0.0
 40
0.0
 40
0.5882967959809832
 40
1.0
 40
1.0
 40
1.0
 40
1.0
 10
76.23762386887795
 20
88.40983775264176
 30
0.0
 10
76.18191398723431
 20
88.3960014149032
 30
0.0
 10
76.08721708930081
 20
88.37248209976654
 30
0.0
 10
76.11707664287795
 20
88.32061643701935
 30
0.0
 10
76.12936991675623
 20
88.29926317748776
 30
0.0
  0
SPLINE
  5
157
330
1F
100
AcDbEntity
  8
0
  6
Continuous
 62
     7
370
    15
100
AcDbSpline
210
0.0
220
0.0
230
1.0
 70
     8
 71
     3
 72
    11
 73
     7
 74
     0
 42
0.000000001
 43
0.00000001
 40
0.0
 40
0.0
 40
0.0
 40
0.0
 40
0.2554158766048082
 40
0.5148615501488669
 40
0.766372769886712
 40
1.0
 40
1.0
 40
1.0
 40
1.0
 10
76.11839412164146
 20
88.35852313763192
 30
0.0
 10
76.02830011435594
 20
88.31351763842997
 30
0.0
 10
75.84669065112783
 20
88.22279657052945
 30
0.0
 10
75.6444457977968
 20
87.99043059829452
 30
0.0
 10
75.51392366325682
 20
87.72041639078651
 30
0.0
 10
75.49636588278
 20
87.52756283532558
 30
0.0
 10
75.48791061476113
 20
87.43469070368221
 30
0.0
  0
SPLINE
  5
158
330
1F
100
AcDbEntity
  8
0
  6
Continuous
 62
     7
370
    15
100
AcDbSpline
210
0.0
220
0.0
230
1.0
 70
     8
 71
     3
 72
     9
 73
     5
 74
     0
 42
0.000000001
 43
0.00000001
 40
0.0
 40
0.0
 40
0.0
 40
0.0
 40
0.7012150519910882
 40
1.0
 40
1.0
 40
1.0
 40
1.0
 10
76.60361935295442
 20
88.3585231376319
 30
0.0
 10
76.54488232125695
 20
88.38001840067786
 30
0.0
 10
76.46111767369173
 20
88.41067270991566
 30
0.0
 10
76.4723846864763
 20
88.41576378331916
 30
0.0
 10
76.47575110030535
 20
88.41728491942135
 30
0.0
  0
LINE
  5
159
330
1F
100
AcDbEntity
  8
0
  6
Continuous
 62
     7
370
    15
100
AcDbLine
 10
75.8601500938
 20
88.6756347678
 30
0.0
 11
75.8601500938
 21
88.2579179939
 31
0.0
  0
LINE
  5
15A
330
1F
100
AcDbEntity
  8
0
  6
Continuous
 62
     7
370
    15
100
AcDbLine
 10
81.8601500938
 20
88.4256347678
 30
0.0
 11
81.8601500938
 21
88.6756347678
 31
0.0
  0
LINE
  5
15B
330
1F
100
AcDbEntity
  8
0
  6
Continuous
 62
     7
370
    15
100
AcDbLine
 10
177.8601500938
 20
88.6756347678
 30
0.0
 11
177.8601500938
 21
88.4256347678
 31
0.0
  0
LINE
  5
15C
330
1F
100
AcDbEntity
  8
0
  6
Continuous
 62
     7
370
    15
100
AcDbLine
 10
183.8601500938
 20
88.2579179939
 30
0.0
 11
183.8601500938
 21
88.6756347678
 31
0.0
  0
LINE
  5
15D
330
1F
100
AcDbEntity
  8
0
  6
Continuous
 62
     7
370
    15
100
AcDbLine
 10
78.8595408744
 20
55.6756347678
 30
0.0
 11
180.8607593132
 21
55.6756347678
 31
0.0
  0
LINE
  5
15E
330
1F
100
AcDbEntity
  8
0
  6
Continuous
 62
     7
370
    15
100
AcDbLine
 10
78.8595408744
 20
55.6756347678
 30
0.0
 11
79.4140438188
 21
87.4430871743
 31
0.0
  0
LINE
  5
15F
330
1F
100
AcDbEntity
  8
0
  6
Continuous
 62
     7
370
    15
100
AcDbLine
 10
79.4140438188
 20
87.4430871743
 30
0.0
 11
180.3062563644
 21
87.4430871743
 31
0.0
  0
LINE
  5
160
330
1F
100
AcDbEntity
  8
0
  6
Continuous
 62
     7
370
    15
100
AcDbLine
 10
180.8607593132
 20
55.6756347678
 30
0.0
 11
180.3062563644
 21
87.4430871743
 31
0.0
  0
LINE
  5
161
330
1F
100
AcDbEntity
  8
0
  6
Continuous
 62
     7
370
    15
100
AcDbLine
 10
74.8601500938
 20
55.6756347678
 30
0.0
 11
78.8595408744
 21
55.6756347678
 31
0.0
  0
LINE
  5
162
330
1F
100
AcDbEntity
  8
0
  6
Continuous
 62
     7
370
    15
100
AcDbLine
 10
74.8601500938
 20
55.6756347678
 30
0.0
 11
75.4146530382
 21
87.4430871743
 31
0.0
  0
LINE
  5
163
330
1F
100
AcDbEntity
  8
0
  6
Continuous
 62
     7
370
    15
100
AcDbLine
 10
75.4146530382
 20
87.4430871743
 30
0.0
 11
75.4928815579
 21
87.4461190252
 31
0.0
  0
LINE
  5
164
330
1F
100
AcDbEntity
  8
0
  6
Continuous
 62
     7
370
    15
100
AcDbLine
 10
180.8607593132
 20
55.6756347678
 30
0.0
 11
184.8601500938
 21
55.6756347678
 31
0.0
  0
SPLINE
  5
165
330
1F
100
AcDbEntity
  8
0
  6
Continuous
 62
     7
370
    15
100
AcDbSpline
210
0.0
220
0.0
230
1.0
 70
     8
 71
     3
 72
    53
 73
    49
 74
     0
 42
0.000000001
 43
0.00000001
 40
0.0
 40
0.0
 40
0.0
 40
0.0
 40
0.0217279083697907
 40
0.0434663378232209
 40
0.0652116976744772
 40
0.0869604292078702
 40
0.1087091177169083
 40
0.1304546646578293
 40
0.1521960386782235
 40
0.1739341799932251
 40
0.1956699439624109
 40
0.2174040666233932
 40
0.2391372479107449
 40
0.260870234921239
 40
0.2826038990010762
 40
0.3043388838014401
 40
0.3260751286229449
 40
0.3478123366245893
 40
0.3695501137208684
 40
0.3912880591344048
 40
0.4130258559399672
 40
0.4347633622447674
 40
0.4565007311317657
 40
0.4782382046405077
 40
0.4999758432899797
 40
0.5217135899283635
 40
0.543451358329009
 40
0.5651891217901227
 40
0.5869270016920837
 40
0.6086652643374648
 40
0.6304039512807692
 40
0.6521428498965299
 40
0.6738816042733932
 40
0.6956198057739518
 40
0.7173570835979921
 40
0.7390931953730208
 40
0.7608282760678889
 40
0.7825631546075026
 40
0.8042986546484656
 40
0.8260354981313773
 40
0.8477743885819372
 40
0.8695160944023969
 40
0.8912615321109324
 40
0.913011336079477
 40
0.934763443103699
 40
0.9565145927617615
 40
0.9782613064095518
 40
1.0
 40
1.0
 40
1.0
 40
1.0
 10
180.3062563576416
 20
87.44308650061068
 30
0.0
 10
180.3517549649507
 20
87.4432824203921
 30
0.0
 10
180.4427742108958
 20
87.44367435482314
 30
0.0
 10
180.5791686694066
 20
87.4442293275222
 30
0.0
 10
180.7152898157931
 20
87.44476041090277
 30
0.0
 10
180.8509576231877
 20
87.44526520914889
 30
0.0
 10
180.9859926332245
 20
87.44574434447168
 30
0.0
 10
181.1202179258968
 20
87.44619765218881
 30
0.0
 10
181.2534676650009
 20
87.44662515925474
 30
0.0
 10
181.3855915216048
 20
87.44702681469752
 30
0.0
 10
181.5164429914014
 20
87.4474026125034
 30
0.0
 10
181.6458761135644
 20
87.44775254065868
 30
0.0
 10
181.7737447465435
 20
87.44807658965775
 30
0.0
 10
181.8999030980159
 20
87.44837475033269
 30
0.0
 10
182.0242031787819
 20
87.44864701128232
 30
0.0
 10
182.1464998088908
 20
87.44889336159056
 30
0.0
 10
182.2666584639049
 20
87.44911379837518
 30
0.0
 10
182.3845417905552
 20
87.44930831561496
 30
0.0
 10
182.5000128595754
 20
87.44947690810736
 30
0.0
 10
182.6129344776892
 20
87.44961957110011
 30
0.0
 10
182.7231698503377
 20
87.44973630040775
 30
0.0
 10
182.8305807429545
 20
87.4498270925296
 30
0.0
 10
182.9350342012267
 20
87.449891943866
 30
0.0
 10
183.0364206448851
 20
87.449930852181
 30
0.0
 10
183.1346284164804
 20
87.4499438167337
 30
0.0
 10
183.2295466140779
 20
87.4499308372803
 30
0.0
 10
183.3210640433468
 20
87.44989191415227
 30
0.0
 10
183.4090697633625
 20
87.44982704825487
 30
0.0
 10
183.4934517766047
 20
87.44973624109767
 30
0.0
 10
183.5741006326626
 20
87.44961949637496
 30
0.0
 10
183.6509374437426
 20
87.44947681806774
 30
0.0
 10
183.7238811449508
 20
87.4493082103796
 30
0.0
 10
183.792851207204
 20
87.44911367816258
 30
0.0
 10
183.8577668979489
 20
87.4488932268063
 30
0.0
 10
183.9185474924539
 20
87.44864686230635
 30
0.0
 10
183.9751123198158
 20
87.44837459041942
 30
0.0
 10
184.0273811569564
 20
87.44807641524253
 30
0.0
 10
184.0753070723094
 20
87.44775235111383
 30
0.0
 10
184.118844079349
 20
87.44740240818442
 30
0.0
 10
184.1579462482551
 20
87.44702659623478
 30
0.0
 10
184.192567855188
 20
87.44662492657379
 30
0.0
 10
184.2226621924506
 20
87.4461974075704
 30
0.0
 10
184.2481858301437
 20
87.4457440650554
 30
0.0
 10
184.2690811835301
 20
87.44526490271123
 30
0.0
 10
184.2853724820999
 20
87.44476008695378
 30
0.0
 10
184.2969424660315
 20
87.44422898742586
 30
0.0
 10
184.3042095314416
 20
87.44367399426378
 30
0.0
 10
184.305129317189
 20
87.4432820816716
 30
0.0
 10
184.3055891252442
 20
87.44308616151592
 30
0.0
  0
LINE
  5
166
330
1F
100
AcDbEntity
  8
0
  6
Continuous
 62
     7
370
    15
100
AcDbLine
 10
184.3056471495
 20
87.4430871742
 30
0.0
 11
184.8601500938
 21
55.6756347678
 31
0.0
  0
LINE
  5
167
330
1F
100
AcDbEntity
  8
0
  6
Continuous
 62
     7
370
    15
100
AcDbLine
 10
180.3062563644
 20
88.3926603097
 30
0.0
 11
180.3062563644
 21
88.4256347678
 31
0.0
  0
SPLINE
  5
168
330
1F
100
AcDbEntity
  8
0
  6
Continuous
 62
     7
370
    15
100
AcDbSpline
210
0.0
220
0.0
230
1.0
 70
     8
 71
     3
 72
    11
 73
     7
 74
     0
 42
0.000000001
 43
0.00000001
 40
0.0
 40
0.0
 40
0.0
 40
0.0
 40
0.1531097205709061
 40
0.435406480380601
 40
0.7177032401903028
 40
1.0
 40
1.0
 40
1.0
 40
1.0
 10
183.4790798483897
 20
88.39155998129475
 30
0.0
 10
183.5488468452495
 20
88.38204506545212
 30
0.0
 10
183.7472470672353
 20
88.35498697924625
 30
0.0
 10
184.0218562289777
 20
88.15255753362081
 30
0.0
 10
184.2550101520704
 20
87.83165675935759
 30
0.0
 10
184.2887681503345
 20
87.57261036930596
 30
0.0
 10
184.3056471494666
 20
87.44308717428015
 30
0.0
  0
LINE
  5
169
330
1F
100
AcDbEntity
  8
0
  6
Continuous
 62
     7
370
    15
100
AcDbLine
 10
79.4140438188
 20
88.3915520307
 30
0.0
 11
79.4140438188
 21
88.4256347678
 31
0.0
  0
LINE
  5
16A
330
1F
100
AcDbEntity
  8
0
  6
Continuous
 62
     7
370
    15
100
AcDbLine
 10
180.3062563688
 20
88.4256347678
 30
0.0
 11
79.4140438188
 21
88.4256347678
 31
0.0
  0
LINE
  5
16B
330
1F
100
AcDbEntity
  8
0
  6
Continuous
 62
     7
370
    15
100
AcDbLine
 10
76.2352138567
 20
88.3903788343
 30
0.0
 11
76.4145007333
 21
88.4256347678
 31
0.0
  0
LINE
  5
16C
330
1F
100
AcDbEntity
  8
0
  6
Continuous
 62
     7
370
    15
100
AcDbLine
 10
76.5641802266
 20
88.4256347678
 30
0.0
 11
76.4145007333
 21
88.4256347678
 31
0.0
  0
LINE
  5
16D
330
1F
100
AcDbEntity
  8
0
  6
Continuous
 62
     7
370
    15
100
AcDbLine
 10
84.3601500938
 20
54.6756347678
 30
0.0
 11
175.3601500938
 21
54.6756347678
 31
0.0
  0
LINE
  5
16E
330
1F
100
AcDbEntity
  8
0
  6
Continuous
 62
     7
370
    15
100
AcDbLine
 10
84.3601500938
 20
55.6756347678
 30
0.0
 11
84.3601500938
 21
54.6756347678
 31
0.0
  0
LINE
  5
16F
330
1F
100
AcDbEntity
  8
0
  6
Continuous
 62
     7
370
    15
100
AcDbLine
 10
175.3601500938
 20
54.6756347678
 30
0.0
 11
175.3601500938
 21
55.6756347678
 31
0.0
  0
LINE
  5
170
330
1F
100
AcDbEntity
  8
0
  6
Continuous
 62
     7
370
    15
100
AcDbLine
 10
175.3601500938
 20
54.6756347678
 30
0.0
 11
177.7101500938
 21
54.6756347678
 31
0.0
  0
LINE
  5
171
330
1F
100
AcDbEntity
  8
0
  6
Continuous
 62
     7
370
    15
100
AcDbLine
 10
177.7101500938
 20
55.6756347678
 30
0.0
 11
177.7101500938
 21
54.6756347678
 31
0.0
  0
LINE
  5
172
330
1F
100
AcDbEntity
  8
0
  6
Continuous
 62
     7
370
    15
100
AcDbLine
 10
82.0101500938
 20
54.6756347678
 30
0.0
 11
84.3601500938
 21
54.6756347678
 31
0.0
  0
LINE
  5
173
330
1F
100
AcDbEntity
  8
0
  6
Continuous
 62
     7
370
    15
100
AcDbLine
 10
82.0101500938
 20
55.6756347678
 30
0.0
 11
82.0101500938
 21
54.6756347678
 31
0.0
  0
LINE
  5
174
330
1F
100
AcDbEntity
  8
0
  6
Continuous
 62
     7
370
    15
100
AcDbLine
 10
78.8601500938
 20
88.6756347678
 30
0.0
 11
75.8601500938
 21
88.6756347678
 31
0.0
  0
LINE
  5
175
330
1F
100
AcDbEntity
  8
0
  6
Continuous
 62
     7
370
    15
100
AcDbLine
 10
81.8601500938
 20
88.6756347678
 30
0.0
 11
78.8601500938
 21
88.6756347678
 31
0.0
  0
LINE
  5
176
330
1F
100
AcDbEntity
  8
0
  6
Continuous
 62
     7
370
    15
100
AcDbLine
 10
180.8601500938
 20
88.6756347678
 30
0.0
 11
177.8601500938
 21
88.6756347678
 31
0.0
  0
LINE
  5
177
330
1F
100
AcDbEntity
  8
0
  6
Continuous
 62
     7
370
    15
100
AcDbLine
 10
183.8601500938
 20
88.6756347678
 30
0.0
 11
180.8601500938
 21
88.6756347678
 31
0.0
  0
LINE
  5
178
330
1F
100
AcDbEntity
  8
0
  6
Continuous
 62
     7
370
    15
100
AcDbLine
 10
78.7169682756
 20
54.6756347678
 30
0.0
 11
78.7169682756
 21
55.6756347678
 31
0.0
  0
LINE
  5
179
330
1F
100
AcDbEntity
  8
0
  6
Continuous
 62
     7
370
    15
100
AcDbLine
 10
82.0101500938
 20
54.6756347678
 30
0.0
 11
78.7169682756
 21
54.6756347678
 31
0.0
  0
LINE
  5
17A
330
1F
100
AcDbEntity
  8
0
  6
Continuous
 62
     7
370
    15
100
AcDbLine
 10
181.003331912
 20
55.6756347678
 30
0.0
 11
181.003331912
 21
54.6756347678
 31
0.0
  0
LINE
  5
17B
330
1F
100
AcDbEntity
  8
0
  6
Continuous
 62
     7
370
    15
100
AcDbLine
 10
181.003331912
 20
54.6756347678
 30
0.0
 11
177.7101500938
 21
54.6756347678
 31
0.0
  0
LINE
  5
17C
330
1F
100
AcDbEntity
  8
0
  6
Continuous
 62
     7
370
    15
100
AcDbLine
 10
76.2601500938
 20
55.6756347678
 30
0.0
 11
76.2601500938
 21
54.6756347678
 31
0.0
  0
LINE
  5
17D
330
1F
100
AcDbEntity
  8
0
  6
Continuous
 62
     7
370
    15
100
AcDbLine
 10
76.2601500938
 20
54.6756347678
 30
0.0
 11
78.7169682756
 21
54.6756347678
 31
0.0
  0
LINE
  5
17E
330
1F
100
AcDbEntity
  8
0
  6
Continuous
 62
     7
370
    15
100
AcDbLine
 10
183.4601500938
 20
55.6756347678
 30
0.0
 11
183.4601500938
 21
54.6756347678
 31
0.0
  0
LINE
  5
17F
330
1F
100
AcDbEntity
  8
0
  6
Continuous
 62
     7
370
    15
100
AcDbLine
 10
181.003331912
 20
54.6756347678
 30
0.0
 11
183.4601500938
 21
54.6756347678
 31
0.0
  0
SPLINE
  5
180
330
1F
100
AcDbEntity
  8
0
  6
Continuous
 62
     8
370
    15
100
AcDbSpline
210
0.0
220
0.0
230
1.0
 70
     8
 71
     3
 72
    15
 73
    11
 74
     0
 42
0.000000001
 43
0.00000001
 40
0.0
 40
0.0
 40
0.0
 40
0.0
 40
0.009109514091606
 40
0.1534553500184344
 40
0.2938896097763051
 40
0.430412852919403
 40
0.5669703918016545
 40
0.7074204082765426
 40
0.8517634721027758
 40
1.0
 40
1.0
 40
1.0
 40
1.0
 10
75.49288155794045
 20
87.44611902518412
 30
0.0
 10
75.49449893474188
 20
87.44618563880042
 30
0.0
 10
75.52174463859393
 20
87.44730778600851
 30
0.0
 10
75.72022391224989
 20
87.44871936533106
 30
0.0
 10
76.0798760650349
 20
87.45008238637168
 30
0.0
 10
76.57007733906649
 20
87.45042916434036
 30
0.0
 10
77.15731210898556
 20
87.45007149389771
 30
0.0
 10
77.84034720162703
 20
87.44876284415571
 30
0.0
 10
78.60359122805731
 20
87.44646181184129
 30
0.0
 10
79.14150687485643
 20
87.44422198888279
 30
0.0
 10
79.41404381878128
 20
87.4430871743302
 30
0.0
  0
SPLINE
  5
181
330
1F
100
AcDbEntity
  8
0
  6
Continuous
 62
     8
370
    15
100
AcDbSpline
210
0.0
220
0.0
230
1.0
 70
    24
 71
     3
 72
    11
 73
     7
 74
     0
 42
0.000000001
 43
0.00000001
 40
0.0
 40
0.0
 40
0.0
 40
0.0
 40
0.2811240081808001
 40
0.5622480163615986
 40
0.8433720245424002
 40
1.0
 40
1.0
 40
1.0
 40
1.0
 10
180.3062563643604
 20
87.44308717427998
 30
0.0
 10
180.3062563643604
 20
87.57260108621749
 30
0.0
 10
180.3062563643604
 20
87.83162891009253
 30
0.0
 10
180.3062563643604
 20
88.15266893068049
 30
0.0
 10
180.3062563643604
 20
88.35582397152788
 30
0.0
 10
180.3062563643604
 20
88.38295338569978
 30
0.0
 10
180.3062563643604
 20
88.39266030965655
 30
0.0
  0
SPLINE
  5
182
330
1F
100
AcDbEntity
  8
0
  6
Continuous
 62
     8
370
    15
100
AcDbSpline
210
0.0
220
0.0
230
1.0
 70
    24
 71
     3
 72
    11
 73
     7
 74
     0
 42
0.000000001
 43
0.00000001
 40
0.0
 40
0.0
 40
0.0
 40
0.0
 40
0.2823052692711605
 40
0.5646105385423192
 40
0.8469158078134813
 40
1.0
 40
1.0
 40
1.0
 40
1.0
 10
79.41404381881044
 20
87.44308717427998
 30
0.0
 10
79.41404381881043
 20
87.57261043709047
 30
0.0
 10
79.41404381881043
 20
87.83165696271146
 30
0.0
 10
79.41404381881048
 20
88.15255672020484
 30
0.0
 10
79.41404381881043
 20
88.35498093821538
 30
0.0
 10
79.41404381881046
 20
88.38203851026086
 30
0.0
 10
79.41404381881044
 20
88.3915520307426
 30
0.0
  0
SPLINE
  5
183
330
1F
100
AcDbEntity
  8
0
  6
Continuous
 62
     7
370
    15
100
AcDbSpline
210
0.0
220
0.0
230
1.0
 70
     8
 71
     3
 72
    11
 73
     7
 74
     0
 42
0.000000001
 43
0.00000001
 40
0.0
 40
0.0
 40
0.0
 40
0.0
 40
0.2500268664339271
 40
0.5000054712804731
 40
0.7499802857813009
 40
1.0
 40
1.0
 40
1.0
 40
1.0
 10
202.1702226865895
 20
175.1333799980545
 30
0.0
 10
202.1702223633951
 20
175.085068521308
 30
0.0
 10
202.1702217170687
 20
174.9884548931668
 30
0.0
 10
202.1702207473793
 20
174.245413542726
 30
0.0
 10
202.1702197777063
 20
173.1845133200532
 30
0.0
 10
202.1702191314456
 20
172.346132445458
 30
0.0
 10
202.1702188082862
 20
171.9269043646838
 30
0.0
  0
SPLINE
  5
184
330
1F
100
AcDbEntity
  8
0
  6
Continuous
 62
     7
370
    15
100
AcDbSpline
210
0.0
220
0.0
230
1.0
 70
     8
 71
     3
 72
    11
 73
     7
 74
     0
 42
0.000000001
 43
0.00000001
 40
0.0
 40
0.0
 40
0.0
 40
0.0
 40
0.2499705002752983
 40
0.4999123174850637
 40
0.7499292139135948
 40
1.0
 40
1.0
 40
1.0
 40
1.0
 10
202.1702188082528
 20
121.0646067545046
 30
0.0
 10
202.1702643913872
 20
120.7504983865791
 30
0.0
 10
202.1703555524255
 20
120.1223176933448
 30
0.0
 10
202.1704931401796
 20
119.2664292636534
 30
0.0
 10
202.1706312119883
 20
118.548586327549
 30
0.0
 10
202.1707237840662
 20
118.2618706289002
 30
0.0
 10
202.1707700750929
 20
118.118497331274
 30
0.0
  0
SPLINE
  5
185
330
1F
100
AcDbEntity
  8
0
  6
Continuous
 62
     7
370
    15
100
AcDbSpline
210
0.0
220
0.0
230
1.0
 70
     8
 71
     3
 72
     9
 73
     5
 74
     0
 42
0.000000001
 43
0.00000001
 40
0.0
 40
0.0
 40
0.0
 40
0.0
 40
0.5882967959724482
 40
1.0
 40
1.0
 40
1.0
 40
1.0
 10
202.1702185325332
 20
117.8881867206743
 30
0.0
 10
202.1840548702705
 20
117.8324768390322
 30
0.0
 10
202.2075741854054
 20
117.7377799410998
 30
0.0
 10
202.259439848151
 20
117.7676394946746
 30
0.0
 10
202.2807931076824
 20
117.7799327685521
 30
0.0
  0
SPLINE
  5
186
330
1F
100
AcDbEntity
  8
0
  6
Continuous
 62
     7
370
    15
100
AcDbSpline
210
0.0
220
0.0
230
1.0
 70
     8
 71
     3
 72
    11
 73
     7
 74
     0
 42
0.000000001
 43
0.00000001
 40
0.0
 40
0.0
 40
0.0
 40
0.0
 40
0.2554158766037529
 40
0.5148615501480556
 40
0.7663727698863897
 40
1.0
 40
1.0
 40
1.0
 40
1.0
 10
202.2215331475408
 20
117.768956973446
 30
0.0
 10
202.266538646742
 20
117.678862966158
 30
0.0
 10
202.3572597146413
 20
117.4972535029244
 30
0.0
 10
202.589625686877
 20
117.2950086495841
 30
0.0
 10
202.8596398943881
 20
117.1644865150353
 30
0.0
 10
203.0524934498517
 20
117.1469287345545
 30
0.0
 10
203.1453655814963
 20
117.1384734665339
 30
0.0
  0
SPLINE
  5
187
330
1F
100
AcDbEntity
  8
0
  6
Continuous
 62
     7
370
    15
100
AcDbSpline
210
0.0
220
0.0
230
1.0
 70
     8
 71
     3
 72
     9
 73
     5
 74
     0
 42
0.000000001
 43
0.00000001
 40
0.0
 40
0.0
 40
0.0
 40
0.0
 40
0.7012150520273064
 40
1.0
 40
1.0
 40
1.0
 40
1.0
 10
202.2215331475408
 20
118.2541822047323
 30
0.0
 10
202.2000378844953
 20
118.1954451730354
 30
0.0
 10
202.1693835752598
 20
118.1116805254754
 30
0.0
 10
202.1642925018581
 20
118.1229475382634
 30
0.0
 10
202.1627713657566
 20
118.126313952093
 30
0.0
  0
LINE
  5
188
330
1F
100
AcDbEntity
  8
0
  6
Continuous
 62
     7
370
    15
100
AcDbLine
 10
201.9044215174
 20
164.0107129456
 30
0.0
 11
202.1544215174
 21
164.0107129456
 31
0.0
  0
LINE
  5
189
330
1F
100
AcDbEntity
  8
0
  6
Continuous
 62
     7
370
    15
100
AcDbLine
 10
202.1544215174
 20
170.0107129456
 30
0.0
 11
201.9044215174
 21
170.0107129456
 31
0.0
  0
LINE
  5
18A
330
1F
100
AcDbEntity
  8
0
  6
Continuous
 62
     7
370
    15
100
AcDbLine
 10
201.9044215174
 20
123.0107129456
 30
0.0
 11
202.1544215174
 21
123.0107129456
 31
0.0
  0
LINE
  5
18B
330
1F
100
AcDbEntity
  8
0
  6
Continuous
 62
     7
370
    15
100
AcDbLine
 10
202.1544215174
 20
129.0107129456
 30
0.0
 11
201.9044215174
 21
129.0107129456
 31
0.0
  0
LINE
  5
18C
330
1F
100
AcDbEntity
  8
0
  6
Continuous
 62
     7
370
    15
100
AcDbLine
 10
235.9044215174
 20
163.8663977016
 30
0.0
 11
234.9044215174
 21
163.8663977016
 31
0.0
  0
LINE
  5
18D
330
1F
100
AcDbEntity
  8
0
  6
Continuous
 62
     7
370
    15
100
AcDbLine
 10
234.9044215174
 20
129.1550281896
 30
0.0
 11
235.9044215174
 21
129.1550281896
 31
0.0
  0
SPLINE
  5
18E
330
1F
100
AcDbEntity
  8
0
  6
Continuous
 62
     7
370
    15
100
AcDbSpline
210
0.0
220
0.0
230
1.0
 70
     8
 71
     3
 72
    10
 73
     6
 74
     0
 42
0.000000001
 43
0.00000001
 40
0.0
 40
0.0
 40
0.0
 40
0.0
 40
0.3511817390255295
 40
0.7023004111806902
 40
1.0
 40
1.0
 40
1.0
 40
1.0
 10
202.1702188082862
 20
121.0945215264981
 30
0.0
 10
202.1702191314449
 20
120.678094542488
 30
0.0
 10
202.1702197777041
 20
119.8453153583865
 30
0.0
 10
202.1702206982142
 20
118.7983419622136
 30
0.0
 10
202.1702212954234
 20
118.4146744289623
 30
0.0
 10
202.170221569443
 20
118.2386348909865
 30
0.0
  0
LINE
  5
18F
330
1F
100
AcDbEntity
  8
0
  6
Continuous
 62
     7
370
    15
100
AcDbLine
 10
234.9044215174
 20
116.5107129456
 30
0.0
 11
234.9044215174
 21
120.5101037262
 31
0.0
  0
LINE
  5
190
330
1F
100
AcDbEntity
  8
0
  6
Continuous
 62
     7
370
    15
100
AcDbLine
 10
234.9044215174
 20
116.5107129456
 30
0.0
 11
203.1369691109
 21
117.0652158899
 31
0.0
  0
LINE
  5
191
330
1F
100
AcDbEntity
  8
0
  6
Continuous
 62
     7
370
    15
100
AcDbLine
 10
203.1369691109
 20
117.06521589
 30
0.0
 11
203.13393726
 21
117.1434444091
 31
0.0
  0
LINE
  5
192
330
1F
100
AcDbEntity
  8
0
  6
Continuous
 62
     7
370
    15
100
AcDbLine
 10
234.9044215174
 20
120.5101037262
 30
0.0
 11
203.1369691109
 21
121.0646066734
 31
0.0
  0
LINE
  5
193
330
1F
100
AcDbEntity
  8
0
  6
Continuous
 62
     7
370
    15
100
AcDbLine
 10
234.9044215174
 20
120.5101037262
 30
0.0
 11
234.9044215174
 21
172.511322165
 31
0.0
  0
LINE
  5
194
330
1F
100
AcDbEntity
  8
0
  6
Continuous
 62
     7
370
    15
100
AcDbLine
 10
203.1369691109
 20
121.0646066706
 30
0.0
 11
203.1369691109
 21
171.9568192161
 31
0.0
  0
LINE
  5
195
330
1F
100
AcDbEntity
  8
0
  6
Continuous
 62
     7
370
    15
100
AcDbLine
 10
234.9044215174
 20
172.511322165
 30
0.0
 11
203.1369691109
 21
171.9568192161
 31
0.0
  0
LINE
  5
196
330
1F
100
AcDbEntity
  8
0
  6
Continuous
 62
     7
370
    15
100
AcDbLine
 10
234.9044215174
 20
172.511322165
 30
0.0
 11
234.9044215174
 21
176.5107129456
 31
0.0
  0
SPLINE
  5
197
330
1F
100
AcDbEntity
  8
0
  6
Continuous
 62
     7
370
    15
100
AcDbSpline
210
0.0
220
0.0
230
1.0
 70
     8
 71
     3
 72
    53
 73
    49
 74
     0
 42
0.000000001
 43
0.00000001
 40
0.0
 40
0.0
 40
0.0
 40
0.0
 40
0.02172790833009
 40
0.0434663377455907
 40
0.0652116975607167
 40
0.086960429059782
 40
0.1087091175362844
 40
0.1304546644464723
 40
0.152196038437879
 40
0.1739341797256269
 40
0.1956699436692818
 40
0.2174040663064356
 40
0.2391372475716472
 40
0.2608702345616804
 40
0.2826038986227076
 40
0.3043388834059269
 40
0.3260751282120012
 40
0.3478123361999643
 40
0.3695501132843562
 40
0.3912880586878457
 40
0.4130258554852343
 40
0.4347633617837782
 40
0.4565007306664412
 40
0.4782382041727434
 40
0.4999758428216313
 40
0.5217135894612484
 40
0.5434513578648996
 40
0.5651891213307446
 40
0.586927001239124
 40
0.6086652638925719
 40
0.6304039508456227
 40
0.6521428494728282
 40
0.6738816038628577
 40
0.6956198053783216
 40
0.7173570832190257
 40
0.7390931950124898
 40
0.7608282757275722
 40
0.7825631542891973
 40
0.8042986543539935
 40
0.8260354978625833
 40
0.8477743883406907
 40
0.8695160941905895
 40
0.8912615319304851
 40
0.913011335932295
 40
0.934763442991492
 40
0.9565145926859471
 40
0.9782613063712371
 40
1.0
 40
1.0
 40
1.0
 40
1.0
 10
203.1369697845774
 20
171.9568192094072
 30
0.0
 10
203.1367738647955
 20
172.0023178166333
 30
0.0
 10
203.1363819303635
 20
172.0933370624162
 30
0.0
 10
203.1358269576634
 20
172.2297315206903
 30
0.0
 10
203.1352958742816
 20
172.3658526668528
 30
0.0
 10
203.1347910760343
 20
172.501520474037
 30
0.0
 10
203.1343119407105
 20
172.6365554838777
 30
0.0
 10
203.1338586329923
 20
172.7707807763684
 30
0.0
 10
203.1334311259254
 20
172.9040305153058
 30
0.0
 10
203.1330294704817
 20
173.0361543717583
 30
0.0
 10
203.1326536726748
 20
173.1670058414186
 30
0.0
 10
203.1323037445187
 20
173.2964389634609
 30
0.0
 10
203.1319796955189
 20
173.4243075963349
 30
0.0
 10
203.1316815348432
 20
173.5504659477176
 30
0.0
 10
203.1314092738928
 20
173.6747660284095
 30
0.0
 10
203.1311629235839
 20
173.7970626584596
 30
0.0
 10
203.1309424867987
 20
173.9172213134302
 30
0.0
 10
203.1307479695583
 20
174.0351046400521
 30
0.0
 10
203.1305793770654
 20
174.1505757090586
 30
0.0
 10
203.1304367140721
 20
174.2634973271738
 30
0.0
 10
203.1303199847641
 20
174.3737326998379
 30
0.0
 10
203.1302291926419
 20
174.4811435924845
 30
0.0
 10
203.1301643413051
 20
174.5855970507997
 30
0.0
 10
203.1301254329899
 20
174.6869834945132
 30
0.0
 10
203.1301124684369
 20
174.785191266175
 30
0.0
 10
203.1301254478901
 20
174.8801094638494
 30
0.0
 10
203.130164371018
 20
174.9716268932044
 30
0.0
 10
203.1302292369153
 20
175.0596326133148
 30
0.0
 10
203.1303200440724
 20
175.1440146266589
 30
0.0
 10
203.1304367887951
 20
175.2246634828245
 30
0.0
 10
203.1305794671024
 20
175.3015002940167
 30
0.0
 10
203.1307480747906
 20
175.3744439953407
 30
0.0
 10
203.1309426070078
 20
175.4434140577123
 30
0.0
 10
203.1311630583642
 20
175.5083297485772
 30
0.0
 10
203.1314094228644
 20
175.5691103432029
 30
0.0
 10
203.1316816947516
 20
175.6256751706848
 30
0.0
 10
203.1319798699288
 20
175.6779440079436
 30
0.0
 10
203.1323039340579
 20
175.7258699234113
 30
0.0
 10
203.1326538769877
 20
175.769406930561
 30
0.0
 10
203.1330296889378
 20
175.8085090995716
 30
0.0
 10
203.1334313585993
 20
175.843130706602
 30
0.0
 10
203.1338588776032
 20
175.8732250439539
 30
0.0
 10
203.1343122201188
 20
175.898748681727
 30
0.0
 10
203.1347913824636
 20
175.9196440351826
 30
0.0
 10
203.1352961982218
 20
175.9359353338094
 30
0.0
 10
203.1358272977504
 20
175.9475053177845
 30
0.0
 10
203.1363822909132
 20
175.9547723832252
 30
0.0
 10
203.136774203506
 20
175.9556921689796
 30
0.0
 10
203.1369701236619
 20
175.9561519770383
 30
0.0
  0
LINE
  5
198
330
1F
100
AcDbEntity
  8
0
  6
Continuous
 62
     7
370
    15
100
AcDbLine
 10
234.9044215174
 20
176.5107129456
 30
0.0
 11
203.1369691108
 21
175.9562100012
 31
0.0
  0
LINE
  5
199
330
1F
100
AcDbEntity
  8
0
  6
Continuous
 62
     7
370
    15
100
AcDbLine
 10
202.1873959755
 20
171.9568192161
 30
0.0
 11
202.1544215174
 21
171.9568192161
 31
0.0
  0
SPLINE
  5
19A
330
1F
100
AcDbEntity
  8
0
  6
Continuous
 62
     7
370
    15
100
AcDbSpline
210
0.0
220
0.0
230
1.0
 70
     8
 71
     3
 72
    11
 73
     7
 74
     0
 42
0.000000001
 43
0.00000001
 40
0.0
 40
0.0
 40
0.0
 40
0.0
 40
0.2822967596455647
 40
0.5645935192911277
 40
0.8468902789366939
 40
0.9999999999999999
 40
0.9999999999999999
 40
0.9999999999999999
 40
0.9999999999999999
 10
203.1369691108982
 20
175.956210001232
 30
0.0
 10
203.0074459158737
 20
175.9393310020996
 30
0.0
 10
202.7483995258246
 20
175.9055730038347
 30
0.0
 10
202.4274987515417
 20
175.6724190807485
 30
0.0
 10
202.2250693058154
 20
175.3978099187627
 30
0.0
 10
202.1980112195996
 20
175.1994096965031
 30
0.0
 10
202.1884963037301
 20
175.1296426993753
 30
0.0
  0
LINE
  5
19B
330
1F
100
AcDbEntity
  8
0
  6
Continuous
 62
     7
370
    15
100
AcDbLine
 10
202.1544215174
 20
124.2732976614
 30
0.0
 11
202.1544215174
 21
121.0646066706
 31
0.0
  0
SPLINE
  5
19C
330
1F
100
AcDbEntity
  8
0
  6
Continuous
 62
     7
370
    15
100
AcDbSpline
210
0.0
220
0.0
230
1.0
 70
     8
 71
     3
 72
    22
 73
    18
 74
     0
 42
0.000000001
 43
0.00000001
 40
0.0
 40
0.0
 40
0.0
 40
0.0
 40
0.125
 40
0.125
 40
0.25
 40
0.25
 40
0.375
 40
0.375
 40
0.5
 40
0.5
 40
0.625
 40
0.625
 40
0.75
 40
0.75
 40
0.875
 40
0.875
 40
1.0
 40
1.0
 40
1.0
 40
1.0
 10
202.1544215176761
 20
127.7481463122818
 30
0.0
 10
202.1544238294449
 20
127.6203007169905
 30
0.0
 10
202.1664627260803
 20
127.4876907545063
 30
0.0
 10
202.2002281253087
 20
127.212459792581
 30
0.0
 10
202.2222908012273
 20
127.068912089435
 30
0.0
 10
202.26472313207
 20
126.7750821522432
 30
0.0
 10
202.2848838593987
 20
126.6258116741102
 30
0.0
 10
202.3136869261845
 20
126.3216607121395
 30
0.0
 10
202.322190622599
 20
126.1658331180423
 30
0.0
 10
202.3220854521993
 20
125.8525685042655
 30
0.0
 10
202.3135911631879
 20
125.6984098373154
 30
0.0
 10
202.2847399724087
 20
125.394441807667
 30
0.0
 10
202.2643839595926
 20
125.2438908294506
 30
0.0
 10
202.2218766906282
 20
124.9497523458535
 30
0.0
 10
202.2000948993878
 20
124.8079684378869
 30
0.0
 10
202.166472776368
 20
124.5337284353919
 30
0.0
 10
202.1544238323213
 20
124.4012842577573
 30
0.0
 10
202.154421517676
 20
124.2732795789001
 30
0.0
  0
LINE
  5
19D
330
1F
100
AcDbEntity
  8
0
  6
Continuous
 62
     7
370
    15
100
AcDbLine
 10
202.1544215174
 20
165.2732976614
 30
0.0
 11
202.1544215174
 21
127.7481282298
 31
0.0
  0
SPLINE
  5
19E
330
1F
100
AcDbEntity
  8
0
  6
Continuous
 62
     7
370
    15
100
AcDbSpline
210
0.0
220
0.0
230
1.0
 70
     8
 71
     3
 72
    22
 73
    18
 74
     0
 42
0.000000001
 43
0.00000001
 40
0.0
 40
0.0
 40
0.0
 40
0.0
 40
0.125
 40
0.125
 40
0.25
 40
0.25
 40
0.375
 40
0.375
 40
0.5
 40
0.5
 40
0.625
 40
0.625
 40
0.75
 40
0.75
 40
0.875
 40
0.875
 40
1.0
 40
1.0
 40
1.0
 40
1.0
 10
202.1544215176761
 20
168.7481463122817
 30
0.0
 10
202.1544238294449
 20
168.6203007169906
 30
0.0
 10
202.1664627260803
 20
168.4876907545063
 30
0.0
 10
202.2002281253087
 20
168.212459792581
 30
0.0
 10
202.2222908012273
 20
168.068912089435
 30
0.0
 10
202.26472313207
 20
167.7750821522432
 30
0.0
 10
202.2848838593987
 20
167.6258116741102
 30
0.0
 10
202.3136869261845
 20
167.3216607121395
 30
0.0
 10
202.322190622599
 20
167.1658331180423
 30
0.0
 10
202.3220854521993
 20
166.8525685042654
 30
0.0
 10
202.3135911631879
 20
166.6984098373154
 30
0.0
 10
202.2847399724087
 20
166.394441807667
 30
0.0
 10
202.2643839595926
 20
166.2438908294507
 30
0.0
 10
202.2218766906282
 20
165.9497523458535
 30
0.0
 10
202.2000948993878
 20
165.8079684378869
 30
0.0
 10
202.166472776368
 20
165.5337284353919
 30
0.0
 10
202.1544238323213
 20
165.4012842577573
 30
0.0
 10
202.154421517676
 20
165.2732795789001
 30
0.0
  0
LINE
  5
19F
330
1F
100
AcDbEntity
  8
0
  6
Continuous
 62
     7
370
    15
100
AcDbLine
 10
202.1544215174
 20
171.9568192206
 30
0.0
 11
202.1544215174
 21
168.7481282298
 31
0.0
  0
LINE
  5
1A0
330
1F
100
AcDbEntity
  8
0
  6
Continuous
 62
     7
370
    15
100
AcDbLine
 10
202.1885042544
 20
121.0646066706
 30
0.0
 11
202.1544215174
 21
121.0646066706
 31
0.0
  0
LINE
  5
1A1
330
1F
100
AcDbEntity
  8
0
  6
Continuous
 62
     7
370
    15
100
AcDbLine
 10
202.1896774508
 20
117.8857767084
 30
0.0
 11
202.1544215174
 21
118.0650635851
 31
0.0
  0
LINE
  5
1A2
330
1F
100
AcDbEntity
  8
0
  6
Continuous
 62
     7
370
    15
100
AcDbLine
 10
202.1544215174
 20
118.2147430784
 30
0.0
 11
202.1544215174
 21
118.0650635851
 31
0.0
  0
LINE
  5
1A3
330
1F
100
AcDbEntity
  8
0
  6
Continuous
 62
     7
370
    15
100
AcDbLine
 10
201.9044215174
 20
170.0107129456
 30
0.0
 11
201.9044215174
 21
164.0107129456
 31
0.0
  0
LINE
  5
1A4
330
1F
100
AcDbEntity
  8
0
  6
Continuous
 62
     7
370
    15
100
AcDbLine
 10
201.9044215174
 20
129.0107129456
 30
0.0
 11
201.9044215174
 21
123.0107129456
 31
0.0
  0
LINE
  5
1A5
330
1F
100
AcDbEntity
  8
0
  6
Continuous
 62
     7
370
    15
100
AcDbLine
 10
235.9044215174
 20
161.5163977016
 30
0.0
 11
235.9044215174
 21
163.8663977016
 31
0.0
  0
LINE
  5
1A6
330
1F
100
AcDbEntity
  8
0
  6
Continuous
 62
     7
370
    15
100
AcDbLine
 10
234.9044215174
 20
161.5163977016
 30
0.0
 11
235.9044215174
 21
161.5163977016
 31
0.0
  0
LINE
  5
1A7
330
1F
100
AcDbEntity
  8
0
  6
Continuous
 62
     7
370
    15
100
AcDbLine
 10
235.9044215174
 20
129.1550281896
 30
0.0
 11
235.9044215174
 21
131.5050281896
 31
0.0
  0
LINE
  5
1A8
330
1F
100
AcDbEntity
  8
0
  6
Continuous
 62
     7
370
    15
100
AcDbLine
 10
234.9044215174
 20
131.5050281896
 30
0.0
 11
235.9044215174
 21
131.5050281896
 31
0.0
  0
LINE
  5
1A9
330
1F
100
AcDbEntity
  8
0
  6
Continuous
 62
     7
370
    15
100
AcDbLine
 10
235.9044215174
 20
131.5050281896
 30
0.0
 11
235.9044215174
 21
161.5163977016
 31
0.0
  0
LINE
  5
1AA
330
1F
100
AcDbEntity
  8
0
  6
Continuous
 62
     7
370
    15
100
AcDbLine
 10
234.9044215174
 20
167.0107129456
 30
0.0
 11
235.9044215174
 21
167.0107129456
 31
0.0
  0
LINE
  5
1AB
330
1F
100
AcDbEntity
  8
0
  6
Continuous
 62
     7
370
    15
100
AcDbLine
 10
235.9044215174
 20
167.0107129456
 30
0.0
 11
235.9044215174
 21
163.8663977016
 31
0.0
  0
LINE
  5
1AC
330
1F
100
AcDbEntity
  8
0
  6
Continuous
 62
     7
370
    15
100
AcDbLine
 10
235.9044215174
 20
126.0107129456
 30
0.0
 11
234.9044215174
 21
126.0107129456
 31
0.0
  0
LINE
  5
1AD
330
1F
100
AcDbEntity
  8
0
  6
Continuous
 62
     7
370
    15
100
AcDbLine
 10
235.9044215174
 20
129.1550281896
 30
0.0
 11
235.9044215174
 21
126.0107129456
 31
0.0
  0
LINE
  5
1AE
330
1F
100
AcDbEntity
  8
0
  6
Continuous
 62
     7
370
    15
100
AcDbLine
 10
234.9044215174
 20
117.9107129456
 30
0.0
 11
235.9044215174
 21
117.9107129456
 31
0.0
  0
LINE
  5
1AF
330
1F
100
AcDbEntity
  8
0
  6
Continuous
 62
     7
370
    15
100
AcDbLine
 10
234.9044215174
 20
120.2607129456
 30
0.0
 11
235.9044215174
 21
120.2607129456
 31
0.0
  0
LINE
  5
1B0
330
1F
100
AcDbEntity
  8
0
  6
Continuous
 62
     7
370
    15
100
AcDbLine
 10
235.9044215174
 20
117.9107129456
 30
0.0
 11
235.9044215174
 21
120.2607129456
 31
0.0
  0
LINE
  5
1B1
330
1F
100
AcDbEntity
  8
0
  6
Continuous
 62
     7
370
    15
100
AcDbLine
 10
235.9044215174
 20
120.2607129456
 30
0.0
 11
235.9044215174
 21
126.0107129456
 31
0.0
  0
LINE
  5
1B2
330
1F
100
AcDbEntity
  8
0
  6
Continuous
 62
     7
370
    15
100
AcDbLine
 10
234.9044215174
 20
172.7607129456
 30
0.0
 11
235.9044215174
 21
172.7607129456
 31
0.0
  0
LINE
  5
1B3
330
1F
100
AcDbEntity
  8
0
  6
Continuous
 62
     7
370
    15
100
AcDbLine
 10
234.9044215174
 20
175.1107129456
 30
0.0
 11
235.9044215174
 21
175.1107129456
 31
0.0
  0
LINE
  5
1B4
330
1F
100
AcDbEntity
  8
0
  6
Continuous
 62
     7
370
    15
100
AcDbLine
 10
235.9044215174
 20
172.7607129456
 30
0.0
 11
235.9044215174
 21
175.1107129456
 31
0.0
  0
LINE
  5
1B5
330
1F
100
AcDbEntity
  8
0
  6
Continuous
 62
     7
370
    15
100
AcDbLine
 10
235.9044215174
 20
167.0107129456
 30
0.0
 11
235.9044215174
 21
172.7607129456
 31
0.0
  0
SPLINE
  5
1B6
330
1F
100
AcDbEntity
  8
0
  6
Continuous
 62
     8
370
    15
100
AcDbSpline
210
0.0
220
0.0
230
1.0
 70
     8
 71
     3
 72
    15
 73
    11
 74
     0
 42
0.000000001
 43
0.00000001
 40
0.0
 40
0.0
 40
0.0
 40
0.0
 40
0.0091095129264114
 40
0.1534553483870855
 40
0.2938896084616478
 40
0.4304128527046574
 40
0.5669703906615341
 40
0.7074204068639603
 40
0.8517634710703451
 40
0.9999999999999999
 40
0.9999999999999999
 40
0.9999999999999999
 40
0.9999999999999999
 10
203.1339372599741
 20
117.1434444091131
 30
0.0
 10
203.1338706463661
 20
117.145061785706
 30
0.0
 10
203.1327484991667
 20
117.1723074892407
 30
0.0
 10
203.1313369198144
 20
117.3707867613014
 30
0.0
 10
203.1299738987392
 20
117.7304389136981
 30
0.0
 10
203.1296271208362
 20
118.2206401881999
 30
0.0
 10
203.1299847913538
 20
118.8078749579433
 30
0.0
 10
203.1312934410772
 20
119.4909100491152
 30
0.0
 10
203.1335944733685
 20
120.2541540777185
 30
0.0
 10
203.1358342963377
 20
120.7920697274354
 30
0.0
 10
203.136969110898
 20
121.0646066734209
 30
0.0
  0
SPLINE
  5
1B7
330
1F
100
AcDbEntity
  8
0
  6
Continuous
 62
     8
370
    15
100
AcDbSpline
210
0.0
220
0.0
230
1.0
 70
    24
 71
     3
 72
    11
 73
     7
 74
     0
 42
0.000000001
 43
0.00000001
 40
0.0
 40
0.0
 40
0.0
 40
0.0
 40
0.2811240081787306
 40
0.5622480163574658
 40
0.8433720245361941
 40
1.0
 40
1.0
 40
1.0
 40
1.0
 10
203.136969110898
 20
171.9568192161259
 30
0.0
 10
203.0074551989605
 20
171.9568192161259
 30
0.0
 10
202.7484273750856
 20
171.9568192161259
 30
0.0
 10
202.4273873544974
 20
171.9568192161259
 30
0.0
 10
202.2242323136488
 20
171.9568192161259
 30
0.0
 10
202.1971028994768
 20
171.9568192161259
 30
0.0
 10
202.1873959755196
 20
171.9568192161259
 30
0.0
  0
SPLINE
  5
1B8
330
1F
100
AcDbEntity
  8
0
  6
Continuous
 62
     8
370
    15
100
AcDbSpline
210
0.0
220
0.0
230
1.0
 70
    24
 71
     3
 72
    11
 73
     7
 74
     0
 42
0.000000001
 43
0.00000001
 40
0.0
 40
0.0
 40
0.0
 40
0.0
 40
0.2823052692656642
 40
0.564610538531333
 40
0.8469158077969949
 40
0.9999999999999999
 40
0.9999999999999999
 40
0.9999999999999999
 40
0.9999999999999999
 10
203.136969110898
 20
121.0646066705759
 30
0.0
 10
203.0074458480876
 20
121.0646066705759
 30
0.0
 10
202.7483993224667
 20
121.0646066705759
 30
0.0
 10
202.4274995649727
 20
121.0646066705759
 30
0.0
 10
202.2250753469589
 20
121.0646066705759
 30
0.0
 10
202.1980177749131
 20
121.0646066705759
 30
0.0
 10
202.1885042544304
 20
121.0646066705759
 30
0.0
  0
CIRCLE
  5
1B9
330
1F
100
AcDbEntity
  8
0
  6
Continuous
 62
     7
370
    15
100
AcDbCircle
 10
272.8630018762
 20
167.0107129456
 30
0.0
 40
1.624999999999972
  0
CIRCLE
  5
1BA
330
1F
100
AcDbEntity
  8
0
  6
Continuous
 62
     7
370
    15
100
AcDbCircle
 10
272.8630018762
 20
167.0107129456
 30
0.0
 40
3.0
  0
CIRCLE
  5
1BB
330
1F
100
AcDbEntity
  8
0
  6
Continuous
 62
     7
370
    15
100
AcDbCircle
 10
272.8630018762
 20
126.0107129456
 30
0.0
 40
1.625000000000014
  0
CIRCLE
  5
1BC
330
1F
100
AcDbEntity
  8
0
  6
Continuous
 62
     7
370
    15
100
AcDbCircle
 10
272.8630018762
 20
126.0107129456
 30
0.0
 40
2.999999999999972
  0
CIRCLE
  5
1BD
330
1F
100
AcDbEntity
  8
0
  6
Continuous
 62
     7
370
    15
100
AcDbCircle
 10
374.8630018762
 20
126.0107129456
 30
0.0
 40
1.625000000000014
  0
CIRCLE
  5
1BE
330
1F
100
AcDbEntity
  8
0
  6
Continuous
 62
     7
370
    15
100
AcDbCircle
 10
374.8630018762
 20
126.0107129456
 30
0.0
 40
2.999999999999972
  0
CIRCLE
  5
1BF
330
1F
100
AcDbEntity
  8
0
  6
Continuous
 62
     7
370
    15
100
AcDbCircle
 10
374.8630018762
 20
167.0107129456
 30
0.0
 40
1.624999999999972
  0
CIRCLE
  5
1C0
330
1F
100
AcDbEntity
  8
0
  6
Continuous
 62
     7
370
    15
100
AcDbCircle
 10
374.8630018762
 20
167.0107129456
 30
0.0
 40
3.0
  0
SPLINE
  5
1C1
330
1F
100
AcDbEntity
  8
0
  6
Continuous
 62
     7
370
    15
100
AcDbSpline
210
0.0
220
0.0
230
1.0
 70
     8
 71
     3
 72
    53
 73
    49
 74
     0
 42
0.000000001
 43
0.00000001
 40
0.0
 40
0.0
 40
0.0
 40
0.0
 40
0.02172790833009
 40
0.0434663377455907
 40
0.0652116975607167
 40
0.086960429059782
 40
0.1087091175362844
 40
0.1304546644464723
 40
0.152196038437879
 40
0.1739341797256269
 40
0.1956699436692818
 40
0.2174040663064356
 40
0.2391372475716472
 40
0.2608702345616804
 40
0.2826038986227076
 40
0.3043388834059269
 40
0.3260751282120012
 40
0.3478123361999643
 40
0.3695501132843562
 40
0.3912880586878457
 40
0.4130258554852343
 40
0.4347633617837782
 40
0.4565007306664412
 40
0.4782382041727434
 40
0.4999758428216313
 40
0.5217135894612484
 40
0.5434513578648996
 40
0.5651891213307446
 40
0.586927001239124
 40
0.6086652638925719
 40
0.6304039508456227
 40
0.6521428494728282
 40
0.6738816038628577
 40
0.6956198053783216
 40
0.7173570832190257
 40
0.7390931950124898
 40
0.7608282757275722
 40
0.7825631542891973
 40
0.8042986543539935
 40
0.8260354978625833
 40
0.8477743883406907
 40
0.8695160941905895
 40
0.8912615319304851
 40
0.913011335932295
 40
0.934763442991492
 40
0.9565145926859471
 40
0.9782613063712371
 40
1.0
 40
1.0
 40
1.0
 40
1.0
 10
378.308460336089
 20
171.9568192094072
 30
0.0
 10
378.3079983781668
 20
172.0023178166333
 30
0.0
 10
378.307074238633
 20
172.0933370624162
 30
0.0
 10
378.2997983421636
 20
172.2297315206903
 30
0.0
 10
378.288223133082
 20
172.3658526668528
 30
0.0
 10
378.2719330417873
 20
172.501520474037
 30
0.0
 10
378.2510516653462
 20
172.6365554838777
 30
0.0
 10
378.2255523396167
 20
172.7707807763684
 30
0.0
 10
378.1954688482867
 20
172.9040305153058
 30
0.0
 10
378.1608538611074
 20
173.0361543717583
 30
0.0
 10
378.1217558875584
 20
173.1670058414186
 30
0.0
 10
378.078224260473
 20
173.2964389634609
 30
0.0
 10
378.0303078292211
 20
173.4243075963349
 30
0.0
 10
377.9780562675011
 20
173.5504659477176
 30
0.0
 10
377.9215166129274
 20
173.6747660284095
 30
0.0
 10
377.8607496509113
 20
173.7970626584596
 30
0.0
 10
377.795842210201
 20
173.9172213134302
 30
0.0
 10
377.7268770455555
 20
174.0351046400521
 30
0.0
 10
377.6539381388549
 20
174.1505757090586
 30
0.0
 10
377.5771089768546
 20
174.2634973271738
 30
0.0
 10
377.4964736166884
 20
174.3737326998379
 30
0.0
 10
377.4121140702374
 20
174.4811435924845
 30
0.0
 10
377.3241202693579
 20
174.5855970507997
 30
0.0
 10
377.2326093704083
 20
174.6869834945132
 30
0.0
 10
377.1376941941503
 20
174.785191266175
 30
0.0
 10
377.0394885226744
 20
174.8801094638494
 30
0.0
 10
376.9381057801249
 20
174.9716268932044
 30
0.0
 10
376.8336596518271
 20
175.0596326133148
 30
0.0
 10
376.7262631284444
 20
175.1440146266589
 30
0.0
 10
376.6160333246929
 20
175.2246634828245
 30
0.0
 10
376.5031109379794
 20
175.3015002940167
 30
0.0
 10
376.387634405711
 20
175.3744439953407
 30
0.0
 10
376.2697427417957
 20
175.4434140577123
 30
0.0
 10
376.1495747827342
 20
175.5083297485772
 30
0.0
 10
376.0272694187531
 20
175.5691103432029
 30
0.0
 10
375.9029651072917
 20
175.6256751706848
 30
0.0
 10
375.7767996330221
 20
175.6779440079436
 30
0.0
 10
375.6489229392041
 20
175.7258699234113
 30
0.0
 10
375.5194824216697
 20
175.769406930561
 30
0.0
 10
375.3886252221558
 20
175.8085090995716
 30
0.0
 10
375.2564984524374
 20
175.843130706602
 30
0.0
 10
375.1232492232146
 20
175.8732250439539
 30
0.0
 10
374.9890257305084
 20
175.898748681727
 30
0.0
 10
374.8539833967163
 20
175.9196440351826
 30
0.0
 10
374.7182939320887
 20
175.9359353338094
 30
0.0
 10
374.5821356007278
 20
175.9475053177845
 30
0.0
 10
374.445688557268
 20
175.9547723832252
 30
0.0
 10
374.3546293475671
 20
175.9556921689796
 30
0.0
 10
374.3091081397865
 20
175.9561519770383
 30
0.0
  0
SPLINE
  5
1C2
330
1F
100
AcDbEntity
  8
0
  6
Continuous
 62
     7
370
    15
100
AcDbSpline
210
0.0
220
0.0
230
1.0
 70
    24
 71
     3
 72
    14
 73
    10
 74
     0
 42
0.000000001
 43
0.00000001
 40
0.0
 40
0.0
 40
0.0
 40
0.0
 40
0.25
 40
0.25
 40
0.5
 40
0.5
 40
0.75
 40
0.75
 40
1.0
 40
1.0
 40
1.0
 40
1.0
 10
377.3086512366707
 20
171.9568192161259
 30
0.0
 10
377.4380964895255
 20
171.9568192161259
 30
0.0
 10
377.5674930294491
 20
171.9568192161259
 30
0.0
 10
377.8071066785894
 20
171.9568192161259
 30
0.0
 10
377.9172336162242
 20
171.9568192161259
 30
0.0
 10
378.1018873857049
 20
171.9568192161259
 30
0.0
 10
378.1763447285105
 20
171.9568192161259
 30
0.0
 10
378.2785401651186
 20
171.9568192161259
 30
0.0
 10
378.3062398006604
 20
171.9568192161259
 30
0.0
 10
378.3084989318268
 20
171.9568192161259
 30
0.0
  0
SPLINE
  5
1C3
330
1F
100
AcDbEntity
  8
0
  6
Continuous
 62
     7
370
    15
100
AcDbSpline
210
0.0
220
0.0
230
1.0
 70
     8
 71
     3
 72
    14
 73
    10
 74
     0
 42
0.000000001
 43
0.00000001
 40
0.0
 40
0.0
 40
0.0
 40
0.0
 40
0.25
 40
0.25
 40
0.5
 40
0.5
 40
0.75
 40
0.75
 40
1.0
 40
1.0
 40
1.0
 40
1.0
 10
374.3091081511707
 20
174.9563623060759
 30
0.0
 10
374.7016383149763
 20
174.9562824187946
 30
0.0
 10
375.0944743933764
 20
174.8782905511022
 30
0.0
 10
375.8198215717077
 20
174.5778356491556
 30
0.0
 10
376.1525610528018
 20
174.3554890689041
 30
0.0
 10
376.7078070443592
 20
173.8002613047125
 30
0.0
 10
376.9301444455249
 20
173.4675164218874
 30
0.0
 10
377.2305567708664
 20
172.7421636141013
 30
0.0
 10
377.3085572273238
 20
172.3491965516559
 30
0.0
 10
377.3086512366707
 20
171.9568192206059
 30
0.0
  0
SPLINE
  5
1C4
330
1F
100
AcDbEntity
  8
0
  6
Continuous
 62
     7
370
    15
100
AcDbSpline
210
0.0
220
0.0
230
1.0
 70
    24
 71
     3
 72
    14
 73
    10
 74
     0
 42
0.000000001
 43
0.00000001
 40
0.0
 40
0.0
 40
0.0
 40
0.0
 40
0.25
 40
0.25
 40
0.5
 40
0.5
 40
0.75
 40
0.75
 40
1.0
 40
1.0
 40
1.0
 40
1.0
 10
374.3091080516198
 20
174.9563623060759
 30
0.0
 10
374.3091080619189
 20
175.073177742701
 30
0.0
 10
374.3091080730125
 20
175.1989977233754
 30
0.0
 10
374.3091080945058
 20
175.4427588473559
 30
0.0
 10
374.309108104842
 20
175.5599778781639
 30
0.0
 10
374.3091081219956
 20
175.7544962307987
 30
0.0
 10
374.3091081287577
 20
175.8311681444441
 30
0.0
 10
374.3091081375491
 20
175.9308289004402
 30
0.0
 10
374.3091081396045
 20
175.9541134280342
 30
0.0
 10
374.3091081397865
 20
175.9561519770383
 30
0.0
  0
SPLINE
  5
1C5
330
1F
100
AcDbEntity
  8
0
  6
Continuous
 62
     7
370
    15
100
AcDbSpline
210
0.0
220
0.0
230
1.0
 70
     8
 71
     3
 72
    53
 73
    49
 74
     0
 42
0.000000001
 43
0.00000001
 40
0.0
 40
0.0
 40
0.0
 40
0.0
 40
0.02172790833009
 40
0.0434663377455907
 40
0.0652116975607167
 40
0.086960429059782
 40
0.1087091175362844
 40
0.1304546644464723
 40
0.152196038437879
 40
0.1739341797256269
 40
0.1956699436692818
 40
0.2174040663064356
 40
0.2391372475716472
 40
0.2608702345616804
 40
0.2826038986227076
 40
0.3043388834059269
 40
0.3260751282120012
 40
0.3478123361999643
 40
0.3695501132843562
 40
0.3912880586878457
 40
0.4130258554852343
 40
0.4347633617837782
 40
0.4565007306664412
 40
0.4782382041727434
 40
0.4999758428216313
 40
0.5217135894612484
 40
0.5434513578648996
 40
0.5651891213307446
 40
0.586927001239124
 40
0.6086652638925719
 40
0.6304039508456227
 40
0.6521428494728282
 40
0.6738816038628577
 40
0.6956198053783216
 40
0.7173570832190257
 40
0.7390931950124898
 40
0.7608282757275722
 40
0.7825631542891973
 40
0.8042986543539935
 40
0.8260354978625833
 40
0.8477743883406907
 40
0.8695160941905895
 40
0.8912615319304851
 40
0.913011335932295
 40
0.934763442991492
 40
0.9565145926859471
 40
0.9782613063712371
 40
1.0
 40
1.0
 40
1.0
 40
1.0
 10
269.4175434162523
 20
121.0646066817747
 30
0.0
 10
269.4180053741746
 20
121.0191080745486
 30
0.0
 10
269.4189295137084
 20
120.9280888287657
 30
0.0
 10
269.4262054101778
 20
120.7916943704916
 30
0.0
 10
269.4377806192593
 20
120.655573224329
 30
0.0
 10
269.454070710554
 20
120.5199054171448
 30
0.0
 10
269.4749520869951
 20
120.3848704073042
 30
0.0
 10
269.5004514127247
 20
120.2506451148135
 30
0.0
 10
269.5305349040546
 20
120.117395375876
 30
0.0
 10
269.5651498912339
 20
119.9852715194236
 30
0.0
 10
269.604247864783
 20
119.8544200497632
 30
0.0
 10
269.6477794918683
 20
119.724986927721
 30
0.0
 10
269.6956959231202
 20
119.597118294847
 30
0.0
 10
269.7479474848403
 20
119.4709599434642
 30
0.0
 10
269.8044871394139
 20
119.3466598627723
 30
0.0
 10
269.86525410143
 20
119.2243632327223
 30
0.0
 10
269.9301615421404
 20
119.1042045777517
 30
0.0
 10
269.9991267067858
 20
118.9863212511298
 30
0.0
 10
270.0720656134865
 20
118.8708501821232
 30
0.0
 10
270.1488947754868
 20
118.7579285640081
 30
0.0
 10
270.229530135653
 20
118.647693191344
 30
0.0
 10
270.3138896821039
 20
118.5402822986973
 30
0.0
 10
270.4018834829835
 20
118.4358288403821
 30
0.0
 10
270.493394381933
 20
118.3344423966687
 30
0.0
 10
270.5883095581911
 20
118.2362346250069
 30
0.0
 10
270.6865152296669
 20
118.1413164273324
 30
0.0
 10
270.7878979722164
 20
118.0497989979774
 30
0.0
 10
270.8923441005142
 20
117.961793277867
 30
0.0
 10
270.999740623897
 20
117.8774112645229
 30
0.0
 10
271.1099704276485
 20
117.7967624083574
 30
0.0
 10
271.222892814362
 20
117.7199255971651
 30
0.0
 10
271.3383693466303
 20
117.6469818958412
 30
0.0
 10
271.4562610105457
 20
117.5780118334695
 30
0.0
 10
271.5764289696072
 20
117.5130961426046
 30
0.0
 10
271.6987343335882
 20
117.452315547979
 30
0.0
 10
271.8230386450497
 20
117.395750720497
 30
0.0
 10
271.9492041193192
 20
117.3434818832382
 30
0.0
 10
272.0770808131373
 20
117.2955559677705
 30
0.0
 10
272.2065213306716
 20
117.2520189606209
 30
0.0
 10
272.3373785301855
 20
117.2129167916103
 30
0.0
 10
272.4695052999039
 20
117.1782951845799
 30
0.0
 10
272.6027545291267
 20
117.148200847228
 30
0.0
 10
272.736978021833
 20
117.1226772094549
 30
0.0
 10
272.872020355625
 20
117.1017818559993
 30
0.0
 10
273.0077098202527
 20
117.0854905573725
 30
0.0
 10
273.1438681516135
 20
117.0739205733974
 30
0.0
 10
273.2803151950733
 20
117.0666535079567
 30
0.0
 10
273.3713744047743
 20
117.0657337222023
 30
0.0
 10
273.4168956125548
 20
117.0652739141436
 30
0.0
  0
SPLINE
  5
1C6
330
1F
100
AcDbEntity
  8
0
  6
Continuous
 62
     7
370
    15
100
AcDbSpline
210
0.0
220
0.0
230
1.0
 70
    24
 71
     3
 72
    14
 73
    10
 74
     0
 42
0.000000001
 43
0.00000001
 40
0.0
 40
0.0
 40
0.0
 40
0.0
 40
0.25
 40
0.25
 40
0.5
 40
0.5
 40
0.75
 40
0.75
 40
1.0
 40
1.0
 40
1.0
 40
1.0
 10
270.4173525156707
 20
121.0646066750559
 30
0.0
 10
270.2879072628158
 20
121.0646066750559
 30
0.0
 10
270.1585107228923
 20
121.0646066750559
 30
0.0
 10
269.918897073752
 20
121.0646066750559
 30
0.0
 10
269.8087701361172
 20
121.0646066750559
 30
0.0
 10
269.6241163666365
 20
121.0646066750559
 30
0.0
 10
269.5496590238308
 20
121.0646066750559
 30
0.0
 10
269.4474635872227
 20
121.0646066750559
 30
0.0
 10
269.4197639516809
 20
121.0646066750559
 30
0.0
 10
269.4175048205146
 20
121.0646066750559
 30
0.0
  0
SPLINE
  5
1C7
330
1F
100
AcDbEntity
  8
0
  6
Continuous
 62
     7
370
    15
100
AcDbSpline
210
0.0
220
0.0
230
1.0
 70
     8
 71
     3
 72
    14
 73
    10
 74
     0
 42
0.000000001
 43
0.00000001
 40
0.0
 40
0.0
 40
0.0
 40
0.0
 40
0.25
 40
0.25
 40
0.5
 40
0.5
 40
0.75
 40
0.75
 40
1.0
 40
1.0
 40
1.0
 40
1.0
 10
273.4168956011707
 20
118.065063585106
 30
0.0
 10
273.024365437365
 20
118.0651434723873
 30
0.0
 10
272.6315293589649
 20
118.1431353400796
 30
0.0
 10
271.9061821806336
 20
118.4435902420263
 30
0.0
 10
271.5734426995396
 20
118.6659368222778
 30
0.0
 10
271.0181967079821
 20
119.2211645864693
 30
0.0
 10
270.7958593068164
 20
119.5539094692944
 30
0.0
 10
270.4954469814749
 20
120.2792622770805
 30
0.0
 10
270.4174465250175
 20
120.672229339526
 30
0.0
 10
270.4173525156707
 20
121.0646066705759
 30
0.0
  0
SPLINE
  5
1C8
330
1F
100
AcDbEntity
  8
0
  6
Continuous
 62
     7
370
    15
100
AcDbSpline
210
0.0
220
0.0
230
1.0
 70
    24
 71
     3
 72
    14
 73
    10
 74
     0
 42
0.000000001
 43
0.00000001
 40
0.0
 40
0.0
 40
0.0
 40
0.0
 40
0.25
 40
0.25
 40
0.5
 40
0.5
 40
0.75
 40
0.75
 40
1.0
 40
1.0
 40
1.0
 40
1.0
 10
273.4168957007215
 20
118.0650635851059
 30
0.0
 10
273.4168956904224
 20
117.9482481484809
 30
0.0
 10
273.4168956793289
 20
117.8224281678065
 30
0.0
 10
273.4168956578355
 20
117.578667043826
 30
0.0
 10
273.4168956474994
 20
117.461448013018
 30
0.0
 10
273.4168956303458
 20
117.2669296603832
 30
0.0
 10
273.4168956235837
 20
117.1902577467378
 30
0.0
 10
273.4168956147923
 20
117.0905969907417
 30
0.0
 10
273.4168956127369
 20
117.0673124631476
 30
0.0
 10
273.4168956125548
 20
117.0652739141436
 30
0.0
  0
SPLINE
  5
1C9
330
1F
100
AcDbEntity
  8
0
  6
Continuous
 62
     7
370
    15
100
AcDbSpline
210
0.0
220
0.0
230
1.0
 70
     8
 71
     3
 72
    53
 73
    49
 74
     0
 42
0.000000001
 43
0.00000001
 40
0.0
 40
0.0
 40
0.0
 40
0.0
 40
0.0217279083697907
 40
0.0434663378232209
 40
0.0652116976744772
 40
0.0869604292078702
 40
0.1087091177169083
 40
0.1304546646578293
 40
0.1521960386782235
 40
0.1739341799932251
 40
0.1956699439624109
 40
0.2174040666233932
 40
0.2391372479107449
 40
0.260870234921239
 40
0.2826038990010762
 40
0.3043388838014401
 40
0.3260751286229449
 40
0.3478123366245893
 40
0.3695501137208684
 40
0.3912880591344048
 40
0.4130258559399672
 40
0.4347633622447674
 40
0.4565007311317657
 40
0.4782382046405077
 40
0.4999758432899797
 40
0.5217135899283635
 40
0.543451358329009
 40
0.5651891217901227
 40
0.5869270016920837
 40
0.6086652643374648
 40
0.6304039512807692
 40
0.6521428498965299
 40
0.6738816042733932
 40
0.6956198057739518
 40
0.7173570835979921
 40
0.7390931953730208
 40
0.7608282760678889
 40
0.7825631546075026
 40
0.8042986546484656
 40
0.8260354981313773
 40
0.8477743885819372
 40
0.8695160944023969
 40
0.8912615321109324
 40
0.913011336079477
 40
0.934763443103699
 40
0.9565145927617615
 40
0.9782613064095518
 40
1.0
 40
1.0
 40
1.0
 40
1.0
 10
273.4168956123395
 20
175.9561714055119
 30
0.0
 10
273.3713970050304
 20
175.9557094475869
 30
0.0
 10
273.2803777590853
 20
175.9547853080476
 30
0.0
 10
273.1439833005745
 20
175.9475094115508
 30
0.0
 10
273.007862154188
 20
175.9359342024289
 30
0.0
 10
272.8721943467934
 20
175.9196441110803
 30
0.0
 10
272.7371593367566
 20
175.8987627345735
 30
0.0
 10
272.6029340440843
 20
175.8732634087667
 30
0.0
 10
272.4696843049803
 20
175.8431799173497
 30
0.0
 10
272.3375604483763
 20
175.8085649300748
 30
0.0
 10
272.2067089785797
 20
175.7694669564226
 30
0.0
 10
272.0772758564168
 20
175.725935329228
 30
0.0
 10
271.9494072234376
 20
175.6780188978616
 30
0.0
 10
271.8232488719652
 20
175.6257673360231
 30
0.0
 10
271.6989487911992
 20
175.5692276813282
 30
0.0
 10
271.5766521610904
 20
175.5084607191896
 30
0.0
 10
271.4564935060761
 20
175.4435532783572
 30
0.0
 10
271.3386101794259
 20
175.3745881135913
 30
0.0
 10
271.2231391104057
 20
175.3016492067734
 30
0.0
 10
271.1102174922919
 20
175.22482004466
 30
0.0
 10
270.9999821196435
 20
175.1441846843863
 30
0.0
 10
270.8925712270266
 20
175.0598251378346
 30
0.0
 10
270.7881177687544
 20
174.9718313368626
 30
0.0
 10
270.686731325096
 20
174.8803204378298
 30
0.0
 10
270.5885235535007
 20
174.7854052614983
 30
0.0
 10
270.4936053559032
 20
174.6871995899595
 30
0.0
 10
270.4020879266343
 20
174.5858168473582
 30
0.0
 10
270.3140822066186
 20
174.4813707190201
 30
0.0
 10
270.2297001933764
 20
174.3739741956092
 30
0.0
 10
270.1490513373185
 20
174.2637443918425
 30
0.0
 10
270.0722145262385
 20
174.1508220051274
 30
0.0
 10
269.9992708250303
 20
174.0353454728717
 30
0.0
 10
269.9303007627771
 20
173.9174538089835
 30
0.0
 10
269.8653850720322
 20
173.7972858499644
 30
0.0
 10
269.8046044775272
 20
173.6749804860409
 30
0.0
 10
269.7480396501654
 20
173.5506761746528
 30
0.0
 10
269.6957708130247
 20
173.4245107004724
 30
0.0
 10
269.6478448976717
 20
173.2966340067597
 30
0.0
 10
269.6043078906322
 20
173.1671934893471
 30
0.0
 10
269.565205721726
 20
173.036336289971
 30
0.0
 10
269.5305841147931
 20
172.9042095204066
 30
0.0
 10
269.5004897775306
 20
172.7709602913538
 30
0.0
 10
269.4749661398374
 20
172.6367367988336
 30
0.0
 10
269.4540707864509
 20
172.5016944652425
 30
0.0
 10
269.4377794878812
 20
172.3660050008293
 30
0.0
 10
269.4262095039496
 20
172.2298466696943
 30
0.0
 10
269.4189424385395
 20
172.0933996264688
 30
0.0
 10
269.4180226527921
 20
172.0023404169269
 30
0.0
 10
269.4175628447369
 20
171.9568192092268
 30
0.0
  0
SPLINE
  5
1CA
330
1F
100
AcDbEntity
  8
0
  6
Continuous
 62
     7
370
    15
100
AcDbSpline
210
0.0
220
0.0
230
1.0
 70
    24
 71
     3
 72
    14
 73
    10
 74
     0
 42
0.000000001
 43
0.00000001
 40
0.0
 40
0.0
 40
0.0
 40
0.0
 40
0.25
 40
0.25
 40
0.5
 40
0.5
 40
0.75
 40
0.75
 40
1.0
 40
1.0
 40
1.0
 40
1.0
 10
273.4168956056207
 20
174.9563623060759
 30
0.0
 10
273.4168956056207
 20
175.0858075589308
 30
0.0
 10
273.4168956056207
 20
175.2152040988543
 30
0.0
 10
273.4168956056207
 20
175.4548177479946
 30
0.0
 10
273.4168956056207
 20
175.5649446856295
 30
0.0
 10
273.4168956056207
 20
175.7495984551102
 30
0.0
 10
273.4168956056207
 20
175.8240557979158
 30
0.0
 10
273.4168956056207
 20
175.9262512345239
 30
0.0
 10
273.4168956056207
 20
175.9539508700657
 30
0.0
 10
273.4168956056207
 20
175.956210001232
 30
0.0
  0
SPLINE
  5
1CB
330
1F
100
AcDbEntity
  8
0
  6
Continuous
 62
     7
370
    15
100
AcDbSpline
210
0.0
220
0.0
230
1.0
 70
     8
 71
     3
 72
    14
 73
    10
 74
     0
 42
0.000000001
 43
0.00000001
 40
0.0
 40
0.0
 40
0.0
 40
0.0
 40
0.25
 40
0.25
 40
0.5
 40
0.5
 40
0.75
 40
0.75
 40
1.0
 40
1.0
 40
1.0
 40
1.0
 10
270.4173525156707
 20
171.9568192206059
 30
0.0
 10
270.417432402996
 20
172.3493493843657
 30
0.0
 10
270.4954242706508
 20
172.7421854628084
 30
0.0
 10
270.7958791725948
 20
173.4675326411438
 30
0.0
 10
271.0182257528641
 20
173.8002721222302
 30
0.0
 10
271.5734535170488
 20
174.3555181137758
 30
0.0
 10
271.9061983998615
 20
174.5778555149555
 30
0.0
 10
272.6315512076609
 20
174.8782678402883
 30
0.0
 10
273.024518270126
 20
174.9562682967337
 30
0.0
 10
273.4168956011707
 20
174.9563623060759
 30
0.0
  0
SPLINE
  5
1CC
330
1F
100
AcDbEntity
  8
0
  6
Continuous
 62
     7
370
    15
100
AcDbSpline
210
0.0
220
0.0
230
1.0
 70
    24
 71
     3
 72
    14
 73
    10
 74
     0
 42
0.000000001
 43
0.00000001
 40
0.0
 40
0.0
 40
0.0
 40
0.0
 40
0.25
 40
0.25
 40
0.5
 40
0.5
 40
0.75
 40
0.75
 40
1.0
 40
1.0
 40
1.0
 40
1.0
 10
269.4175048205146
 20
171.9568192206059
 30
0.0
 10
269.419763951681
 20
171.9568192206059
 30
0.0
 10
269.4474635872227
 20
171.9568192206059
 30
0.0
 10
269.5496590238308
 20
171.9568192206059
 30
0.0
 10
269.6241163666365
 20
171.9568192206059
 30
0.0
 10
269.8087701361172
 20
171.9568192206059
 30
0.0
 10
269.918897073752
 20
171.9568192206059
 30
0.0
 10
270.1585107228923
 20
171.9568192206059
 30
0.0
 10
270.2879072628158
 20
171.9568192206059
 30
0.0
 10
270.4173525156707
 20
171.9568192206059
 30
0.0
  0
SPLINE
  5
1CD
330
1F
100
AcDbEntity
  8
0
  6
Continuous
 62
     7
370
    15
100
AcDbSpline
210
0.0
220
0.0
230
1.0
 70
     8
 71
     3
 72
    53
 73
    49
 74
     0
 42
0.000000001
 43
0.00000001
 40
0.0
 40
0.0
 40
0.0
 40
0.0
 40
0.0217279083697907
 40
0.0434663378232209
 40
0.0652116976744772
 40
0.0869604292078702
 40
0.1087091177169083
 40
0.1304546646578293
 40
0.1521960386782235
 40
0.1739341799932251
 40
0.1956699439624109
 40
0.2174040666233932
 40
0.2391372479107449
 40
0.260870234921239
 40
0.2826038990010762
 40
0.3043388838014401
 40
0.3260751286229449
 40
0.3478123366245893
 40
0.3695501137208684
 40
0.3912880591344048
 40
0.4130258559399672
 40
0.4347633622447674
 40
0.4565007311317657
 40
0.4782382046405077
 40
0.4999758432899797
 40
0.5217135899283635
 40
0.543451358329009
 40
0.5651891217901227
 40
0.5869270016920837
 40
0.6086652643374648
 40
0.6304039512807692
 40
0.6521428498965299
 40
0.6738816042733932
 40
0.6956198057739518
 40
0.7173570835979921
 40
0.7390931953730208
 40
0.7608282760678889
 40
0.7825631546075026
 40
0.8042986546484656
 40
0.8260354981313773
 40
0.8477743885819372
 40
0.8695160944023969
 40
0.8912615321109324
 40
0.913011336079477
 40
0.934763443103699
 40
0.9565145927617615
 40
0.9782613064095518
 40
1.0
 40
1.0
 40
1.0
 40
1.0
 10
374.3091081400019
 20
117.0652544856699
 30
0.0
 10
374.354606747311
 20
117.065716443595
 30
0.0
 10
374.445625993256
 20
117.0666405831343
 30
0.0
 10
374.5820204517669
 20
117.073916479631
 30
0.0
 10
374.7181415981534
 20
117.085491688753
 30
0.0
 10
374.8538094055479
 20
117.1017817801015
 30
0.0
 10
374.9888444155848
 20
117.1226631566084
 30
0.0
 10
375.123069708257
 20
117.1481624824152
 30
0.0
 10
375.2563194473611
 20
117.1782459738321
 30
0.0
 10
375.3884433039651
 20
117.212860961107
 30
0.0
 10
375.5192947737616
 20
117.2519589347592
 30
0.0
 10
375.6487278959246
 20
117.2954905619539
 30
0.0
 10
375.7765965289037
 20
117.3434069933203
 30
0.0
 10
375.9027548803762
 20
117.3956585551587
 30
0.0
 10
376.0270549611421
 20
117.4521982098537
 30
0.0
 10
376.149351591251
 20
117.5129651719922
 30
0.0
 10
376.2695102462652
 20
117.5778726128246
 30
0.0
 10
376.3873935729155
 20
117.6468377775906
 30
0.0
 10
376.5028646419356
 20
117.7197766844085
 30
0.0
 10
376.6157862600494
 20
117.7966058465219
 30
0.0
 10
376.7260216326978
 20
117.8772412067955
 30
0.0
 10
376.8334325253147
 20
117.9616007533473
 30
0.0
 10
376.937885983587
 20
118.0495945543193
 30
0.0
 10
377.0392724272454
 20
118.1411054533521
 30
0.0
 10
377.1374801988406
 20
118.2360206296836
 30
0.0
 10
377.2323983964382
 20
118.3342263012224
 30
0.0
 10
377.323915825707
 20
118.4356090438236
 30
0.0
 10
377.4119215457228
 20
118.5400551721617
 30
0.0
 10
377.4963035589649
 20
118.6474516955726
 30
0.0
 10
377.5769524150228
 20
118.7576814993394
 30
0.0
 10
377.6537892261029
 20
118.8706038860544
 30
0.0
 10
377.726732927311
 20
118.9860804183101
 30
0.0
 10
377.7957029895642
 20
119.1039720821983
 30
0.0
 10
377.8606186803091
 20
119.2241400412175
 30
0.0
 10
377.9213992748142
 20
119.3464454051409
 30
0.0
 10
377.977964102176
 20
119.4707497165291
 30
0.0
 10
378.0302329393166
 20
119.5969151907094
 30
0.0
 10
378.0781588546697
 20
119.7247918844221
 30
0.0
 10
378.1216958617092
 20
119.8542324018348
 30
0.0
 10
378.1607980306153
 20
119.9850896012109
 30
0.0
 10
378.1954196375482
 20
120.1172163707753
 30
0.0
 10
378.2255139748108
 20
120.250465599828
 30
0.0
 10
378.251037612504
 20
120.3846890923482
 30
0.0
 10
378.2719329658904
 20
120.5197314259393
 30
0.0
 10
378.2882242644602
 20
120.6554208903525
 30
0.0
 10
378.2997942483917
 20
120.7915792214876
 30
0.0
 10
378.3070613138019
 20
120.928026264713
 30
0.0
 10
378.3079810995493
 20
121.0190854742549
 30
0.0
 10
378.3084409076044
 20
121.0646066819551
 30
0.0
  0
SPLINE
  5
1CE
330
1F
100
AcDbEntity
  8
0
  6
Continuous
 62
     7
370
    15
100
AcDbSpline
210
0.0
220
0.0
230
1.0
 70
    24
 71
     3
 72
    14
 73
    10
 74
     0
 42
0.000000001
 43
0.00000001
 40
0.0
 40
0.0
 40
0.0
 40
0.0
 40
0.25
 40
0.25
 40
0.5
 40
0.5
 40
0.75
 40
0.75
 40
1.0
 40
1.0
 40
1.0
 40
1.0
 10
374.3091081467207
 20
118.0650635851059
 30
0.0
 10
374.3091081467206
 20
117.9356183322511
 30
0.0
 10
374.3091081467207
 20
117.8062217923275
 30
0.0
 10
374.3091081467206
 20
117.5666081431872
 30
0.0
 10
374.3091081467207
 20
117.4564812055524
 30
0.0
 10
374.3091081467206
 20
117.2718274360717
 30
0.0
 10
374.3091081467207
 20
117.197370093266
 30
0.0
 10
374.3091081467206
 20
117.0951746566579
 30
0.0
 10
374.3091081467207
 20
117.0674750211162
 30
0.0
 10
374.3091081467207
 20
117.0652158899498
 30
0.0
  0
SPLINE
  5
1CF
330
1F
100
AcDbEntity
  8
0
  6
Continuous
 62
     7
370
    15
100
AcDbSpline
210
0.0
220
0.0
230
1.0
 70
     8
 71
     3
 72
    14
 73
    10
 74
     0
 42
0.000000001
 43
0.00000001
 40
0.0
 40
0.0
 40
0.0
 40
0.0
 40
0.25
 40
0.25
 40
0.5
 40
0.5
 40
0.75
 40
0.75
 40
1.0
 40
1.0
 40
1.0
 40
1.0
 10
377.3086512366707
 20
121.0646066705759
 30
0.0
 10
377.3085713493453
 20
120.6720765068162
 30
0.0
 10
377.2305794816905
 20
120.2792404283735
 30
0.0
 10
376.9301245797466
 20
119.5538932500381
 30
0.0
 10
376.7077779994772
 20
119.2211537689516
 30
0.0
 10
376.1525502352926
 20
118.6659077774061
 30
0.0
 10
375.8198053524799
 20
118.4435703762263
 30
0.0
 10
375.0944525446804
 20
118.1431580508935
 30
0.0
 10
374.7014854822153
 20
118.0651575944482
 30
0.0
 10
374.3091081511707
 20
118.065063585106
 30
0.0
  0
SPLINE
  5
1D0
330
1F
100
AcDbEntity
  8
0
  6
Continuous
 62
     7
370
    15
100
AcDbSpline
210
0.0
220
0.0
230
1.0
 70
    24
 71
     3
 72
    14
 73
    10
 74
     0
 42
0.000000001
 43
0.00000001
 40
0.0
 40
0.0
 40
0.0
 40
0.0
 40
0.25
 40
0.25
 40
0.5
 40
0.5
 40
0.75
 40
0.75
 40
1.0
 40
1.0
 40
1.0
 40
1.0
 10
377.3086512366707
 20
121.0646067701111
 30
0.0
 10
377.4254666732928
 20
121.064606759811
 30
0.0
 10
377.5512866539642
 20
121.0646067487169
 30
0.0
 10
377.7950477779391
 20
121.0646067272235
 30
0.0
 10
377.9122668087445
 20
121.0646067168878
 30
0.0
 10
378.1067851613745
 20
121.0646066997363
 30
0.0
 10
378.1834570750178
 20
121.0646066929758
 30
0.0
 10
378.28311783101
 20
121.0646066841882
 30
0.0
 10
378.3064023586024
 20
121.064606682135
 30
0.0
 10
378.3084409076044
 20
121.0646066819551
 30
0.0
  0
LINE
  5
1D1
330
1F
100
AcDbEntity
  8
0
  6
Continuous
 62
     7
370
    15
100
AcDbLine
 10
273.4168956012
 20
174.9563623061
 30
0.0
 11
374.3091081512
 21
174.9563623061
 31
0.0
  0
LINE
  5
1D2
330
1F
100
AcDbEntity
  8
0
  6
Continuous
 62
     7
370
    15
100
AcDbLine
 10
374.3091081512
 20
118.0650635851
 30
0.0
 11
273.4168956012
 21
118.0650635851
 31
0.0
  0
LINE
  5
1D3
330
1F
100
AcDbEntity
  8
0
  6
Continuous
 62
     7
370
    15
100
AcDbLine
 10
378.3084989318
 20
121.0646066706
 30
0.0
 11
378.3084989318
 21
171.9568192161
 31
0.0
  0
LINE
  5
1D4
330
1F
100
AcDbEntity
  8
0
  6
Continuous
 62
     7
370
    15
100
AcDbLine
 10
269.4175048205
 20
171.9568192206
 30
0.0
 11
269.4175048205
 21
121.0646066751
 31
0.0
  0
LINE
  5
1D5
330
1F
100
AcDbEntity
  8
0
  6
Continuous
 62
     7
370
    15
100
AcDbLine
 10
273.4168956012
 20
117.0652158899
 30
0.0
 11
374.3091081467
 21
117.0652158899
 31
0.0
  0
LINE
  5
1D6
330
1F
100
AcDbEntity
  8
0
  6
Continuous
 62
     7
370
    15
100
AcDbLine
 10
374.3091081512
 20
175.9562100012
 30
0.0
 11
273.4168956056
 21
175.9562100012
 31
0.0
  0
ELLIPSE
  5
1D7
330
1F
100
AcDbEntity
  8
0
  6
Continuous
 62
     7
370
    15
100
AcDbEllipse
 10
374.862392564
 20
172.5101036334
 30
0.0
 11
-2.829288756678296
 21
-2.829288756678296
 31
0.0
210
0.0
220
0.0
230
1.0
 40
0.9996954599
 41
2.356346783440099
 42
3.926838523739672
  0
LINE
  5
1D8
330
1F
100
AcDbEntity
  8
0
  6
Continuous
 62
     7
370
    15
100
AcDbLine
 10
378.8630018762
 20
172.511322165
 30
0.0
 11
378.3084989318
 21
171.9568192161
 31
0.0
  0
LINE
  5
1D9
330
1F
100
AcDbEntity
  8
0
  6
Continuous
 62
     7
370
    15
100
AcDbLine
 10
374.8636110956
 20
176.5107129456
 30
0.0
 11
374.3091081512
 21
175.9562100012
 31
0.0
  0
ELLIPSE
  5
1DA
330
1F
100
AcDbEntity
  8
0
  6
Continuous
 62
     7
370
    15
100
AcDbEllipse
 10
272.8636111883
 20
120.5113222578
 30
0.0
 11
2.829288756678296
 21
2.829288756678338
 31
0.0
210
0.0
220
0.0
230
1.0
 40
0.9996954599
 41
2.356346783440085
 42
3.926838523744495
  0
LINE
  5
1DB
330
1F
100
AcDbEntity
  8
0
  6
Continuous
 62
     7
370
    15
100
AcDbLine
 10
268.8630018762
 20
120.5101037262
 30
0.0
 11
269.4175048205
 21
121.0646066751
 31
0.0
  0
LINE
  5
1DC
330
1F
100
AcDbEntity
  8
0
  6
Continuous
 62
     7
370
    15
100
AcDbLine
 10
272.8623926568
 20
116.5107129456
 30
0.0
 11
273.416895604
 21
117.06521589
 31
0.0
  0
ELLIPSE
  5
1DD
330
1F
100
AcDbEntity
  8
0
  6
Continuous
 62
     7
370
    15
100
AcDbEllipse
 10
272.8636111883
 20
172.5101036334
 30
0.0
 11
2.829288756678296
 21
-2.829288756678296
 31
0.0
210
0.0
220
0.0
230
1.0
 40
0.9996954599
 41
2.35634678343511
 42
3.926838523739481
  0
LINE
  5
1DE
330
1F
100
AcDbEntity
  8
0
  6
Continuous
 62
     7
370
    15
100
AcDbLine
 10
272.8623926568
 20
176.5107129456
 30
0.0
 11
273.4168956056
 21
175.9562100012
 31
0.0
  0
LINE
  5
1DF
330
1F
100
AcDbEntity
  8
0
  6
Continuous
 62
     7
370
    15
100
AcDbLine
 10
269.4175048205
 20
171.9568192178
 30
0.0
 11
268.8630018762
 21
172.511322165
 31
0.0
  0
ELLIPSE
  5
1E0
330
1F
100
AcDbEntity
  8
0
  6
Continuous
 62
     7
370
    15
100
AcDbEllipse
 10
374.862392564
 20
120.5113222578
 30
0.0
 11
-2.829288756678296
 21
2.829288756678338
 31
0.0
210
0.0
220
0.0
230
1.0
 40
0.9996954599
 41
2.356346783435107
 42
3.926838523739513
  0
LINE
  5
1E1
330
1F
100
AcDbEntity
  8
0
  6
Continuous
 62
     7
370
    15
100
AcDbLine
 10
374.8636110955
 20
116.5107129456
 30
0.0
 11
374.3091081467
 21
117.0652158899
 31
0.0
  0
LINE
  5
1E2
330
1F
100
AcDbEntity
  8
0
  6
Continuous
 62
     7
370
    15
100
AcDbLine
 10
378.8630018762
 20
120.5101037262
 30
0.0
 11
378.3084989318
 21
121.0646066734
 31
0.0
  0
LINE
  5
1E3
330
1F
100
AcDbEntity
  8
0
  6
Continuous
 62
     7
370
    15
100
AcDbLine
 10
374.8636110956
 20
176.5107129456
 30
0.0
 11
272.8623926568
 21
176.5107129456
 31
0.0
  0
LINE
  5
1E4
330
1F
100
AcDbEntity
  8
0
  6
Continuous
 62
     7
370
    15
100
AcDbLine
 10
272.8623926568
 20
116.5107129456
 30
0.0
 11
374.8636110955
 21
116.5107129456
 31
0.0
  0
LINE
  5
1E5
330
1F
100
AcDbEntity
  8
0
  6
Continuous
 62
     7
370
    15
100
AcDbLine
 10
378.8630018762
 20
120.5101037262
 30
0.0
 11
378.8630018762
 21
172.511322165
 31
0.0
  0
LINE
  5
1E6
330
1F
100
AcDbEntity
  8
0
  6
Continuous
 62
     7
370
    15
100
AcDbLine
 10
268.8630018762
 20
172.511322165
 30
0.0
 11
268.8630018762
 21
120.5101037262
 31
0.0
  0
LINE
  5
1E7
330
1F
100
AcDbEntity
  8
0
  6
Continuous
 62
     8
370
    15
100
AcDbLine
 10
270.4173525157
 20
127.7481821411
 30
0.0
 11
270.4173525157
 21
165.27324375
 31
0.0
  0
LINE
  5
1E8
330
1F
100
AcDbEntity
  8
0
  6
Continuous
 62
     8
370
    15
100
AcDbLine
 10
270.4173525157
 20
168.7481821411
 30
0.0
 11
270.4173525157
 21
171.9568192206
 31
0.0
  0
LINE
  5
1E9
330
1F
100
AcDbEntity
  8
0
  6
Continuous
 62
     8
370
    15
100
AcDbLine
 10
377.3086512367
 20
171.9568192206
 30
0.0
 11
377.3086512367
 21
168.7481821411
 31
0.0
  0
LINE
  5
1EA
330
1F
100
AcDbEntity
  8
0
  6
Continuous
 62
     8
370
    15
100
AcDbLine
 10
377.3086512367
 20
165.27324375
 30
0.0
 11
377.3086512367
 21
127.7481821411
 31
0.0
  0
LINE
  5
1EB
330
1F
100
AcDbEntity
  8
0
  6
Continuous
 62
     8
370
    15
100
AcDbLine
 10
377.3086512367
 20
124.27324375
 30
0.0
 11
377.3086512367
 21
121.0646066706
 31
0.0
  0
LINE
  5
1EC
330
1F
100
AcDbEntity
  8
0
  6
Continuous
 62
     8
370
    15
100
AcDbLine
 10
270.4173525157
 20
121.0646066706
 30
0.0
 11
270.4173525157
 21
124.27324375
 31
0.0
  0
ENDSEC
  0
SECTION
  2
OBJECTS
  0
DICTIONARY
  5
C
330
0
100
AcDbDictionary
281
     1
  3
ACAD_GROUP
350
D
  3
ACAD_LAYOUT
350
1A
  3
ACAD_MLINESTYLE
350
17
  3
ACAD_PLOTSETTINGS
350
19
  3
ACAD_PLOTSTYLENAME
350
E
  3
ACAD_SCALELIST
350
47
  0
DICTIONARY
  5
D
102
{ACAD_REACTORS
330
C
102
}
330
C
100
AcDbDictionary
281
     1
  0
DICTIONARY
  5
1A
102
{ACAD_REACTORS
330
C
102
}
330
C
100
AcDbDictionary
281
     1
  3
Layout1
350
1E
  3
Layout2
350
26
  3
Model
350
22
  0
DICTIONARY
  5
17
102
{ACAD_REACTORS
330
C
102
}
330
C
100
AcDbDictionary
281
     1
  3
Standard
350
18
  0
DICTIONARY
  5
19
102
{ACAD_REACTORS
330
C
102
}
330
C
100
AcDbDictionary
281
     1
  0
ACDBDICTIONARYWDFLT
  5
E
102
{ACAD_REACTORS
330
C
102
}
330
C
100
AcDbDictionary
281
     1
  3
Normal
350
F
100
AcDbDictionaryWithDefault
340
F
  0
DICTIONARY
  5
47
102
{ACAD_REACTORS
330
C
102
}
330
C
100
AcDbDictionary
281
     1
  3
A0
350
48
  3
A1
350
49
  3
A2
350
4A
  3
A3
350
4B
  3
A4
350
4C
  3
A5
350
4D
  3
A6
350
4E
  3
A7
350
4F
  3
A8
350
50
  3
A9
350
51
  3
B0
350
52
  3
B1
350
53
  3
B2
350
54
  3
B3
350
55
  3
B4
350
56
  3
B5
350
57
  3
B6
350
58
  3
B7
350
59
  3
B8
350
5A
  3
B9
350
5B
  3
C0
350
5C
  3
C1
350
5D
  3
C2
350
5E
  3
C3
350
5F
  3
C4
350
60
  3
C5
350
61
  3
C6
350
62
  3
C7
350
63
  3
C8
350
64
  3
C9
350
65
  3
D0
350
66
  3
D1
350
67
  3
D2
350
68
  0
LAYOUT
  5
1E
102
{ACAD_REACTORS
330
1A
102
}
330
1A
100
AcDbPlotSettings
  1

  2
none_device
  4

  6

 40
0.0
 41
0.0
 42
0.0
 43
0.0
 44
0.0
 45
0.0
 46
0.0
 47
0.0
 48
0.0
 49
0.0
140
0.0
141
0.0
142
1.0
143
1.0
 70
   688
 72
     1
 73
     0
 74
     5
  7

 75
    16
147
1.0
148
0.0
149
0.0
100
AcDbLayout
  1
Layout1
 70
     1
 71
     1
 10
0.0
 20
0.0
 11
420.0
 21
297.0
 12
0.0
 22
0.0
 32
0.0
 14
1.0000000000E+20
 24
1.0000000000E+20
 34
1.0000000000E+20
 15
-1.0000000000E+20
 25
-1.0000000000E+20
 35
-1.0000000000E+20
146
0.0
 13
0.0
 23
0.0
 33
0.0
 16
1.0
 26
0.0
 36
0.0
 17
0.0
 27
1.0
 37
0.0
 76
     0
330
1B
  0
LAYOUT
  5
26
102
{ACAD_REACTORS
330
1A
102
}
330
1A
100
AcDbPlotSettings
  1

  2
none_device
  4

  6

 40
0.0
 41
0.0
 42
0.0
 43
0.0
 44
0.0
 45
0.0
 46
0.0
 47
0.0
 48
0.0
 49
0.0
140
0.0
141
0.0
142
1.0
143
1.0
 70
   688
 72
     1
 73
     0
 74
     5
  7

 75
    16
147
1.0
148
0.0
149
0.0
100
AcDbLayout
  1
Layout2
 70
     1
 71
     2
 10
0.0
 20
0.0
 11
0.0
 21
0.0
 12
0.0
 22
0.0
 32
0.0
 14
0.0
 24
0.0
 34
0.0
 15
0.0
 25
0.0
 35
0.0
146
0.0
 13
0.0
 23
0.0
 33
0.0
 16
1.0
 26
0.0
 36
0.0
 17
0.0
 27
1.0
 37
0.0
 76
     0
330
23
  0
LAYOUT
  5
22
102
{ACAD_REACTORS
330
1A
102
}
330
1A
100
AcDbPlotSettings
  1

  2
none_device
  4
Letter_(8.50_x_11.00_Inches)
  6

 40
6.35
 41
6.35
 42
6.35000508
 43
6.35000508
 44
215.9
 45
279.4
 46
0.0
 47
0.0
 48
0.0
 49
0.0
140
0.0
141
0.0
142
1.0
143
1.0
 70
  1712
 72
     1
 73
     0
 74
     0
  7

 75
     0
147
1.0
148
0.0
149
0.0
100
AcDbLayout
  1
Model
 70
     1
 71
     0
 10
0.0
 20
0.0
 11
420.0
 21
297.0
 12
0.0
 22
0.0
 32
0.0
 14
0.0
 24
0.0
 34
0.0
 15
420.0
 25
297.0
 35
0.0
146
0.0
 13
0.0
 23
0.0
 33
0.0
 16
1.0
 26
0.0
 36
0.0
 17
0.0
 27
1.0
 37
0.0
 76
     0
330
1F
331
29
  0
MLINESTYLE
  5
18
102
{ACAD_REACTORS
330
17
102
}
330
17
100
AcDbMlineStyle
  2
Standard
 70
     0
  3

 62
   256
 51
90.0
 52
90.0
 71
     2
 49
0.5
 62
   256
  6
BYLAYER
 49
-0.5
 62
   256
  6
BYLAYER
  0
ACDBPLACEHOLDER
  5
F
102
{ACAD_REACTORS
330
E
102
}
330
E
  0
SCALE
  5
48
102
{ACAD_REACTORS
330
47
102
}
330
47
100
AcDbScale
 70
     0
300
1:1
140
1.0
141
1.0
290
     1
  0
SCALE
  5
49
102
{ACAD_REACTORS
330
47
102
}
330
47
100
AcDbScale
 70
     0
300
1:2
140
1.0
141
2.0
290
     0
  0
SCALE
  5
4A
102
{ACAD_REACTORS
330
47
102
}
330
47
100
AcDbScale
 70
     0
300
1:4
140
1.0
141
4.0
290
     0
  0
SCALE
  5
4B
102
{ACAD_REACTORS
330
47
102
}
330
47
100
AcDbScale
 70
     0
300
1:5
140
1.0
141
5.0
290
     0
  0
SCALE
  5
4C
102
{ACAD_REACTORS
330
47
102
}
330
47
100
AcDbScale
 70
     0
300
1:8
140
1.0
141
8.0
290
     0
  0
SCALE
  5
4D
102
{ACAD_REACTORS
330
47
102
}
330
47
100
AcDbScale
 70
     0
300
1:10
140
1.0
141
10.0
290
     0
  0
SCALE
  5
4E
102
{ACAD_REACTORS
330
47
102
}
330
47
100
AcDbScale
 70
     0
300
1:16
140
1.0
141
16.0
290
     0
  0
SCALE
  5
4F
102
{ACAD_REACTORS
330
47
102
}
330
47
100
AcDbScale
 70
     0
300
1:20
140
1.0
141
20.0
290
     0
  0
SCALE
  5
50
102
{ACAD_REACTORS
330
47
102
}
330
47
100
AcDbScale
 70
     0
300
1:30
140
1.0
141
30.0
290
     0
  0
SCALE
  5
51
102
{ACAD_REACTORS
330
47
102
}
330
47
100
AcDbScale
 70
     0
300
1:40
140
1.0
141
40.0
290
     0
  0
SCALE
  5
52
102
{ACAD_REACTORS
330
47
102
}
330
47
100
AcDbScale
 70
     0
300
1:50
140
1.0
141
50.0
290
     0
  0
SCALE
  5
53
102
{ACAD_REACTORS
330
47
102
}
330
47
100
AcDbScale
 70
     0
300
1:100
140
1.0
141
100.0
290
     0
  0
SCALE
  5
54
102
{ACAD_REACTORS
330
47
102
}
330
47
100
AcDbScale
 70
     0
300
2:1
140
2.0
141
1.0
290
     0
  0
SCALE
  5
55
102
{ACAD_REACTORS
330
47
102
}
330
47
100
AcDbScale
 70
     0
300
4:1
140
4.0
141
1.0
290
     0
  0
SCALE
  5
56
102
{ACAD_REACTORS
330
47
102
}
330
47
100
AcDbScale
 70
     0
300
8:1
140
8.0
141
1.0
290
     0
  0
SCALE
  5
57
102
{ACAD_REACTORS
330
47
102
}
330
47
100
AcDbScale
 70
     0
300
10:1
140
10.0
141
1.0
290
     0
  0
SCALE
  5
58
102
{ACAD_REACTORS
330
47
102
}
330
47
100
AcDbScale
 70
     0
300
100:1
140
100.0
141
1.0
290
     0
  0
SCALE
  5
59
102
{ACAD_REACTORS
330
47
102
}
330
47
100
AcDbScale
 70
     0
300
1/128" = 1'-0"
140
0.0078125
141
12.0
290
     0
  0
SCALE
  5
5A
102
{ACAD_REACTORS
330
47
102
}
330
47
100
AcDbScale
 70
     0
300
1/64" = 1'-0"
140
0.015625
141
12.0
290
     0
  0
SCALE
  5
5B
102
{ACAD_REACTORS
330
47
102
}
330
47
100
AcDbScale
 70
     0
300
1/32" = 1'-0"
140
0.03125
141
12.0
290
     0
  0
SCALE
  5
5C
102
{ACAD_REACTORS
330
47
102
}
330
47
100
AcDbScale
 70
     0
300
1/16" = 1'-0"
140
0.0625
141
12.0
290
     0
  0
SCALE
  5
5D
102
{ACAD_REACTORS
330
47
102
}
330
47
100
AcDbScale
 70
     0
300
3/32" = 1'-0"
140
0.09375
141
12.0
290
     0
  0
SCALE
  5
5E
102
{ACAD_REACTORS
330
47
102
}
330
47
100
AcDbScale
 70
     0
300
1/8" = 1'-0"
140
0.125
141
12.0
290
     0
  0
SCALE
  5
5F
102
{ACAD_REACTORS
330
47
102
}
330
47
100
AcDbScale
 70
     0
300
3/16" = 1'-0"
140
0.1875
141
12.0
290
     0
  0
SCALE
  5
60
102
{ACAD_REACTORS
330
47
102
}
330
47
100
AcDbScale
 70
     0
300
1/4" = 1'-0"
140
0.25
141
12.0
290
     0
  0
SCALE
  5
61
102
{ACAD_REACTORS
330
47
102
}
330
47
100
AcDbScale
 70
     0
300
3/8" = 1'-0"
140
0.375
141
12.0
290
     0
  0
SCALE
  5
62
102
{ACAD_REACTORS
330
47
102
}
330
47
100
AcDbScale
 70
     0
300
1/2" = 1'-0"
140
0.5
141
12.0
290
     0
  0
SCALE
  5
63
102
{ACAD_REACTORS
330
47
102
}
330
47
100
AcDbScale
 70
     0
300
3/4" = 1'-0"
140
0.75
141
12.0
290
     0
  0
SCALE
  5
64
102
{ACAD_REACTORS
330
47
102
}
330
47
100
AcDbScale
 70
     0
300
1" = 1'-0"
140
1.0
141
12.0
290
     0
  0
SCALE
  5
65
102
{ACAD_REACTORS
330
47
102
}
330
47
100
AcDbScale
 70
     0
300
1-1/2" = 1'-0"
140
1.5
141
12.0
290
     0
  0
SCALE
  5
66
102
{ACAD_REACTORS
330
47
102
}
330
47
100
AcDbScale
 70
     0
300
3" = 1'-0"
140
3.0
141
12.0
290
     0
  0
SCALE
  5
67
102
{ACAD_REACTORS
330
47
102
}
330
47
100
AcDbScale
 70
     0
300
6" = 1'-0"
140
6.0
141
12.0
290
     0
  0
SCALE
  5
68
102
{ACAD_REACTORS
330
47
102
}
330
47
100
AcDbScale
 70
     0
300
1'-0" = 1'-0"
140
12.0
141
12.0
290
     0
  0
ENDSEC
  0
EOF
