  0
SECTION
  2
HEADER
  9
$ACADVER
  1
AC1015
  9
$ACADMAINTVER
 70
     6
  9
$DWGCODEPAGE
  3
ANSI_1252
  9
$INSBASE
 10
0.0
 20
0.0
 30
0.0
  9
$EXTMIN
 10
0.0
 20
0.0
 30
0.0
  9
$EXTMAX
 10
420.0
 20
297.0
 30
0.0
  9
$LIMMIN
 10
0.0
 20
0.0
  9
$LIMMAX
 10
420.0
 20
297.0
  9
$ORTHOMODE
 70
     0
  9
$REGENMODE
 70
     1
  9
$FILLMODE
 70
     1
  9
$QTEXTMODE
 70
     0
  9
$MIRRTEXT
 70
     1
  9
$LTSCALE
 40
1.0
  9
$ATTMODE
 70
     1
  9
$TEXTSIZE
 40
3.5
  9
$TRACEWID
 40
1.0
  9
$TEXTSTYLE
  7
Standard
  9
$CLAYER
  8
0
  9
$CELTYPE
  6
ByLayer
  9
$CECOLOR
 62
   256
  9
$CELTSCALE
 40
1.0
  9
$DISPSILH
 70
     0
  9
$DIMSCALE
 40
1.0
  9
$DIMASZ
 40
6.0
  9
$DIMEXO
 40
1.0
  9
$DIMDLI
 40
3.75
  9
$DIMRND
 40
0.0
  9
$DIMDLE
 40
0.0
  9
$DIMEXE
 40
1.0
  9
$DIMTP
 40
0.0
  9
$DIMTM
 40
0.0
  9
$DIMTXT
 40
3.5
  9
$DIMCEN
 40
2.5
  9
$DIMTSZ
 40
0.0
  9
$DIMTOL
 70
     0
  9
$DIMLIM
 70
     0
  9
$DIMTIH
 70
     1
  9
$DIMTOH
 70
     1
  9
$DIMSE1
 70
     0
  9
$DIMSE2
 70
     0
  9
$DIMTAD
 70
     1
  9
$DIMZIN
 70
     0
  9
$DIMBLK
  1

  9
$DIMASO
 70
     1
  9
$DIMSHO
 70
     1
  9
$DIMPOST
  1

  9
$DIMAPOST
  1

  9
$DIMALT
 70
     0
  9
$DIMALTD
 70
     3
  9
$DIMALTF
 40
0.0393700787
  9
$DIMLFAC
 40
2.0
  9
$DIMTOFL
 70
     1
  9
$DIMTVP
 40
0.0
  9
$DIMTIX
 70
     0
  9
$DIMSOXD
 70
     0
  9
$DIMSAH
 70
     0
  9
$DIMBLK1
  1

  9
$DIMBLK2
  1

  9
$DIMSTYLE
  2
ISO-25
  9
$DIMCLRD
 70
     0
  9
$DIMCLRE
 70
     0
  9
$DIMCLRT
 70
     0
  9
$DIMTFAC
 40
1.0
  9
$DIMGAP
 40
1.524
  9
$DIMJUST
 70
     0
  9
$DIMSD1
 70
     0
  9
$DIMSD2
 70
     0
  9
$DIMTOLJ
 70
     0
  9
$DIMTZIN
 70
     0
  9
$DIMALTZ
 70
     0
  9
$DIMALTTZ
 70
     0
  9
$DIMUPT
 70
     0
  9
$DIMDEC
 70
     2
  9
$DIMTDEC
 70
     2
  9
$DIMALTU
 70
     2
  9
$DIMALTTD
 70
     3
  9
$DIMTXSTY
  7
Standard
  9
$DIMAUNIT
 70
     0
  9
$DIMADEC
 70
     2
  9
$DIMALTRND
 40
0.0
  9
$DIMAZIN
 70
     0
  9
$DIMDSEP
 70
    44
  9
$DIMATFIT
 70
     3
  9
$DIMFRAC
 70
     0
  9
$DIMLDRBLK
  1

  9
$DIMLUNIT
 70
     2
  9
$DIMLWD
 70
    -2
  9
$DIMLWE
 70
    -2
  9
$DIMTMOVE
 70
     0
  9
$LUNITS
 70
     2
  9
$LUPREC
 70
     2
  9
$SKETCHINC
 40
1.0
  9
$FILLETRAD
 40
10.0
  9
$AUNITS
 70
     0
  9
$AUPREC
 70
     2
  9
$MENU
  1
.
  9
$ELEVATION
 40
0.0
  9
$PELEVATION
 40
0.0
  9
$THICKNESS
 40
0.0
  9
$LIMCHECK
 70
     0
  9
$CHAMFERA
 40
0.0
  9
$CHAMFERB
 40
0.0
  9
$CHAMFERC
 40
0.0
  9
$CHAMFERD
 40
0.0
  9
$SKPOLY
 70
     0
  9
$TDCREATE
 40
2456937.544569086
  9
$TDUCREATE
 40
2456937.419569086
  9
$TDUPDATE
 40
2456937.544569919
  9
$TDUUPDATE
 40
2456937.419569919
  9
$TDINDWG
 40
0.0000000116
  9
$TDUSRTIMER
 40
0.0000000116
  9
$USRTIMER
 70
     1
  9
$ANGBASE
 50
0.0
  9
$ANGDIR
 70
     0
  9
$PDMODE
 70
     0
  9
$PDSIZE
 40
-1.0
  9
$PLINEWID
 40
0.0
  9
$SPLFRAME
 70
     0
  9
$SPLINETYPE
 70
     6
  9
$SPLINESEGS
 70
     8
  9
$HANDSEED
  5
1EF
  9
$SURFTAB1
 70
     6
  9
$SURFTAB2
 70
     6
  9
$SURFTYPE
 70
     6
  9
$SURFU
 70
     6
  9
$SURFV
 70
     6
  9
$UCSBASE
  2

  9
$UCSNAME
  2

  9
$UCSORG
 10
0.0
 20
0.0
 30
0.0
  9
$UCSXDIR
 10
1.0
 20
0.0
 30
0.0
  9
$UCSYDIR
 10
0.0
 20
1.0
 30
0.0
  9
$UCSORTHOREF
  2

  9
$UCSORTHOVIEW
 70
     0
  9
$UCSORGTOP
 10
0.0
 20
0.0
 30
0.0
  9
$UCSORGBOTTOM
 10
0.0
 20
0.0
 30
0.0
  9
$UCSORGLEFT
 10
0.0
 20
0.0
 30
0.0
  9
$UCSORGRIGHT
 10
0.0
 20
0.0
 30
0.0
  9
$UCSORGFRONT
 10
0.0
 20
0.0
 30
0.0
  9
$UCSORGBACK
 10
0.0
 20
0.0
 30
0.0
  9
$PUCSBASE
  2

  9
$PUCSNAME
  2

  9
$PUCSORG
 10
0.0
 20
0.0
 30
0.0
  9
$PUCSXDIR
 10
1.0
 20
0.0
 30
0.0
  9
$PUCSYDIR
 10
0.0
 20
1.0
 30
0.0
  9
$PUCSORTHOREF
  2

  9
$PUCSORTHOVIEW
 70
     0
  9
$PUCSORGTOP
 10
0.0
 20
0.0
 30
0.0
  9
$PUCSORGBOTTOM
 10
0.0
 20
0.0
 30
0.0
  9
$PUCSORGLEFT
 10
0.0
 20
0.0
 30
0.0
  9
$PUCSORGRIGHT
 10
0.0
 20
0.0
 30
0.0
  9
$PUCSORGFRONT
 10
0.0
 20
0.0
 30
0.0
  9
$PUCSORGBACK
 10
0.0
 20
0.0
 30
0.0
  9
$USERI1
 70
     0
  9
$USERI2
 70
     0
  9
$USERI3
 70
     0
  9
$USERI4
 70
     0
  9
$USERI5
 70
     0
  9
$USERR1
 40
0.0
  9
$USERR2
 40
0.0
  9
$USERR3
 40
0.0
  9
$USERR4
 40
0.0
  9
$USERR5
 40
0.0
  9
$WORLDVIEW
 70
     1
  9
$SHADEDGE
 70
     3
  9
$SHADEDIF
 70
    70
  9
$TILEMODE
 70
     1
  9
$MAXACTVP
 70
    64
  9
$PINSBASE
 10
0.0
 20
0.0
 30
0.0
  9
$PLIMCHECK
 70
     0
  9
$PEXTMIN
 10
1.0000000000E+20
 20
1.0000000000E+20
 30
1.0000000000E+20
  9
$PEXTMAX
 10
-1.0000000000E+20
 20
-1.0000000000E+20
 30
-1.0000000000E+20
  9
$PLIMMIN
 10
0.0
 20
0.0
  9
$PLIMMAX
 10
420.0
 20
297.0
  9
$UNITMODE
 70
     0
  9
$VISRETAIN
 70
     1
  9
$PLINEGEN
 70
     0
  9
$PSLTSCALE
 70
     1
  9
$TREEDEPTH
 70
  3020
  9
$CMLSTYLE
  2
Standard
  9
$CMLJUST
 70
     0
  9
$CMLSCALE
 40
20.0
  9
$PROXYGRAPHICS
 70
     1
  9
$MEASUREMENT
 70
     1
  9
$CELWEIGHT
370
    -1
  9
$ENDCAPS
280
     0
  9
$JOINSTYLE
280
     0
  9
$LWDISPLAY
290
     1
  9
$INSUNITS
 70
     4
  9
$HYPERLINKBASE
  1

  9
$STYLESHEET
  1

  9
$XEDIT
290
     1
  9
$CEPSNTYPE
380
     0
  9
$PSTYLEMODE
290
     1
  9
$FINGERPRINTGUID
  2
{291B278B-167A-4888-986A-2A2BEBA77EFB}
  9
$VERSIONGUID
  2
{FAEB1C32-E019-11D5-929B-00C0DF256EC4}
  9
$EXTNAMES
290
     1
  9
$PSVPSCALE
 40
0.0
  9
$OLESTARTUP
290
     0
  0
ENDSEC
  0
SECTION
  2
CLASSES
  0
CLASS
  1
ACDBDICTIONARYWDFLT
  2
AcDbDictionaryWithDefault
  3
ObjectDBX Classes
 90
        0
280
     0
281
     0
  0
CLASS
  1
VISUALSTYLE
  2
AcDbVisualStyle
  3
ObjectDBX Classes
 90
     4095
280
     0
281
     0
  0
CLASS
  1
MATERIAL
  2
AcDbMaterial
  3
ObjectDBX Classes
 90
     1153
280
     0
281
     0
  0
CLASS
  1
SCALE
  2
AcDbScale
  3
ObjectDBX Classes
 90
     1153
280
     0
281
     0
  0
CLASS
  1
SUN
  2
AcDbSun
  3
SCENEOE
 90
     1153
280
     0
281
     0
  0
CLASS
  1
ACDBPLACEHOLDER
  2
AcDbPlaceHolder
  3
ObjectDBX Classes
 90
        0
280
     0
281
     0
  0
CLASS
  1
LAYOUT
  2
AcDbLayout
  3
ObjectDBX Classes
 90
        0
280
     0
281
     0
  0
ENDSEC
  0
SECTION
  2
TABLES
  0
TABLE
  2
VPORT
  5
8
330
0
100
AcDbSymbolTable
 70
     1
  0
VPORT
  5
29
330
8
100
AcDbSymbolTableRecord
100
AcDbViewportTableRecord
  2
*Active
 70
     0
 10
0.0
 20
0.0
 11
1.0
 21
1.0
 12
210.0
 22
148.5
 13
0.0
 23
0.0
 14
10.0
 24
10.0
 15
10.0
 25
10.0
 16
0.0
 26
0.0
 36
1.0
 17
0.0
 27
0.0
 37
0.0
 40
297.0
 41
1.4141414141
 42
50.0
 43
0.0
 44
0.0
 50
0.0
 51
0.0
 71
     0
 72
  2000
 73
     1
 74
     3
 75
     0
 76
     0
 77
     0
 78
     0
281
     0
 65
     1
110
0.0
120
0.0
130
0.0
111
1.0
121
0.0
131
0.0
112
0.0
122
1.0
132
0.0
 79
     0
146
0.0
  0
ENDTAB
  0
TABLE
  2
LTYPE
  5
5
330
0
100
AcDbSymbolTable
 70
     6
  0
LTYPE
  5
14
330
5
100
AcDbSymbolTableRecord
100
AcDbLinetypeTableRecord
  2
ByBlock
 70
     0
  3

 72
    65
 73
     0
 40
0.0
  0
LTYPE
  5
15
330
5
100
AcDbSymbolTableRecord
100
AcDbLinetypeTableRecord
  2
ByLayer
 70
     0
  3

 72
    65
 73
     0
 40
0.0
  0
LTYPE
  5
16
330
5
100
AcDbSymbolTableRecord
100
AcDbLinetypeTableRecord
  2
Continuous
 70
     0
  3
Solid line
 72
    65
 73
     0
 40
0.0
  0
LTYPE
  5
6A
330
5
100
AcDbSymbolTableRecord
100
AcDbLinetypeTableRecord
  2
HIDDEN
 70
     0
  3
Hidden __ __ __ __ __ __ __ __ __ __ __ __ __ __
 72
    65
 73
     2
 40
1.905
 49
1.27
 74
     0
 49
-0.635
 74
     0
  0
LTYPE
  5
6B
330
5
100
AcDbSymbolTableRecord
100
AcDbLinetypeTableRecord
  2
PHANTOM
 70
     0
  3
Phantom ______  __  __  ______  __  __  ______
 72
    65
 73
     6
 40
12.7
 49
6.35
 74
     0
 49
-1.27
 74
     0
 49
1.27
 74
     0
 49
-1.27
 74
     0
 49
1.27
 74
     0
 49
-1.27
 74
     0
  0
LTYPE
  5
6C
330
5
100
AcDbSymbolTableRecord
100
AcDbLinetypeTableRecord
  2
CENTER
 70
     0
  3
Center ____ _ ____ _ ____ _ ____ _ ____ _ ____
 72
    65
 73
     4
 40
10.16
 49
6.35
 74
     0
 49
-1.27
 74
     0
 49
1.27
 74
     0
 49
-1.27
 74
     0
  0
LTYPE
  5
6D
330
5
100
AcDbSymbolTableRecord
100
AcDbLinetypeTableRecord
  2
CENTERX2
 70
     0
  3
Center (2x) ________  __  ________  __  _____
 72
    65
 73
     4
 40
20.32
 49
12.7
 74
     0
 49
-2.54
 74
     0
 49
2.54
 74
     0
 49
-2.54
 74
     0
  0
LTYPE
  5
6E
330
5
100
AcDbSymbolTableRecord
100
AcDbLinetypeTableRecord
  2
DOT2
 70
     0
  3
Dot (.5x) ........................................
 72
    65
 73
     2
 40
0.635
 49
0.0
 74
     0
 49
-0.635
 74
     0
  0
ENDTAB
  0
TABLE
  2
LAYER
  5
2
330
0
100
AcDbSymbolTable
 70
     1
  0
LAYER
  5
10
330
2
100
AcDbSymbolTableRecord
100
AcDbLayerTableRecord
  2
0
 70
     0
 62
     7
  6
Continuous
370
    -3
390
F
  0
ENDTAB
  0
TABLE
  2
STYLE
  5
3
330
0
100
AcDbSymbolTable
 70
     1
  0
STYLE
  5
11
330
3
100
AcDbSymbolTableRecord
100
AcDbTextStyleTableRecord
  2
Standard
 70
     0
 40
0.0
 41
1.0
 50
0.0
 71
     0
 42
3.5
  3
txt
  4

  0
ENDTAB
  0
TABLE
  2
VIEW
  5
6
330
0
100
AcDbSymbolTable
 70
     0
  0
ENDTAB
  0
TABLE
  2
UCS
  5
7
330
0
100
AcDbSymbolTable
 70
     0
  0
ENDTAB
  0
TABLE
  2
APPID
  5
9
330
0
100
AcDbSymbolTable
 70
     1
  0
APPID
  5
12
330
9
100
AcDbSymbolTableRecord
100
AcDbRegAppTableRecord
  2
ACAD
 70
     0
  0
ENDTAB
  0
TABLE
  2
DIMSTYLE
  5
A
330
0
100
AcDbSymbolTable
 70
     1
100
AcDbDimStyleTable
  0
DIMSTYLE
105
27
330
A
100
AcDbSymbolTableRecord
100
AcDbDimStyleTableRecord
  2
ISO-25
 70
     0
 41
2.5
 42
0.625
 43
3.75
 44
1.25
 73
     0
 74
     0
 77
     1
 78
     8
140
2.5
141
2.5
143
0.0393700787
147
0.625
171
     3
172
     1
178
     0
271
     2
272
     2
274
     3
278
    44
283
     0
284
     8
340
11
  0
ENDTAB
  0
TABLE
  2
BLOCK_RECORD
  5
1
330
0
100
AcDbSymbolTable
 70
     1
  0
BLOCK_RECORD
  5
1F
330
1
100
AcDbSymbolTableRecord
100
AcDbBlockTableRecord
  2
*Model_Space
340
22
  0
BLOCK_RECORD
  5
1B
330
1
100
AcDbSymbolTableRecord
100
AcDbBlockTableRecord
  2
*Paper_Space
340
1E
  0
BLOCK_RECORD
  5
23
330
1
100
AcDbSymbolTableRecord
100
AcDbBlockTableRecord
  2
*Paper_Space0
340
26
  0
ENDTAB
  0
ENDSEC
  0
SECTION
  2
BLOCKS
  0
BLOCK
  5
20
330
1F
100
AcDbEntity
  8
0
100
AcDbBlockBegin
  2
*Model_Space
 70
     0
 10
0.0
 20
0.0
 30
0.0
  3
*Model_Space
  1
*Model_Space
  0
ENDBLK
  5
21
330
1F
100
AcDbEntity
  8
0
100
AcDbBlockEnd
  0
BLOCK
  5
1C
330
1B
100
AcDbEntity
 67
     1
  8
0
100
AcDbBlockBegin
  2
*Paper_Space
 70
     0
 10
0.0
 20
0.0
 30
0.0
  3
*Paper_Space
  1
*Paper_Space
  0
ENDBLK
  5
1D
330
1B
100
AcDbEntity
 67
     1
  8
0
100
AcDbBlockEnd
  0
BLOCK
  5
24
330
23
100
AcDbEntity
  8
0
100
AcDbBlockBegin
  2
*Paper_Space0
 70
     0
 10
0.0
 20
0.0
 30
0.0
  3
*Paper_Space0
  1
*Paper_Space0
  0
ENDBLK
  5
25
330
23
100
AcDbEntity
  8
0
100
AcDbBlockEnd
  0
ENDSEC
  0
SECTION
  2
ENTITIES
  0
SPLINE
  5
6F
330
1F
100
AcDbEntity
  8
0
  6
Continuous
 62
     7
370
    15
100
AcDbSpline
210
0.0
220
0.0
230
1.0
 70
     8
 71
     3
 72
    25
 73
    21
 74
     0
 42
0.000000001
 43
0.00000001
 40
0.0
 40
0.0
 40
0.0
 40
0.0
 40
0.0250998740137534
 40
0.0501040597473582
 40
0.0750510629725877
 40
0.0999796544422868
 40
0.1249286907449421
 40
0.1874743152952422
 40
0.2499896476560979
 40
0.3124581108367703
 40
0.3750553936915868
 40
0.4999769211693413
 40
0.6249114239589997
 40
0.6874600732324239
 40
0.7499956250314476
 40
0.8124599767794115
 40
0.8750727760172263
 40
0.9166144745364957
 40
0.9581969718359555
 40
1.0
 40
1.0
 40
1.0
 40
1.0
 10
136.525907084205
 20
180.9935046691824
 30
0.0
 10
136.4865080751548
 20
180.9930590595208
 30
0.0
 10
136.4078602579445
 20
180.9921695389959
 30
0.0
 10
136.2902326940165
 20
180.985008339485
 30
0.0
 10
136.1732364415113
 20
180.9735733040981
 30
0.0
 10
136.0568678057896
 20
180.957454934409
 30
0.0
 10
135.8831370047124
 20
180.9263694328303
 30
0.0
 10
135.6543215268647
 20
180.8691009976157
 30
0.0
 10
135.3767282950396
 20
180.7698746950182
 30
0.0
 10
135.1100287393755
 20
180.6439651799147
 30
0.0
 10
134.7730586340296
 20
180.4419090622083
 30
0.0
 10
134.3911907379613
 20
180.1288504897268
 30
0.0
 10
134.078147741961
 20
179.7470673085472
 30
0.0
 10
133.8760275028143
 20
179.4100801934732
 30
0.0
 10
133.750106786466
 20
179.1434397003421
 30
0.0
 10
133.6508365151851
 20
178.8657258765523
 30
0.0
 10
133.5871380048852
 20
178.6116001110657
 30
0.0
 10
133.5499341583063
 20
178.3857830317941
 30
0.0
 10
133.5300468293862
 20
178.1904906623912
 30
0.0
 10
133.5275937714975
 20
178.0595866778045
 30
0.0
 10
133.526363998735
 20
177.9939615837124
 30
0.0
  0
SPLINE
  5
70
330
1F
100
AcDbEntity
  8
0
  6
Continuous
 62
     7
370
    15
100
AcDbSpline
210
0.0
220
0.0
230
1.0
 70
     8
 71
     3
 72
    14
 73
    10
 74
     0
 42
0.000000001
 43
0.00000001
 40
0.0
 40
0.0
 40
0.0
 40
0.0
 40
0.25
 40
0.25
 40
0.5
 40
0.5
 40
0.75
 40
0.75
 40
1.0
 40
1.0
 40
1.0
 40
1.0
 10
133.526363998735
 20
177.9939615837124
 30
0.0
 10
133.396918711623
 20
177.993949618197
 30
0.0
 10
133.2675221375065
 20
177.9939376526816
 30
0.0
 10
133.0279084350279
 20
177.9939137216507
 30
0.0
 10
132.9177814783629
 20
177.9939017561353
 30
0.0
 10
132.7331276973119
 20
177.9938778251044
 30
0.0
 10
132.6586703620438
 20
177.9938658595891
 30
0.0
 10
132.5564749717277
 20
177.9938419285582
 30
0.0
 10
132.5287753749637
 20
177.9938299630428
 30
0.0
 10
132.5265162964045
 20
177.9938179975274
 30
0.0
  0
SPLINE
  5
71
330
1F
100
AcDbEntity
  8
0
  6
Continuous
 62
     7
370
    15
100
AcDbSpline
210
0.0
220
0.0
230
1.0
 70
     8
 71
     3
 72
    53
 73
    49
 74
     0
 42
0.000000001
 43
0.00000001
 40
0.0
 40
0.0
 40
0.0
 40
0.0
 40
0.0217378268327427
 40
0.0434832918675092
 40
0.0652328586377613
 40
0.0869830720331852
 40
0.1087307280072698
 40
0.1304746483706463
 40
0.1522157014724562
 40
0.1739547241673159
 40
0.1956924802552704
 40
0.2174297435410036
 40
0.2391673725319927
 40
0.2609059310840082
 40
0.2826452940717251
 40
0.3043851552663642
 40
0.3261251616757916
 40
0.3478650040447211
 40
0.3696045084775154
 40
0.3913437497828025
 40
0.413082854835275
 40
0.4348218063610513
 40
0.4565605163512089
 40
0.478298914887073
 40
0.5000370390505868
 40
0.5217750823485837
 40
0.5435131744304195
 40
0.5652512930215209
 40
0.5869893490075927
 40
0.6087272752452891
 40
0.6304651152652468
 40
0.6522030230949841
 40
0.6739409521285705
 40
0.6956786556151353
 40
0.7174157933967342
 40
0.7391520223620462
 40
0.7608870870128698
 40
0.7826211118965871
 40
0.8043549067008059
 40
0.8260892856330091
 40
0.8478250071412603
 40
0.8695628569153153
 40
0.8913037308446425
 40
0.913047982142464
 40
0.9347931549885397
 40
0.9565358893663712
 40
0.9782726823056483
 40
1.0
 40
1.0
 40
1.0
 40
1.0
 10
136.5259070884364
 20
181.9933282645948
 30
0.0
 10
136.4803864998132
 20
181.9928702341356
 30
0.0
 10
136.389329327617
 20
181.9919540122753
 30
0.0
 10
136.2528865848198
 20
181.9846839947678
 30
0.0
 10
136.1167352688089
 20
181.9731068024046
 30
0.0
 10
135.9810552581202
 20
181.9568056683494
 30
0.0
 10
135.84602333399
 20
181.9358965584432
 30
0.0
 10
135.7118062721205
 20
181.9103695260297
 30
0.0
 10
135.5785570379101
 20
181.8802789929664
 30
0.0
 10
135.4464243072954
 20
181.8456631465814
 30
0.0
 10
135.3155563749681
 20
181.8065640370371
 30
0.0
 10
135.1861013271763
 20
181.763023317916
 30
0.0
 10
135.0582092166916
 20
181.71508044466
 30
0.0
 10
134.9320284264628
 20
181.6627878959359
 30
0.0
 10
134.8077005308835
 20
181.6062199714644
 30
0.0
 10
134.6853694536177
 20
181.5454474351437
 30
0.0
 10
134.5651789487995
 20
181.4805419136215
 30
0.0
 10
134.4472724897973
 20
181.411575347181
 30
0.0
 10
134.3317949538437
 20
181.3386173009433
 30
0.0
 10
134.2188857482861
 20
181.2617471836345
 30
0.0
 10
134.1086676062372
 20
181.1810681273315
 30
0.0
 10
134.0012649901516
 20
181.0966790224809
 30
0.0
 10
133.8968018348914
 20
181.0086796352085
 30
0.0
 10
133.7954019069093
 20
180.9171698031992
 30
0.0
 10
133.6971903434404
 20
180.8222480093933
 30
0.0
 10
133.6022876581811
 20
180.7240189528571
 30
0.0
 10
133.5107934419302
 20
180.622607775928
 30
0.0
 10
133.4228095336615
 20
180.5181364995
 30
0.0
 10
133.3384372003553
 20
180.4107278036653
 30
0.0
 10
133.2577776251185
 20
180.300504358025
 30
0.0
 10
133.1809331894891
 20
180.1875881771217
 30
0.0
 10
133.1080027079045
 20
180.072105466111
 30
0.0
 10
133.0390576782426
 20
179.9542006052197
 30
0.0
 10
132.9741721029045
 20
179.8340158646648
 30
0.0
 10
132.9134193956645
 20
179.7116940277633
 30
0.0
 10
132.8568730507251
 20
179.5873777906235
 30
0.0
 10
132.8046069154368
 20
179.4612091852945
 30
0.0
 10
132.7566925255797
 20
179.3333300755272
 30
0.0
 10
132.7131730087287
 20
179.2038910604625
 30
0.0
 10
132.6740921573132
 20
179.0730398622979
 30
0.0
 10
132.639493117032
 20
178.9409241262531
 30
0.0
 10
132.6094198792968
 20
178.8076914595399
 30
0.0
 10
132.5839141150082
 20
178.6734908694517
 30
0.0
 10
132.5630283104055
 20
178.5384797649775
 30
0.0
 10
132.5467389173903
 20
178.4028306879254
 30
0.0
 10
132.5351686785829
 20
178.2667219994663
 30
0.0
 10
132.5279021361643
 20
178.1303336292153
 30
0.0
 10
132.5269883884505
 20
178.0393165933126
 30
0.0
 10
132.5265316141927
 20
177.9938179962903
 30
0.0
  0
SPLINE
  5
72
330
1F
100
AcDbEntity
  8
0
  6
Continuous
 62
     7
370
    15
100
AcDbSpline
210
0.0
220
0.0
230
1.0
 70
    24
 71
     3
 72
    14
 73
    10
 74
     0
 42
0.000000001
 43
0.00000001
 40
0.0
 40
0.0
 40
0.0
 40
0.0
 40
0.25
 40
0.25
 40
0.5
 40
0.5
 40
0.75
 40
0.75
 40
1.0
 40
1.0
 40
1.0
 40
1.0
 10
136.525907084205
 20
180.993504669183
 30
0.0
 10
136.5259070756422
 20
181.1103217529131
 30
0.0
 10
136.5259070664193
 20
181.2361445379225
 30
0.0
 10
136.525907048551
 20
181.479912931594
 30
0.0
 10
136.5259070399585
 20
181.5971363873923
 30
0.0
 10
136.5259070256998
 20
181.7916628822239
 30
0.0
 10
136.5259070200796
 20
181.868338420217
 30
0.0
 10
136.5259070127743
 20
181.9680039273377
 30
0.0
 10
136.5259070110675
 20
181.9912895927054
 30
0.0
 10
136.5259070109181
 20
181.9933282645839
 30
0.0
  0
SPLINE
  5
73
330
1F
100
AcDbEntity
  8
0
  6
Continuous
 62
     7
370
    15
100
AcDbSpline
210
0.0
220
0.0
230
1.0
 70
     8
 71
     3
 72
    53
 73
    49
 74
     0
 42
0.000000001
 43
0.00000001
 40
0.0
 40
0.0
 40
0.0
 40
0.0
 40
0.0217378268327268
 40
0.0434832918674837
 40
0.065232858637723
 40
0.0869830720331372
 40
0.1087307280072112
 40
0.1304746483705785
 40
0.1522157014723768
 40
0.1739547241672303
 40
0.1956924802551778
 40
0.2174297435409038
 40
0.2391673725318833
 40
0.2609059310838942
 40
0.2826452940716048
 40
0.3043851552662376
 40
0.3261251616756626
 40
0.3478650040445864
 40
0.369604508477375
 40
0.391343749782662
 40
0.4130828548351327
 40
0.4348218063609052
 40
0.4565605163510596
 40
0.4782989148869252
 40
0.5000370390504395
 40
0.5217750823484358
 40
0.5435131744302742
 40
0.5652512930213753
 40
0.5869893490074489
 40
0.6087272752451472
 40
0.6304651152651101
 40
0.6522030230948475
 40
0.6739409521284397
 40
0.6956786556150077
 40
0.7174157933966137
 40
0.7391520223619312
 40
0.7608870870127628
 40
0.7826211118964868
 40
0.8043549067007107
 40
0.8260892856329237
 40
0.8478250071411831
 40
0.869562856915248
 40
0.8913037308445838
 40
0.9130479821424154
 40
0.9347931549885043
 40
0.956535889366346
 40
0.9782726823056365
 40
1.0
 40
1.0
 40
1.0
 40
1.0
 10
132.5265404033226
 20
126.3948189083238
 30
0.0
 10
132.5269984337817
 20
126.3492983197007
 30
0.0
 10
132.5279146556421
 20
126.2582411475045
 30
0.0
 10
132.5351846731495
 20
126.1217984047074
 30
0.0
 10
132.5467618655128
 20
125.9856470886965
 30
0.0
 10
132.5630629995679
 20
125.8499670780079
 30
0.0
 10
132.5839721094741
 20
125.7149351538777
 30
0.0
 10
132.6094991418876
 20
125.5807180920084
 30
0.0
 10
132.6395896749509
 20
125.447468857798
 30
0.0
 10
132.6742055213359
 20
125.3153361271833
 30
0.0
 10
132.7133046308801
 20
125.184468194856
 30
0.0
 10
132.7568453500012
 20
125.0550131470643
 30
0.0
 10
132.8047882232571
 20
124.9271210365796
 30
0.0
 10
132.8570807719813
 20
124.8009402463509
 30
0.0
 10
132.9136486964526
 20
124.6766123507716
 30
0.0
 10
132.9744212327733
 20
124.5542812735058
 30
0.0
 10
133.0393267542955
 20
124.4340907686876
 30
0.0
 10
133.108293320736
 20
124.3161843096854
 30
0.0
 10
133.1812513669736
 20
124.2007067737318
 30
0.0
 10
133.2581214842823
 20
124.0877975681742
 30
0.0
 10
133.3388005405853
 20
123.9775794261253
 30
0.0
 10
133.4231896454359
 20
123.8701768100397
 30
0.0
 10
133.5111890327083
 20
123.7657136547795
 30
0.0
 10
133.6026988647176
 20
123.6643137267974
 30
0.0
 10
133.6976206585234
 20
123.5661021633284
 30
0.0
 10
133.7958497150596
 20
123.4711994780691
 30
0.0
 10
133.8972608919887
 20
123.3797052618182
 30
0.0
 10
134.0017321684167
 20
123.2917213535494
 30
0.0
 10
134.1091408642513
 20
123.2073490202432
 30
0.0
 10
134.2193643098916
 20
123.1266894450063
 30
0.0
 10
134.332280490795
 20
123.0498450093771
 30
0.0
 10
134.4477632018057
 20
122.9769145277923
 30
0.0
 10
134.565668062697
 20
122.9079694981304
 30
0.0
 10
134.6858528032519
 20
122.8430839227922
 30
0.0
 10
134.8081746401534
 20
122.7823312155522
 30
0.0
 10
134.9324908772932
 20
122.7257848706128
 30
0.0
 10
135.0586594826223
 20
122.6735187353244
 30
0.0
 10
135.1865385923896
 20
122.6256043454673
 30
0.0
 10
135.3159776074543
 20
122.5820848286163
 30
0.0
 10
135.4468288056189
 20
122.5430039772007
 30
0.0
 10
135.5789445416638
 20
122.5084049369195
 30
0.0
 10
135.7121772083771
 20
122.4783316991843
 30
0.0
 10
135.8463777984653
 20
122.4528259348956
 30
0.0
 10
135.9813889029396
 20
122.4319401302929
 30
0.0
 10
136.1170379799918
 20
122.4156507372777
 30
0.0
 10
136.253146668451
 20
122.4040804984703
 30
0.0
 10
136.389535038702
 20
122.3968139560517
 30
0.0
 10
136.4805520746047
 20
122.3959002083378
 30
0.0
 10
136.5260506716271
 20
122.3954434340801
 30
0.0
  0
SPLINE
  5
74
330
1F
100
AcDbEntity
  8
0
  6
Continuous
 62
     7
370
    15
100
AcDbSpline
210
0.0
220
0.0
230
1.0
 70
    24
 71
     3
 72
    14
 73
    10
 74
     0
 42
0.000000001
 43
0.00000001
 40
0.0
 40
0.0
 40
0.0
 40
0.0
 40
0.25
 40
0.25
 40
0.5
 40
0.5
 40
0.75
 40
0.75
 40
1.0
 40
1.0
 40
1.0
 40
1.0
 10
133.5263639987344
 20
126.3948189040923
 30
0.0
 10
133.4095469150043
 20
126.3948188955296
 30
0.0
 10
133.2837241299949
 20
126.3948188863067
 30
0.0
 10
133.0399557363234
 20
126.3948188684384
 30
0.0
 10
132.9227322805251
 20
126.3948188598459
 30
0.0
 10
132.7282057856934
 20
126.3948188455872
 30
0.0
 10
132.6515302477004
 20
126.3948188399669
 30
0.0
 10
132.5518647405796
 20
126.3948188326616
 30
0.0
 10
132.5285790752119
 20
126.3948188309548
 30
0.0
 10
132.5265404033335
 20
126.3948188308055
 30
0.0
  0
SPLINE
  5
75
330
1F
100
AcDbEntity
  8
0
  6
Continuous
 62
     7
370
    15
100
AcDbSpline
210
0.0
220
0.0
230
1.0
 70
     8
 71
     3
 72
    25
 73
    21
 74
     0
 42
0.000000001
 43
0.00000001
 40
0.0
 40
0.0
 40
0.0
 40
0.0
 40
0.0250998740143938
 40
0.050104059748318
 40
0.0750510629735472
 40
0.0999796544429281
 40
0.1249286907449521
 40
0.1874743152975969
 40
0.2499896476561079
 40
0.3124581108383798
 40
0.3750553936915849
 40
0.4999769211693376
 40
0.6249114239589929
 40
0.6874600732306219
 40
0.7499956250314475
 40
0.8124599767788206
 40
0.8750727760172257
 40
0.916614474536319
 40
0.9581969718357771
 40
0.9999999999999999
 40
0.9999999999999999
 40
0.9999999999999999
 40
0.9999999999999999
 10
133.526363998735
 20
126.3948189040924
 30
0.0
 10
133.5268096083966
 20
126.3554198950412
 30
0.0
 10
133.5276991289215
 20
126.2767720778294
 30
0.0
 10
133.5348603284323
 20
126.1591445138998
 30
0.0
 10
133.5462953638192
 20
126.0421482613947
 30
0.0
 10
133.5624137335082
 20
125.9257796256745
 30
0.0
 10
133.5934992350884
 20
125.7520488245953
 30
0.0
 10
133.6507676703024
 20
125.5232333467485
 30
0.0
 10
133.7499939729015
 20
125.2456401149213
 30
0.0
 10
133.8759034880046
 20
124.978940559261
 30
0.0
 10
134.0779596057102
 20
124.6419704539148
 30
0.0
 10
134.3910181781906
 20
124.2601025578487
 30
0.0
 10
134.7728013593682
 20
123.9470595618506
 30
0.0
 10
135.1097884744412
 20
123.7449393227023
 30
0.0
 10
135.3764289675719
 20
123.619018606355
 30
0.0
 10
135.6541427913641
 20
123.5197483350726
 30
0.0
 10
135.9082685568505
 20
123.4560498247729
 30
0.0
 10
136.1340856361226
 20
123.4188459781937
 30
0.0
 10
136.3293780055257
 20
123.3989586492736
 30
0.0
 10
136.4602819901126
 20
123.396505591385
 30
0.0
 10
136.525907084205
 20
123.3952758186224
 30
0.0
  0
SPLINE
  5
76
330
1F
100
AcDbEntity
  8
0
  6
Continuous
 62
     7
370
    15
100
AcDbSpline
210
0.0
220
0.0
230
1.0
 70
     8
 71
     3
 72
    14
 73
    10
 74
     0
 42
0.000000001
 43
0.00000001
 40
0.0
 40
0.0
 40
0.0
 40
0.0
 40
0.25
 40
0.25
 40
0.5
 40
0.5
 40
0.75
 40
0.75
 40
1.0
 40
1.0
 40
1.0
 40
1.0
 10
136.525907084205
 20
123.3952758186224
 30
0.0
 10
136.5259190497204
 20
123.2658305315104
 30
0.0
 10
136.5259310152358
 20
123.1364339573939
 30
0.0
 10
136.5259549462667
 20
122.8968202549153
 30
0.0
 10
136.5259669117821
 20
122.7866932982503
 30
0.0
 10
136.5259908428129
 20
122.6020395171993
 30
0.0
 10
136.5260028083283
 20
122.5275821819312
 30
0.0
 10
136.5260267393591
 20
122.4253867916151
 30
0.0
 10
136.5260387048746
 20
122.3976871948511
 30
0.0
 10
136.52605067039
 20
122.3954281162919
 30
0.0
  0
SPLINE
  5
77
330
1F
100
AcDbEntity
  8
0
  6
Continuous
 62
     7
370
    15
100
AcDbSpline
210
0.0
220
0.0
230
1.0
 70
     8
 71
     3
 72
    25
 73
    21
 74
     0
 42
0.000000001
 43
0.00000001
 40
0.0
 40
0.0
 40
0.0
 40
0.0
 40
0.0250998740137534
 40
0.0501040597473582
 40
0.0750510629725877
 40
0.0999796544422868
 40
0.1249286907449421
 40
0.1874743152952422
 40
0.2499896476560979
 40
0.3124581108367703
 40
0.3750553936915868
 40
0.4999769211693413
 40
0.6249114239589997
 40
0.6874600732324239
 40
0.7499956250314476
 40
0.8124599767794115
 40
0.8750727760172263
 40
0.9166144745364957
 40
0.9581969718359555
 40
1.0
 40
1.0
 40
1.0
 40
1.0
 10
189.125049763825
 20
123.3952758186224
 30
0.0
 10
189.1644487728751
 20
123.395721428284
 30
0.0
 10
189.2430965900855
 20
123.3966109488089
 30
0.0
 10
189.3607241540135
 20
123.4037721483198
 30
0.0
 10
189.4777204065186
 20
123.4152071837067
 30
0.0
 10
189.5940890422403
 20
123.4313255533957
 30
0.0
 10
189.7678198433176
 20
123.4624110549745
 30
0.0
 10
189.9966353211652
 20
123.519679490189
 30
0.0
 10
190.2742285529903
 20
123.6189057927866
 30
0.0
 10
190.5409281086545
 20
123.74481530789
 30
0.0
 10
190.8778982140004
 20
123.9468714255964
 30
0.0
 10
191.2597661100687
 20
124.259929998078
 30
0.0
 10
191.572809106069
 20
124.6417131792576
 30
0.0
 10
191.7749293452157
 20
124.9787002943315
 30
0.0
 10
191.9008500615639
 20
125.2453407874627
 30
0.0
 10
192.0001203328449
 20
125.5230546112525
 30
0.0
 10
192.0638188431448
 20
125.777180376739
 30
0.0
 10
192.1010226897236
 20
126.0029974560106
 30
0.0
 10
192.1209100186438
 20
126.1982898254136
 30
0.0
 10
192.1233630765324
 20
126.3291938100003
 30
0.0
 10
192.124592849295
 20
126.3948189040924
 30
0.0
  0
SPLINE
  5
78
330
1F
100
AcDbEntity
  8
0
  6
Continuous
 62
     7
370
    15
100
AcDbSpline
210
0.0
220
0.0
230
1.0
 70
     8
 71
     3
 72
    14
 73
    10
 74
     0
 42
0.000000001
 43
0.00000001
 40
0.0
 40
0.0
 40
0.0
 40
0.0
 40
0.25
 40
0.25
 40
0.5
 40
0.5
 40
0.75
 40
0.75
 40
1.0
 40
1.0
 40
1.0
 40
1.0
 10
192.124592849295
 20
126.3948189040924
 30
0.0
 10
192.254038136407
 20
126.3948308696078
 30
0.0
 10
192.3834347105235
 20
126.3948428351232
 30
0.0
 10
192.6230484130021
 20
126.3948667661541
 30
0.0
 10
192.7331753696671
 20
126.3948787316695
 30
0.0
 10
192.9178291507181
 20
126.3949026627003
 30
0.0
 10
192.9922864859862
 20
126.3949146282157
 30
0.0
 10
193.0944818763022
 20
126.3949385592466
 30
0.0
 10
193.1221814730663
 20
126.394950524762
 30
0.0
 10
193.1244405516254
 20
126.3949624902774
 30
0.0
  0
SPLINE
  5
79
330
1F
100
AcDbEntity
  8
0
  6
Continuous
 62
     7
370
    15
100
AcDbSpline
210
0.0
220
0.0
230
1.0
 70
     8
 71
     3
 72
    53
 73
    49
 74
     0
 42
0.000000001
 43
0.00000001
 40
0.0
 40
0.0
 40
0.0
 40
0.0
 40
0.0217378268327427
 40
0.0434832918675092
 40
0.0652328586377613
 40
0.0869830720331852
 40
0.1087307280072698
 40
0.1304746483706463
 40
0.1522157014724562
 40
0.1739547241673159
 40
0.1956924802552704
 40
0.2174297435410036
 40
0.2391673725319927
 40
0.2609059310840082
 40
0.2826452940717251
 40
0.3043851552663642
 40
0.3261251616757916
 40
0.3478650040447211
 40
0.3696045084775154
 40
0.3913437497828025
 40
0.413082854835275
 40
0.4348218063610513
 40
0.4565605163512089
 40
0.478298914887073
 40
0.5000370390505868
 40
0.5217750823485837
 40
0.5435131744304195
 40
0.5652512930215209
 40
0.5869893490075927
 40
0.6087272752452891
 40
0.6304651152652468
 40
0.6522030230949841
 40
0.6739409521285705
 40
0.6956786556151353
 40
0.7174157933967342
 40
0.7391520223620462
 40
0.7608870870128698
 40
0.7826211118965871
 40
0.8043549067008059
 40
0.8260892856330091
 40
0.8478250071412603
 40
0.8695628569153153
 40
0.8913037308446425
 40
0.913047982142464
 40
0.9347931549885397
 40
0.9565358893663712
 40
0.9782726823056483
 40
1.0
 40
1.0
 40
1.0
 40
1.0
 10
189.1250497595936
 20
122.39545222321
 30
0.0
 10
189.1705703482167
 20
122.3959102536691
 30
0.0
 10
189.2616275204129
 20
122.3968264755294
 30
0.0
 10
189.3980702632102
 20
122.4040964930369
 30
0.0
 10
189.534221579221
 20
122.4156736854002
 30
0.0
 10
189.6699015899098
 20
122.4319748194554
 30
0.0
 10
189.80493351404
 20
122.4528839293616
 30
0.0
 10
189.9391505759094
 20
122.4784109617751
 30
0.0
 10
190.0723998101199
 20
122.5085014948384
 30
0.0
 10
190.2045325407346
 20
122.5431173412234
 30
0.0
 10
190.3354004730619
 20
122.5822164507676
 30
0.0
 10
190.4648555208537
 20
122.6257571698888
 30
0.0
 10
190.5927476313383
 20
122.6737000431448
 30
0.0
 10
190.7189284215672
 20
122.7259925918689
 30
0.0
 10
190.8432563171465
 20
122.7825605163403
 30
0.0
 10
190.9655873944123
 20
122.8433330526611
 30
0.0
 10
191.0857778992305
 20
122.9082385741833
 30
0.0
 10
191.2036843582327
 20
122.9772051406238
 30
0.0
 10
191.3191618941863
 20
123.0501631868615
 30
0.0
 10
191.4320710997439
 20
123.1270333041703
 30
0.0
 10
191.5422892417927
 20
123.2077123604733
 30
0.0
 10
191.6496918578784
 20
123.2921014653239
 30
0.0
 10
191.7541550131386
 20
123.3801008525963
 30
0.0
 10
191.8555549411207
 20
123.4716106846056
 30
0.0
 10
191.9537665045896
 20
123.5665324784114
 30
0.0
 10
192.0486691898489
 20
123.6647615349477
 30
0.0
 10
192.1401634060998
 20
123.7661727118767
 30
0.0
 10
192.2281473143685
 20
123.8706439883047
 30
0.0
 10
192.3125196476747
 20
123.9780526841394
 30
0.0
 10
192.3931792229115
 20
124.0882761297797
 30
0.0
 10
192.4700236585408
 20
124.2011923106831
 30
0.0
 10
192.5429541401255
 20
124.3166750216938
 30
0.0
 10
192.6118991697873
 20
124.4345798825851
 30
0.0
 10
192.6767847451254
 20
124.55476462314
 30
0.0
 10
192.7375374523655
 20
124.6770864600415
 30
0.0
 10
192.7940837973049
 20
124.8014026971813
 30
0.0
 10
192.8463499325931
 20
124.9275713025103
 30
0.0
 10
192.8942643224503
 20
125.0554504122776
 30
0.0
 10
192.9377838393012
 20
125.1848894273423
 30
0.0
 10
192.9768646907168
 20
125.3157406255068
 30
0.0
 10
193.011463730998
 20
125.4478563615516
 30
0.0
 10
193.0415369687332
 20
125.5810890282649
 30
0.0
 10
193.0670427330217
 20
125.7152896183531
 30
0.0
 10
193.0879285376244
 20
125.8503007228273
 30
0.0
 10
193.1042179306397
 20
125.9859497998794
 30
0.0
 10
193.1157881694471
 20
126.1220584883385
 30
0.0
 10
193.1230547118657
 20
126.2584468585895
 30
0.0
 10
193.1239684595795
 20
126.3494638944921
 30
0.0
 10
193.1244252338372
 20
126.3949624915145
 30
0.0
  0
SPLINE
  5
7A
330
1F
100
AcDbEntity
  8
0
  6
Continuous
 62
     7
370
    15
100
AcDbSpline
210
0.0
220
0.0
230
1.0
 70
    24
 71
     3
 72
    14
 73
    10
 74
     0
 42
0.000000001
 43
0.00000001
 40
0.0
 40
0.0
 40
0.0
 40
0.0
 40
0.25
 40
0.25
 40
0.5
 40
0.5
 40
0.75
 40
0.75
 40
1.0
 40
1.0
 40
1.0
 40
1.0
 10
189.125049763825
 20
123.3952758186217
 30
0.0
 10
189.1250497723878
 20
123.2784587348916
 30
0.0
 10
189.1250497816107
 20
123.1526359498822
 30
0.0
 10
189.1250497994789
 20
122.9088675562108
 30
0.0
 10
189.1250498080714
 20
122.7916441004125
 30
0.0
 10
189.1250498223301
 20
122.5971176055808
 30
0.0
 10
189.1250498279504
 20
122.5204420675878
 30
0.0
 10
189.1250498352557
 20
122.4207765604671
 30
0.0
 10
189.1250498369625
 20
122.3974908950993
 30
0.0
 10
189.1250498371118
 20
122.3954522232209
 30
0.0
  0
SPLINE
  5
7B
330
1F
100
AcDbEntity
  8
0
  6
Continuous
 62
     7
370
    15
100
AcDbSpline
210
0.0
220
0.0
230
1.0
 70
     8
 71
     3
 72
    53
 73
    49
 74
     0
 42
0.000000001
 43
0.00000001
 40
0.0
 40
0.0
 40
0.0
 40
0.0
 40
0.0217378268327268
 40
0.0434832918674837
 40
0.065232858637723
 40
0.0869830720331372
 40
0.1087307280072112
 40
0.1304746483705785
 40
0.1522157014723768
 40
0.1739547241672303
 40
0.1956924802551778
 40
0.2174297435409038
 40
0.2391673725318833
 40
0.2609059310838942
 40
0.2826452940716048
 40
0.3043851552662376
 40
0.3261251616756626
 40
0.3478650040445864
 40
0.369604508477375
 40
0.391343749782662
 40
0.4130828548351327
 40
0.4348218063609052
 40
0.4565605163510596
 40
0.4782989148869252
 40
0.5000370390504395
 40
0.5217750823484358
 40
0.5435131744302742
 40
0.5652512930213753
 40
0.5869893490074489
 40
0.6087272752451472
 40
0.6304651152651101
 40
0.6522030230948475
 40
0.6739409521284397
 40
0.6956786556150077
 40
0.7174157933966137
 40
0.7391520223619312
 40
0.7608870870127628
 40
0.7826211118964868
 40
0.8043549067007107
 40
0.8260892856329237
 40
0.8478250071411831
 40
0.869562856915248
 40
0.8913037308445838
 40
0.9130479821424154
 40
0.9347931549885043
 40
0.956535889366346
 40
0.9782726823056365
 40
1.0
 40
1.0
 40
1.0
 40
1.0
 10
193.1244164447074
 20
177.993961579481
 30
0.0
 10
193.1239584142482
 20
178.0394821681041
 30
0.0
 10
193.1230421923879
 20
178.1305393403003
 30
0.0
 10
193.1157721748804
 20
178.2669820830974
 30
0.0
 10
193.1041949825172
 20
178.4031333991082
 30
0.0
 10
193.0878938484621
 20
178.5388134097969
 30
0.0
 10
193.0669847385558
 20
178.673845333927
 30
0.0
 10
193.0414577061424
 20
178.8080623957964
 30
0.0
 10
193.011367173079
 20
178.9413116300068
 30
0.0
 10
192.9767513266941
 20
179.0734443606214
 30
0.0
 10
192.9376522171499
 20
179.2043122929487
 30
0.0
 10
192.8941114980288
 20
179.3337673407405
 30
0.0
 10
192.8461686247729
 20
179.4616594512251
 30
0.0
 10
192.7938760760487
 20
179.5878402414539
 30
0.0
 10
192.7373081515774
 20
179.7121681370332
 30
0.0
 10
192.6765356152567
 20
179.834499214299
 30
0.0
 10
192.6116300937345
 20
179.9546897191172
 30
0.0
 10
192.542663527294
 20
180.0725961781194
 30
0.0
 10
192.4697054810564
 20
180.188073714073
 30
0.0
 10
192.3928353637477
 20
180.3009829196306
 30
0.0
 10
192.3121563074446
 20
180.4112010616794
 30
0.0
 10
192.2277672025941
 20
180.5186036777651
 30
0.0
 10
192.1397678153217
 20
180.6230668330253
 30
0.0
 10
192.0482579833124
 20
180.7244667610074
 30
0.0
 10
191.9533361895066
 20
180.8226783244764
 30
0.0
 10
191.8551071329704
 20
180.9175810097357
 30
0.0
 10
191.7536959560413
 20
181.0090752259866
 30
0.0
 10
191.6492246796133
 20
181.0970591342553
 30
0.0
 10
191.5418159837786
 20
181.1814314675615
 30
0.0
 10
191.4315925381383
 20
181.2620910427984
 30
0.0
 10
191.3186763572349
 20
181.3389354784277
 30
0.0
 10
191.2031936462243
 20
181.4118659600125
 30
0.0
 10
191.085288785333
 20
181.4808109896743
 30
0.0
 10
190.9651040447781
 20
181.5456965650125
 30
0.0
 10
190.8427822078765
 20
181.6064492722525
 30
0.0
 10
190.7184659707368
 20
181.662995617192
 30
0.0
 10
190.5922973654077
 20
181.7152617524803
 30
0.0
 10
190.4644182556404
 20
181.7631761423375
 30
0.0
 10
190.3349792405756
 20
181.8066956591884
 30
0.0
 10
190.204128042411
 20
181.8457765106041
 30
0.0
 10
190.0720123063662
 20
181.8803755508853
 30
0.0
 10
189.9387796396529
 20
181.9104487886205
 30
0.0
 10
189.8045790495647
 20
181.9359545529091
 30
0.0
 10
189.6695679450904
 20
181.9568403575118
 30
0.0
 10
189.5339188680382
 20
181.9731297505271
 30
0.0
 10
189.397810179579
 20
181.9846999893344
 30
0.0
 10
189.2614218093279
 20
181.9919665317531
 30
0.0
 10
189.1704047734252
 20
181.9928802794669
 30
0.0
 10
189.1249061764029
 20
181.9933370537246
 30
0.0
  0
SPLINE
  5
7C
330
1F
100
AcDbEntity
  8
0
  6
Continuous
 62
     7
370
    15
100
AcDbSpline
210
0.0
220
0.0
230
1.0
 70
    24
 71
     3
 72
    14
 73
    10
 74
     0
 42
0.000000001
 43
0.00000001
 40
0.0
 40
0.0
 40
0.0
 40
0.0
 40
0.25
 40
0.25
 40
0.5
 40
0.5
 40
0.75
 40
0.75
 40
1.0
 40
1.0
 40
1.0
 40
1.0
 10
193.1244405516254
 20
177.9939615820224
 30
0.0
 10
193.1221814730663
 20
177.9939615820224
 30
0.0
 10
193.0944818763022
 20
177.9939615820224
 30
0.0
 10
192.9922864859862
 20
177.9939615820224
 30
0.0
 10
192.9178291507181
 20
177.9939615820224
 30
0.0
 10
192.7331753696671
 20
177.9939615820224
 30
0.0
 10
192.6230484130021
 20
177.9939615820224
 30
0.0
 10
192.3834347105235
 20
177.9939615820224
 30
0.0
 10
192.254038136407
 20
177.9939615820224
 30
0.0
 10
192.124592849295
 20
177.9939615820224
 30
0.0
  0
SPLINE
  5
7D
330
1F
100
AcDbEntity
  8
0
  6
Continuous
 62
     7
370
    15
100
AcDbSpline
210
0.0
220
0.0
230
1.0
 70
     8
 71
     3
 72
    25
 73
    21
 74
     0
 42
0.000000001
 43
0.00000001
 40
0.0
 40
0.0
 40
0.0
 40
0.0
 40
0.0250998740143938
 40
0.050104059748318
 40
0.0750510629735472
 40
0.0999796544429281
 40
0.1249286907449521
 40
0.1874743152975969
 40
0.2499896476561079
 40
0.3124581108383798
 40
0.3750553936915849
 40
0.4999769211693376
 40
0.6249114239589929
 40
0.6874600732306219
 40
0.7499956250314475
 40
0.8124599767788206
 40
0.8750727760172257
 40
0.916614474536319
 40
0.9581969718357771
 40
0.9999999999999999
 40
0.9999999999999999
 40
0.9999999999999999
 40
0.9999999999999999
 10
192.124592849295
 20
177.9939615837124
 30
0.0
 10
192.1241472396334
 20
178.0333605927635
 30
0.0
 10
192.1232577191085
 20
178.1120084099754
 30
0.0
 10
192.1160965195976
 20
178.2296359739049
 30
0.0
 10
192.1046614842108
 20
178.3466322264101
 30
0.0
 10
192.0885431145218
 20
178.4630008621303
 30
0.0
 10
192.0574576129415
 20
178.6367316632095
 30
0.0
 10
192.0001891777276
 20
178.8655471410563
 30
0.0
 10
191.9009628751285
 20
179.1431403728835
 30
0.0
 10
191.7750533600254
 20
179.4098399285438
 30
0.0
 10
191.5729972423197
 20
179.74681003389
 30
0.0
 10
191.2599386698394
 20
180.1286779299561
 30
0.0
 10
190.8781554886618
 20
180.4417209259542
 30
0.0
 10
190.5411683735887
 20
180.6438411651025
 30
0.0
 10
190.2745278804581
 20
180.7697618814498
 30
0.0
 10
189.9968140566659
 20
180.8690321527322
 30
0.0
 10
189.7426882911795
 20
180.9327306630318
 30
0.0
 10
189.5168712119073
 20
180.9699345096111
 30
0.0
 10
189.3215788425043
 20
180.9898218385312
 30
0.0
 10
189.1906748579174
 20
180.9922748964198
 30
0.0
 10
189.125049763825
 20
180.9935046691824
 30
0.0
  0
SPLINE
  5
7E
330
1F
100
AcDbEntity
  8
0
  6
Continuous
 62
     7
370
    15
100
AcDbSpline
210
0.0
220
0.0
230
1.0
 70
     8
 71
     3
 72
    14
 73
    10
 74
     0
 42
0.000000001
 43
0.00000001
 40
0.0
 40
0.0
 40
0.0
 40
0.0
 40
0.25
 40
0.25
 40
0.5
 40
0.5
 40
0.75
 40
0.75
 40
1.0
 40
1.0
 40
1.0
 40
1.0
 10
189.125049763825
 20
180.9935046691824
 30
0.0
 10
189.1250377983096
 20
181.1229499562944
 30
0.0
 10
189.1250258327942
 20
181.2523465304109
 30
0.0
 10
189.1250019017633
 20
181.4919602328895
 30
0.0
 10
189.1249899362479
 20
181.6020871895545
 30
0.0
 10
189.1249660052171
 20
181.7867409706055
 30
0.0
 10
189.1249540397016
 20
181.8611983058736
 30
0.0
 10
189.1249301086708
 20
181.9633936961896
 30
0.0
 10
189.1249181431554
 20
181.9910932929537
 30
0.0
 10
189.12490617764
 20
181.9933523715129
 30
0.0
  0
LINE
  5
7F
330
1F
100
AcDbEntity
  8
0
  6
Continuous
 62
     7
370
    15
100
AcDbLine
 10
136.5260506704
 20
122.3954281163
 30
0.0
 11
189.1250497621
 21
122.3954281163
 31
0.0
  0
LINE
  5
80
330
1F
100
AcDbEntity
  8
0
  6
Continuous
 62
     7
370
    15
100
AcDbLine
 10
136.5259070842
 20
123.3952758186
 30
0.0
 11
189.1250497638
 21
123.3952758186
 31
0.0
  0
LINE
  5
81
330
1F
100
AcDbEntity
  8
0
  6
Continuous
 62
     7
370
    15
100
AcDbLine
 10
189.1249061776
 20
181.9933523715
 30
0.0
 11
136.5259070859
 21
181.9933523715
 31
0.0
  0
LINE
  5
82
330
1F
100
AcDbEntity
  8
0
  6
Continuous
 62
     7
370
    15
100
AcDbLine
 10
189.1250497638
 20
180.9935046692
 30
0.0
 11
136.5259070842
 21
180.9935046692
 31
0.0
  0
LINE
  5
83
330
1F
100
AcDbEntity
  8
0
  6
Continuous
 62
     7
370
    15
100
AcDbLine
 10
133.5263639987
 20
177.9939615837
 30
0.0
 11
133.5263639987
 21
126.3948189041
 31
0.0
  0
LINE
  5
84
330
1F
100
AcDbEntity
  8
0
  6
Continuous
 62
     7
370
    15
100
AcDbLine
 10
192.1245928493
 20
126.3948189041
 30
0.0
 11
192.1245928493
 21
177.9939615837
 31
0.0
  0
CIRCLE
  5
85
330
1F
100
AcDbEntity
  8
0
  6
Continuous
 62
     7
370
    15
100
AcDbCircle
 10
136.325478424
 20
178.1943902439
 30
0.0
 40
2.599999999999994
  0
CIRCLE
  5
86
330
1F
100
AcDbEntity
  8
0
  6
Continuous
 62
     7
370
    15
100
AcDbCircle
 10
189.325478424
 20
178.1943902439
 30
0.0
 40
2.599999999999994
  0
CIRCLE
  5
87
330
1F
100
AcDbEntity
  8
0
  6
Continuous
 62
     7
370
    15
100
AcDbCircle
 10
189.325478424
 20
126.1943902439
 30
0.0
 40
2.600000000000009
  0
CIRCLE
  5
88
330
1F
100
AcDbEntity
  8
0
  6
Continuous
 62
     7
370
    15
100
AcDbCircle
 10
136.325478424
 20
126.1943902439
 30
0.0
 40
2.600000000000009
  0
LINE
  5
89
330
1F
100
AcDbEntity
  8
0
  6
Continuous
 62
     7
370
    15
100
AcDbLine
 10
132.5265162964
 20
177.9938179975
 30
0.0
 11
132.5265162964
 21
126.3948189058
 31
0.0
  0
LINE
  5
8A
330
1F
100
AcDbEntity
  8
0
  6
Continuous
 62
     7
370
    15
100
AcDbLine
 10
193.1244405516
 20
126.3949624939
 30
0.0
 11
193.1244405516
 21
177.993961582
 31
0.0
  0
ELLIPSE
  5
8B
330
1F
100
AcDbEntity
  8
0
  6
Continuous
 62
     7
370
    15
100
AcDbEllipse
 10
136.3260877362
 20
178.1937809317
 30
0.0
 11
-2.829288756678324
 21
2.829288756678296
 31
0.0
210
0.0
220
0.0
230
1.0
 40
0.9996954599
 41
5.497939437029736
 42
7.068431177329363
  0
LINE
  5
8C
330
1F
100
AcDbEntity
  8
0
  6
Continuous
 62
     7
370
    15
100
AcDbLine
 10
136.5259070842
 20
181.9933523643
 30
0.0
 11
136.3248692046
 21
182.1943902439
 31
0.0
  0
LINE
  5
8D
330
1F
100
AcDbEntity
  8
0
  6
Continuous
 62
     7
370
    15
100
AcDbLine
 10
132.5265162964
 20
177.9938179975
 30
0.0
 11
132.325478424
 21
178.1949994633
 31
0.0
  0
ELLIPSE
  5
8E
330
1F
100
AcDbEntity
  8
0
  6
Continuous
 62
     7
370
    15
100
AcDbEllipse
 10
189.3248691118
 20
126.1949995561
 30
0.0
 11
2.829288756678323
 21
-2.829288756678323
 31
0.0
210
0.0
220
0.0
230
1.0
 40
0.9996954599
 41
5.497939436818249
 42
7.068431177329366
  0
LINE
  5
8F
330
1F
100
AcDbEntity
  8
0
  6
Continuous
 62
     7
370
    15
100
AcDbLine
 10
189.1250497621
 20
122.3954281235
 30
0.0
 11
189.3260876425
 21
122.1943902439
 31
0.0
  0
LINE
  5
90
330
1F
100
AcDbEntity
  8
0
  6
Continuous
 62
     7
370
    15
100
AcDbLine
 10
193.124440548
 20
126.3949624939
 30
0.0
 11
193.325478424
 21
126.1937810245
 31
0.0
  0
ELLIPSE
  5
91
330
1F
100
AcDbEntity
  8
0
  6
Continuous
 62
     7
370
    15
100
AcDbEllipse
 10
136.3260877362
 20
126.1949995561
 30
0.0
 11
-2.829288756678323
 21
-2.829288756678323
 31
0.0
210
0.0
220
0.0
230
1.0
 40
0.9996954599
 41
5.497939436818243
 42
7.068431177329366
  0
LINE
  5
92
330
1F
100
AcDbEntity
  8
0
  6
Continuous
 62
     7
370
    15
100
AcDbLine
 10
132.5265163036
 20
126.3948189058
 30
0.0
 11
132.325478424
 21
126.1937810254
 31
0.0
  0
LINE
  5
93
330
1F
100
AcDbEntity
  8
0
  6
Continuous
 62
     7
370
    15
100
AcDbLine
 10
136.5260506704
 20
122.3954281163
 30
0.0
 11
136.3248692046
 21
122.1943902439
 31
0.0
  0
ELLIPSE
  5
94
330
1F
100
AcDbEntity
  8
0
  6
Continuous
 62
     7
370
    15
100
AcDbEllipse
 10
189.3248691118
 20
178.1937809317
 30
0.0
 11
2.829288756678324
 21
2.829288756678296
 31
0.0
210
0.0
220
0.0
230
1.0
 40
0.9996954599
 41
5.497939437029828
 42
7.068431177329368
  0
LINE
  5
95
330
1F
100
AcDbEntity
  8
0
  6
Continuous
 62
     7
370
    15
100
AcDbLine
 10
193.325478424
 20
178.1949994633
 30
0.0
 11
193.124440548
 21
177.9939615856
 31
0.0
  0
LINE
  5
96
330
1F
100
AcDbEntity
  8
0
  6
Continuous
 62
     7
370
    15
100
AcDbLine
 10
189.1249061776
 20
181.9933523715
 30
0.0
 11
189.3260876434
 21
182.1943902439
 31
0.0
  0
LINE
  5
97
330
1F
100
AcDbEntity
  8
0
  6
Continuous
 62
     7
370
    15
100
AcDbLine
 10
189.3260876434
 20
182.1943902439
 30
0.0
 11
136.3248692046
 21
182.1943902439
 31
0.0
  0
LINE
  5
98
330
1F
100
AcDbEntity
  8
0
  6
Continuous
 62
     7
370
    15
100
AcDbLine
 10
136.3248692046
 20
122.1943902439
 30
0.0
 11
189.3260876425
 21
122.1943902439
 31
0.0
  0
LINE
  5
99
330
1F
100
AcDbEntity
  8
0
  6
Continuous
 62
     7
370
    15
100
AcDbLine
 10
132.325478424
 20
178.1949994633
 30
0.0
 11
132.325478424
 21
126.1937810254
 31
0.0
  0
LINE
  5
9A
330
1F
100
AcDbEntity
  8
0
  6
Continuous
 62
     7
370
    15
100
AcDbLine
 10
193.325478424
 20
126.1937810245
 30
0.0
 11
193.325478424
 21
178.1949994633
 31
0.0
  0
CIRCLE
  5
9B
330
1F
100
AcDbEntity
  8
0
  6
Continuous
 62
     7
370
    15
100
AcDbCircle
 10
189.325478424
 20
126.1943902439
 30
0.0
 40
1.675000000000011
  0
CIRCLE
  5
9C
330
1F
100
AcDbEntity
  8
0
  6
Continuous
 62
     7
370
    15
100
AcDbCircle
 10
136.325478424
 20
126.1943902439
 30
0.0
 40
1.675000000000011
  0
CIRCLE
  5
9D
330
1F
100
AcDbEntity
  8
0
  6
Continuous
 62
     7
370
    15
100
AcDbCircle
 10
136.325478424
 20
178.1943902439
 30
0.0
 40
1.674999999999983
  0
CIRCLE
  5
9E
330
1F
100
AcDbEntity
  8
0
  6
Continuous
 62
     7
370
    15
100
AcDbCircle
 10
189.325478424
 20
178.1943902439
 30
0.0
 40
1.674999999999983
  0
SPLINE
  5
9F
330
1F
100
AcDbEntity
  8
0
  6
Continuous
 62
     7
370
    15
100
AcDbSpline
210
0.0
220
0.0
230
1.0
 70
     8
 71
     3
 72
    11
 73
     7
 74
     0
 42
0.000000001
 43
0.00000001
 40
0.0
 40
0.0
 40
0.0
 40
0.0
 40
0.2499366144623926
 40
0.4998926813623846
 40
0.7499150542742363
 40
1.0
 40
1.0
 40
1.0
 40
1.0
 10
105.3919935790278
 20
126.4248501931768
 30
0.0
 10
105.3920390973745
 20
126.1086634991548
 30
0.0
 10
105.3921301376105
 20
125.4762655024636
 30
0.0
 10
105.3922674996646
 20
124.6122053402096
 30
0.0
 10
105.3924053747471
 20
123.8867060232576
 30
0.0
 10
105.3924978052357
 20
123.5966110865369
 30
0.0
 10
105.3925440262624
 20
123.4515454700153
 30
0.0
  0
SPLINE
  5
A0
330
1F
100
AcDbEntity
  8
0
  6
Continuous
 62
     7
370
    15
100
AcDbSpline
210
0.0
220
0.0
230
1.0
 70
     8
 71
     3
 72
     9
 73
     5
 74
     0
 42
0.000000001
 43
0.00000001
 40
0.0
 40
0.0
 40
0.0
 40
0.0
 40
0.5962179155797089
 40
1.0
 40
1.0
 40
1.0
 40
1.0
 10
105.3919934295655
 20
123.2183984749232
 30
0.0
 10
105.4057841028669
 20
123.1625950321223
 30
0.0
 10
105.4289143593402
 20
123.0689993159541
 30
0.0
 10
105.4800139562242
 20
123.0995873097312
 30
0.0
 10
105.500647057967
 20
123.1119381936168
 30
0.0
  0
SPLINE
  5
A1
330
1F
100
AcDbEntity
  8
0
  6
Continuous
 62
     7
370
    15
100
AcDbSpline
210
0.0
220
0.0
230
1.0
 70
     8
 71
     3
 72
    11
 73
     7
 74
     0
 42
0.000000001
 43
0.00000001
 40
0.0
 40
0.0
 40
0.0
 40
0.0
 40
0.2554153442852978
 40
0.5148610758607493
 40
0.7663725905903263
 40
1.0
 40
1.0
 40
1.0
 40
1.0
 10
105.4433038248781
 20
123.0999965248415
 30
0.0
 10
105.4883084367452
 20
123.0099197377996
 30
0.0
 10
105.5790278214769
 20
122.8283447755896
 30
0.0
 10
105.8113947786276
 20
122.626133493045
 30
0.0
 10
106.08141207
 20
122.4956283735708
 30
0.0
 10
106.2742684539708
 20
122.4780664383015
 30
0.0
 10
106.3671419282137
 20
122.4696091712446
 30
0.0
  0
SPLINE
  5
A2
330
1F
100
AcDbEntity
  8
0
  6
Continuous
 62
     7
370
    15
100
AcDbSpline
210
0.0
220
0.0
230
1.0
 70
     8
 71
     3
 72
     9
 73
     5
 74
     0
 42
0.000000001
 43
0.00000001
 40
0.0
 40
0.0
 40
0.0
 40
0.0
 40
0.692926167942621
 40
1.0
 40
1.0
 40
1.0
 40
1.0
 10
105.4433038248781
 20
123.5908858348389
 30
0.0
 10
105.4218592224641
 20
123.530955907776
 30
0.0
 10
105.3909113330552
 20
123.4444677221143
 30
0.0
 10
105.3858311271088
 20
123.4551511311717
 30
0.0
 10
105.3842711288012
 20
123.4584317265304
 30
0.0
  0
SPLINE
  5
A3
330
1F
100
AcDbEntity
  8
0
  6
Continuous
 62
     7
370
    15
100
AcDbSpline
210
0.0
220
0.0
230
1.0
 70
     8
 71
     3
 72
     9
 73
     5
 74
     0
 42
0.000000001
 43
0.00000001
 40
0.0
 40
0.0
 40
0.0
 40
0.0
 40
0.3070168014372787
 40
1.0
 40
1.0
 40
1.0
 40
1.0
 10
105.3842732239286
 20
180.9303801997894
 30
0.0
 10
105.3858328831505
 20
180.933663435007
 30
0.0
 10
105.390912928329
 20
180.9443574270046
 30
0.0
 10
105.4218588329272
 20
180.8578933851708
 30
0.0
 10
105.4433038248781
 20
180.7979752569002
 30
0.0
  0
SPLINE
  5
A4
330
1F
100
AcDbEntity
  8
0
  6
Continuous
 62
     7
370
    15
100
AcDbSpline
210
0.0
220
0.0
230
1.0
 70
     8
 71
     3
 72
    11
 73
     7
 74
     0
 42
0.000000001
 43
0.00000001
 40
0.0
 40
0.0
 40
0.0
 40
0.0
 40
0.233627450546504
 40
0.4851389631058962
 40
0.7445846739298893
 40
1.0
 40
1.0
 40
1.0
 40
1.0
 10
106.3671419282137
 20
181.9191926160116
 30
0.0
 10
106.2742684576395
 20
181.9107342723367
 30
0.0
 10
106.0814120997542
 20
181.8931701030986
 30
0.0
 10
105.8113947856877
 20
181.7626614582746
 30
0.0
 10
105.5790278201401
 20
181.56044654931
 30
0.0
 10
105.4883084364333
 20
181.3788692702494
 30
0.0
 10
105.4433038248781
 20
181.2887913334571
 30
0.0
  0
SPLINE
  5
A5
330
1F
100
AcDbEntity
  8
0
  6
Continuous
 62
     7
370
    15
100
AcDbSpline
210
0.0
220
0.0
230
1.0
 70
     8
 71
     3
 72
     9
 73
     5
 74
     0
 42
0.000000001
 43
0.00000001
 40
0.0
 40
0.0
 40
0.0
 40
0.0
 40
0.4038484544824529
 40
0.9999999999999999
 40
0.9999999999999999
 40
0.9999999999999999
 40
0.9999999999999999
 10
105.5006509742606
 20
181.2768761623364
 30
0.0
 10
105.4800152669547
 20
181.2892251833657
 30
0.0
 10
105.4289176161483
 20
181.3198035374296
 30
0.0
 10
105.4057843096624
 20
181.2261935345768
 30
0.0
 10
105.3919933532478
 20
181.1703877867003
 30
0.0
  0
SPLINE
  5
A6
330
1F
100
AcDbEntity
  8
0
  6
Continuous
 62
     7
370
    15
100
AcDbSpline
210
0.0
220
0.0
230
1.0
 70
     8
 71
     3
 72
    12
 73
     8
 74
     0
 42
0.000000001
 43
0.00000001
 40
0.0
 40
0.0
 40
0.0
 40
0.0
 40
0.143526545620944
 40
0.2818155018149923
 40
0.541915522913854
 40
0.7812895246195856
 40
1.0
 40
1.0
 40
1.0
 40
1.0
 10
105.3925441322459
 20
180.9372897397562
 30
0.0
 10
105.3924966085955
 20
180.8602918336476
 30
0.0
 10
105.3924032955338
 20
180.709105839065
 30
0.0
 10
105.3922486903319
 20
180.2934368979728
 30
0.0
 10
105.3921029483695
 20
179.6664994393907
 30
0.0
 10
105.3919972791815
 20
178.8191023608534
 30
0.0
 10
105.3919947747492
 20
178.2403564344489
 30
0.0
 10
105.3919935790187
 20
177.964036665891
 30
0.0
  0
LINE
  5
A7
330
1F
100
AcDbEntity
  8
0
  6
Continuous
 62
     7
370
    15
100
AcDbLine
 10
120.3760790709
 20
134.0693902439
 30
0.0
 11
117.8761980814
 21
134.0693902439
 31
0.0
  0
LINE
  5
A8
330
1F
100
AcDbEntity
  8
0
  6
Continuous
 62
     7
370
    15
100
AcDbLine
 10
117.8761980814
 20
129.3193902439
 30
0.0
 11
120.3760790709
 21
129.3193902439
 31
0.0
  0
LINE
  5
A9
330
1F
100
AcDbEntity
  8
0
  6
Continuous
 62
     7
370
    15
100
AcDbLine
 10
120.3760790709
 20
129.3193902439
 30
0.0
 11
120.6261980814
 21
129.5694967216
 31
0.0
  0
LINE
  5
AA
330
1F
100
AcDbEntity
  8
0
  6
Continuous
 62
     7
370
    15
100
AcDbLine
 10
120.6261980814
 20
133.8192837662
 30
0.0
 11
120.3760790709
 21
134.0693902439
 31
0.0
  0
LINE
  5
AB
330
1F
100
AcDbEntity
  8
0
  6
Continuous
 62
     7
370
    15
100
AcDbLine
 10
120.3760790709
 20
175.0693902439
 30
0.0
 11
117.8761980814
 21
175.0693902439
 31
0.0
  0
LINE
  5
AC
330
1F
100
AcDbEntity
  8
0
  6
Continuous
 62
     7
370
    15
100
AcDbLine
 10
117.8761980814
 20
170.3193902439
 30
0.0
 11
120.3760790709
 21
170.3193902439
 31
0.0
  0
LINE
  5
AD
330
1F
100
AcDbEntity
  8
0
  6
Continuous
 62
     7
370
    15
100
AcDbLine
 10
120.3760790709
 20
170.3193902439
 30
0.0
 11
120.6261980814
 21
170.5694967216
 31
0.0
  0
LINE
  5
AE
330
1F
100
AcDbEntity
  8
0
  6
Continuous
 62
     7
370
    15
100
AcDbLine
 10
120.6261980814
 20
174.8192837662
 30
0.0
 11
120.3760790709
 21
175.0693902439
 31
0.0
  0
SPLINE
  5
AF
330
1F
100
AcDbEntity
  8
0
  6
Continuous
 62
     7
370
    15
100
AcDbSpline
210
0.0
220
0.0
230
1.0
 70
     8
 71
     3
 72
     9
 73
     5
 74
     0
 42
0.000000001
 43
0.00000001
 40
0.0
 40
0.0
 40
0.0
 40
0.0
 40
0.5961515455180608
 40
1.0
 40
1.0
 40
1.0
 40
1.0
 10
105.3919933532479
 20
123.2183927011042
 30
0.0
 10
105.4057843096624
 20
123.1625869532277
 30
0.0
 10
105.4289176161483
 20
123.0689769503751
 30
0.0
 10
105.4800152669547
 20
123.099555304439
 30
0.0
 10
105.5006509742605
 20
123.1119043254683
 30
0.0
  0
SPLINE
  5
B0
330
1F
100
AcDbEntity
  8
0
  6
Continuous
 62
     7
370
    15
100
AcDbSpline
210
0.0
220
0.0
230
1.0
 70
     8
 71
     3
 72
    11
 73
     7
 74
     0
 42
0.000000001
 43
0.00000001
 40
0.0
 40
0.0
 40
0.0
 40
0.0
 40
0.2554153260701151
 40
0.5148610368941043
 40
0.7663725494534995
 40
1.0
 40
1.0
 40
1.0
 40
1.0
 10
105.4433038248781
 20
123.0999891543477
 30
0.0
 10
105.4883084364333
 20
123.0099112175554
 30
0.0
 10
105.57902782014
 20
122.8283339384947
 30
0.0
 10
105.8113947856877
 20
122.6261190295302
 30
0.0
 10
106.0814120997542
 20
122.4956103847061
 30
0.0
 10
106.2742684576395
 20
122.4780462154681
 30
0.0
 10
106.3671419282137
 20
122.4695878717932
 30
0.0
  0
LINE
  5
B1
330
1F
100
AcDbEntity
  8
0
  6
Continuous
 62
     7
370
    15
100
AcDbLine
 10
117.8761980814
 20
178.1949994633
 30
0.0
 11
117.8761980814
 21
182.1943902439
 31
0.0
  0
LINE
  5
B2
330
1F
100
AcDbEntity
  8
0
  6
Continuous
 62
     7
370
    15
100
AcDbLine
 10
117.8761980814
 20
178.1949994633
 30
0.0
 11
106.3587458804
 21
177.9939615856
 31
0.0
  0
SPLINE
  5
B3
330
1F
100
AcDbEntity
  8
0
  6
Continuous
 62
     7
370
    15
100
AcDbSpline
210
0.0
220
0.0
230
1.0
 70
     8
 71
     3
 72
     9
 73
     5
 74
     0
 42
0.000000001
 43
0.00000001
 40
0.0
 40
0.0
 40
0.0
 40
0.0
 40
0.468158430788129
 40
0.9999999999999999
 40
0.9999999999999999
 40
0.9999999999999999
 40
0.9999999999999999
 10
106.3556985117409
 20
181.9170378290578
 30
0.0
 10
106.3561336092163
 20
181.9383085066751
 30
0.0
 10
106.3570629900558
 20
181.9837432916077
 30
0.0
 10
106.3581617302844
 20
181.9900161840031
 30
0.0
 10
106.3587460860117
 20
181.9933523689382
 30
0.0
  0
LINE
  5
B4
330
1F
100
AcDbEntity
  8
0
  6
Continuous
 62
     7
370
    15
100
AcDbLine
 10
106.358746086
 20
181.9933523715
 30
0.0
 11
117.8761980814
 21
182.1943902439
 31
0.0
  0
LINE
  5
B5
330
1F
100
AcDbEntity
  8
0
  6
Continuous
 62
     7
370
    15
100
AcDbLine
 10
117.8761980814
 20
126.1937810245
 30
0.0
 11
117.8761980814
 21
178.1949994633
 31
0.0
  0
LINE
  5
B6
330
1F
100
AcDbEntity
  8
0
  6
Continuous
 62
     7
370
    15
100
AcDbLine
 10
106.3587458805
 20
126.3949624939
 30
0.0
 11
117.8761980814
 21
126.1937810245
 31
0.0
  0
LINE
  5
B7
330
1F
100
AcDbEntity
  8
0
  6
Continuous
 62
     7
370
    15
100
AcDbLine
 10
106.358746086
 20
126.3949624939
 30
0.0
 11
106.358746086
 21
177.993961582
 31
0.0
  0
LINE
  5
B8
330
1F
100
AcDbEntity
  8
0
  6
Continuous
 62
     7
370
    15
100
AcDbLine
 10
117.8761980814
 20
122.1943902439
 30
0.0
 11
117.8761980814
 21
126.1937810245
 31
0.0
  0
LINE
  5
B9
330
1F
100
AcDbEntity
  8
0
  6
Continuous
 62
     7
370
    15
100
AcDbLine
 10
106.358745675
 20
122.3954281235
 30
0.0
 11
117.8761980814
 21
122.1943902439
 31
0.0
  0
LINE
  5
BA
330
1F
100
AcDbEntity
  8
0
  6
Continuous
 62
     7
370
    15
100
AcDbLine
 10
106.358745675
 20
122.3954281235
 30
0.0
 11
106.3556957605
 21
122.4741411238
 31
0.0
  0
LINE
  5
BB
330
1F
100
AcDbEntity
  8
0
  6
Continuous
 62
     7
370
    15
100
AcDbLine
 10
105.3761980814
 20
123.3952758186
 30
0.0
 11
105.3761980814
 21
123.4522734968
 31
0.0
  0
LINE
  5
BC
330
1F
100
AcDbEntity
  8
0
  6
Continuous
 62
     7
370
    15
100
AcDbLine
 10
105.3761980814
 20
126.3948189041
 30
0.0
 11
105.4094684308
 21
126.3948349436
 31
0.0
  0
LINE
  5
BD
330
1F
100
AcDbEntity
  8
0
  6
Continuous
 62
     7
370
    15
100
AcDbLine
 10
105.3761980814
 20
123.3952758186
 30
0.0
 11
105.4114408642
 21
123.2160558657
 31
0.0
  0
LINE
  5
BE
330
1F
100
AcDbEntity
  8
0
  6
Continuous
 62
     7
370
    15
100
AcDbLine
 10
105.4095758951
 20
177.993961582
 30
0.0
 11
105.3761980814
 21
177.993961582
 31
0.0
  0
LINE
  5
BF
330
1F
100
AcDbEntity
  8
0
  6
Continuous
 62
     7
370
    15
100
AcDbLine
 10
105.3761980814
 20
180.9365030617
 30
0.0
 11
105.3761980814
 21
180.9935046692
 31
0.0
  0
LINE
  5
C0
330
1F
100
AcDbEntity
  8
0
  6
Continuous
 62
     7
370
    15
100
AcDbLine
 10
105.3761980814
 20
180.9935046692
 30
0.0
 11
105.4114455527
 21
181.1727484645
 31
0.0
  0
LINE
  5
C1
330
1F
100
AcDbEntity
  8
0
  6
Continuous
 62
     7
370
    15
100
AcDbLine
 10
105.3761980814
 20
126.3948189041
 30
0.0
 11
105.3761980814
 21
177.9939615837
 31
0.0
  0
LINE
  5
C2
330
1F
100
AcDbEntity
  8
0
  6
Continuous
 62
     7
370
    15
100
AcDbLine
 10
120.3760790709
 20
129.3193902439
 30
0.0
 11
120.3760790709
 21
134.0693902439
 31
0.0
  0
LINE
  5
C3
330
1F
100
AcDbEntity
  8
0
  6
Continuous
 62
     7
370
    15
100
AcDbLine
 10
120.6261980814
 20
129.5694967216
 30
0.0
 11
120.6261980814
 21
133.8192837662
 31
0.0
  0
LINE
  5
C4
330
1F
100
AcDbEntity
  8
0
  6
Continuous
 62
     7
370
    15
100
AcDbLine
 10
120.3760790709
 20
170.3193902439
 30
0.0
 11
120.3760790709
 21
175.0693902439
 31
0.0
  0
LINE
  5
C5
330
1F
100
AcDbEntity
  8
0
  6
Continuous
 62
     7
370
    15
100
AcDbLine
 10
120.6261980814
 20
170.5694967216
 30
0.0
 11
120.6261980814
 21
174.8192837662
 31
0.0
  0
SPLINE
  5
C6
330
1F
100
AcDbEntity
  8
0
  6
Continuous
 62
     8
370
    15
100
AcDbSpline
210
0.0
220
0.0
230
1.0
 70
     8
 71
     3
 72
    15
 73
    11
 74
     0
 42
0.000000001
 43
0.00000001
 40
0.0
 40
0.0
 40
0.0
 40
0.0
 40
0.1483681830981373
 40
0.2928329009334582
 40
0.4333945666228597
 40
0.5700537769263017
 40
0.7069617088485457
 40
0.847610717749002
 40
0.9920014573216084
 40
1.0
 40
1.0
 40
1.0
 40
1.0
 10
106.3587456749506
 20
177.9939615820224
 30
0.0
 10
106.3576107100493
 20
178.2665087480456
 30
0.0
 10
106.3553706403957
 20
178.8044325508529
 30
0.0
 10
106.3530696889903
 20
179.5677119630586
 30
0.0
 10
106.3517625933252
 20
180.250579283606
 30
0.0
 10
106.351400986906
 20
180.8386560165548
 30
0.0
 10
106.3517625185701
 20
181.3273750451462
 30
0.0
 10
106.3531059731525
 20
181.6940208016865
 30
0.0
 10
106.3546011729773
 20
181.8730368781524
 30
0.0
 10
106.3556437874441
 20
181.9148435011288
 30
0.0
 10
106.3556985117409
 20
181.9170378290578
 30
0.0
  0
SPLINE
  5
C7
330
1F
100
AcDbEntity
  8
0
  6
Continuous
 62
     8
370
    15
100
AcDbSpline
210
0.0
220
0.0
230
1.0
 70
     8
 71
     3
 72
    15
 73
    11
 74
     0
 42
0.000000001
 43
0.00000001
 40
0.0
 40
0.0
 40
0.0
 40
0.0
 40
0.008226846002793
 40
0.1526929492346555
 40
0.2932560584743817
 40
0.4299167404042147
 40
0.5665627558349134
 40
0.7071249571169163
 40
0.8516039034940422
 40
1.0
 40
1.0
 40
1.0
 40
1.0
 10
106.3556957605205
 20
122.4741411238111
 30
0.0
 10
106.3556357102411
 20
122.4756078173705
 30
0.0
 10
106.3545211574386
 20
122.5028301289491
 30
0.0
 10
106.3531153690955
 20
122.7010871396953
 30
0.0
 10
106.3517508826764
 20
123.0606054498753
 30
0.0
 10
106.3514042057482
 20
123.5508527656804
 30
0.0
 10
106.3517613288389
 20
124.1380570050671
 30
0.0
 10
106.3530685293818
 20
124.8210504929475
 30
0.0
 10
106.355369031734
 20
125.5843598410849
 30
0.0
 10
106.357610408584
 20
126.1223630425007
 30
0.0
 10
106.3587460860117
 20
126.394962490415
 30
0.0
  0
SPLINE
  5
C8
330
1F
100
AcDbEntity
  8
0
  6
Continuous
 62
     8
370
    15
100
AcDbSpline
210
0.0
220
0.0
230
1.0
 70
     8
 71
     3
 72
    11
 73
     7
 74
     0
 42
0.000000001
 43
0.00000001
 40
0.0
 40
0.0
 40
0.0
 40
0.0
 40
0.1556848075234773
 40
0.4371232050156524
 40
0.7185616025078262
 40
1.0
 40
1.0
 40
1.0
 40
1.0
 10
105.409468430801
 20
126.3948349435511
 30
0.0
 10
105.419123943702
 20
126.3948415625803
 30
0.0
 10
105.4462341596087
 20
126.3948601471249
 30
0.0
 10
105.6491937843485
 20
126.3948906971849
 30
0.0
 10
105.9701967948374
 20
126.3949265937311
 30
0.0
 10
106.2292296555898
 20
126.394950524762
 30
0.0
 10
106.3587460859659
 20
126.3949624902774
 30
0.0
  0
SPLINE
  5
C9
330
1F
100
AcDbEntity
  8
0
  6
Continuous
 62
     8
370
    15
100
AcDbSpline
210
0.0
220
0.0
230
1.0
 70
    24
 71
     3
 72
    11
 73
     7
 74
     0
 42
0.000000001
 43
0.00000001
 40
0.0
 40
0.0
 40
0.0
 40
0.0
 40
0.2815527608532833
 40
0.5631055217065666
 40
0.844658282559851
 40
1.0
 40
1.0
 40
1.0
 40
1.0
 10
106.3587460859659
 20
177.9939615820224
 30
0.0
 10
106.2292287524138
 20
177.9939615820224
 30
0.0
 10
105.9701940853095
 20
177.9939615820224
 30
0.0
 10
105.6492046224604
 20
177.9939615820224
 30
0.0
 10
105.4463159380024
 20
177.9939615820224
 30
0.0
 10
105.4192126943896
 20
177.9939615820224
 30
0.0
 10
105.4095758950704
 20
177.9939615820224
 30
0.0
  0
SPLINE
  5
CA
330
1F
100
AcDbEntity
  8
0
  6
Continuous
 62
     7
370
    15
100
AcDbSpline
210
0.0
220
0.0
230
1.0
 70
     8
 71
     3
 72
    11
 73
     7
 74
     0
 42
0.000000001
 43
0.00000001
 40
0.0
 40
0.0
 40
0.0
 40
0.0
 40
0.249936614462393
 40
0.499892681362389
 40
0.7499150542742374
 40
1.0
 40
1.0
 40
1.0
 40
1.0
 10
136.5559383732895
 20
208.680595539171
 30
0.0
 10
136.2397516792674
 20
208.6805500208244
 30
0.0
 10
135.6073536825762
 20
208.6804589805884
 30
0.0
 10
134.7432935203223
 20
208.6803216185342
 30
0.0
 10
134.0177942033702
 20
208.6801837434518
 30
0.0
 10
133.7276992666495
 20
208.6800913129631
 30
0.0
 10
133.5826336501279
 20
208.6800450919364
 30
0.0
  0
SPLINE
  5
CB
330
1F
100
AcDbEntity
  8
0
  6
Continuous
 62
     7
370
    15
100
AcDbSpline
210
0.0
220
0.0
230
1.0
 70
     8
 71
     3
 72
     9
 73
     5
 74
     0
 42
0.000000001
 43
0.00000001
 40
0.0
 40
0.0
 40
0.0
 40
0.0
 40
0.5962179155811889
 40
1.0
 40
1.0
 40
1.0
 40
1.0
 10
133.349486655035
 20
208.6805956886332
 30
0.0
 10
133.2936832122341
 20
208.6668050153318
 30
0.0
 10
133.2000874960664
 20
208.6436747588585
 30
0.0
 10
133.2306754898435
 20
208.5925751619748
 30
0.0
 10
133.2430263737291
 20
208.5719420602321
 30
0.0
  0
SPLINE
  5
CC
330
1F
100
AcDbEntity
  8
0
  6
Continuous
 62
     7
370
    15
100
AcDbSpline
210
0.0
220
0.0
230
1.0
 70
     8
 71
     3
 72
    11
 73
     7
 74
     0
 42
0.000000001
 43
0.00000001
 40
0.0
 40
0.0
 40
0.0
 40
0.0
 40
0.2554153442853086
 40
0.5148610758607495
 40
0.7663725905903269
 40
1.0
 40
1.0
 40
1.0
 40
1.0
 10
133.2310847049541
 20
208.6292852933207
 30
0.0
 10
133.1410079179122
 20
208.5842806814536
 30
0.0
 10
132.9594329557021
 20
208.4935612967219
 30
0.0
 10
132.7572216731577
 20
208.2611943395712
 30
0.0
 10
132.6267165536834
 20
207.9911770481989
 30
0.0
 10
132.6091546184141
 20
207.798320664228
 30
0.0
 10
132.6006973513572
 20
207.7054471899852
 30
0.0
  0
SPLINE
  5
CD
330
1F
100
AcDbEntity
  8
0
  6
Continuous
 62
     7
370
    15
100
AcDbSpline
210
0.0
220
0.0
230
1.0
 70
     8
 71
     3
 72
     9
 73
     5
 74
     0
 42
0.000000001
 43
0.00000001
 40
0.0
 40
0.0
 40
0.0
 40
0.0
 40
0.6929261679426127
 40
0.9999999999999999
 40
0.9999999999999999
 40
0.9999999999999999
 40
0.9999999999999999
 10
133.7219740149516
 20
208.6292852933207
 30
0.0
 10
133.6620440878889
 20
208.6507298957347
 30
0.0
 10
133.5755559022276
 20
208.6816777851436
 30
0.0
 10
133.5862393112849
 20
208.68675799109
 30
0.0
 10
133.5895199066436
 20
208.6883179893977
 30
0.0
  0
SPLINE
  5
CE
330
1F
100
AcDbEntity
  8
0
  6
Continuous
 62
     7
370
    15
100
AcDbSpline
210
0.0
220
0.0
230
1.0
 70
     8
 71
     3
 72
     9
 73
     5
 74
     0
 42
0.000000001
 43
0.00000001
 40
0.0
 40
0.0
 40
0.0
 40
0.0
 40
0.3070168014372761
 40
1.0
 40
1.0
 40
1.0
 40
1.0
 10
192.0614683799019
 20
208.6883158942702
 30
0.0
 10
192.0647516151196
 20
208.6867562350483
 30
0.0
 10
192.0754456071171
 20
208.6816761898698
 30
0.0
 10
191.9889815652834
 20
208.6507302852716
 30
0.0
 10
191.9290634370128
 20
208.6292852933207
 30
0.0
  0
SPLINE
  5
CF
330
1F
100
AcDbEntity
  8
0
  6
Continuous
 62
     7
370
    15
100
AcDbSpline
210
0.0
220
0.0
230
1.0
 70
     8
 71
     3
 72
    11
 73
     7
 74
     0
 42
0.000000001
 43
0.00000001
 40
0.0
 40
0.0
 40
0.0
 40
0.0
 40
0.2336274505465044
 40
0.4851389631059
 40
0.7445846739298944
 40
1.0
 40
1.0
 40
1.0
 40
1.0
 10
193.0502807961242
 20
207.7054471899852
 30
0.0
 10
193.0418224524493
 20
207.7983206605594
 30
0.0
 10
193.0242582832112
 20
207.9911770184447
 30
0.0
 10
192.8937496383872
 20
208.2611943325111
 30
0.0
 10
192.6915347294226
 20
208.4935612980588
 30
0.0
 10
192.509957450362
 20
208.5842806817655
 30
0.0
 10
192.4198795135696
 20
208.6292852933207
 30
0.0
  0
SPLINE
  5
D0
330
1F
100
AcDbEntity
  8
0
  6
Continuous
 62
     7
370
    15
100
AcDbSpline
210
0.0
220
0.0
230
1.0
 70
     8
 71
     3
 72
     9
 73
     5
 74
     0
 42
0.000000001
 43
0.00000001
 40
0.0
 40
0.0
 40
0.0
 40
0.0
 40
0.4038484544822306
 40
1.0
 40
1.0
 40
1.0
 40
1.0
 10
192.407964342449
 20
208.5719381439383
 30
0.0
 10
192.4203133634783
 20
208.5925738512441
 30
0.0
 10
192.4508917175422
 20
208.6436715020506
 30
0.0
 10
192.3572817146895
 20
208.6668048085365
 30
0.0
 10
192.301475966813
 20
208.680595764951
 30
0.0
  0
SPLINE
  5
D1
330
1F
100
AcDbEntity
  8
0
  6
Continuous
 62
     7
370
    15
100
AcDbSpline
210
0.0
220
0.0
230
1.0
 70
     8
 71
     3
 72
    12
 73
     8
 74
     0
 42
0.000000001
 43
0.00000001
 40
0.0
 40
0.0
 40
0.0
 40
0.0
 40
0.1435265456209411
 40
0.2818155018149896
 40
0.541915522913853
 40
0.7812895246195845
 40
1.0
 40
1.0
 40
1.0
 40
1.0
 10
192.0683779198688
 20
208.6800449859529
 30
0.0
 10
191.9913800137602
 20
208.6800925096034
 30
0.0
 10
191.8401940191777
 20
208.680185822665
 30
0.0
 10
191.4245250780854
 20
208.680340427867
 30
0.0
 10
190.7975876195033
 20
208.6804861698293
 30
0.0
 10
189.950190540966
 20
208.6805918390173
 30
0.0
 10
189.3714446145615
 20
208.6805943434496
 30
0.0
 10
189.0951248460036
 20
208.6805955391801
 30
0.0
  0
LINE
  5
D2
330
1F
100
AcDbEntity
  8
0
  6
Continuous
 62
     7
370
    15
100
AcDbLine
 10
133.950478424
 20
193.6965100473
 30
0.0
 11
134.2005849017
 21
193.4463910368
 31
0.0
  0
LINE
  5
D3
330
1F
100
AcDbEntity
  8
0
  6
Continuous
 62
     7
370
    15
100
AcDbLine
 10
138.4503719463
 20
193.4463910368
 30
0.0
 11
138.700478424
 21
193.6965100473
 31
0.0
  0
LINE
  5
D4
330
1F
100
AcDbEntity
  8
0
  6
Continuous
 62
     7
370
    15
100
AcDbLine
 10
138.700478424
 20
193.6965100473
 30
0.0
 11
138.700478424
 21
196.1963910368
 31
0.0
  0
LINE
  5
D5
330
1F
100
AcDbEntity
  8
0
  6
Continuous
 62
     7
370
    15
100
AcDbLine
 10
133.950478424
 20
196.1963910368
 30
0.0
 11
133.950478424
 21
193.6965100473
 31
0.0
  0
LINE
  5
D6
330
1F
100
AcDbEntity
  8
0
  6
Continuous
 62
     7
370
    15
100
AcDbLine
 10
186.950478424
 20
193.6965100473
 30
0.0
 11
187.2005849017
 21
193.4463910368
 31
0.0
  0
LINE
  5
D7
330
1F
100
AcDbEntity
  8
0
  6
Continuous
 62
     7
370
    15
100
AcDbLine
 10
191.4503719463
 20
193.4463910368
 30
0.0
 11
191.700478424
 21
193.6965100473
 31
0.0
  0
LINE
  5
D8
330
1F
100
AcDbEntity
  8
0
  6
Continuous
 62
     7
370
    15
100
AcDbLine
 10
191.700478424
 20
193.6965100473
 30
0.0
 11
191.700478424
 21
196.1963910368
 31
0.0
  0
LINE
  5
D9
330
1F
100
AcDbEntity
  8
0
  6
Continuous
 62
     7
370
    15
100
AcDbLine
 10
186.950478424
 20
196.1963910368
 30
0.0
 11
186.950478424
 21
193.6965100473
 31
0.0
  0
SPLINE
  5
DA
330
1F
100
AcDbEntity
  8
0
  6
Continuous
 62
     7
370
    15
100
AcDbSpline
210
0.0
220
0.0
230
1.0
 70
     8
 71
     3
 72
     9
 73
     5
 74
     0
 42
0.000000001
 43
0.00000001
 40
0.0
 40
0.0
 40
0.0
 40
0.0
 40
0.5961515455178135
 40
1.0
 40
1.0
 40
1.0
 40
1.0
 10
133.349480881217
 20
208.680595764951
 30
0.0
 10
133.2936751333405
 20
208.6668048085365
 30
0.0
 10
133.2000651304878
 20
208.6436715020506
 30
0.0
 10
133.2306434845516
 20
208.5925738512441
 30
0.0
 10
133.2429925055809
 20
208.5719381439383
 30
0.0
  0
SPLINE
  5
DB
330
1F
100
AcDbEntity
  8
0
  6
Continuous
 62
     7
370
    15
100
AcDbSpline
210
0.0
220
0.0
230
1.0
 70
     8
 71
     3
 72
    11
 73
     7
 74
     0
 42
0.000000001
 43
0.00000001
 40
0.0
 40
0.0
 40
0.0
 40
0.0
 40
0.2554153260701056
 40
0.5148610368940999
 40
0.7663725494534955
 40
1.0
 40
1.0
 40
1.0
 40
1.0
 10
133.2310773344603
 20
208.6292852933207
 30
0.0
 10
133.140999397668
 20
208.5842806817655
 30
0.0
 10
132.9594221186074
 20
208.4935612980588
 30
0.0
 10
132.7572072096428
 20
208.2611943325111
 30
0.0
 10
132.6266985648188
 20
207.9911770184447
 30
0.0
 10
132.6091343955807
 20
207.7983206605594
 30
0.0
 10
132.6006760519057
 20
207.7054471899852
 30
0.0
  0
LINE
  5
DC
330
1F
100
AcDbEntity
  8
0
  6
Continuous
 62
     7
370
    15
100
AcDbLine
 10
132.325478424
 20
196.1963910368
 30
0.0
 11
136.3248692046
 21
196.1963910368
 31
0.0
  0
LINE
  5
DD
330
1F
100
AcDbEntity
  8
0
  6
Continuous
 62
     7
370
    15
100
AcDbLine
 10
132.5265163036
 20
207.7138434432
 30
0.0
 11
132.325478424
 21
196.1963910368
 31
0.0
  0
LINE
  5
DE
330
1F
100
AcDbEntity
  8
0
  6
Continuous
 62
     7
370
    15
100
AcDbLine
 10
132.5265163036
 20
207.7138434432
 30
0.0
 11
132.6052293039
 21
207.7168933577
 31
0.0
  0
LINE
  5
DF
330
1F
100
AcDbEntity
  8
0
  6
Continuous
 62
     7
370
    15
100
AcDbLine
 10
136.5260506704
 20
207.7138430322
 30
0.0
 11
136.3248692046
 21
196.1963910368
 31
0.0
  0
LINE
  5
E0
330
1F
100
AcDbEntity
  8
0
  6
Continuous
 62
     7
370
    15
100
AcDbLine
 10
136.3248692046
 20
196.1963910368
 30
0.0
 11
189.3260876425
 21
196.1963910368
 31
0.0
  0
LINE
  5
E1
330
1F
100
AcDbEntity
  8
0
  6
Continuous
 62
     7
370
    15
100
AcDbLine
 10
136.5260506704
 20
207.7138430322
 30
0.0
 11
189.1250497621
 21
207.7138430322
 31
0.0
  0
LINE
  5
E2
330
1F
100
AcDbEntity
  8
0
  6
Continuous
 62
     7
370
    15
100
AcDbLine
 10
189.1250497621
 20
207.7138434432
 30
0.0
 11
189.3260876425
 21
196.1963910368
 31
0.0
  0
LINE
  5
E3
330
1F
100
AcDbEntity
  8
0
  6
Continuous
 62
     7
370
    15
100
AcDbLine
 10
189.3260876425
 20
196.1963910368
 30
0.0
 11
193.325478424
 21
196.1963910368
 31
0.0
  0
LINE
  5
E4
330
1F
100
AcDbEntity
  8
0
  6
Continuous
 62
     7
370
    15
100
AcDbLine
 10
193.0457373651
 20
207.7168941671
 30
0.0
 11
193.1244405491
 21
207.7138430322
 31
0.0
  0
LINE
  5
E5
330
1F
100
AcDbEntity
  8
0
  6
Continuous
 62
     7
370
    15
100
AcDbLine
 10
193.124440548
 20
207.7138432377
 30
0.0
 11
193.325478424
 21
196.1963910368
 31
0.0
  0
LINE
  5
E6
330
1F
100
AcDbEntity
  8
0
  6
Continuous
 62
     7
370
    15
100
AcDbLine
 10
133.5263639987
 20
208.6963910368
 30
0.0
 11
133.3471440458
 21
208.661148254
 31
0.0
  0
LINE
  5
E7
330
1F
100
AcDbEntity
  8
0
  6
Continuous
 62
     7
370
    15
100
AcDbLine
 10
133.5263639987
 20
208.6963910368
 30
0.0
 11
133.5833616769
 21
208.6963910368
 31
0.0
  0
LINE
  5
E8
330
1F
100
AcDbEntity
  8
0
  6
Continuous
 62
     7
370
    15
100
AcDbLine
 10
136.5259070842
 20
208.6963910368
 30
0.0
 11
136.5259231237
 21
208.6631206874
 31
0.0
  0
LINE
  5
E9
330
1F
100
AcDbEntity
  8
0
  6
Continuous
 62
     7
370
    15
100
AcDbLine
 10
192.0675912419
 20
208.6963910368
 30
0.0
 11
192.1245928493
 21
208.6963910368
 31
0.0
  0
LINE
  5
EA
330
1F
100
AcDbEntity
  8
0
  6
Continuous
 62
     7
370
    15
100
AcDbLine
 10
192.1245928493
 20
208.6963910368
 30
0.0
 11
192.3038366446
 21
208.6611435655
 31
0.0
  0
LINE
  5
EB
330
1F
100
AcDbEntity
  8
0
  6
Continuous
 62
     7
370
    15
100
AcDbLine
 10
189.1250497621
 20
208.6963910368
 30
0.0
 11
189.1250497621
 21
208.6630132231
 31
0.0
  0
LINE
  5
EC
330
1F
100
AcDbEntity
  8
0
  6
Continuous
 62
     7
370
    15
100
AcDbLine
 10
136.5259070842
 20
208.6963910368
 30
0.0
 11
189.1250497638
 21
208.6963910368
 31
0.0
  0
LINE
  5
ED
330
1F
100
AcDbEntity
  8
0
  6
Continuous
 62
     7
370
    15
100
AcDbLine
 10
134.2005849017
 20
193.4463910368
 30
0.0
 11
138.4503719463
 21
193.4463910368
 31
0.0
  0
LINE
  5
EE
330
1F
100
AcDbEntity
  8
0
  6
Continuous
 62
     7
370
    15
100
AcDbLine
 10
136.325478424
 20
193.6965100473
 30
0.0
 11
138.700478424
 21
193.6965100473
 31
0.0
  0
LINE
  5
EF
330
1F
100
AcDbEntity
  8
0
  6
Continuous
 62
     7
370
    15
100
AcDbLine
 10
133.950478424
 20
193.6965100473
 30
0.0
 11
136.325478424
 21
193.6965100473
 31
0.0
  0
LINE
  5
F0
330
1F
100
AcDbEntity
  8
0
  6
Continuous
 62
     7
370
    15
100
AcDbLine
 10
187.2005849017
 20
193.4463910368
 30
0.0
 11
191.4503719463
 21
193.4463910368
 31
0.0
  0
LINE
  5
F1
330
1F
100
AcDbEntity
  8
0
  6
Continuous
 62
     7
370
    15
100
AcDbLine
 10
189.325478424
 20
193.6965100473
 30
0.0
 11
191.700478424
 21
193.6965100473
 31
0.0
  0
LINE
  5
F2
330
1F
100
AcDbEntity
  8
0
  6
Continuous
 62
     7
370
    15
100
AcDbLine
 10
186.950478424
 20
193.6965100473
 30
0.0
 11
189.325478424
 21
193.6965100473
 31
0.0
  0
SPLINE
  5
F3
330
1F
100
AcDbEntity
  8
0
  6
Continuous
 62
     8
370
    15
100
AcDbSpline
210
0.0
220
0.0
230
1.0
 70
     8
 71
     3
 72
    15
 73
    11
 74
     0
 42
0.000000001
 43
0.00000001
 40
0.0
 40
0.0
 40
0.0
 40
0.0
 40
0.0082268460027834
 40
0.1526929492346461
 40
0.2932560584743738
 40
0.4299167404042099
 40
0.566562755834909
 40
0.7071249571169128
 40
0.8516039034940404
 40
1.0
 40
1.0
 40
1.0
 40
1.0
 10
132.6052293039238
 20
207.7168933576783
 30
0.0
 10
132.6066959974831
 20
207.7169534079577
 30
0.0
 10
132.6339183090617
 20
207.7180679607603
 30
0.0
 10
132.8321753198079
 20
207.7194737491033
 30
0.0
 10
133.1916936299879
 20
207.7208382355224
 30
0.0
 10
133.681940945793
 20
207.7211849124506
 30
0.0
 10
134.2691451851798
 20
207.7208277893599
 30
0.0
 10
134.9521386730601
 20
207.719520588817
 30
0.0
 10
135.7154480211975
 20
207.7172200864648
 30
0.0
 10
136.2534512226133
 20
207.7149787096148
 30
0.0
 10
136.5260506705276
 20
207.7138430321872
 30
0.0
  0
SPLINE
  5
F4
330
1F
100
AcDbEntity
  8
0
  6
Continuous
 62
     8
370
    15
100
AcDbSpline
210
0.0
220
0.0
230
1.0
 70
     8
 71
     3
 72
    15
 73
    11
 74
     0
 42
0.000000001
 43
0.00000001
 40
0.0
 40
0.0
 40
0.0
 40
0.0
 40
0.148370460857855
 40
0.2928374895456307
 40
0.433401499238527
 40
0.5700630566224171
 40
0.7067099474132187
 40
0.8472730491425752
 40
0.9917529210578879
 40
1.0
 40
1.0
 40
1.0
 40
1.0
 10
189.125049762135
 20
207.7138434432482
 30
0.0
 10
189.3975996073416
 20
207.7149784292498
 30
0.0
 10
189.9355288689
 20
207.7172185412603
 30
0.0
 10
190.6987715307689
 20
207.719519209766
 30
0.0
 10
191.3817762411135
 20
207.7208273650213
 30
0.0
 10
191.9689861940099
 20
207.7211849075892
 30
0.0
 10
192.45923524873
 20
207.7208386772254
 30
0.0
 10
192.8187647336756
 20
207.7194750579834
 30
0.0
 10
193.0170474216708
 20
207.718069601449
 30
0.0
 10
193.0442675116678
 20
207.7169543874069
 30
0.0
 10
193.0457373650876
 20
207.7168941671367
 30
0.0
  0
SPLINE
  5
F5
330
1F
100
AcDbEntity
  8
0
  6
Continuous
 62
     8
370
    15
100
AcDbSpline
210
0.0
220
0.0
230
1.0
 70
     8
 71
     3
 72
    11
 73
     7
 74
     0
 42
0.000000001
 43
0.00000001
 40
0.0
 40
0.0
 40
0.0
 40
0.0
 40
0.1556848075234861
 40
0.4371232050156583
 40
0.7185616025078291
 40
1.0
 40
1.0
 40
1.0
 40
1.0
 10
136.5259231236637
 20
208.6631206873978
 30
0.0
 10
136.5259297426929
 20
208.6534651744968
 30
0.0
 10
136.5259483272375
 20
208.62635495859
 30
0.0
 10
136.5259788772975
 20
208.4233953338503
 30
0.0
 10
136.5260147738437
 20
208.1023923233614
 30
0.0
 10
136.5260387048746
 20
207.8433594626091
 30
0.0
 10
136.52605067039
 20
207.7138430322329
 30
0.0
  0
SPLINE
  5
F6
330
1F
100
AcDbEntity
  8
0
  6
Continuous
 62
     8
370
    15
100
AcDbSpline
210
0.0
220
0.0
230
1.0
 70
    24
 71
     3
 72
    11
 73
     7
 74
     0
 42
0.000000001
 43
0.00000001
 40
0.0
 40
0.0
 40
0.0
 40
0.0
 40
0.1553417174401402
 40
0.4368944782934276
 40
0.7184472391467138
 40
1.0
 40
1.0
 40
1.0
 40
1.0
 10
189.125049762135
 20
208.6630132231284
 30
0.0
 10
189.125049762135
 20
208.6533764238092
 30
0.0
 10
189.125049762135
 20
208.6262731801964
 30
0.0
 10
189.125049762135
 20
208.4233844957385
 30
0.0
 10
189.125049762135
 20
208.1023950328894
 30
0.0
 10
189.125049762135
 20
207.8433603657851
 30
0.0
 10
189.125049762135
 20
207.7138430322329
 30
0.0
  0
SPLINE
  5
F7
330
1F
100
AcDbEntity
  8
0
  6
Continuous
 62
     7
370
    15
100
AcDbSpline
210
0.0
220
0.0
230
1.0
 70
     8
 71
     3
 72
    11
 73
     7
 74
     0
 42
0.000000001
 43
0.00000001
 40
0.0
 40
0.0
 40
0.0
 40
0.0
 40
0.2499366144623932
 40
0.4998926813623873
 40
0.7499150542742388
 40
1.0
 40
1.0
 40
1.0
 40
1.0
 10
189.0950184747405
 20
92.86634629947801
 30
0.0
 10
189.4112051687626
 20
92.86639181782469
 30
0.0
 10
190.0436031654538
 20
92.8664828580607
 30
0.0
 10
190.9076633277077
 20
92.86662022011485
 30
0.0
 10
191.6331626446597
 20
92.8667580951973
 30
0.0
 10
191.9232575813805
 20
92.86685052568595
 30
0.0
 10
192.0683231979021
 20
92.86689674671267
 30
0.0
  0
SPLINE
  5
F8
330
1F
100
AcDbEntity
  8
0
  6
Continuous
 62
     7
370
    15
100
AcDbSpline
210
0.0
220
0.0
230
1.0
 70
     8
 71
     3
 72
     9
 73
     5
 74
     0
 42
0.000000001
 43
0.00000001
 40
0.0
 40
0.0
 40
0.0
 40
0.0
 40
0.5962179155809599
 40
1.0
 40
1.0
 40
1.0
 40
1.0
 10
192.3014701929949
 20
92.86634615001581
 30
0.0
 10
192.3572736357957
 20
92.88013682331722
 30
0.0
 10
192.4508693519635
 20
92.90326707979058
 30
0.0
 10
192.4202813581864
 20
92.9543666766743
 30
0.0
 10
192.4079304743008
 20
92.97499977841697
 30
0.0
  0
SPLINE
  5
F9
330
1F
100
AcDbEntity
  8
0
  6
Continuous
 62
     7
370
    15
100
AcDbSpline
210
0.0
220
0.0
230
1.0
 70
     8
 71
     3
 72
    11
 73
     7
 74
     0
 42
0.000000001
 43
0.00000001
 40
0.0
 40
0.0
 40
0.0
 40
0.0
 40
0.255415344285307
 40
0.5148610758607506
 40
0.7663725905903279
 40
1.0
 40
1.0
 40
1.0
 40
1.0
 10
192.4198721430759
 20
92.91765654532833
 30
0.0
 10
192.5099489301178
 20
92.96266115719543
 30
0.0
 10
192.6915238923278
 20
93.05338054192713
 30
0.0
 10
192.8937351748723
 20
93.2857474990778
 30
0.0
 10
193.0242402943466
 20
93.55576479045017
 30
0.0
 10
193.0418022296158
 20
93.74862117442106
 30
0.0
 10
193.0502594966728
 20
93.8414946486639
 30
0.0
  0
SPLINE
  5
FA
330
1F
100
AcDbEntity
  8
0
  6
Continuous
 62
     7
370
    15
100
AcDbSpline
210
0.0
220
0.0
230
1.0
 70
     8
 71
     3
 72
     9
 73
     5
 74
     0
 42
0.000000001
 43
0.00000001
 40
0.0
 40
0.0
 40
0.0
 40
0.0
 40
0.6929261679426661
 40
1.0
 40
1.0
 40
1.0
 40
1.0
 10
191.9289828330784
 20
92.91765654532833
 30
0.0
 10
191.9889127601411
 20
92.8962119429143
 30
0.0
 10
192.0754009458025
 20
92.86526405350541
 30
0.0
 10
192.0647175367451
 20
92.860183847559
 30
0.0
 10
192.0614369413865
 20
92.85862384925139
 30
0.0
  0
SPLINE
  5
FB
330
1F
100
AcDbEntity
  8
0
  6
Continuous
 62
     7
370
    15
100
AcDbSpline
210
0.0
220
0.0
230
1.0
 70
     8
 71
     3
 72
     9
 73
     5
 74
     0
 42
0.000000001
 43
0.00000001
 40
0.0
 40
0.0
 40
0.0
 40
0.0
 40
0.3070168014372543
 40
1.0
 40
1.0
 40
1.0
 40
1.0
 10
133.589488468128
 20
92.85862594437886
 30
0.0
 10
133.5862052329103
 20
92.86018560360071
 30
0.0
 10
133.5755112409128
 20
92.86526564877926
 30
0.0
 10
133.6619752827465
 20
92.89621155337744
 30
0.0
 10
133.7218934110172
 20
92.91765654532831
 30
0.0
  0
SPLINE
  5
FC
330
1F
100
AcDbEntity
  8
0
  6
Continuous
 62
     7
370
    15
100
AcDbSpline
210
0.0
220
0.0
230
1.0
 70
     8
 71
     3
 72
    11
 73
     7
 74
     0
 42
0.000000001
 43
0.00000001
 40
0.0
 40
0.0
 40
0.0
 40
0.0
 40
0.2336274505465044
 40
0.485138963105895
 40
0.744584673929882
 40
0.9999999999999999
 40
0.9999999999999999
 40
0.9999999999999999
 40
0.9999999999999999
 10
132.6006760519057
 20
93.8414946486639
 30
0.0
 10
132.6091343955807
 20
93.74862117808968
 30
0.0
 10
132.6266985648188
 20
93.55576482020439
 30
0.0
 10
132.7572072096428
 20
93.28574750613791
 30
0.0
 10
132.9594221186073
 20
93.05338054059028
 30
0.0
 10
133.140999397668
 20
92.96266115688354
 30
0.0
 10
133.2310773344603
 20
92.91765654532831
 30
0.0
  0
SPLINE
  5
FD
330
1F
100
AcDbEntity
  8
0
  6
Continuous
 62
     7
370
    15
100
AcDbSpline
210
0.0
220
0.0
230
1.0
 70
     8
 71
     3
 72
     9
 73
     5
 74
     0
 42
0.000000001
 43
0.00000001
 40
0.0
 40
0.0
 40
0.0
 40
0.0
 40
0.4038484544824435
 40
1.0
 40
1.0
 40
1.0
 40
1.0
 10
133.242992505581
 20
92.9750036947108
 30
0.0
 10
133.2306434845516
 20
92.95436798740494
 30
0.0
 10
133.2000651304878
 20
92.9032703365985
 30
0.0
 10
133.2936751333406
 20
92.88013703011256
 30
0.0
 10
133.3494808812172
 20
92.86634607369805
 30
0.0
  0
SPLINE
  5
FE
330
1F
100
AcDbEntity
  8
0
  6
Continuous
 62
     7
370
    15
100
AcDbSpline
210
0.0
220
0.0
230
1.0
 70
     8
 71
     3
 72
    12
 73
     8
 74
     0
 42
0.000000001
 43
0.00000001
 40
0.0
 40
0.0
 40
0.0
 40
0.0
 40
0.1435265456209401
 40
0.2818155018149871
 40
0.5419155229138498
 40
0.7812895246195848
 40
1.0
 40
1.0
 40
1.0
 40
1.0
 10
133.5825789281612
 20
92.86689685269614
 30
0.0
 10
133.6595768342698
 20
92.86684932904568
 30
0.0
 10
133.8107628288523
 20
92.86675601598402
 30
0.0
 10
134.2264317699446
 20
92.8666014107821
 30
0.0
 10
134.8533692285266
 20
92.86645566881974
 30
0.0
 10
135.700766307064
 20
92.86634999963171
 30
0.0
 10
136.2795122334685
 20
92.86634749519945
 30
0.0
 10
136.5558320020263
 20
92.86634629946899
 30
0.0
  0
LINE
  5
FF
330
1F
100
AcDbEntity
  8
0
  6
Continuous
 62
     7
370
    15
100
AcDbLine
 10
186.950478424
 20
107.8504317914
 30
0.0
 11
186.950478424
 21
105.3505508018
 31
0.0
  0
LINE
  5
100
330
1F
100
AcDbEntity
  8
0
  6
Continuous
 62
     7
370
    15
100
AcDbLine
 10
191.700478424
 20
105.3505508018
 30
0.0
 11
191.700478424
 21
107.8504317914
 31
0.0
  0
LINE
  5
101
330
1F
100
AcDbEntity
  8
0
  6
Continuous
 62
     7
370
    15
100
AcDbLine
 10
138.700478424
 20
107.8504317914
 30
0.0
 11
138.4503719463
 21
108.1005508018
 31
0.0
  0
LINE
  5
102
330
1F
100
AcDbEntity
  8
0
  6
Continuous
 62
     7
370
    15
100
AcDbLine
 10
134.2005849017
 20
108.1005508018
 30
0.0
 11
133.950478424
 21
107.8504317914
 31
0.0
  0
LINE
  5
103
330
1F
100
AcDbEntity
  8
0
  6
Continuous
 62
     7
370
    15
100
AcDbLine
 10
191.700478424
 20
107.8504317914
 30
0.0
 11
191.4503719463
 21
108.1005508018
 31
0.0
  0
LINE
  5
104
330
1F
100
AcDbEntity
  8
0
  6
Continuous
 62
     7
370
    15
100
AcDbLine
 10
187.2005849017
 20
108.1005508018
 30
0.0
 11
186.950478424
 21
107.8504317914
 31
0.0
  0
LINE
  5
105
330
1F
100
AcDbEntity
  8
0
  6
Continuous
 62
     7
370
    15
100
AcDbLine
 10
133.950478424
 20
107.8504317914
 30
0.0
 11
133.950478424
 21
105.3505508018
 31
0.0
  0
LINE
  5
106
330
1F
100
AcDbEntity
  8
0
  6
Continuous
 62
     7
370
    15
100
AcDbLine
 10
138.700478424
 20
105.3505508018
 30
0.0
 11
138.700478424
 21
107.8504317914
 31
0.0
  0
SPLINE
  5
107
330
1F
100
AcDbEntity
  8
0
  6
Continuous
 62
     7
370
    15
100
AcDbSpline
210
0.0
220
0.0
230
1.0
 70
     8
 71
     3
 72
     9
 73
     5
 74
     0
 42
0.000000001
 43
0.00000001
 40
0.0
 40
0.0
 40
0.0
 40
0.0
 40
0.5961515455180822
 40
1.0
 40
1.0
 40
1.0
 40
1.0
 10
192.3014759668131
 20
92.86634607369811
 30
0.0
 10
192.3572817146897
 20
92.88013703011264
 30
0.0
 10
192.4508917175423
 20
92.90327033659854
 30
0.0
 10
192.4203133634784
 20
92.9543679874049
 30
0.0
 10
192.4079643424491
 20
92.97500369471071
 30
0.0
  0
SPLINE
  5
108
330
1F
100
AcDbEntity
  8
0
  6
Continuous
 62
     7
370
    15
100
AcDbSpline
210
0.0
220
0.0
230
1.0
 70
     8
 71
     3
 72
    11
 73
     7
 74
     0
 42
0.000000001
 43
0.00000001
 40
0.0
 40
0.0
 40
0.0
 40
0.0
 40
0.2554153260701082
 40
0.514861036894102
 40
0.7663725494534949
 40
1.0
 40
1.0
 40
1.0
 40
1.0
 10
192.4198795135696
 20
92.91765654532831
 30
0.0
 10
192.509957450362
 20
92.96266115688354
 30
0.0
 10
192.6915347294226
 20
93.0533805405903
 30
0.0
 10
192.8937496383872
 20
93.28574750613791
 30
0.0
 10
193.0242582832112
 20
93.55576482020439
 30
0.0
 10
193.0418224524493
 20
93.74862117808968
 30
0.0
 10
193.0502807961242
 20
93.8414946486639
 30
0.0
  0
LINE
  5
109
330
1F
100
AcDbEntity
  8
0
  6
Continuous
 62
     7
370
    15
100
AcDbLine
 10
193.325478424
 20
105.3505508018
 30
0.0
 11
189.3260876434
 21
105.3505508018
 31
0.0
  0
LINE
  5
10A
330
1F
100
AcDbEntity
  8
0
  6
Continuous
 62
     7
370
    15
100
AcDbLine
 10
193.325478424
 20
105.3505508018
 30
0.0
 11
193.124440548
 21
93.8330986008
 31
0.0
  0
LINE
  5
10B
330
1F
100
AcDbEntity
  8
0
  6
Continuous
 62
     7
370
    15
100
AcDbLine
 10
193.1244405445
 20
93.8330983954
 30
0.0
 11
193.0457275659
 21
93.8300484833
 31
0.0
  0
LINE
  5
10C
330
1F
100
AcDbEntity
  8
0
  6
Continuous
 62
     7
370
    15
100
AcDbLine
 10
189.1249061776
 20
93.8330988064
 30
0.0
 11
189.3260876434
 21
105.3505508018
 31
0.0
  0
LINE
  5
10D
330
1F
100
AcDbEntity
  8
0
  6
Continuous
 62
     7
370
    15
100
AcDbLine
 10
189.3260876434
 20
105.3505508018
 30
0.0
 11
136.3248692046
 21
105.3505508018
 31
0.0
  0
LINE
  5
10E
330
1F
100
AcDbEntity
  8
0
  6
Continuous
 62
     7
370
    15
100
AcDbLine
 10
189.1249061776
 20
93.8330988064
 30
0.0
 11
136.5259070859
 21
93.8330988064
 31
0.0
  0
LINE
  5
10F
330
1F
100
AcDbEntity
  8
0
  6
Continuous
 62
     7
370
    15
100
AcDbLine
 10
136.5259070842
 20
93.8330983954
 30
0.0
 11
136.3248692046
 21
105.3505508018
 31
0.0
  0
LINE
  5
110
330
1F
100
AcDbEntity
  8
0
  6
Continuous
 62
     7
370
    15
100
AcDbLine
 10
136.3248692046
 20
105.3505508018
 30
0.0
 11
132.325478424
 21
105.3505508018
 31
0.0
  0
LINE
  5
111
330
1F
100
AcDbEntity
  8
0
  6
Continuous
 62
     7
370
    15
100
AcDbLine
 10
132.6052194829
 20
93.8300476715
 30
0.0
 11
132.526516299
 21
93.8330988065
 31
0.0
  0
LINE
  5
112
330
1F
100
AcDbEntity
  8
0
  6
Continuous
 62
     7
370
    15
100
AcDbLine
 10
132.5265162964
 20
93.8330988064
 30
0.0
 11
132.325478424
 21
105.3505508018
 31
0.0
  0
LINE
  5
113
330
1F
100
AcDbEntity
  8
0
  6
Continuous
 62
     7
370
    15
100
AcDbLine
 10
192.3038128023
 20
92.8857935847
 30
0.0
 11
192.1245928493
 21
92.8505508018
 31
0.0
  0
LINE
  5
114
330
1F
100
AcDbEntity
  8
0
  6
Continuous
 62
     7
370
    15
100
AcDbLine
 10
192.1245928493
 20
92.8505508018
 30
0.0
 11
192.0675951712
 21
92.8505508018
 31
0.0
  0
LINE
  5
115
330
1F
100
AcDbEntity
  8
0
  6
Continuous
 62
     7
370
    15
100
AcDbLine
 10
189.1250497638
 20
92.8505508018
 30
0.0
 11
189.1250337244
 21
92.8838211513
 31
0.0
  0
LINE
  5
116
330
1F
100
AcDbEntity
  8
0
  6
Continuous
 62
     7
370
    15
100
AcDbLine
 10
133.5833656062
 20
92.8505508018
 30
0.0
 11
133.5263639987
 21
92.8505508018
 31
0.0
  0
LINE
  5
117
330
1F
100
AcDbEntity
  8
0
  6
Continuous
 62
     7
370
    15
100
AcDbLine
 10
133.5263639987
 20
92.8505508018
 30
0.0
 11
133.3471202034
 21
92.8857982732
 31
0.0
  0
LINE
  5
118
330
1F
100
AcDbEntity
  8
0
  6
Continuous
 62
     7
370
    15
100
AcDbLine
 10
136.5259070859
 20
92.8505508018
 30
0.0
 11
136.5259070859
 21
92.8839286155
 31
0.0
  0
LINE
  5
119
330
1F
100
AcDbEntity
  8
0
  6
Continuous
 62
     7
370
    15
100
AcDbLine
 10
189.1250497638
 20
92.8505508018
 30
0.0
 11
136.5259070842
 21
92.8505508018
 31
0.0
  0
LINE
  5
11A
330
1F
100
AcDbEntity
  8
0
  6
Continuous
 62
     7
370
    15
100
AcDbLine
 10
191.700478424
 20
107.8504317914
 30
0.0
 11
186.950478424
 21
107.8504317914
 31
0.0
  0
LINE
  5
11B
330
1F
100
AcDbEntity
  8
0
  6
Continuous
 62
     7
370
    15
100
AcDbLine
 10
136.325478424
 20
108.1005508018
 30
0.0
 11
134.2005849017
 21
108.1005508018
 31
0.0
  0
LINE
  5
11C
330
1F
100
AcDbEntity
  8
0
  6
Continuous
 62
     7
370
    15
100
AcDbLine
 10
138.4503719463
 20
108.1005508018
 30
0.0
 11
136.325478424
 21
108.1005508018
 31
0.0
  0
LINE
  5
11D
330
1F
100
AcDbEntity
  8
0
  6
Continuous
 62
     7
370
    15
100
AcDbLine
 10
138.700478424
 20
107.8504317914
 30
0.0
 11
133.950478424
 21
107.8504317914
 31
0.0
  0
LINE
  5
11E
330
1F
100
AcDbEntity
  8
0
  6
Continuous
 62
     7
370
    15
100
AcDbLine
 10
189.325478424
 20
108.1005508018
 30
0.0
 11
187.2005849017
 21
108.1005508018
 31
0.0
  0
LINE
  5
11F
330
1F
100
AcDbEntity
  8
0
  6
Continuous
 62
     7
370
    15
100
AcDbLine
 10
191.4503719463
 20
108.1005508018
 30
0.0
 11
189.325478424
 21
108.1005508018
 31
0.0
  0
SPLINE
  5
120
330
1F
100
AcDbEntity
  8
0
  6
Continuous
 62
     8
370
    15
100
AcDbSpline
210
0.0
220
0.0
230
1.0
 70
     8
 71
     3
 72
    16
 73
    12
 74
     0
 42
0.000000001
 43
0.00000001
 40
0.0
 40
0.0
 40
0.0
 40
0.0
 40
0.0082252154915226
 40
0.1526632743120501
 40
0.2931990012422783
 40
0.4298329929320427
 40
0.56671566034239
 40
0.7073387143656616
 40
0.8517028085751651
 40
0.9253825614819193
 40
1.0
 40
1.0
 40
1.0
 40
1.0
 10
193.0457275659095
 20
93.83004848328113
 30
0.0
 10
193.0442608794132
 20
93.82998843342044
 30
0.0
 10
193.0170385940944
 20
93.8288738840978
 30
0.0
 10
192.8187826388484
 20
93.82746795819904
 30
0.0
 10
192.4592620432135
 20
93.82610409635197
 30
0.0
 10
191.9687151986576
 20
93.82575497455277
 30
0.0
 10
191.3808787584553
 20
93.82612135019052
 30
0.0
 10
190.6974197856138
 20
93.82743182882861
 30
0.0
 10
190.065180112301
 20
93.82937154604642
 30
0.0
 10
189.5339516532921
 20
93.83136450916136
 30
0.0
 10
189.2618282164401
 20
93.83251827560026
 30
0.0
 10
189.1249061775024
 20
93.83309880646192
 30
0.0
  0
SPLINE
  5
121
330
1F
100
AcDbEntity
  8
0
  6
Continuous
 62
     8
370
    15
100
AcDbSpline
210
0.0
220
0.0
230
1.0
 70
     8
 71
     3
 72
    15
 73
    11
 74
     0
 42
0.000000001
 43
0.00000001
 40
0.0
 40
0.0
 40
0.0
 40
0.0
 40
0.1483704608841524
 40
0.2928374895587735
 40
0.4334014991990398
 40
0.5700630564908072
 40
0.7067099473234387
 40
0.8472730490958227
 40
0.9917529210553634
 40
1.0
 40
1.0
 40
1.0
 40
1.0
 10
136.5259070842033
 20
93.83309839537135
 30
0.0
 10
136.2533572390388
 20
93.83196340937229
 30
0.0
 10
135.7154279776345
 20
93.82972329736705
 30
0.0
 10
134.9521853161621
 20
93.82742262887169
 30
0.0
 10
134.2691806063808
 20
93.82611447362527
 30
0.0
 10
133.6819706538624
 20
93.82575693106045
 30
0.0
 10
133.1917215992997
 20
93.82610316142348
 30
0.0
 10
132.8321921143544
 20
93.82746678066565
 30
0.0
 10
132.6339094263592
 20
93.82887223720002
 30
0.0
 10
132.6066893363622
 20
93.82998745124215
 30
0.0
 10
132.6052194829424
 20
93.8300476715123
 30
0.0
  0
SPLINE
  5
122
330
1F
100
AcDbEntity
  8
0
  6
Continuous
 62
     8
370
    15
100
AcDbSpline
210
0.0
220
0.0
230
1.0
 70
     8
 71
     3
 72
    11
 73
     7
 74
     0
 42
0.000000001
 43
0.00000001
 40
0.0
 40
0.0
 40
0.0
 40
0.0
 40
0.1556848075234856
 40
0.4371232050156579
 40
0.7185616025078291
 40
1.0
 40
1.0
 40
1.0
 40
1.0
 10
189.1250337243663
 20
92.88382115125125
 30
0.0
 10
189.1250271053371
 20
92.89347666415226
 30
0.0
 10
189.1250085207925
 20
92.92058688005896
 30
0.0
 10
189.1249779707325
 20
93.12354650479878
 30
0.0
 10
189.1249420741862
 20
93.44454951528763
 30
0.0
 10
189.1249181431554
 20
93.70358237603998
 30
0.0
 10
189.12490617764
 20
93.83309880641615
 30
0.0
  0
SPLINE
  5
123
330
1F
100
AcDbEntity
  8
0
  6
Continuous
 62
     8
370
    15
100
AcDbSpline
210
0.0
220
0.0
230
1.0
 70
    24
 71
     3
 72
    11
 73
     7
 74
     0
 42
0.000000001
 43
0.00000001
 40
0.0
 40
0.0
 40
0.0
 40
0.0
 40
0.155341717440136
 40
0.4368944782934248
 40
0.7184472391467124
 40
0.9999999999999999
 40
0.9999999999999999
 40
0.9999999999999999
 40
0.9999999999999999
 10
136.525907085895
 20
92.8839286155206
 30
0.0
 10
136.525907085895
 20
92.89356541483987
 30
0.0
 10
136.525907085895
 20
92.92066865845263
 30
0.0
 10
136.525907085895
 20
93.12355734291059
 30
0.0
 10
136.525907085895
 20
93.44454680575969
 30
0.0
 10
136.525907085895
 20
93.70358147286399
 30
0.0
 10
136.525907085895
 20
93.83309880641615
 30
0.0
  0
SPLINE
  5
124
330
1F
100
AcDbEntity
  8
0
  6
Continuous
 62
     7
370
    15
100
AcDbSpline
210
0.0
220
0.0
230
1.0
 70
     8
 71
     3
 72
    11
 73
     7
 74
     0
 42
0.000000001
 43
0.00000001
 40
0.0
 40
0.0
 40
0.0
 40
0.0
 40
0.2499366144623926
 40
0.4998926813623846
 40
0.7499150542742363
 40
1.0
 40
1.0
 40
1.0
 40
1.0
 10
219.12222780934
 20
177.9639302946279
 30
0.0
 10
219.1221822909933
 20
178.28011698865
 30
0.0
 10
219.1220912507573
 20
178.9125149853412
 30
0.0
 10
219.1219538887031
 20
179.7765751475951
 30
0.0
 10
219.1218160136207
 20
180.5020744645472
 30
0.0
 10
219.121723583132
 20
180.7921694012679
 30
0.0
 10
219.1216773621053
 20
180.9372350177895
 30
0.0
  0
SPLINE
  5
125
330
1F
100
AcDbEntity
  8
0
  6
Continuous
 62
     7
370
    15
100
AcDbSpline
210
0.0
220
0.0
230
1.0
 70
     8
 71
     3
 72
     9
 73
     5
 74
     0
 42
0.000000001
 43
0.00000001
 40
0.0
 40
0.0
 40
0.0
 40
0.0
 40
0.5962179155797089
 40
1.0
 40
1.0
 40
1.0
 40
1.0
 10
219.1222279588023
 20
181.1703820128815
 30
0.0
 10
219.1084372855009
 20
181.2261854556825
 30
0.0
 10
219.0853070290275
 20
181.3197811718507
 30
0.0
 10
219.0342074321436
 20
181.2891931780736
 30
0.0
 10
219.0135743304008
 20
181.276842294188
 30
0.0
  0
SPLINE
  5
126
330
1F
100
AcDbEntity
  8
0
  6
Continuous
 62
     7
370
    15
100
AcDbSpline
210
0.0
220
0.0
230
1.0
 70
     8
 71
     3
 72
    11
 73
     7
 74
     0
 42
0.000000001
 43
0.00000001
 40
0.0
 40
0.0
 40
0.0
 40
0.0
 40
0.2554153442852978
 40
0.5148610758607493
 40
0.7663725905903263
 40
1.0
 40
1.0
 40
1.0
 40
1.0
 10
219.0709175634896
 20
181.2887839629633
 30
0.0
 10
219.0259129516226
 20
181.3788607500052
 30
0.0
 10
218.9351935668908
 20
181.5604357122152
 30
0.0
 10
218.7028266097402
 20
181.7626469947597
 30
0.0
 10
218.4328093183678
 20
181.893152114234
 30
0.0
 10
218.2399529343969
 20
181.9107140495032
 30
0.0
 10
218.1470794601541
 20
181.9191713165602
 30
0.0
  0
SPLINE
  5
127
330
1F
100
AcDbEntity
  8
0
  6
Continuous
 62
     7
370
    15
100
AcDbSpline
210
0.0
220
0.0
230
1.0
 70
     8
 71
     3
 72
     9
 73
     5
 74
     0
 42
0.000000001
 43
0.00000001
 40
0.0
 40
0.0
 40
0.0
 40
0.0
 40
0.692926167942621
 40
1.0
 40
1.0
 40
1.0
 40
1.0
 10
219.0709175634896
 20
180.7978946529658
 30
0.0
 10
219.0923621659037
 20
180.8578245800287
 30
0.0
 10
219.1233100553126
 20
180.9443127656905
 30
0.0
 10
219.128390261259
 20
180.9336293566331
 30
0.0
 10
219.1299502595666
 20
180.9303487612744
 30
0.0
  0
SPLINE
  5
128
330
1F
100
AcDbEntity
  8
0
  6
Continuous
 62
     7
370
    15
100
AcDbSpline
210
0.0
220
0.0
230
1.0
 70
     8
 71
     3
 72
     9
 73
     5
 74
     0
 42
0.000000001
 43
0.00000001
 40
0.0
 40
0.0
 40
0.0
 40
0.0
 40
0.3070168014372787
 40
1.0
 40
1.0
 40
1.0
 40
1.0
 10
219.1299481644391
 20
123.4584002880154
 30
0.0
 10
219.1283885052173
 20
123.4551170527977
 30
0.0
 10
219.1233084600387
 20
123.4444230608001
 30
0.0
 10
219.0923625554405
 20
123.530887102634
 30
0.0
 10
219.0709175634896
 20
123.5908052309046
 30
0.0
  0
SPLINE
  5
129
330
1F
100
AcDbEntity
  8
0
  6
Continuous
 62
     7
370
    15
100
AcDbSpline
210
0.0
220
0.0
230
1.0
 70
     8
 71
     3
 72
    11
 73
     7
 74
     0
 42
0.000000001
 43
0.00000001
 40
0.0
 40
0.0
 40
0.0
 40
0.0
 40
0.233627450546504
 40
0.4851389631058962
 40
0.7445846739298893
 40
1.0
 40
1.0
 40
1.0
 40
1.0
 10
218.1470794601541
 20
122.4695878717932
 30
0.0
 10
218.2399529307283
 20
122.4780462154681
 30
0.0
 10
218.4328092886136
 20
122.4956103847061
 30
0.0
 10
218.7028266026801
 20
122.6261190295302
 30
0.0
 10
218.9351935682277
 20
122.8283339384947
 30
0.0
 10
219.0259129519344
 20
123.0099112175554
 30
0.0
 10
219.0709175634896
 20
123.0999891543477
 30
0.0
  0
SPLINE
  5
12A
330
1F
100
AcDbEntity
  8
0
  6
Continuous
 62
     7
370
    15
100
AcDbSpline
210
0.0
220
0.0
230
1.0
 70
     8
 71
     3
 72
     9
 73
     5
 74
     0
 42
0.000000001
 43
0.00000001
 40
0.0
 40
0.0
 40
0.0
 40
0.0
 40
0.4038484544824529
 40
0.9999999999999999
 40
0.9999999999999999
 40
0.9999999999999999
 40
0.9999999999999999
 10
219.0135704141072
 20
123.1119043254684
 30
0.0
 10
219.034206121413
 20
123.0995553044391
 30
0.0
 10
219.0853037722195
 20
123.0689769503752
 30
0.0
 10
219.1084370787054
 20
123.1625869532279
 30
0.0
 10
219.1222280351199
 20
123.2183927011045
 30
0.0
  0
SPLINE
  5
12B
330
1F
100
AcDbEntity
  8
0
  6
Continuous
 62
     7
370
    15
100
AcDbSpline
210
0.0
220
0.0
230
1.0
 70
     8
 71
     3
 72
    12
 73
     8
 74
     0
 42
0.000000001
 43
0.00000001
 40
0.0
 40
0.0
 40
0.0
 40
0.0
 40
0.143526545620944
 40
0.2818155018149923
 40
0.541915522913854
 40
0.7812895246195856
 40
1.0
 40
1.0
 40
1.0
 40
1.0
 10
219.1216772561218
 20
123.4514907480486
 30
0.0
 10
219.1217247797723
 20
123.5284886541572
 30
0.0
 10
219.1218180928339
 20
123.6796746487397
 30
0.0
 10
219.1219726980359
 20
124.095343589832
 30
0.0
 10
219.1221184399982
 20
124.722281048414
 30
0.0
 10
219.1222241091862
 20
125.5696781269514
 30
0.0
 10
219.1222266136185
 20
126.1484240533559
 30
0.0
 10
219.122227809349
 20
126.4247438219137
 30
0.0
  0
LINE
  5
12C
330
1F
100
AcDbEntity
  8
0
  6
Continuous
 62
     7
370
    15
100
AcDbLine
 10
204.1381423174
 20
134.0693902439
 30
0.0
 11
203.888023307
 21
133.8192837662
 31
0.0
  0
LINE
  5
12D
330
1F
100
AcDbEntity
  8
0
  6
Continuous
 62
     7
370
    15
100
AcDbLine
 10
203.888023307
 20
129.5694967216
 30
0.0
 11
204.1381423174
 21
129.3193902439
 31
0.0
  0
LINE
  5
12E
330
1F
100
AcDbEntity
  8
0
  6
Continuous
 62
     7
370
    15
100
AcDbLine
 10
204.1381423174
 20
175.0693902439
 30
0.0
 11
203.888023307
 21
174.8192837662
 31
0.0
  0
LINE
  5
12F
330
1F
100
AcDbEntity
  8
0
  6
Continuous
 62
     7
370
    15
100
AcDbLine
 10
203.888023307
 20
170.5694967216
 30
0.0
 11
204.1381423174
 21
170.3193902439
 31
0.0
  0
LINE
  5
130
330
1F
100
AcDbEntity
  8
0
  6
Continuous
 62
     7
370
    15
100
AcDbLine
 10
204.1381423174
 20
129.3193902439
 30
0.0
 11
206.638023307
 21
129.3193902439
 31
0.0
  0
LINE
  5
131
330
1F
100
AcDbEntity
  8
0
  6
Continuous
 62
     7
370
    15
100
AcDbLine
 10
206.638023307
 20
134.0693902439
 30
0.0
 11
204.1381423174
 21
134.0693902439
 31
0.0
  0
LINE
  5
132
330
1F
100
AcDbEntity
  8
0
  6
Continuous
 62
     7
370
    15
100
AcDbLine
 10
204.1381423174
 20
170.3193902439
 30
0.0
 11
206.638023307
 21
170.3193902439
 31
0.0
  0
LINE
  5
133
330
1F
100
AcDbEntity
  8
0
  6
Continuous
 62
     7
370
    15
100
AcDbLine
 10
206.638023307
 20
175.0693902439
 30
0.0
 11
204.1381423174
 21
175.0693902439
 31
0.0
  0
SPLINE
  5
134
330
1F
100
AcDbEntity
  8
0
  6
Continuous
 62
     7
370
    15
100
AcDbSpline
210
0.0
220
0.0
230
1.0
 70
     8
 71
     3
 72
     9
 73
     5
 74
     0
 42
0.000000001
 43
0.00000001
 40
0.0
 40
0.0
 40
0.0
 40
0.0
 40
0.5961515455180608
 40
1.0
 40
1.0
 40
1.0
 40
1.0
 10
219.1222280351199
 20
181.1703877867006
 30
0.0
 10
219.1084370787054
 20
181.2261935345771
 30
0.0
 10
219.0853037722194
 20
181.3198035374297
 30
0.0
 10
219.0342061214131
 20
181.2892251833658
 30
0.0
 10
219.0135704141073
 20
181.2768761623365
 30
0.0
  0
SPLINE
  5
135
330
1F
100
AcDbEntity
  8
0
  6
Continuous
 62
     7
370
    15
100
AcDbSpline
210
0.0
220
0.0
230
1.0
 70
     8
 71
     3
 72
    11
 73
     7
 74
     0
 42
0.000000001
 43
0.00000001
 40
0.0
 40
0.0
 40
0.0
 40
0.0
 40
0.2554153260701151
 40
0.5148610368941043
 40
0.7663725494534995
 40
1.0
 40
1.0
 40
1.0
 40
1.0
 10
219.0709175634896
 20
181.2887913334571
 30
0.0
 10
219.0259129519344
 20
181.3788692702494
 30
0.0
 10
218.9351935682277
 20
181.5604465493101
 30
0.0
 10
218.7028266026801
 20
181.7626614582746
 30
0.0
 10
218.4328092886136
 20
181.8931701030986
 30
0.0
 10
218.2399529307283
 20
181.9107342723367
 30
0.0
 10
218.1470794601541
 20
181.9191926160116
 30
0.0
  0
LINE
  5
136
330
1F
100
AcDbEntity
  8
0
  6
Continuous
 62
     7
370
    15
100
AcDbLine
 10
206.638023307
 20
178.1949994633
 30
0.0
 11
206.638023307
 21
126.1937810254
 31
0.0
  0
LINE
  5
137
330
1F
100
AcDbEntity
  8
0
  6
Continuous
 62
     7
370
    15
100
AcDbLine
 10
218.1554753024
 20
177.9938179975
 30
0.0
 11
206.638023307
 21
178.1949994633
 31
0.0
  0
LINE
  5
138
330
1F
100
AcDbEntity
  8
0
  6
Continuous
 62
     7
370
    15
100
AcDbLine
 10
218.1554753024
 20
177.9938179975
 30
0.0
 11
218.1554753024
 21
126.3948189058
 31
0.0
  0
LINE
  5
139
330
1F
100
AcDbEntity
  8
0
  6
Continuous
 62
     7
370
    15
100
AcDbLine
 10
218.1554757134
 20
126.3948189058
 30
0.0
 11
206.638023307
 21
126.1937810254
 31
0.0
  0
LINE
  5
13A
330
1F
100
AcDbEntity
  8
0
  6
Continuous
 62
     7
370
    15
100
AcDbLine
 10
206.638023307
 20
182.1943902439
 30
0.0
 11
206.638023307
 21
178.1949994633
 31
0.0
  0
LINE
  5
13B
330
1F
100
AcDbEntity
  8
0
  6
Continuous
 62
     7
370
    15
100
AcDbLine
 10
218.1554757134
 20
181.9933523643
 30
0.0
 11
206.638023307
 21
182.1943902439
 31
0.0
  0
LINE
  5
13C
330
1F
100
AcDbEntity
  8
0
  6
Continuous
 62
     7
370
    15
100
AcDbLine
 10
218.1554757134
 20
181.9933523643
 30
0.0
 11
218.1585256279
 21
181.9146393639
 31
0.0
  0
LINE
  5
13D
330
1F
100
AcDbEntity
  8
0
  6
Continuous
 62
     7
370
    15
100
AcDbLine
 10
206.638023307
 20
126.1937810254
 30
0.0
 11
206.638023307
 21
122.1943902439
 31
0.0
  0
LINE
  5
13E
330
1F
100
AcDbEntity
  8
0
  6
Continuous
 62
     7
370
    15
100
AcDbLine
 10
218.1585264373
 20
122.4741313028
 30
0.0
 11
218.1554753024
 21
122.3954281189
 31
0.0
  0
LINE
  5
13F
330
1F
100
AcDbEntity
  8
0
  6
Continuous
 62
     7
370
    15
100
AcDbLine
 10
218.1554753024
 20
122.3954281163
 30
0.0
 11
206.638023307
 21
122.1943902439
 31
0.0
  0
LINE
  5
140
330
1F
100
AcDbEntity
  8
0
  6
Continuous
 62
     7
370
    15
100
AcDbLine
 10
219.138023307
 20
180.9935046692
 30
0.0
 11
219.138023307
 21
180.936506991
 31
0.0
  0
LINE
  5
141
330
1F
100
AcDbEntity
  8
0
  6
Continuous
 62
     7
370
    15
100
AcDbLine
 10
219.138023307
 20
177.9939615837
 30
0.0
 11
219.1047529576
 21
177.9939455443
 31
0.0
  0
LINE
  5
142
330
1F
100
AcDbEntity
  8
0
  6
Continuous
 62
     7
370
    15
100
AcDbLine
 10
219.138023307
 20
180.9935046692
 30
0.0
 11
219.1027805241
 21
181.1727246221
 31
0.0
  0
LINE
  5
143
330
1F
100
AcDbEntity
  8
0
  6
Continuous
 62
     7
370
    15
100
AcDbLine
 10
219.138023307
 20
126.3948189058
 30
0.0
 11
219.1046454933
 21
126.3948189058
 31
0.0
  0
LINE
  5
144
330
1F
100
AcDbEntity
  8
0
  6
Continuous
 62
     7
370
    15
100
AcDbLine
 10
219.138023307
 20
123.4522774261
 30
0.0
 11
219.138023307
 21
123.3952758186
 31
0.0
  0
LINE
  5
145
330
1F
100
AcDbEntity
  8
0
  6
Continuous
 62
     7
370
    15
100
AcDbLine
 10
219.138023307
 20
123.3952758186
 30
0.0
 11
219.1027758356
 21
123.2160320233
 31
0.0
  0
LINE
  5
146
330
1F
100
AcDbEntity
  8
0
  6
Continuous
 62
     7
370
    15
100
AcDbLine
 10
219.138023307
 20
177.9939615837
 30
0.0
 11
219.138023307
 21
126.3948189041
 31
0.0
  0
LINE
  5
147
330
1F
100
AcDbEntity
  8
0
  6
Continuous
 62
     7
370
    15
100
AcDbLine
 10
203.888023307
 20
133.8192837662
 30
0.0
 11
203.888023307
 21
129.5694967216
 31
0.0
  0
LINE
  5
148
330
1F
100
AcDbEntity
  8
0
  6
Continuous
 62
     7
370
    15
100
AcDbLine
 10
204.1381423174
 20
134.0693902439
 30
0.0
 11
204.1381423174
 21
129.3193902439
 31
0.0
  0
LINE
  5
149
330
1F
100
AcDbEntity
  8
0
  6
Continuous
 62
     7
370
    15
100
AcDbLine
 10
203.888023307
 20
174.8192837662
 30
0.0
 11
203.888023307
 21
170.5694967216
 31
0.0
  0
LINE
  5
14A
330
1F
100
AcDbEntity
  8
0
  6
Continuous
 62
     7
370
    15
100
AcDbLine
 10
204.1381423174
 20
175.0693902439
 30
0.0
 11
204.1381423174
 21
170.3193902439
 31
0.0
  0
SPLINE
  5
14B
330
1F
100
AcDbEntity
  8
0
  6
Continuous
 62
     8
370
    15
100
AcDbSpline
210
0.0
220
0.0
230
1.0
 70
     8
 71
     3
 72
    15
 73
    11
 74
     0
 42
0.000000001
 43
0.00000001
 40
0.0
 40
0.0
 40
0.0
 40
0.0
 40
0.0082268462897765
 40
0.1526929494642625
 40
0.2932560586083318
 40
0.4299167404042101
 40
0.5665627558349102
 40
0.7071249571169133
 40
0.8516039034940409
 40
1.0
 40
1.0
 40
1.0
 40
1.0
 10
218.1585256278629
 20
181.9146393638509
 30
0.0
 10
218.1585856781442
 20
181.9131726702367
 30
0.0
 10
218.1597002309461
 20
181.8859503585478
 30
0.0
 10
218.1611060192837
 20
181.6876933476599
 30
0.0
 10
218.1624705056937
 20
181.3281750375037
 30
0.0
 10
218.1628171826189
 20
180.8379277219372
 30
0.0
 10
218.162460059529
 20
180.2507234827368
 30
0.0
 10
218.1611528589859
 20
179.5677299948574
 30
0.0
 10
218.1588523566337
 20
178.8044206467198
 30
0.0
 10
218.1566109797837
 20
178.2664174453041
 30
0.0
 10
218.1554753023561
 20
177.9938179973898
 30
0.0
  0
SPLINE
  5
14C
330
1F
100
AcDbEntity
  8
0
  6
Continuous
 62
     8
370
    15
100
AcDbSpline
210
0.0
220
0.0
230
1.0
 70
     8
 71
     3
 72
    15
 73
    11
 74
     0
 42
0.000000001
 43
0.00000001
 40
0.0
 40
0.0
 40
0.0
 40
0.0
 40
0.1483704608578528
 40
0.2928374895456274
 40
0.433401499238524
 40
0.5700630566224161
 40
0.7067099474132169
 40
0.8472730491425731
 40
0.9917529210578863
 40
1.0
 40
1.0
 40
1.0
 40
1.0
 10
218.1554757134171
 20
126.3948189057824
 30
0.0
 10
218.1566106994187
 20
126.1222690605758
 30
0.0
 10
218.1588508114292
 20
125.5843397990174
 30
0.0
 10
218.161151479935
 20
124.8210971371485
 30
0.0
 10
218.1624596351903
 20
124.1380924268039
 30
0.0
 10
218.1628171777582
 20
123.5508824739075
 30
0.0
 10
218.1624709473943
 20
123.0606334191874
 30
0.0
 10
218.1611073281524
 20
122.7011039342417
 30
0.0
 10
218.1597018716179
 20
122.5028212462466
 30
0.0
 10
218.1585866575759
 20
122.4756011562496
 30
0.0
 10
218.1585264373057
 20
122.4741313028298
 30
0.0
  0
SPLINE
  5
14D
330
1F
100
AcDbEntity
  8
0
  6
Continuous
 62
     8
370
    15
100
AcDbSpline
210
0.0
220
0.0
230
1.0
 70
     8
 71
     3
 72
    11
 73
     7
 74
     0
 42
0.000000001
 43
0.00000001
 40
0.0
 40
0.0
 40
0.0
 40
0.0
 40
0.1556848075234773
 40
0.4371232050156524
 40
0.7185616025078262
 40
1.0
 40
1.0
 40
1.0
 40
1.0
 10
219.1047529575667
 20
177.9939455442536
 30
0.0
 10
219.0950974446657
 20
177.9939389252245
 30
0.0
 10
219.067987228759
 20
177.9939203406799
 30
0.0
 10
218.8650276040192
 20
177.9938897906199
 30
0.0
 10
218.5440245935303
 20
177.9938538940736
 30
0.0
 10
218.284991732778
 20
177.9938299630428
 30
0.0
 10
218.1554753024018
 20
177.9938179975274
 30
0.0
  0
SPLINE
  5
14E
330
1F
100
AcDbEntity
  8
0
  6
Continuous
 62
     8
370
    15
100
AcDbSpline
210
0.0
220
0.0
230
1.0
 70
    24
 71
     3
 72
    11
 73
     7
 74
     0
 42
0.000000001
 43
0.00000001
 40
0.0
 40
0.0
 40
0.0
 40
0.0
 40
0.1553417174401488
 40
0.4368944782934334
 40
0.7184472391467167
 40
1.0
 40
1.0
 40
1.0
 40
1.0
 10
219.1046454932974
 20
126.3948189057824
 30
0.0
 10
219.0950086939781
 20
126.3948189057824
 30
0.0
 10
219.0679054503654
 20
126.3948189057824
 30
0.0
 10
218.8650167659074
 20
126.3948189057824
 30
0.0
 10
218.5440273030583
 20
126.3948189057824
 30
0.0
 10
218.284992635954
 20
126.3948189057824
 30
0.0
 10
218.1554753024018
 20
126.3948189057824
 30
0.0
  0
CIRCLE
  5
14F
330
1F
100
AcDbEntity
  8
0
  6
Continuous
 62
     7
370
    15
100
AcDbCircle
 10
240.1473170732
 20
131.6943902439
 30
0.0
 40
2.124893522294855
  0
CIRCLE
  5
150
330
1F
100
AcDbEntity
  8
0
  6
Continuous
 62
     7
370
    15
100
AcDbCircle
 10
240.1473170732
 20
131.6943902439
 30
0.0
 40
2.375000000000028
  0
CIRCLE
  5
151
330
1F
100
AcDbEntity
  8
0
  6
Continuous
 62
     7
370
    15
100
AcDbCircle
 10
240.1473170732
 20
172.6943902439
 30
0.0
 40
2.1248935222917
  0
CIRCLE
  5
152
330
1F
100
AcDbEntity
  8
0
  6
Continuous
 62
     7
370
    15
100
AcDbCircle
 10
240.1473170732
 20
172.6943902439
 30
0.0
 40
2.375
  0
CIRCLE
  5
153
330
1F
100
AcDbEntity
  8
0
  6
Continuous
 62
     7
370
    15
100
AcDbCircle
 10
293.1473170732
 20
131.6943902439
 30
0.0
 40
2.124893522294855
  0
CIRCLE
  5
154
330
1F
100
AcDbEntity
  8
0
  6
Continuous
 62
     7
370
    15
100
AcDbCircle
 10
293.1473170732
 20
131.6943902439
 30
0.0
 40
2.375000000000028
  0
CIRCLE
  5
155
330
1F
100
AcDbEntity
  8
0
  6
Continuous
 62
     7
370
    15
100
AcDbCircle
 10
293.1473170732
 20
172.6943902439
 30
0.0
 40
2.1248935222917
  0
CIRCLE
  5
156
330
1F
100
AcDbEntity
  8
0
  6
Continuous
 62
     7
370
    15
100
AcDbCircle
 10
293.1473170732
 20
172.6943902439
 30
0.0
 40
2.375
  0
ARC
  5
157
330
1F
100
AcDbEntity
  8
0
  6
Continuous
 62
     7
370
    15
100
AcDbCircle
 10
240.1473170732
 20
172.6943902439
 30
0.0
 40
5.250000000000824
100
AcDbArc
 50
270.0
 51
0.0
  0
LINE
  5
158
330
1F
100
AcDbEntity
  8
0
  6
Continuous
 62
     7
370
    15
100
AcDbLine
 10
245.5684376363
 20
172.6943902439
 30
0.0
 11
245.3973170732
 21
172.6943902439
 31
0.0
  0
ARC
  5
159
330
1F
100
AcDbEntity
  8
0
  6
Continuous
 62
     7
370
    15
100
AcDbCircle
 10
240.1473170732
 20
172.6943902439
 30
0.0
 40
5.421120563166227
100
AcDbArc
 50
270.0
 51
0.0
  0
LINE
  5
15A
330
1F
100
AcDbEntity
  8
0
  6
Continuous
 62
     7
370
    15
100
AcDbLine
 10
240.1473170732
 20
167.4443902439
 30
0.0
 11
240.1473170732
 21
167.2732696807
 31
0.0
  0
LINE
  5
15B
330
1F
100
AcDbEntity
  8
0
  6
Continuous
 62
     7
370
    15
100
AcDbLine
 10
245.3973170732
 20
178.1943902439
 30
0.0
 11
245.568437636
 21
178.1943902439
 31
0.0
  0
LINE
  5
15C
330
1F
100
AcDbEntity
  8
0
  6
Continuous
 62
     7
370
    15
100
AcDbLine
 10
245.568437636
 20
178.1943902439
 30
0.0
 11
245.568437636
 21
172.6943902439
 31
0.0
  0
LINE
  5
15D
330
1F
100
AcDbEntity
  8
0
  6
Continuous
 62
     7
370
    15
100
AcDbLine
 10
245.3973170732
 20
178.1943902439
 30
0.0
 11
245.3973170732
 21
172.6943902439
 31
0.0
  0
ARC
  5
15E
330
1F
100
AcDbEntity
  8
0
  6
Continuous
 62
     7
370
    15
100
AcDbCircle
 10
240.1473170732
 20
166.9443902439
 30
0.0
 40
0.3288794368354786
100
AcDbArc
 50
90.0
 51
180.0
  0
LINE
  5
15F
330
1F
100
AcDbEntity
  8
0
  6
Continuous
 62
     7
370
    15
100
AcDbLine
 10
239.6473170732
 20
166.9443902439
 30
0.0
 11
239.818437636
 21
166.9443902439
 31
0.0
  0
ARC
  5
160
330
1F
100
AcDbEntity
  8
0
  6
Continuous
 62
     7
370
    15
100
AcDbCircle
 10
240.1473170732
 20
166.9443902439
 30
0.0
 40
0.5
100
AcDbArc
 50
90.0
 51
180.0
  0
LINE
  5
161
330
1F
100
AcDbEntity
  8
0
  6
Continuous
 62
     7
370
    15
100
AcDbLine
 10
239.818437636
 20
137.4443902439
 30
0.0
 11
239.6473170732
 21
137.4443902439
 31
0.0
  0
ARC
  5
162
330
1F
100
AcDbEntity
  8
0
  6
Continuous
 62
     7
370
    15
100
AcDbCircle
 10
240.1473170732
 20
137.4443902439
 30
0.0
 40
0.328879436835507
100
AcDbArc
 50
180.0
 51
270.0
  0
LINE
  5
163
330
1F
100
AcDbEntity
  8
0
  6
Continuous
 62
     7
370
    15
100
AcDbLine
 10
240.1473170732
 20
137.1155108068
 30
0.0
 11
240.1473170732
 21
136.9443902439
 31
0.0
  0
ARC
  5
164
330
1F
100
AcDbEntity
  8
0
  6
Continuous
 62
     7
370
    15
100
AcDbCircle
 10
240.1473170732
 20
137.4443902439
 30
0.0
 40
0.5
100
AcDbArc
 50
180.0
 51
270.0
  0
LINE
  5
165
330
1F
100
AcDbEntity
  8
0
  6
Continuous
 62
     7
370
    15
100
AcDbLine
 10
239.818437636
 20
166.9443902439
 30
0.0
 11
239.818437636
 21
137.4443902439
 31
0.0
  0
LINE
  5
166
330
1F
100
AcDbEntity
  8
0
  6
Continuous
 62
     7
370
    15
100
AcDbLine
 10
239.6473170732
 20
166.9443902439
 30
0.0
 11
239.6473170732
 21
137.4443902439
 31
0.0
  0
ARC
  5
167
330
1F
100
AcDbEntity
  8
0
  6
Continuous
 62
     7
370
    15
100
AcDbCircle
 10
240.1473170732
 20
131.6943902439
 30
0.0
 40
5.250000000000426
100
AcDbArc
 50
0.0
 51
90.0
  0
ARC
  5
168
330
1F
100
AcDbEntity
  8
0
  6
Continuous
 62
     7
370
    15
100
AcDbCircle
 10
240.1473170732
 20
131.6943902439
 30
0.0
 40
5.421120562875274
100
AcDbArc
 50
0.0
 51
90.0
  0
LINE
  5
169
330
1F
100
AcDbEntity
  8
0
  6
Continuous
 62
     7
370
    15
100
AcDbLine
 10
245.3973170732
 20
131.6943902439
 30
0.0
 11
245.568437636
 21
131.6943902439
 31
0.0
  0
LINE
  5
16A
330
1F
100
AcDbEntity
  8
0
  6
Continuous
 62
     7
370
    15
100
AcDbLine
 10
245.568437636
 20
131.6943902439
 30
0.0
 11
245.568437636
 21
126.1943902439
 31
0.0
  0
LINE
  5
16B
330
1F
100
AcDbEntity
  8
0
  6
Continuous
 62
     7
370
    15
100
AcDbLine
 10
245.568437636
 20
126.1943902439
 30
0.0
 11
245.3973170732
 21
126.1943902439
 31
0.0
  0
LINE
  5
16C
330
1F
100
AcDbEntity
  8
0
  6
Continuous
 62
     7
370
    15
100
AcDbLine
 10
245.3973170732
 20
131.6943902439
 30
0.0
 11
245.3973170732
 21
126.1943902439
 31
0.0
  0
ARC
  5
16D
330
1F
100
AcDbEntity
  8
0
  6
Continuous
 62
     7
370
    15
100
AcDbCircle
 10
245.8973170732
 20
126.1943902439
 30
0.0
 40
0.328879436835436
100
AcDbArc
 50
180.0
 51
270.0
  0
LINE
  5
16E
330
1F
100
AcDbEntity
  8
0
  6
Continuous
 62
     7
370
    15
100
AcDbLine
 10
245.8973170732
 20
125.6943902439
 30
0.0
 11
245.8973170732
 21
125.8655108068
 31
0.0
  0
ARC
  5
16F
330
1F
100
AcDbEntity
  8
0
  6
Continuous
 62
     7
370
    15
100
AcDbCircle
 10
245.8973170732
 20
126.1943902439
 30
0.0
 40
0.5
100
AcDbArc
 50
180.0
 51
270.0
  0
LINE
  5
170
330
1F
100
AcDbEntity
  8
0
  6
Continuous
 62
     7
370
    15
100
AcDbLine
 10
245.8973170732
 20
178.5232696807
 30
0.0
 11
245.8973170732
 21
178.6943902439
 31
0.0
  0
ARC
  5
171
330
1F
100
AcDbEntity
  8
0
  6
Continuous
 62
     7
370
    15
100
AcDbCircle
 10
245.8973170732
 20
178.1943902439
 30
0.0
 40
0.3288794368354218
100
AcDbArc
 50
90.0
 51
180.0
  0
ARC
  5
172
330
1F
100
AcDbEntity
  8
0
  6
Continuous
 62
     7
370
    15
100
AcDbCircle
 10
245.8973170732
 20
178.1943902439
 30
0.0
 40
0.5
100
AcDbArc
 50
90.0
 51
180.0
  0
LINE
  5
173
330
1F
100
AcDbEntity
  8
0
  6
Continuous
 62
     7
370
    15
100
AcDbLine
 10
245.8973170732
 20
125.8655108068
 30
0.0
 11
287.3973170732
 21
125.8655108068
 31
0.0
  0
LINE
  5
174
330
1F
100
AcDbEntity
  8
0
  6
Continuous
 62
     7
370
    15
100
AcDbLine
 10
287.3973170732
 20
125.8655108068
 30
0.0
 11
287.3973170732
 21
125.6943902439
 31
0.0
  0
LINE
  5
175
330
1F
100
AcDbEntity
  8
0
  6
Continuous
 62
     7
370
    15
100
AcDbLine
 10
245.8973170732
 20
125.6943902439
 30
0.0
 11
287.3973170732
 21
125.6943902439
 31
0.0
  0
LINE
  5
176
330
1F
100
AcDbEntity
  8
0
  6
Continuous
 62
     7
370
    15
100
AcDbLine
 10
287.3973170732
 20
178.6943902439
 30
0.0
 11
287.3973170732
 21
178.5232696807
 31
0.0
  0
LINE
  5
177
330
1F
100
AcDbEntity
  8
0
  6
Continuous
 62
     7
370
    15
100
AcDbLine
 10
287.3973170732
 20
178.5232696807
 30
0.0
 11
245.8973170732
 21
178.5232696807
 31
0.0
  0
LINE
  5
178
330
1F
100
AcDbEntity
  8
0
  6
Continuous
 62
     7
370
    15
100
AcDbLine
 10
287.3973170732
 20
178.6943902439
 30
0.0
 11
245.8973170732
 21
178.6943902439
 31
0.0
  0
LINE
  5
179
330
1F
100
AcDbEntity
  8
0
  6
Continuous
 62
     7
370
    15
100
AcDbLine
 10
287.8973170732
 20
126.1943902439
 30
0.0
 11
287.7261965103
 21
126.1943902439
 31
0.0
  0
LINE
  5
17A
330
1F
100
AcDbEntity
  8
0
  6
Continuous
 62
     7
370
    15
100
AcDbLine
 10
287.7261965103
 20
126.1943902439
 30
0.0
 11
287.7261965103
 21
131.6943902439
 31
0.0
  0
LINE
  5
17B
330
1F
100
AcDbEntity
  8
0
  6
Continuous
 62
     7
370
    15
100
AcDbLine
 10
287.72619651
 20
131.6943902439
 30
0.0
 11
287.8973170732
 21
131.6943902439
 31
0.0
  0
LINE
  5
17C
330
1F
100
AcDbEntity
  8
0
  6
Continuous
 62
     7
370
    15
100
AcDbLine
 10
287.8973170732
 20
126.1943902439
 30
0.0
 11
287.8973170732
 21
131.6943902439
 31
0.0
  0
ARC
  5
17D
330
1F
100
AcDbEntity
  8
0
  6
Continuous
 62
     7
370
    15
100
AcDbCircle
 10
293.1473170732
 20
131.6943902439
 30
0.0
 40
5.250000000000796
100
AcDbArc
 50
90.0
 51
180.0
  0
ARC
  5
17E
330
1F
100
AcDbEntity
  8
0
  6
Continuous
 62
     7
370
    15
100
AcDbCircle
 10
293.1473170732
 20
131.6943902439
 30
0.0
 40
5.421120563166198
100
AcDbArc
 50
90.0
 51
180.0
  0
LINE
  5
17F
330
1F
100
AcDbEntity
  8
0
  6
Continuous
 62
     7
370
    15
100
AcDbLine
 10
293.1473170732
 20
136.9443902439
 30
0.0
 11
293.1473170732
 21
137.1155108071
 31
0.0
  0
LINE
  5
180
330
1F
100
AcDbEntity
  8
0
  6
Continuous
 62
     7
370
    15
100
AcDbLine
 10
287.7261965103
 20
178.1943902439
 30
0.0
 11
287.8973170732
 21
178.1943902439
 31
0.0
  0
ARC
  5
181
330
1F
100
AcDbEntity
  8
0
  6
Continuous
 62
     7
370
    15
100
AcDbCircle
 10
287.3973170732
 20
178.1943902439
 30
0.0
 40
0.3288794368355639
100
AcDbArc
 50
0.0
 51
90.0
  0
ARC
  5
182
330
1F
100
AcDbEntity
  8
0
  6
Continuous
 62
     7
370
    15
100
AcDbCircle
 10
287.3973170732
 20
178.1943902439
 30
0.0
 40
0.5
100
AcDbArc
 50
0.0
 51
90.0
  0
ARC
  5
183
330
1F
100
AcDbEntity
  8
0
  6
Continuous
 62
     7
370
    15
100
AcDbCircle
 10
287.3973170732
 20
126.1943902439
 30
0.0
 40
0.3288794368355639
100
AcDbArc
 50
270.0
 51
0.0
  0
ARC
  5
184
330
1F
100
AcDbEntity
  8
0
  6
Continuous
 62
     7
370
    15
100
AcDbCircle
 10
287.3973170732
 20
126.1943902439
 30
0.0
 40
0.5
100
AcDbArc
 50
270.0
 51
0.0
  0
ARC
  5
185
330
1F
100
AcDbEntity
  8
0
  6
Continuous
 62
     7
370
    15
100
AcDbCircle
 10
293.1473170732
 20
172.6943902439
 30
0.0
 40
5.250000000000483
100
AcDbArc
 50
180.0
 51
270.0
  0
LINE
  5
186
330
1F
100
AcDbEntity
  8
0
  6
Continuous
 62
     7
370
    15
100
AcDbLine
 10
293.1473170732
 20
167.273269681
 30
0.0
 11
293.1473170732
 21
167.4443902439
 31
0.0
  0
ARC
  5
187
330
1F
100
AcDbEntity
  8
0
  6
Continuous
 62
     7
370
    15
100
AcDbCircle
 10
293.1473170732
 20
172.6943902439
 30
0.0
 40
5.421120562875274
100
AcDbArc
 50
180.0
 51
270.0
  0
LINE
  5
188
330
1F
100
AcDbEntity
  8
0
  6
Continuous
 62
     7
370
    15
100
AcDbLine
 10
287.8973170732
 20
172.6943902439
 30
0.0
 11
287.7261965103
 21
172.6943902439
 31
0.0
  0
LINE
  5
189
330
1F
100
AcDbEntity
  8
0
  6
Continuous
 62
     7
370
    15
100
AcDbLine
 10
287.7261965103
 20
172.6943902439
 30
0.0
 11
287.7261965103
 21
178.1943902439
 31
0.0
  0
LINE
  5
18A
330
1F
100
AcDbEntity
  8
0
  6
Continuous
 62
     7
370
    15
100
AcDbLine
 10
287.8973170732
 20
172.6943902439
 30
0.0
 11
287.8973170732
 21
178.1943902439
 31
0.0
  0
ARC
  5
18B
330
1F
100
AcDbEntity
  8
0
  6
Continuous
 62
     7
370
    15
100
AcDbCircle
 10
293.1473170732
 20
137.4443902439
 30
0.0
 40
0.3288794368354502
100
AcDbArc
 50
270.0
 51
0.0
  0
LINE
  5
18C
330
1F
100
AcDbEntity
  8
0
  6
Continuous
 62
     7
370
    15
100
AcDbLine
 10
293.6473170732
 20
137.4443902439
 30
0.0
 11
293.4761965103
 21
137.4443902439
 31
0.0
  0
ARC
  5
18D
330
1F
100
AcDbEntity
  8
0
  6
Continuous
 62
     7
370
    15
100
AcDbCircle
 10
293.1473170732
 20
137.4443902439
 30
0.0
 40
0.5
100
AcDbArc
 50
270.0
 51
0.0
  0
LINE
  5
18E
330
1F
100
AcDbEntity
  8
0
  6
Continuous
 62
     7
370
    15
100
AcDbLine
 10
293.4761965103
 20
166.9443902439
 30
0.0
 11
293.6473170732
 21
166.9443902439
 31
0.0
  0
ARC
  5
18F
330
1F
100
AcDbEntity
  8
0
  6
Continuous
 62
     7
370
    15
100
AcDbCircle
 10
293.1473170732
 20
166.9443902439
 30
0.0
 40
0.3288794368354502
100
AcDbArc
 50
0.0
 51
90.0
  0
ARC
  5
190
330
1F
100
AcDbEntity
  8
0
  6
Continuous
 62
     7
370
    15
100
AcDbCircle
 10
293.1473170732
 20
166.9443902439
 30
0.0
 40
0.5
100
AcDbArc
 50
0.0
 51
90.0
  0
LINE
  5
191
330
1F
100
AcDbEntity
  8
0
  6
Continuous
 62
     7
370
    15
100
AcDbLine
 10
293.4761965103
 20
137.4443902439
 30
0.0
 11
293.4761965103
 21
166.9443902439
 31
0.0
  0
LINE
  5
192
330
1F
100
AcDbEntity
  8
0
  6
Continuous
 62
     7
370
    15
100
AcDbLine
 10
293.6473170732
 20
137.4443902439
 30
0.0
 11
293.6473170732
 21
166.9443902439
 31
0.0
  0
ARC
  5
193
330
1F
100
AcDbEntity
  8
0
  6
Continuous
 62
     7
370
    15
100
AcDbCircle
 10
287.3973170732
 20
178.1943902439
 30
0.0
 40
1.375000000000057
100
AcDbArc
 50
0.0
 51
90.0
  0
LINE
  5
194
330
1F
100
AcDbEntity
  8
0
  6
Continuous
 62
     7
370
    15
100
AcDbLine
 10
288.7723170732
 20
172.6943902439
 30
0.0
 11
288.7723170732
 21
178.1943902439
 31
0.0
  0
ARC
  5
195
330
1F
100
AcDbEntity
  8
0
  6
Continuous
 62
     7
370
    15
100
AcDbCircle
 10
293.1473170732
 20
172.6943902439
 30
0.0
 40
4.375
100
AcDbArc
 50
180.0
 51
270.0
  0
ARC
  5
196
330
1F
100
AcDbEntity
  8
0
  6
Continuous
 62
     7
370
    15
100
AcDbCircle
 10
293.1473170732
 20
166.9443902439
 30
0.0
 40
1.375
100
AcDbArc
 50
0.0
 51
90.0
  0
LINE
  5
197
330
1F
100
AcDbEntity
  8
0
  6
Continuous
 62
     7
370
    15
100
AcDbLine
 10
294.5223170732
 20
137.4443902439
 30
0.0
 11
294.5223170732
 21
166.9443902439
 31
0.0
  0
ARC
  5
198
330
1F
100
AcDbEntity
  8
0
  6
Continuous
 62
     7
370
    15
100
AcDbCircle
 10
293.1473170732
 20
137.4443902439
 30
0.0
 40
1.375
100
AcDbArc
 50
270.0
 51
0.0
  0
ARC
  5
199
330
1F
100
AcDbEntity
  8
0
  6
Continuous
 62
     7
370
    15
100
AcDbCircle
 10
293.1473170732
 20
131.6943902439
 30
0.0
 40
4.374999999999972
100
AcDbArc
 50
90.0
 51
180.0
  0
LINE
  5
19A
330
1F
100
AcDbEntity
  8
0
  6
Continuous
 62
     7
370
    15
100
AcDbLine
 10
288.7723170732
 20
126.1943902439
 30
0.0
 11
288.7723170732
 21
131.6943902439
 31
0.0
  0
ARC
  5
19B
330
1F
100
AcDbEntity
  8
0
  6
Continuous
 62
     7
370
    15
100
AcDbCircle
 10
287.3973170732
 20
126.1943902439
 30
0.0
 40
1.375000000000057
100
AcDbArc
 50
270.0
 51
0.0
  0
LINE
  5
19C
330
1F
100
AcDbEntity
  8
0
  6
Continuous
 62
     7
370
    15
100
AcDbLine
 10
245.8973170732
 20
124.8193902439
 30
0.0
 11
287.3973170732
 21
124.8193902439
 31
0.0
  0
ARC
  5
19D
330
1F
100
AcDbEntity
  8
0
  6
Continuous
 62
     7
370
    15
100
AcDbCircle
 10
245.8973170732
 20
126.1943902439
 30
0.0
 40
1.375000000000014
100
AcDbArc
 50
180.0
 51
270.0
  0
LINE
  5
19E
330
1F
100
AcDbEntity
  8
0
  6
Continuous
 62
     7
370
    15
100
AcDbLine
 10
244.5223170732
 20
131.6943902439
 30
0.0
 11
244.5223170732
 21
126.1943902439
 31
0.0
  0
ARC
  5
19F
330
1F
100
AcDbEntity
  8
0
  6
Continuous
 62
     7
370
    15
100
AcDbCircle
 10
240.1473170732
 20
131.6943902439
 30
0.0
 40
4.375000000000028
100
AcDbArc
 50
0.0
 51
90.0
  0
ARC
  5
1A0
330
1F
100
AcDbEntity
  8
0
  6
Continuous
 62
     7
370
    15
100
AcDbCircle
 10
240.1473170732
 20
137.4443902439
 30
0.0
 40
1.375
100
AcDbArc
 50
180.0
 51
270.0
  0
LINE
  5
1A1
330
1F
100
AcDbEntity
  8
0
  6
Continuous
 62
     7
370
    15
100
AcDbLine
 10
238.7723170732
 20
166.9443902439
 30
0.0
 11
238.7723170732
 21
137.4443902439
 31
0.0
  0
ARC
  5
1A2
330
1F
100
AcDbEntity
  8
0
  6
Continuous
 62
     7
370
    15
100
AcDbCircle
 10
240.1473170732
 20
166.9443902439
 30
0.0
 40
1.374999999999972
100
AcDbArc
 50
90.0
 51
180.0
  0
ARC
  5
1A3
330
1F
100
AcDbEntity
  8
0
  6
Continuous
 62
     7
370
    15
100
AcDbCircle
 10
240.1473170732
 20
172.6943902439
 30
0.0
 40
4.375000000000028
100
AcDbArc
 50
270.0
 51
0.0
  0
LINE
  5
1A4
330
1F
100
AcDbEntity
  8
0
  6
Continuous
 62
     7
370
    15
100
AcDbLine
 10
244.5223170732
 20
178.1943902439
 30
0.0
 11
244.5223170732
 21
172.6943902439
 31
0.0
  0
ARC
  5
1A5
330
1F
100
AcDbEntity
  8
0
  6
Continuous
 62
     7
370
    15
100
AcDbCircle
 10
245.8973170732
 20
178.1943902439
 30
0.0
 40
1.375000000000028
100
AcDbArc
 50
90.0
 51
180.0
  0
LINE
  5
1A6
330
1F
100
AcDbEntity
  8
0
  6
Continuous
 62
     7
370
    15
100
AcDbLine
 10
287.3973170732
 20
179.5693902439
 30
0.0
 11
245.8973170732
 21
179.5693902439
 31
0.0
  0
LINE
  5
1A7
330
1F
100
AcDbEntity
  8
0
  6
Continuous
 62
     7
370
    15
100
AcDbLine
 10
290.5223170732
 20
172.6943902439
 30
0.0
 11
290.5223170732
 21
178.1943902439
 31
0.0
  0
ARC
  5
1A8
330
1F
100
AcDbEntity
  8
0
  6
Continuous
 62
     7
370
    15
100
AcDbCircle
 10
287.3973170732
 20
178.1943902439
 30
0.0
 40
3.125000000000028
100
AcDbArc
 50
0.0
 51
90.0
  0
LINE
  5
1A9
330
1F
100
AcDbEntity
  8
0
  6
Continuous
 62
     7
370
    15
100
AcDbLine
 10
287.3973170732
 20
181.3193902439
 30
0.0
 11
245.8973170732
 21
181.3193902439
 31
0.0
  0
ARC
  5
1AA
330
1F
100
AcDbEntity
  8
0
  6
Continuous
 62
     7
370
    15
100
AcDbCircle
 10
245.8973170732
 20
178.1943902439
 30
0.0
 40
3.125000000000028
100
AcDbArc
 50
90.0
 51
180.0
  0
LINE
  5
1AB
330
1F
100
AcDbEntity
  8
0
  6
Continuous
 62
     7
370
    15
100
AcDbLine
 10
242.7723170732
 20
178.1943902439
 30
0.0
 11
242.7723170732
 21
172.6943902439
 31
0.0
  0
ARC
  5
1AC
330
1F
100
AcDbEntity
  8
0
  6
Continuous
 62
     7
370
    15
100
AcDbCircle
 10
240.1473170732
 20
172.6943902439
 30
0.0
 40
2.625
100
AcDbArc
 50
270.0
 51
0.0
  0
ARC
  5
1AD
330
1F
100
AcDbEntity
  8
0
  6
Continuous
 62
     7
370
    15
100
AcDbCircle
 10
240.1473170732
 20
166.9443902439
 30
0.0
 40
3.124999999999972
100
AcDbArc
 50
90.0
 51
180.0
  0
LINE
  5
1AE
330
1F
100
AcDbEntity
  8
0
  6
Continuous
 62
     7
370
    15
100
AcDbLine
 10
237.0223170732
 20
166.9443902439
 30
0.0
 11
237.0223170732
 21
137.4443902439
 31
0.0
  0
ARC
  5
1AF
330
1F
100
AcDbEntity
  8
0
  6
Continuous
 62
     7
370
    15
100
AcDbCircle
 10
240.1473170732
 20
137.4443902439
 30
0.0
 40
3.125
100
AcDbArc
 50
180.0
 51
270.0
  0
ARC
  5
1B0
330
1F
100
AcDbEntity
  8
0
  6
Continuous
 62
     7
370
    15
100
AcDbCircle
 10
240.1473170732
 20
131.6943902439
 30
0.0
 40
2.625
100
AcDbArc
 50
0.0
 51
90.0
  0
LINE
  5
1B1
330
1F
100
AcDbEntity
  8
0
  6
Continuous
 62
     7
370
    15
100
AcDbLine
 10
242.7723170732
 20
131.6943902439
 30
0.0
 11
242.7723170732
 21
126.1943902439
 31
0.0
  0
ARC
  5
1B2
330
1F
100
AcDbEntity
  8
0
  6
Continuous
 62
     7
370
    15
100
AcDbCircle
 10
245.8973170732
 20
126.1943902439
 30
0.0
 40
3.125
100
AcDbArc
 50
180.0
 51
270.0
  0
LINE
  5
1B3
330
1F
100
AcDbEntity
  8
0
  6
Continuous
 62
     7
370
    15
100
AcDbLine
 10
245.8973170732
 20
123.0693902439
 30
0.0
 11
287.3973170732
 21
123.0693902439
 31
0.0
  0
ARC
  5
1B4
330
1F
100
AcDbEntity
  8
0
  6
Continuous
 62
     7
370
    15
100
AcDbCircle
 10
287.3973170732
 20
126.1943902439
 30
0.0
 40
3.125
100
AcDbArc
 50
270.0
 51
0.0
  0
LINE
  5
1B5
330
1F
100
AcDbEntity
  8
0
  6
Continuous
 62
     7
370
    15
100
AcDbLine
 10
290.5223170732
 20
126.1943902439
 30
0.0
 11
290.5223170732
 21
131.6943902439
 31
0.0
  0
ARC
  5
1B6
330
1F
100
AcDbEntity
  8
0
  6
Continuous
 62
     7
370
    15
100
AcDbCircle
 10
293.1473170732
 20
131.6943902439
 30
0.0
 40
2.625
100
AcDbArc
 50
90.0
 51
180.0
  0
ARC
  5
1B7
330
1F
100
AcDbEntity
  8
0
  6
Continuous
 62
     7
370
    15
100
AcDbCircle
 10
293.1473170732
 20
137.4443902439
 30
0.0
 40
3.125
100
AcDbArc
 50
270.0
 51
0.0
  0
LINE
  5
1B8
330
1F
100
AcDbEntity
  8
0
  6
Continuous
 62
     7
370
    15
100
AcDbLine
 10
296.2723170732
 20
137.4443902439
 30
0.0
 11
296.2723170732
 21
166.9443902439
 31
0.0
  0
ARC
  5
1B9
330
1F
100
AcDbEntity
  8
0
  6
Continuous
 62
     7
370
    15
100
AcDbCircle
 10
293.1473170732
 20
166.9443902439
 30
0.0
 40
3.125
100
AcDbArc
 50
0.0
 51
90.0
  0
ARC
  5
1BA
330
1F
100
AcDbEntity
  8
0
  6
Continuous
 62
     7
370
    15
100
AcDbCircle
 10
293.1473170732
 20
172.6943902439
 30
0.0
 40
2.625
100
AcDbArc
 50
180.0
 51
270.0
  0
CIRCLE
  5
1BB
330
1F
100
AcDbEntity
  8
0
  6
Continuous
 62
     7
370
    15
100
AcDbCircle
 10
293.1473170732
 20
126.1943902439
 30
0.0
 40
1.675000000000011
  0
CIRCLE
  5
1BC
330
1F
100
AcDbEntity
  8
0
  6
Continuous
 62
     7
370
    15
100
AcDbCircle
 10
240.1473170732
 20
126.1943902439
 30
0.0
 40
1.675000000000011
  0
CIRCLE
  5
1BD
330
1F
100
AcDbEntity
  8
0
  6
Continuous
 62
     7
370
    15
100
AcDbCircle
 10
240.1473170732
 20
178.1943902439
 30
0.0
 40
1.674999999999983
  0
CIRCLE
  5
1BE
330
1F
100
AcDbEntity
  8
0
  6
Continuous
 62
     7
370
    15
100
AcDbCircle
 10
293.1473170732
 20
178.1943902439
 30
0.0
 40
1.674999999999983
  0
LINE
  5
1BF
330
1F
100
AcDbEntity
  8
0
  6
Continuous
 62
     7
370
    15
100
AcDbLine
 10
297.1473170732
 20
178.1949994633
 30
0.0
 11
297.1473170732
 21
126.1937810254
 31
0.0
  0
ELLIPSE
  5
1C0
330
1F
100
AcDbEntity
  8
0
  6
Continuous
 62
     7
370
    15
100
AcDbEllipse
 10
293.146707761
 20
178.1937809317
 30
0.0
 11
2.829288756678296
 21
2.829288756678296
 31
0.0
210
0.0
220
0.0
230
1.0
 40
0.9996954599
 41
5.497939437029819
 42
7.068431177329446
  0
ELLIPSE
  5
1C1
330
1F
100
AcDbEntity
  8
0
  6
Continuous
 62
     7
370
    15
100
AcDbEllipse
 10
293.146707761
 20
126.1949995561
 30
0.0
 11
2.829288756678296
 21
-2.829288756678324
 31
0.0
210
0.0
220
0.0
230
1.0
 40
0.9996954599
 41
5.497939437029831
 42
7.068431177540944
  0
LINE
  5
1C2
330
1F
100
AcDbEntity
  8
0
  6
Continuous
 62
     7
370
    15
100
AcDbLine
 10
240.1467078538
 20
182.1943902439
 30
0.0
 11
293.1479262925
 21
182.1943902439
 31
0.0
  0
LINE
  5
1C3
330
1F
100
AcDbEntity
  8
0
  6
Continuous
 62
     7
370
    15
100
AcDbLine
 10
293.1479262925
 20
122.1943902439
 30
0.0
 11
240.1467078546
 21
122.1943902439
 31
0.0
  0
ELLIPSE
  5
1C4
330
1F
100
AcDbEntity
  8
0
  6
Continuous
 62
     7
370
    15
100
AcDbEllipse
 10
240.1479263853
 20
126.1949995561
 30
0.0
 11
-2.829288756678323
 21
-2.829288756678323
 31
0.0
210
0.0
220
0.0
230
1.0
 40
0.9996954599
 41
5.49793943702982
 42
7.068431177540937
  0
LINE
  5
1C5
330
1F
100
AcDbEntity
  8
0
  6
Continuous
 62
     7
370
    15
100
AcDbLine
 10
236.1473170732
 20
126.1937810245
 30
0.0
 11
236.1473170732
 21
178.1949994633
 31
0.0
  0
ELLIPSE
  5
1C6
330
1F
100
AcDbEntity
  8
0
  6
Continuous
 62
     7
370
    15
100
AcDbEllipse
 10
240.1479263853
 20
178.1937809317
 30
0.0
 11
-2.829288756678324
 21
2.829288756678296
 31
0.0
210
0.0
220
0.0
230
1.0
 40
0.9996954599
 41
5.497939437029818
 42
7.068431177329359
  0
LINE
  5
1C7
330
1F
100
AcDbEntity
  8
0
  6
Continuous
 62
     7
370
    15
100
AcDbLine
 10
240.0184071751
 20
137.4443902439
 30
0.0
 11
239.8184376363
 21
137.4443902439
 31
0.0
  0
SPLINE
  5
1C8
330
1F
100
AcDbEntity
  8
0
  6
Continuous
 62
     7
370
    15
100
AcDbSpline
210
0.0
220
0.0
230
1.0
 70
     8
 71
     3
 72
    15
 73
    11
 74
     0
 42
0.000000001
 43
0.00000001
 40
0.0
 40
0.0
 40
0.0
 40
0.0
 40
0.1270034846957169
 40
0.2493604979317073
 40
0.3721244245407752
 40
0.5003005303100879
 40
0.6287149294721778
 40
0.7601226929417334
 40
0.8793381160713943
 40
1.0
 40
1.0
 40
1.0
 40
1.0
 10
240.0184074093807
 20
137.4443902439024
 30
0.0
 10
240.0188371356076
 20
137.4358092844799
 30
0.0
 10
240.0196808663616
 20
137.4189613033442
 30
0.0
 10
240.0270991116119
 20
137.394719807251
 30
0.0
 10
240.0391589019027
 20
137.3724600933417
 30
0.0
 10
240.0555929420796
 20
137.3526478536691
 30
0.0
 10
240.0759255435771
 20
137.3358803190679
 30
0.0
 10
240.0988092262163
 20
137.3241528838265
 30
0.0
 10
240.1229535280543
 20
137.3167374019609
 30
0.0
 10
240.1391633097896
 20
137.3159009627488
 30
0.0
 10
240.1473170731707
 20
137.3154802212774
 30
0.0
  0
LINE
  5
1C9
330
1F
100
AcDbEntity
  8
0
  6
Continuous
 62
     7
370
    15
100
AcDbLine
 10
240.1473170732
 20
137.1155108068
 30
0.0
 11
240.1473170732
 21
137.3154802835
 31
0.0
  0
LINE
  5
1CA
330
1F
100
AcDbEntity
  8
0
  6
Continuous
 62
     7
370
    15
100
AcDbLine
 10
293.2762269713
 20
166.9443902439
 30
0.0
 11
293.47619651
 21
166.9443902439
 31
0.0
  0
SPLINE
  5
1CB
330
1F
100
AcDbEntity
  8
0
  6
Continuous
 62
     7
370
    15
100
AcDbSpline
210
0.0
220
0.0
230
1.0
 70
     8
 71
     3
 72
    15
 73
    11
 74
     0
 42
0.000000001
 43
0.00000001
 40
0.0
 40
0.0
 40
0.0
 40
0.0
 40
0.1270034846952957
 40
0.2493604979311437
 40
0.3721244245403229
 40
0.5003005303099738
 40
0.6287149294717614
 40
0.760122692941687
 40
0.8793381160714979
 40
0.9999999999999999
 40
0.9999999999999999
 40
0.9999999999999999
 40
0.9999999999999999
 10
293.2762267369607
 20
166.9443902439024
 30
0.0
 10
293.2757970107339
 20
166.9529712033248
 30
0.0
 10
293.2749532799798
 20
166.9698191844605
 30
0.0
 10
293.2675350347295
 20
166.9940606805537
 30
0.0
 10
293.2554752444387
 20
167.016320394463
 30
0.0
 10
293.239041204262
 20
167.0361326341356
 30
0.0
 10
293.2187086027644
 20
167.0529001687369
 30
0.0
 10
293.1958249201251
 20
167.0646276039783
 30
0.0
 10
293.1716806182872
 20
167.0720430858439
 30
0.0
 10
293.1554708365518
 20
167.072879525056
 30
0.0
 10
293.1473170731707
 20
167.0733002665274
 30
0.0
  0
LINE
  5
1CC
330
1F
100
AcDbEntity
  8
0
  6
Continuous
 62
     7
370
    15
100
AcDbLine
 10
293.1473170732
 20
167.273269681
 30
0.0
 11
293.1473170732
 21
167.0733002043
 31
0.0
  0
LINE
  5
1CD
330
1F
100
AcDbEntity
  8
0
  6
Continuous
 62
     7
370
    15
100
AcDbLine
 10
245.8973170732
 20
178.3232999077
 30
0.0
 11
245.8973170732
 21
178.5232696807
 31
0.0
  0
SPLINE
  5
1CE
330
1F
100
AcDbEntity
  8
0
  6
Continuous
 62
     7
370
    15
100
AcDbSpline
210
0.0
220
0.0
230
1.0
 70
     8
 71
     3
 72
    15
 73
    11
 74
     0
 42
0.000000001
 43
0.00000001
 40
0.0
 40
0.0
 40
0.0
 40
0.0
 40
0.1270035126655339
 40
0.2493605312667728
 40
0.3721244461829673
 40
0.5003005307037918
 40
0.6287149086979404
 40
0.7601226607815839
 40
0.8793380895961983
 40
1.0
 40
1.0
 40
1.0
 40
1.0
 10
245.8973170731707
 20
178.3232999076924
 30
0.0
 10
245.8887361144924
 20
178.3228701815592
 30
0.0
 10
245.871888136276
 20
178.322026451062
 30
0.0
 10
245.8476466464856
 20
178.3146082062053
 30
0.0
 10
245.8253869433866
 20
178.3025484156931
 30
0.0
 10
245.8055747188184
 20
178.2861143750288
 30
0.0
 10
245.7888072032966
 20
178.2657817726233
 30
0.0
 10
245.77707979007
 20
178.2428980893269
 30
0.0
 10
245.7696643318819
 20
178.2187537867307
 30
0.0
 10
245.76882790858
 20
178.2025440069807
 30
0.0
 10
245.7684071750757
 20
178.1943902439024
 30
0.0
  0
LINE
  5
1CF
330
1F
100
AcDbEntity
  8
0
  6
Continuous
 62
     7
370
    15
100
AcDbLine
 10
245.568437636
 20
178.1943902439
 30
0.0
 11
245.7684071751
 21
178.1943902439
 31
0.0
  0
LINE
  5
1D0
330
1F
100
AcDbEntity
  8
0
  6
Continuous
 62
     7
370
    15
100
AcDbLine
 10
287.3973170732
 20
126.0654803458
 30
0.0
 11
287.3973170732
 21
125.8655108071
 31
0.0
  0
SPLINE
  5
1D1
330
1F
100
AcDbEntity
  8
0
  6
Continuous
 62
     7
370
    15
100
AcDbSpline
210
0.0
220
0.0
230
1.0
 70
     8
 71
     3
 72
    15
 73
    11
 74
     0
 42
0.000000001
 43
0.00000001
 40
0.0
 40
0.0
 40
0.0
 40
0.0
 40
0.1270035126653085
 40
0.2493605312664949
 40
0.3721244461827917
 40
0.5003005307038243
 40
0.6287149086974397
 40
0.760122660781617
 40
0.879338089595967
 40
1.0
 40
1.0
 40
1.0
 40
1.0
 10
287.3973170731707
 20
126.0654805801124
 30
0.0
 10
287.405898031849
 20
126.0659103062456
 30
0.0
 10
287.4227460100654
 20
126.0667540367428
 30
0.0
 10
287.4469874998558
 20
126.0741722815995
 30
0.0
 10
287.4692472029548
 20
126.0862320721117
 30
0.0
 10
287.489059427523
 20
126.1026661127759
 30
0.0
 10
287.5058269430448
 20
126.1229987151815
 30
0.0
 10
287.5175543562715
 20
126.1458823984778
 30
0.0
 10
287.5249698144595
 20
126.1700267010741
 30
0.0
 10
287.5258062377615
 20
126.186236480824
 30
0.0
 10
287.5262269712657
 20
126.1943902439024
 30
0.0
  0
LINE
  5
1D2
330
1F
100
AcDbEntity
  8
0
  6
Continuous
 62
     7
370
    15
100
AcDbLine
 10
287.7261965103
 20
126.1943902439
 30
0.0
 11
287.5262269713
 21
126.1943902439
 31
0.0
  0
SPLINE
  5
1D3
330
1F
100
AcDbEntity
  8
0
  6
Continuous
 62
     7
370
    15
100
AcDbSpline
210
0.0
220
0.0
230
1.0
 70
     8
 71
     3
 72
    27
 73
    23
 74
     0
 42
0.000000001
 43
0.00000001
 40
0.0
 40
0.0
 40
0.0
 40
0.0
 40
0.019453639038675
 40
0.0388727400732969
 40
0.0582753851697776
 40
0.0776797023978685
 40
0.0971038151456396
 40
0.116565791499268
 40
0.1783139037087234
 40
0.2400917337921181
 40
0.3044140256519013
 40
0.3687661559067564
 40
0.5000027429826542
 40
0.6312393300585523
 40
0.6955616243993624
 40
0.7599137569771991
 40
0.8216618670830663
 40
0.8834396958980136
 40
0.9126047404027522
 40
0.9417123400093843
 40
0.9708236995013183
 40
1.0
 40
1.0
 40
1.0
 40
1.0
 10
240.1473170731707
 20
137.3154802212774
 30
0.0
 10
240.204536082129
 20
137.3149796686155
 30
0.0
 10
240.318872513378
 20
137.3139794519731
 30
0.0
 10
240.4901194013877
 20
137.3058651994403
 30
0.0
 10
240.6609029822201
 20
137.29290500436
 30
0.0
 10
240.8312216582134
 20
137.2746273811433
 30
0.0
 10
241.0010794105088
 20
137.2511559802888
 30
0.0
 10
241.2929332901373
 20
137.2017240265691
 30
0.0
 10
241.7030341476925
 20
137.105215452256
 30
0.0
 10
242.2267125252284
 20
136.926551090547
 30
0.0
 10
242.7374597369493
 20
136.6940792299241
 30
0.0
 10
243.3984619667818
 20
136.3079380398106
 30
0.0
 10
244.1504540472768
 20
135.6975270033217
 30
0.0
 10
244.7608084252859
 20
134.9456035258414
 30
0.0
 10
245.1469668799968
 20
134.2846115917781
 30
0.0
 10
245.3794098302077
 20
133.7739496317922
 30
0.0
 10
245.558130224732
 20
133.2501874508033
 30
0.0
 10
245.6611491176781
 20
132.8122767268153
 30
0.0
 10
245.7175799315511
 20
132.46361832878
 30
0.0
 10
245.7467669343251
 20
132.2081922234729
 30
0.0
 10
245.7650338063205
 20
131.951661035819
 30
0.0
 10
245.7672818839112
 20
131.7802108480975
 30
0.0
 10
245.7684071750507
 20
131.6943902439024
 30
0.0
  0
LINE
  5
1D4
330
1F
100
AcDbEntity
  8
0
  6
Continuous
 62
     7
370
    15
100
AcDbLine
 10
245.5684376363
 20
131.6943902433
 30
0.0
 11
245.7684071751
 21
131.6943902433
 31
0.0
  0
SPLINE
  5
1D5
330
1F
100
AcDbEntity
  8
0
  6
Continuous
 62
     7
370
    15
100
AcDbSpline
210
0.0
220
0.0
230
1.0
 70
     8
 71
     3
 72
    27
 73
    23
 74
     0
 42
0.000000001
 43
0.00000001
 40
0.0
 40
0.0
 40
0.0
 40
0.0
 40
0.019453639038675
 40
0.0388727400732969
 40
0.0582753851697776
 40
0.0776797023978685
 40
0.0971038151456396
 40
0.116565791499268
 40
0.1783139037087234
 40
0.2400917337921181
 40
0.3044140256519013
 40
0.3687661559067564
 40
0.5000027429826542
 40
0.6312393300585523
 40
0.6955616243993624
 40
0.7599137569771991
 40
0.8216618670830663
 40
0.8834396958980136
 40
0.9126047404027522
 40
0.9417123400093843
 40
0.9708236995013183
 40
1.0
 40
1.0
 40
1.0
 40
1.0
 10
293.1473170731707
 20
167.0733002665274
 30
0.0
 10
293.0900980642124
 20
167.0738008191893
 30
0.0
 10
292.9757616329634
 20
167.0748010358317
 30
0.0
 10
292.8045147449537
 20
167.0829152883644
 30
0.0
 10
292.6337311641213
 20
167.0958754834448
 30
0.0
 10
292.4634124881281
 20
167.1141531066614
 30
0.0
 10
292.2935547358326
 20
167.137624507516
 30
0.0
 10
292.0017008562041
 20
167.1870564612356
 30
0.0
 10
291.5915999986489
 20
167.2835650355488
 30
0.0
 10
291.0679216211131
 20
167.4622293972577
 30
0.0
 10
290.5571744093921
 20
167.6947012578807
 30
0.0
 10
289.8961721795596
 20
168.0808424479942
 30
0.0
 10
289.1441800990647
 20
168.6912534844831
 30
0.0
 10
288.5338257210556
 20
169.4431769619634
 30
0.0
 10
288.1476672663446
 20
170.1041688960266
 30
0.0
 10
287.9152243161337
 20
170.6148308560126
 30
0.0
 10
287.7365039216095
 20
171.1385930370014
 30
0.0
 10
287.6334850286634
 20
171.5765037609895
 30
0.0
 10
287.5770542147903
 20
171.9251621590248
 30
0.0
 10
287.5478672120164
 20
172.1805882643318
 30
0.0
 10
287.529600340021
 20
172.4371194519858
 30
0.0
 10
287.5273522624303
 20
172.6085696397072
 30
0.0
 10
287.5262269712907
 20
172.6943902439024
 30
0.0
  0
LINE
  5
1D6
330
1F
100
AcDbEntity
  8
0
  6
Continuous
 62
     7
370
    15
100
AcDbLine
 10
287.72619651
 20
172.6943902445
 30
0.0
 11
287.5262269713
 21
172.6943902445
 31
0.0
  0
LINE
  5
1D7
330
1F
100
AcDbEntity
  8
0
  6
Continuous
 62
     7
370
    15
100
AcDbLine
 10
240.1473170732
 20
167.0733001991
 30
0.0
 11
240.1473170732
 21
167.2732696807
 31
0.0
  0
SPLINE
  5
1D8
330
1F
100
AcDbEntity
  8
0
  6
Continuous
 62
     7
370
    15
100
AcDbSpline
210
0.0
220
0.0
230
1.0
 70
     8
 71
     3
 72
    15
 73
    11
 74
     0
 42
0.000000001
 43
0.00000001
 40
0.0
 40
0.0
 40
0.0
 40
0.0
 40
0.1270035126632932
 40
0.2493605312637846
 40
0.3721244461808411
 40
0.5003005307040448
 40
0.628714908698092
 40
0.7601226607826248
 40
0.8793380895962228
 40
1.0
 40
1.0
 40
1.0
 40
1.0
 10
240.1473170731707
 20
167.0732999076924
 30
0.0
 10
240.1387361144926
 20
167.0728701815592
 30
0.0
 10
240.1218881362765
 20
167.072026451062
 30
0.0
 10
240.0976466464864
 20
167.0646082062051
 30
0.0
 10
240.0753869433875
 20
167.0525484156926
 30
0.0
 10
240.0555747188193
 20
167.0361143750282
 30
0.0
 10
240.0388072032975
 20
167.0157817726225
 30
0.0
 10
240.0270797900705
 20
166.9928980893265
 30
0.0
 10
240.0196643318822
 20
166.9687537867305
 30
0.0
 10
240.0188279085801
 20
166.9525440069807
 30
0.0
 10
240.0184071750757
 20
166.9443902439024
 30
0.0
  0
LINE
  5
1D9
330
1F
100
AcDbEntity
  8
0
  6
Continuous
 62
     7
370
    15
100
AcDbLine
 10
239.8184376363
 20
166.9443902439
 30
0.0
 11
240.0184071751
 21
166.9443902439
 31
0.0
  0
LINE
  5
1DA
330
1F
100
AcDbEntity
  8
0
  6
Continuous
 62
     7
370
    15
100
AcDbLine
 10
293.1473170732
 20
137.3154802887
 30
0.0
 11
293.1473170732
 21
137.1155108071
 31
0.0
  0
SPLINE
  5
1DB
330
1F
100
AcDbEntity
  8
0
  6
Continuous
 62
     7
370
    15
100
AcDbSpline
210
0.0
220
0.0
230
1.0
 70
     8
 71
     3
 72
    15
 73
    11
 74
     0
 42
0.000000001
 43
0.00000001
 40
0.0
 40
0.0
 40
0.0
 40
0.0
 40
0.127003512663054
 40
0.249360531263482
 40
0.3721244461806399
 40
0.5003005307040737
 40
0.6287149086973188
 40
0.7601226607826508
 40
0.8793380895957651
 40
1.0
 40
1.0
 40
1.0
 40
1.0
 10
293.1473170731707
 20
137.3154805801124
 30
0.0
 10
293.1558980318488
 20
137.3159103062456
 30
0.0
 10
293.1727460100649
 20
137.3167540367428
 30
0.0
 10
293.196987499855
 20
137.3241722815997
 30
0.0
 10
293.219247202954
 20
137.3362320721122
 30
0.0
 10
293.2390594275221
 20
137.3526661127765
 30
0.0
 10
293.255826943044
 20
137.3729987151822
 30
0.0
 10
293.2675543562708
 20
137.3958823984782
 30
0.0
 10
293.2749698144593
 20
137.4200267010742
 30
0.0
 10
293.2758062377614
 20
137.436236480824
 30
0.0
 10
293.2762269712657
 20
137.4443902439024
 30
0.0
  0
LINE
  5
1DC
330
1F
100
AcDbEntity
  8
0
  6
Continuous
 62
     7
370
    15
100
AcDbLine
 10
293.47619651
 20
137.4443902439
 30
0.0
 11
293.2762269713
 21
137.4443902439
 31
0.0
  0
LINE
  5
1DD
330
1F
100
AcDbEntity
  8
0
  6
Continuous
 62
     7
370
    15
100
AcDbLine
 10
245.5684376363
 20
172.6943902439
 30
0.0
 11
245.768407118
 21
172.6943902439
 31
0.0
  0
SPLINE
  5
1DE
330
1F
100
AcDbEntity
  8
0
  6
Continuous
 62
     7
370
    15
100
AcDbSpline
210
0.0
220
0.0
230
1.0
 70
     8
 71
     3
 72
    27
 73
    23
 74
     0
 42
0.000000001
 43
0.00000001
 40
0.0
 40
0.0
 40
0.0
 40
0.0
 40
0.019453638803132
 40
0.0388727396260229
 40
0.0582753845342552
 40
0.0776797015971857
 40
0.0971038142024261
 40
0.1165657904356302
 40
0.1783139024092468
 40
0.2400917324571576
 40
0.304414024467389
 40
0.3687661550176307
 40
0.500002742982605
 40
0.6312393309475797
 40
0.6955616255886611
 40
0.7599137583120473
 40
0.8216618683836626
 40
0.8834396969615161
 40
0.9126047412770848
 40
0.9417123406444224
 40
0.9708236998453379
 40
1.0
 40
1.0
 40
1.0
 40
1.0
 10
245.7684070608307
 20
172.6943902439024
 30
0.0
 10
245.7679065081672
 20
172.6371712348037
 30
0.0
 10
245.7669062915211
 20
172.5228348032055
 30
0.0
 10
245.7587920389695
 20
172.3515879145694
 30
0.0
 10
245.7458318438628
 20
172.1808043329054
 30
0.0
 10
245.7275542206096
 20
172.0104856558751
 30
0.0
 10
245.7040828197095
 20
171.8406279023375
 30
0.0
 10
245.6546508658331
 20
171.5487740198521
 30
0.0
 10
245.5581422911736
 20
171.1386731572885
 30
0.0
 10
245.3794779290875
 20
170.6149947717875
 30
0.0
 10
245.1470060680339
 20
170.1042475500242
 30
0.0
 10
244.7608648769716
 20
169.4432453033649
 30
0.0
 10
244.1504538398441
 20
168.6912531980542
 30
0.0
 10
243.3985303618665
 20
168.0808987894256
 30
0.0
 10
242.7375384263642
 20
167.694740307426
 30
0.0
 10
242.2268764655994
 20
167.4622973364278
 30
0.0
 10
241.7031142837793
 20
167.2835769206603
 30
0.0
 10
241.2652035586706
 20
167.1805580099157
 30
0.0
 10
240.9165451596875
 20
167.124127181975
 30
0.0
 10
240.6611190539154
 20
167.0949401689586
 30
0.0
 10
240.4045878658189
 20
167.0766732866916
 30
0.0
 10
240.2331376775587
 20
167.0744252022568
 30
0.0
 10
240.1473170731707
 20
167.0732999076924
 30
0.0
  0
LINE
  5
1DF
330
1F
100
AcDbEntity
  8
0
  6
Continuous
 62
     7
370
    15
100
AcDbLine
 10
287.72619651
 20
131.6943902439
 30
0.0
 11
287.5262270284
 21
131.6943902439
 31
0.0
  0
SPLINE
  5
1E0
330
1F
100
AcDbEntity
  8
0
  6
Continuous
 62
     7
370
    15
100
AcDbSpline
210
0.0
220
0.0
230
1.0
 70
     8
 71
     3
 72
    27
 73
    23
 74
     0
 42
0.000000001
 43
0.00000001
 40
0.0
 40
0.0
 40
0.0
 40
0.0
 40
0.019453638803132
 40
0.0388727396260229
 40
0.0582753845342552
 40
0.0776797015971857
 40
0.0971038142024261
 40
0.1165657904356302
 40
0.1783139024092468
 40
0.2400917324571576
 40
0.304414024467389
 40
0.3687661550176307
 40
0.500002742982605
 40
0.6312393309475797
 40
0.6955616255886611
 40
0.7599137583120473
 40
0.8216618683836626
 40
0.8834396969615161
 40
0.9126047412770848
 40
0.9417123406444224
 40
0.9708236998453379
 40
1.0
 40
1.0
 40
1.0
 40
1.0
 10
287.5262270855108
 20
131.6943902439024
 30
0.0
 10
287.5267276381742
 20
131.751609253001
 30
0.0
 10
287.5277278548203
 20
131.8659456845993
 30
0.0
 10
287.5358421073719
 20
132.0371925732354
 30
0.0
 10
287.5488023024786
 20
132.2079761548993
 30
0.0
 10
287.5670799257318
 20
132.3782948319297
 30
0.0
 10
287.590551326632
 20
132.5481525854672
 30
0.0
 10
287.6399832805084
 20
132.8400064679527
 30
0.0
 10
287.7364918551678
 20
133.2501073305162
 30
0.0
 10
287.9151562172539
 20
133.7737857160172
 30
0.0
 10
288.1476280783075
 20
134.2845329377806
 30
0.0
 10
288.5337692693698
 20
134.9455351844398
 30
0.0
 10
289.1441803064973
 20
135.6975272897506
 30
0.0
 10
289.8961037844749
 20
136.3078816983792
 30
0.0
 10
290.5570957199772
 20
136.6940401803787
 30
0.0
 10
291.067757680742
 20
136.926483151377
 30
0.0
 10
291.5915198625622
 20
137.1052035671445
 30
0.0
 10
292.0294305876708
 20
137.2082224778891
 30
0.0
 10
292.3780889866539
 20
137.2646533058298
 30
0.0
 10
292.6335150924261
 20
137.2938403188462
 30
0.0
 10
292.8900462805225
 20
137.3121072011132
 30
0.0
 10
293.0614964687828
 20
137.314355285548
 30
0.0
 10
293.1473170731707
 20
137.3154805801124
 30
0.0
  0
LINE
  5
1E1
330
1F
100
AcDbEntity
  8
0
  6
Continuous
 62
     7
370
    15
100
AcDbLine
 10
245.7684071751
 20
126.1943902439
 30
0.0
 11
245.5684376363
 21
126.1943902439
 31
0.0
  0
SPLINE
  5
1E2
330
1F
100
AcDbEntity
  8
0
  6
Continuous
 62
     7
370
    15
100
AcDbSpline
210
0.0
220
0.0
230
1.0
 70
     8
 71
     3
 72
    15
 73
    11
 74
     0
 42
0.000000001
 43
0.00000001
 40
0.0
 40
0.0
 40
0.0
 40
0.0
 40
0.1270035126658179
 40
0.2493605312671165
 40
0.3721244461832295
 40
0.5003005307038229
 40
0.6287149086981112
 40
0.7601226607815887
 40
0.8793380895960162
 40
0.9999999999999999
 40
0.9999999999999999
 40
0.9999999999999999
 40
0.9999999999999999
 10
245.7684074093807
 20
126.1943902439024
 30
0.0
 10
245.768837135514
 20
126.1858092852241
 30
0.0
 10
245.7696808660111
 20
126.1689613070076
 30
0.0
 10
245.7770991108678
 20
126.1447198172172
 30
0.0
 10
245.78915890138
 20
126.1224601141182
 30
0.0
 10
245.8055929420443
 20
126.1026478895501
 30
0.0
 10
245.8259255444499
 20
126.0858803740283
 30
0.0
 10
245.8488092277462
 20
126.0741529608016
 30
0.0
 10
245.8729535303424
 20
126.0667375026136
 30
0.0
 10
245.8891633100924
 20
126.0659010793116
 30
0.0
 10
245.8973170731707
 20
126.0654803458074
 30
0.0
  0
LINE
  5
1E3
330
1F
100
AcDbEntity
  8
0
  6
Continuous
 62
     7
370
    15
100
AcDbLine
 10
245.8973170732
 20
125.8655108071
 30
0.0
 11
245.8973170732
 21
126.0654803458
 31
0.0
  0
LINE
  5
1E4
330
1F
100
AcDbEntity
  8
0
  6
Continuous
 62
     7
370
    15
100
AcDbLine
 10
287.5262269713
 20
178.1943902439
 30
0.0
 11
287.72619651
 21
178.1943902439
 31
0.0
  0
SPLINE
  5
1E5
330
1F
100
AcDbEntity
  8
0
  6
Continuous
 62
     7
370
    15
100
AcDbSpline
210
0.0
220
0.0
230
1.0
 70
     8
 71
     3
 72
    15
 73
    11
 74
     0
 42
0.000000001
 43
0.00000001
 40
0.0
 40
0.0
 40
0.0
 40
0.0
 40
0.1270035652916311
 40
0.2493605939877434
 40
0.3721244869034608
 40
0.5003005314445402
 40
0.6287148696092594
 40
0.7601226002716943
 40
0.8793380397782986
 40
1.0
 40
1.0
 40
1.0
 40
1.0
 10
287.5262267369607
 20
178.1943902439024
 30
0.0
 10
287.5257970110036
 20
178.2029712011805
 30
0.0
 10
287.5249532809898
 20
178.2198191739044
 30
0.0
 10
287.5175350368737
 20
178.2440606518359
 30
0.0
 10
287.505475245945
 20
178.2663203345953
 30
0.0
 10
287.4890412043636
 20
178.2861325307441
 30
0.0
 10
287.4687086002494
 20
178.3029000103676
 30
0.0
 10
287.4458249157171
 20
178.3146273821732
 30
0.0
 10
287.4216806116941
 20
178.3220427958117
 30
0.0
 10
287.4054708356797
 20
178.3228791891784
 30
0.0
 10
287.3973170731707
 20
178.3232999076924
 30
0.0
  0
LINE
  5
1E6
330
1F
100
AcDbEntity
  8
0
  6
Continuous
 62
     7
370
    15
100
AcDbLine
 10
287.3973170732
 20
178.5232696807
 30
0.0
 11
287.3973170732
 21
178.3232999077
 31
0.0
  0
LINE
  5
1E7
330
1F
100
AcDbEntity
  8
0
  6
Continuous
 62
     7
370
    15
100
AcDbLine
 10
245.7684071751
 20
178.1943902439
 30
0.0
 11
245.7684071751
 21
172.6943902439
 31
0.0
  0
LINE
  5
1E8
330
1F
100
AcDbEntity
  8
0
  6
Continuous
 62
     7
370
    15
100
AcDbLine
 10
287.5262269713
 20
126.1943902439
 30
0.0
 11
287.5262269713
 21
131.6943902439
 31
0.0
  0
LINE
  5
1E9
330
1F
100
AcDbEntity
  8
0
  6
Continuous
 62
     7
370
    15
100
AcDbLine
 10
245.7684071751
 20
131.6943902433
 30
0.0
 11
245.7684071751
 21
126.1943902439
 31
0.0
  0
LINE
  5
1EA
330
1F
100
AcDbEntity
  8
0
  6
Continuous
 62
     7
370
    15
100
AcDbLine
 10
287.5262269713
 20
172.6943902445
 30
0.0
 11
287.5262269713
 21
178.1943902439
 31
0.0
  0
LINE
  5
1EB
330
1F
100
AcDbEntity
  8
0
  6
Continuous
 62
     7
370
    15
100
AcDbLine
 10
240.0184071751
 20
166.9443902439
 30
0.0
 11
240.0184071751
 21
137.4443902439
 31
0.0
  0
LINE
  5
1EC
330
1F
100
AcDbEntity
  8
0
  6
Continuous
 62
     7
370
    15
100
AcDbLine
 10
293.2762269713
 20
137.4443902439
 30
0.0
 11
293.2762269713
 21
166.9443902439
 31
0.0
  0
LINE
  5
1ED
330
1F
100
AcDbEntity
  8
0
  6
Continuous
 62
     7
370
    15
100
AcDbLine
 10
245.8973170732
 20
126.0654803458
 30
0.0
 11
287.3973170732
 21
126.0654803458
 31
0.0
  0
LINE
  5
1EE
330
1F
100
AcDbEntity
  8
0
  6
Continuous
 62
     7
370
    15
100
AcDbLine
 10
287.3973170732
 20
178.3232999077
 30
0.0
 11
245.8973170732
 21
178.3232999077
 31
0.0
  0
ENDSEC
  0
SECTION
  2
OBJECTS
  0
DICTIONARY
  5
C
330
0
100
AcDbDictionary
281
     1
  3
ACAD_GROUP
350
D
  3
ACAD_LAYOUT
350
1A
  3
ACAD_MLINESTYLE
350
17
  3
ACAD_PLOTSETTINGS
350
19
  3
ACAD_PLOTSTYLENAME
350
E
  3
ACAD_SCALELIST
350
47
  0
DICTIONARY
  5
D
102
{ACAD_REACTORS
330
C
102
}
330
C
100
AcDbDictionary
281
     1
  0
DICTIONARY
  5
1A
102
{ACAD_REACTORS
330
C
102
}
330
C
100
AcDbDictionary
281
     1
  3
Layout1
350
1E
  3
Layout2
350
26
  3
Model
350
22
  0
DICTIONARY
  5
17
102
{ACAD_REACTORS
330
C
102
}
330
C
100
AcDbDictionary
281
     1
  3
Standard
350
18
  0
DICTIONARY
  5
19
102
{ACAD_REACTORS
330
C
102
}
330
C
100
AcDbDictionary
281
     1
  0
ACDBDICTIONARYWDFLT
  5
E
102
{ACAD_REACTORS
330
C
102
}
330
C
100
AcDbDictionary
281
     1
  3
Normal
350
F
100
AcDbDictionaryWithDefault
340
F
  0
DICTIONARY
  5
47
102
{ACAD_REACTORS
330
C
102
}
330
C
100
AcDbDictionary
281
     1
  3
A0
350
48
  3
A1
350
49
  3
A2
350
4A
  3
A3
350
4B
  3
A4
350
4C
  3
A5
350
4D
  3
A6
350
4E
  3
A7
350
4F
  3
A8
350
50
  3
A9
350
51
  3
B0
350
52
  3
B1
350
53
  3
B2
350
54
  3
B3
350
55
  3
B4
350
56
  3
B5
350
57
  3
B6
350
58
  3
B7
350
59
  3
B8
350
5A
  3
B9
350
5B
  3
C0
350
5C
  3
C1
350
5D
  3
C2
350
5E
  3
C3
350
5F
  3
C4
350
60
  3
C5
350
61
  3
C6
350
62
  3
C7
350
63
  3
C8
350
64
  3
C9
350
65
  3
D0
350
66
  3
D1
350
67
  3
D2
350
68
  0
LAYOUT
  5
1E
102
{ACAD_REACTORS
330
1A
102
}
330
1A
100
AcDbPlotSettings
  1

  2
none_device
  4

  6

 40
0.0
 41
0.0
 42
0.0
 43
0.0
 44
0.0
 45
0.0
 46
0.0
 47
0.0
 48
0.0
 49
0.0
140
0.0
141
0.0
142
1.0
143
1.0
 70
   688
 72
     1
 73
     0
 74
     5
  7

 75
    16
147
1.0
148
0.0
149
0.0
100
AcDbLayout
  1
Layout1
 70
     1
 71
     1
 10
0.0
 20
0.0
 11
420.0
 21
297.0
 12
0.0
 22
0.0
 32
0.0
 14
1.0000000000E+20
 24
1.0000000000E+20
 34
1.0000000000E+20
 15
-1.0000000000E+20
 25
-1.0000000000E+20
 35
-1.0000000000E+20
146
0.0
 13
0.0
 23
0.0
 33
0.0
 16
1.0
 26
0.0
 36
0.0
 17
0.0
 27
1.0
 37
0.0
 76
     0
330
1B
  0
LAYOUT
  5
26
102
{ACAD_REACTORS
330
1A
102
}
330
1A
100
AcDbPlotSettings
  1

  2
none_device
  4

  6

 40
0.0
 41
0.0
 42
0.0
 43
0.0
 44
0.0
 45
0.0
 46
0.0
 47
0.0
 48
0.0
 49
0.0
140
0.0
141
0.0
142
1.0
143
1.0
 70
   688
 72
     1
 73
     0
 74
     5
  7

 75
    16
147
1.0
148
0.0
149
0.0
100
AcDbLayout
  1
Layout2
 70
     1
 71
     2
 10
0.0
 20
0.0
 11
0.0
 21
0.0
 12
0.0
 22
0.0
 32
0.0
 14
0.0
 24
0.0
 34
0.0
 15
0.0
 25
0.0
 35
0.0
146
0.0
 13
0.0
 23
0.0
 33
0.0
 16
1.0
 26
0.0
 36
0.0
 17
0.0
 27
1.0
 37
0.0
 76
     0
330
23
  0
LAYOUT
  5
22
102
{ACAD_REACTORS
330
1A
102
}
330
1A
100
AcDbPlotSettings
  1

  2
none_device
  4
Letter_(8.50_x_11.00_Inches)
  6

 40
6.35
 41
6.35
 42
6.35000508
 43
6.35000508
 44
215.9
 45
279.4
 46
0.0
 47
0.0
 48
0.0
 49
0.0
140
0.0
141
0.0
142
1.0
143
1.0
 70
  1712
 72
     1
 73
     0
 74
     0
  7

 75
     0
147
1.0
148
0.0
149
0.0
100
AcDbLayout
  1
Model
 70
     1
 71
     0
 10
0.0
 20
0.0
 11
420.0
 21
297.0
 12
0.0
 22
0.0
 32
0.0
 14
0.0
 24
0.0
 34
0.0
 15
420.0
 25
297.0
 35
0.0
146
0.0
 13
0.0
 23
0.0
 33
0.0
 16
1.0
 26
0.0
 36
0.0
 17
0.0
 27
1.0
 37
0.0
 76
     0
330
1F
331
29
  0
MLINESTYLE
  5
18
102
{ACAD_REACTORS
330
17
102
}
330
17
100
AcDbMlineStyle
  2
Standard
 70
     0
  3

 62
   256
 51
90.0
 52
90.0
 71
     2
 49
0.5
 62
   256
  6
BYLAYER
 49
-0.5
 62
   256
  6
BYLAYER
  0
ACDBPLACEHOLDER
  5
F
102
{ACAD_REACTORS
330
E
102
}
330
E
  0
SCALE
  5
48
102
{ACAD_REACTORS
330
47
102
}
330
47
100
AcDbScale
 70
     0
300
1:1
140
1.0
141
1.0
290
     1
  0
SCALE
  5
49
102
{ACAD_REACTORS
330
47
102
}
330
47
100
AcDbScale
 70
     0
300
1:2
140
1.0
141
2.0
290
     0
  0
SCALE
  5
4A
102
{ACAD_REACTORS
330
47
102
}
330
47
100
AcDbScale
 70
     0
300
1:4
140
1.0
141
4.0
290
     0
  0
SCALE
  5
4B
102
{ACAD_REACTORS
330
47
102
}
330
47
100
AcDbScale
 70
     0
300
1:5
140
1.0
141
5.0
290
     0
  0
SCALE
  5
4C
102
{ACAD_REACTORS
330
47
102
}
330
47
100
AcDbScale
 70
     0
300
1:8
140
1.0
141
8.0
290
     0
  0
SCALE
  5
4D
102
{ACAD_REACTORS
330
47
102
}
330
47
100
AcDbScale
 70
     0
300
1:10
140
1.0
141
10.0
290
     0
  0
SCALE
  5
4E
102
{ACAD_REACTORS
330
47
102
}
330
47
100
AcDbScale
 70
     0
300
1:16
140
1.0
141
16.0
290
     0
  0
SCALE
  5
4F
102
{ACAD_REACTORS
330
47
102
}
330
47
100
AcDbScale
 70
     0
300
1:20
140
1.0
141
20.0
290
     0
  0
SCALE
  5
50
102
{ACAD_REACTORS
330
47
102
}
330
47
100
AcDbScale
 70
     0
300
1:30
140
1.0
141
30.0
290
     0
  0
SCALE
  5
51
102
{ACAD_REACTORS
330
47
102
}
330
47
100
AcDbScale
 70
     0
300
1:40
140
1.0
141
40.0
290
     0
  0
SCALE
  5
52
102
{ACAD_REACTORS
330
47
102
}
330
47
100
AcDbScale
 70
     0
300
1:50
140
1.0
141
50.0
290
     0
  0
SCALE
  5
53
102
{ACAD_REACTORS
330
47
102
}
330
47
100
AcDbScale
 70
     0
300
1:100
140
1.0
141
100.0
290
     0
  0
SCALE
  5
54
102
{ACAD_REACTORS
330
47
102
}
330
47
100
AcDbScale
 70
     0
300
2:1
140
2.0
141
1.0
290
     0
  0
SCALE
  5
55
102
{ACAD_REACTORS
330
47
102
}
330
47
100
AcDbScale
 70
     0
300
4:1
140
4.0
141
1.0
290
     0
  0
SCALE
  5
56
102
{ACAD_REACTORS
330
47
102
}
330
47
100
AcDbScale
 70
     0
300
8:1
140
8.0
141
1.0
290
     0
  0
SCALE
  5
57
102
{ACAD_REACTORS
330
47
102
}
330
47
100
AcDbScale
 70
     0
300
10:1
140
10.0
141
1.0
290
     0
  0
SCALE
  5
58
102
{ACAD_REACTORS
330
47
102
}
330
47
100
AcDbScale
 70
     0
300
100:1
140
100.0
141
1.0
290
     0
  0
SCALE
  5
59
102
{ACAD_REACTORS
330
47
102
}
330
47
100
AcDbScale
 70
     0
300
1/128" = 1'-0"
140
0.0078125
141
12.0
290
     0
  0
SCALE
  5
5A
102
{ACAD_REACTORS
330
47
102
}
330
47
100
AcDbScale
 70
     0
300
1/64" = 1'-0"
140
0.015625
141
12.0
290
     0
  0
SCALE
  5
5B
102
{ACAD_REACTORS
330
47
102
}
330
47
100
AcDbScale
 70
     0
300
1/32" = 1'-0"
140
0.03125
141
12.0
290
     0
  0
SCALE
  5
5C
102
{ACAD_REACTORS
330
47
102
}
330
47
100
AcDbScale
 70
     0
300
1/16" = 1'-0"
140
0.0625
141
12.0
290
     0
  0
SCALE
  5
5D
102
{ACAD_REACTORS
330
47
102
}
330
47
100
AcDbScale
 70
     0
300
3/32" = 1'-0"
140
0.09375
141
12.0
290
     0
  0
SCALE
  5
5E
102
{ACAD_REACTORS
330
47
102
}
330
47
100
AcDbScale
 70
     0
300
1/8" = 1'-0"
140
0.125
141
12.0
290
     0
  0
SCALE
  5
5F
102
{ACAD_REACTORS
330
47
102
}
330
47
100
AcDbScale
 70
     0
300
3/16" = 1'-0"
140
0.1875
141
12.0
290
     0
  0
SCALE
  5
60
102
{ACAD_REACTORS
330
47
102
}
330
47
100
AcDbScale
 70
     0
300
1/4" = 1'-0"
140
0.25
141
12.0
290
     0
  0
SCALE
  5
61
102
{ACAD_REACTORS
330
47
102
}
330
47
100
AcDbScale
 70
     0
300
3/8" = 1'-0"
140
0.375
141
12.0
290
     0
  0
SCALE
  5
62
102
{ACAD_REACTORS
330
47
102
}
330
47
100
AcDbScale
 70
     0
300
1/2" = 1'-0"
140
0.5
141
12.0
290
     0
  0
SCALE
  5
63
102
{ACAD_REACTORS
330
47
102
}
330
47
100
AcDbScale
 70
     0
300
3/4" = 1'-0"
140
0.75
141
12.0
290
     0
  0
SCALE
  5
64
102
{ACAD_REACTORS
330
47
102
}
330
47
100
AcDbScale
 70
     0
300
1" = 1'-0"
140
1.0
141
12.0
290
     0
  0
SCALE
  5
65
102
{ACAD_REACTORS
330
47
102
}
330
47
100
AcDbScale
 70
     0
300
1-1/2" = 1'-0"
140
1.5
141
12.0
290
     0
  0
SCALE
  5
66
102
{ACAD_REACTORS
330
47
102
}
330
47
100
AcDbScale
 70
     0
300
3" = 1'-0"
140
3.0
141
12.0
290
     0
  0
SCALE
  5
67
102
{ACAD_REACTORS
330
47
102
}
330
47
100
AcDbScale
 70
     0
300
6" = 1'-0"
140
6.0
141
12.0
290
     0
  0
SCALE
  5
68
102
{ACAD_REACTORS
330
47
102
}
330
47
100
AcDbScale
 70
     0
300
1'-0" = 1'-0"
140
12.0
141
12.0
290
     0
  0
ENDSEC
  0
EOF
