  0
SECTION
  2
HEADER
  9
$ACADVER
  1
AC1015
  9
$ACADMAINTVER
 70
     6
  9
$DWGCODEPAGE
  3
ANSI_1252
  9
$INSBASE
 10
0.0
 20
0.0
 30
0.0
  9
$EXTMIN
 10
0.0
 20
0.0
 30
0.0
  9
$EXTMAX
 10
420.0
 20
297.0
 30
0.0
  9
$LIMMIN
 10
0.0
 20
0.0
  9
$LIMMAX
 10
420.0
 20
297.0
  9
$ORTHOMODE
 70
     0
  9
$REGENMODE
 70
     1
  9
$FILLMODE
 70
     1
  9
$QTEXTMODE
 70
     0
  9
$MIRRTEXT
 70
     1
  9
$LTSCALE
 40
1.0
  9
$ATTMODE
 70
     1
  9
$TEXTSIZE
 40
3.5
  9
$TRACEWID
 40
1.0
  9
$TEXTSTYLE
  7
Standard
  9
$CLAYER
  8
0
  9
$CELTYPE
  6
ByLayer
  9
$CECOLOR
 62
   256
  9
$CELTSCALE
 40
1.0
  9
$DISPSILH
 70
     0
  9
$DIMSCALE
 40
1.0
  9
$DIMASZ
 40
6.0
  9
$DIMEXO
 40
1.0
  9
$DIMDLI
 40
3.75
  9
$DIMRND
 40
0.0
  9
$DIMDLE
 40
0.0
  9
$DIMEXE
 40
1.0
  9
$DIMTP
 40
0.0
  9
$DIMTM
 40
0.0
  9
$DIMTXT
 40
3.5
  9
$DIMCEN
 40
2.5
  9
$DIMTSZ
 40
0.0
  9
$DIMTOL
 70
     0
  9
$DIMLIM
 70
     0
  9
$DIMTIH
 70
     1
  9
$DIMTOH
 70
     1
  9
$DIMSE1
 70
     0
  9
$DIMSE2
 70
     0
  9
$DIMTAD
 70
     1
  9
$DIMZIN
 70
     0
  9
$DIMBLK
  1

  9
$DIMASO
 70
     1
  9
$DIMSHO
 70
     1
  9
$DIMPOST
  1

  9
$DIMAPOST
  1

  9
$DIMALT
 70
     0
  9
$DIMALTD
 70
     3
  9
$DIMALTF
 40
0.0393700787
  9
$DIMLFAC
 40
2.0
  9
$DIMTOFL
 70
     1
  9
$DIMTVP
 40
0.0
  9
$DIMTIX
 70
     0
  9
$DIMSOXD
 70
     0
  9
$DIMSAH
 70
     0
  9
$DIMBLK1
  1

  9
$DIMBLK2
  1

  9
$DIMSTYLE
  2
ISO-25
  9
$DIMCLRD
 70
     0
  9
$DIMCLRE
 70
     0
  9
$DIMCLRT
 70
     0
  9
$DIMTFAC
 40
1.0
  9
$DIMGAP
 40
1.524
  9
$DIMJUST
 70
     0
  9
$DIMSD1
 70
     0
  9
$DIMSD2
 70
     0
  9
$DIMTOLJ
 70
     0
  9
$DIMTZIN
 70
     0
  9
$DIMALTZ
 70
     0
  9
$DIMALTTZ
 70
     0
  9
$DIMUPT
 70
     0
  9
$DIMDEC
 70
     2
  9
$DIMTDEC
 70
     2
  9
$DIMALTU
 70
     2
  9
$DIMALTTD
 70
     3
  9
$DIMTXSTY
  7
Standard
  9
$DIMAUNIT
 70
     0
  9
$DIMADEC
 70
     2
  9
$DIMALTRND
 40
0.0
  9
$DIMAZIN
 70
     0
  9
$DIMDSEP
 70
    44
  9
$DIMATFIT
 70
     3
  9
$DIMFRAC
 70
     0
  9
$DIMLDRBLK
  1

  9
$DIMLUNIT
 70
     2
  9
$DIMLWD
 70
    -2
  9
$DIMLWE
 70
    -2
  9
$DIMTMOVE
 70
     0
  9
$LUNITS
 70
     2
  9
$LUPREC
 70
     2
  9
$SKETCHINC
 40
1.0
  9
$FILLETRAD
 40
10.0
  9
$AUNITS
 70
     0
  9
$AUPREC
 70
     2
  9
$MENU
  1
.
  9
$ELEVATION
 40
0.0
  9
$PELEVATION
 40
0.0
  9
$THICKNESS
 40
0.0
  9
$LIMCHECK
 70
     0
  9
$CHAMFERA
 40
0.0
  9
$CHAMFERB
 40
0.0
  9
$CHAMFERC
 40
0.0
  9
$CHAMFERD
 40
0.0
  9
$SKPOLY
 70
     0
  9
$TDCREATE
 40
2456937.543434051
  9
$TDUCREATE
 40
2456937.418434051
  9
$TDUPDATE
 40
2456937.543434977
  9
$TDUUPDATE
 40
2456937.418434977
  9
$TDINDWG
 40
0.0000000116
  9
$TDUSRTIMER
 40
0.0000000116
  9
$USRTIMER
 70
     1
  9
$ANGBASE
 50
0.0
  9
$ANGDIR
 70
     0
  9
$PDMODE
 70
     0
  9
$PDSIZE
 40
-1.0
  9
$PLINEWID
 40
0.0
  9
$SPLFRAME
 70
     0
  9
$SPLINETYPE
 70
     6
  9
$SPLINESEGS
 70
     8
  9
$HANDSEED
  5
1EF
  9
$SURFTAB1
 70
     6
  9
$SURFTAB2
 70
     6
  9
$SURFTYPE
 70
     6
  9
$SURFU
 70
     6
  9
$SURFV
 70
     6
  9
$UCSBASE
  2

  9
$UCSNAME
  2

  9
$UCSORG
 10
0.0
 20
0.0
 30
0.0
  9
$UCSXDIR
 10
1.0
 20
0.0
 30
0.0
  9
$UCSYDIR
 10
0.0
 20
1.0
 30
0.0
  9
$UCSORTHOREF
  2

  9
$UCSORTHOVIEW
 70
     0
  9
$UCSORGTOP
 10
0.0
 20
0.0
 30
0.0
  9
$UCSORGBOTTOM
 10
0.0
 20
0.0
 30
0.0
  9
$UCSORGLEFT
 10
0.0
 20
0.0
 30
0.0
  9
$UCSORGRIGHT
 10
0.0
 20
0.0
 30
0.0
  9
$UCSORGFRONT
 10
0.0
 20
0.0
 30
0.0
  9
$UCSORGBACK
 10
0.0
 20
0.0
 30
0.0
  9
$PUCSBASE
  2

  9
$PUCSNAME
  2

  9
$PUCSORG
 10
0.0
 20
0.0
 30
0.0
  9
$PUCSXDIR
 10
1.0
 20
0.0
 30
0.0
  9
$PUCSYDIR
 10
0.0
 20
1.0
 30
0.0
  9
$PUCSORTHOREF
  2

  9
$PUCSORTHOVIEW
 70
     0
  9
$PUCSORGTOP
 10
0.0
 20
0.0
 30
0.0
  9
$PUCSORGBOTTOM
 10
0.0
 20
0.0
 30
0.0
  9
$PUCSORGLEFT
 10
0.0
 20
0.0
 30
0.0
  9
$PUCSORGRIGHT
 10
0.0
 20
0.0
 30
0.0
  9
$PUCSORGFRONT
 10
0.0
 20
0.0
 30
0.0
  9
$PUCSORGBACK
 10
0.0
 20
0.0
 30
0.0
  9
$USERI1
 70
     0
  9
$USERI2
 70
     0
  9
$USERI3
 70
     0
  9
$USERI4
 70
     0
  9
$USERI5
 70
     0
  9
$USERR1
 40
0.0
  9
$USERR2
 40
0.0
  9
$USERR3
 40
0.0
  9
$USERR4
 40
0.0
  9
$USERR5
 40
0.0
  9
$WORLDVIEW
 70
     1
  9
$SHADEDGE
 70
     3
  9
$SHADEDIF
 70
    70
  9
$TILEMODE
 70
     1
  9
$MAXACTVP
 70
    64
  9
$PINSBASE
 10
0.0
 20
0.0
 30
0.0
  9
$PLIMCHECK
 70
     0
  9
$PEXTMIN
 10
1.0000000000E+20
 20
1.0000000000E+20
 30
1.0000000000E+20
  9
$PEXTMAX
 10
-1.0000000000E+20
 20
-1.0000000000E+20
 30
-1.0000000000E+20
  9
$PLIMMIN
 10
0.0
 20
0.0
  9
$PLIMMAX
 10
420.0
 20
297.0
  9
$UNITMODE
 70
     0
  9
$VISRETAIN
 70
     1
  9
$PLINEGEN
 70
     0
  9
$PSLTSCALE
 70
     1
  9
$TREEDEPTH
 70
  3020
  9
$CMLSTYLE
  2
Standard
  9
$CMLJUST
 70
     0
  9
$CMLSCALE
 40
20.0
  9
$PROXYGRAPHICS
 70
     1
  9
$MEASUREMENT
 70
     1
  9
$CELWEIGHT
370
    -1
  9
$ENDCAPS
280
     0
  9
$JOINSTYLE
280
     0
  9
$LWDISPLAY
290
     1
  9
$INSUNITS
 70
     4
  9
$HYPERLINKBASE
  1

  9
$STYLESHEET
  1

  9
$XEDIT
290
     1
  9
$CEPSNTYPE
380
     0
  9
$PSTYLEMODE
290
     1
  9
$FINGERPRINTGUID
  2
{7EC5B3D4-C54A-4864-80F0-7C6FB9E832C0}
  9
$VERSIONGUID
  2
{FAEB1C32-E019-11D5-929B-00C0DF256EC4}
  9
$EXTNAMES
290
     1
  9
$PSVPSCALE
 40
0.0
  9
$OLESTARTUP
290
     0
  0
ENDSEC
  0
SECTION
  2
CLASSES
  0
CLASS
  1
ACDBDICTIONARYWDFLT
  2
AcDbDictionaryWithDefault
  3
ObjectDBX Classes
 90
        0
280
     0
281
     0
  0
CLASS
  1
VISUALSTYLE
  2
AcDbVisualStyle
  3
ObjectDBX Classes
 90
     4095
280
     0
281
     0
  0
CLASS
  1
MATERIAL
  2
AcDbMaterial
  3
ObjectDBX Classes
 90
     1153
280
     0
281
     0
  0
CLASS
  1
SCALE
  2
AcDbScale
  3
ObjectDBX Classes
 90
     1153
280
     0
281
     0
  0
CLASS
  1
SUN
  2
AcDbSun
  3
SCENEOE
 90
     1153
280
     0
281
     0
  0
CLASS
  1
ACDBPLACEHOLDER
  2
AcDbPlaceHolder
  3
ObjectDBX Classes
 90
        0
280
     0
281
     0
  0
CLASS
  1
LAYOUT
  2
AcDbLayout
  3
ObjectDBX Classes
 90
        0
280
     0
281
     0
  0
ENDSEC
  0
SECTION
  2
TABLES
  0
TABLE
  2
VPORT
  5
8
330
0
100
AcDbSymbolTable
 70
     1
  0
VPORT
  5
29
330
8
100
AcDbSymbolTableRecord
100
AcDbViewportTableRecord
  2
*Active
 70
     0
 10
0.0
 20
0.0
 11
1.0
 21
1.0
 12
210.0
 22
148.5
 13
0.0
 23
0.0
 14
10.0
 24
10.0
 15
10.0
 25
10.0
 16
0.0
 26
0.0
 36
1.0
 17
0.0
 27
0.0
 37
0.0
 40
297.0
 41
1.4141414141
 42
50.0
 43
0.0
 44
0.0
 50
0.0
 51
0.0
 71
     0
 72
  2000
 73
     1
 74
     3
 75
     0
 76
     0
 77
     0
 78
     0
281
     0
 65
     1
110
0.0
120
0.0
130
0.0
111
1.0
121
0.0
131
0.0
112
0.0
122
1.0
132
0.0
 79
     0
146
0.0
  0
ENDTAB
  0
TABLE
  2
LTYPE
  5
5
330
0
100
AcDbSymbolTable
 70
     6
  0
LTYPE
  5
14
330
5
100
AcDbSymbolTableRecord
100
AcDbLinetypeTableRecord
  2
ByBlock
 70
     0
  3

 72
    65
 73
     0
 40
0.0
  0
LTYPE
  5
15
330
5
100
AcDbSymbolTableRecord
100
AcDbLinetypeTableRecord
  2
ByLayer
 70
     0
  3

 72
    65
 73
     0
 40
0.0
  0
LTYPE
  5
16
330
5
100
AcDbSymbolTableRecord
100
AcDbLinetypeTableRecord
  2
Continuous
 70
     0
  3
Solid line
 72
    65
 73
     0
 40
0.0
  0
LTYPE
  5
6A
330
5
100
AcDbSymbolTableRecord
100
AcDbLinetypeTableRecord
  2
HIDDEN
 70
     0
  3
Hidden __ __ __ __ __ __ __ __ __ __ __ __ __ __
 72
    65
 73
     2
 40
1.905
 49
1.27
 74
     0
 49
-0.635
 74
     0
  0
LTYPE
  5
6B
330
5
100
AcDbSymbolTableRecord
100
AcDbLinetypeTableRecord
  2
PHANTOM
 70
     0
  3
Phantom ______  __  __  ______  __  __  ______
 72
    65
 73
     6
 40
12.7
 49
6.35
 74
     0
 49
-1.27
 74
     0
 49
1.27
 74
     0
 49
-1.27
 74
     0
 49
1.27
 74
     0
 49
-1.27
 74
     0
  0
LTYPE
  5
6C
330
5
100
AcDbSymbolTableRecord
100
AcDbLinetypeTableRecord
  2
CENTER
 70
     0
  3
Center ____ _ ____ _ ____ _ ____ _ ____ _ ____
 72
    65
 73
     4
 40
10.16
 49
6.35
 74
     0
 49
-1.27
 74
     0
 49
1.27
 74
     0
 49
-1.27
 74
     0
  0
LTYPE
  5
6D
330
5
100
AcDbSymbolTableRecord
100
AcDbLinetypeTableRecord
  2
CENTERX2
 70
     0
  3
Center (2x) ________  __  ________  __  _____
 72
    65
 73
     4
 40
20.32
 49
12.7
 74
     0
 49
-2.54
 74
     0
 49
2.54
 74
     0
 49
-2.54
 74
     0
  0
LTYPE
  5
6E
330
5
100
AcDbSymbolTableRecord
100
AcDbLinetypeTableRecord
  2
DOT2
 70
     0
  3
Dot (.5x) ........................................
 72
    65
 73
     2
 40
0.635
 49
0.0
 74
     0
 49
-0.635
 74
     0
  0
ENDTAB
  0
TABLE
  2
LAYER
  5
2
330
0
100
AcDbSymbolTable
 70
     1
  0
LAYER
  5
10
330
2
100
AcDbSymbolTableRecord
100
AcDbLayerTableRecord
  2
0
 70
     0
 62
     7
  6
Continuous
370
    -3
390
F
  0
ENDTAB
  0
TABLE
  2
STYLE
  5
3
330
0
100
AcDbSymbolTable
 70
     1
  0
STYLE
  5
11
330
3
100
AcDbSymbolTableRecord
100
AcDbTextStyleTableRecord
  2
Standard
 70
     0
 40
0.0
 41
1.0
 50
0.0
 71
     0
 42
3.5
  3
txt
  4

  0
ENDTAB
  0
TABLE
  2
VIEW
  5
6
330
0
100
AcDbSymbolTable
 70
     0
  0
ENDTAB
  0
TABLE
  2
UCS
  5
7
330
0
100
AcDbSymbolTable
 70
     0
  0
ENDTAB
  0
TABLE
  2
APPID
  5
9
330
0
100
AcDbSymbolTable
 70
     1
  0
APPID
  5
12
330
9
100
AcDbSymbolTableRecord
100
AcDbRegAppTableRecord
  2
ACAD
 70
     0
  0
ENDTAB
  0
TABLE
  2
DIMSTYLE
  5
A
330
0
100
AcDbSymbolTable
 70
     1
100
AcDbDimStyleTable
  0
DIMSTYLE
105
27
330
A
100
AcDbSymbolTableRecord
100
AcDbDimStyleTableRecord
  2
ISO-25
 70
     0
 41
2.5
 42
0.625
 43
3.75
 44
1.25
 73
     0
 74
     0
 77
     1
 78
     8
140
2.5
141
2.5
143
0.0393700787
147
0.625
171
     3
172
     1
178
     0
271
     2
272
     2
274
     3
278
    44
283
     0
284
     8
340
11
  0
ENDTAB
  0
TABLE
  2
BLOCK_RECORD
  5
1
330
0
100
AcDbSymbolTable
 70
     1
  0
BLOCK_RECORD
  5
1F
330
1
100
AcDbSymbolTableRecord
100
AcDbBlockTableRecord
  2
*Model_Space
340
22
  0
BLOCK_RECORD
  5
1B
330
1
100
AcDbSymbolTableRecord
100
AcDbBlockTableRecord
  2
*Paper_Space
340
1E
  0
BLOCK_RECORD
  5
23
330
1
100
AcDbSymbolTableRecord
100
AcDbBlockTableRecord
  2
*Paper_Space0
340
26
  0
ENDTAB
  0
ENDSEC
  0
SECTION
  2
BLOCKS
  0
BLOCK
  5
20
330
1F
100
AcDbEntity
  8
0
100
AcDbBlockBegin
  2
*Model_Space
 70
     0
 10
0.0
 20
0.0
 30
0.0
  3
*Model_Space
  1
*Model_Space
  0
ENDBLK
  5
21
330
1F
100
AcDbEntity
  8
0
100
AcDbBlockEnd
  0
BLOCK
  5
1C
330
1B
100
AcDbEntity
 67
     1
  8
0
100
AcDbBlockBegin
  2
*Paper_Space
 70
     0
 10
0.0
 20
0.0
 30
0.0
  3
*Paper_Space
  1
*Paper_Space
  0
ENDBLK
  5
1D
330
1B
100
AcDbEntity
 67
     1
  8
0
100
AcDbBlockEnd
  0
BLOCK
  5
24
330
23
100
AcDbEntity
  8
0
100
AcDbBlockBegin
  2
*Paper_Space0
 70
     0
 10
0.0
 20
0.0
 30
0.0
  3
*Paper_Space0
  1
*Paper_Space0
  0
ENDBLK
  5
25
330
23
100
AcDbEntity
  8
0
100
AcDbBlockEnd
  0
ENDSEC
  0
SECTION
  2
ENTITIES
  0
LINE
  5
6F
330
1F
100
AcDbEntity
  8
0
  6
Continuous
 62
     7
370
    15
100
AcDbLine
 10
120.5446154586
 20
136.4320377042
 30
0.0
 11
120.567608181
 21
136.9373547634
 31
0.0
  0
ARC
  5
70
330
1F
100
AcDbEntity
  8
0
  6
Continuous
 62
     7
370
    15
100
AcDbCircle
 10
120.3635272045
 20
132.4522138837
 30
0.0
 40
3.983941590754725
100
AcDbArc
 50
87.3947487349
 51
180.0
  0
LINE
  5
71
330
1F
100
AcDbEntity
  8
0
  6
Continuous
 62
     7
370
    15
100
AcDbLine
 10
115.8737457225
 20
132.4522138837
 30
0.0
 11
116.3795856137
 21
132.4522138837
 31
0.0
  0
ARC
  5
72
330
1F
100
AcDbEntity
  8
0
  6
Continuous
 62
     7
370
    15
100
AcDbCircle
 10
67.1135272045
 20
167.9578986397
 30
0.0
 40
1.516058409246707
100
AcDbArc
 50
87.3947487349
 51
180.0000000012
  0
LINE
  5
73
330
1F
100
AcDbEntity
  8
0
  6
Continuous
 62
     7
370
    15
100
AcDbLine
 10
67.1824389504
 20
169.4723900631
 30
0.0
 11
67.159446228
 21
168.9670730039
 31
0.0
  0
LINE
  5
74
330
1F
100
AcDbEntity
  8
0
  6
Continuous
 62
     7
370
    15
100
AcDbLine
 10
66.1033086865
 20
167.9578986397
 30
0.0
 11
65.5974687953
 21
167.9578986397
 31
0.0
  0
ARC
  5
75
330
1F
100
AcDbEntity
  8
0
  6
Continuous
 62
     7
370
    15
100
AcDbCircle
 10
67.3635272045
 20
173.4522138837
 30
0.0
 40
3.983941590754711
100
AcDbArc
 50
267.3947487349
 51
0.0
  0
LINE
  5
76
330
1F
100
AcDbEntity
  8
0
  6
Continuous
 62
     7
370
    15
100
AcDbLine
 10
71.8533086865
 20
173.4522138837
 30
0.0
 11
71.3474687953
 21
173.4522138837
 31
0.0
  0
ARC
  5
77
330
1F
100
AcDbEntity
  8
0
  6
Continuous
 62
     7
370
    15
100
AcDbCircle
 10
120.6135272045
 20
137.9465291276
 30
0.0
 40
1.51605840924668
100
AcDbArc
 50
267.3947487349
 51
0.0000000012
  0
LINE
  5
78
330
1F
100
AcDbEntity
  8
0
  6
Continuous
 62
     7
370
    15
100
AcDbLine
 10
121.6237457225
 20
137.9465291276
 30
0.0
 11
122.1295856137
 21
137.9465291276
 31
0.0
  0
LINE
  5
79
330
1F
100
AcDbEntity
  8
0
  6
Continuous
 62
     7
370
    15
100
AcDbLine
 10
65.5974687953
 20
137.9465291276
 30
0.0
 11
65.5974687953
 21
167.9578986397
 31
0.0
  0
LINE
  5
7A
330
1F
100
AcDbEntity
  8
0
  6
Continuous
 62
     7
370
    15
100
AcDbLine
 10
66.1033086865
 20
137.9465291276
 30
0.0
 11
65.5974687953
 21
137.9465291276
 31
0.0
  0
ARC
  5
7B
330
1F
100
AcDbEntity
  8
0
  6
Continuous
 62
     7
370
    15
100
AcDbCircle
 10
120.6135272045
 20
167.9578986397
 30
0.0
 40
1.51605840924546
100
AcDbArc
 50
359.9999999998
 51
92.605251265
  0
LINE
  5
7C
330
1F
100
AcDbEntity
  8
0
  6
Continuous
 62
     7
370
    15
100
AcDbLine
 10
121.6237457225
 20
167.9578986397
 30
0.0
 11
122.1295856137
 21
167.9578986397
 31
0.0
  0
LINE
  5
7D
330
1F
100
AcDbEntity
  8
0
  6
Continuous
 62
     7
370
    15
100
AcDbLine
 10
120.567608181
 20
168.9670730039
 30
0.0
 11
120.5446154586
 21
169.4723900631
 31
0.0
  0
LINE
  5
7E
330
1F
100
AcDbEntity
  8
0
  6
Continuous
 62
     7
370
    15
100
AcDbLine
 10
122.1295856137
 20
167.9578986397
 30
0.0
 11
122.1295856137
 21
137.9465291276
 31
0.0
  0
ARC
  5
7F
330
1F
100
AcDbEntity
  8
0
  6
Continuous
 62
     7
370
    15
100
AcDbCircle
 10
67.1135272045
 20
137.9465291276
 30
0.0
 40
1.516058409245474
100
AcDbArc
 50
179.9999999998
 51
272.605251265
  0
LINE
  5
80
330
1F
100
AcDbEntity
  8
0
  6
Continuous
 62
     7
370
    15
100
AcDbLine
 10
67.159446228
 20
136.9373547634
 30
0.0
 11
67.1824389504
 21
136.4320377042
 31
0.0
  0
LINE
  5
81
330
1F
100
AcDbEntity
  8
0
  6
Continuous
 62
     7
370
    15
100
AcDbLine
 10
116.3795856137
 20
173.4522138837
 30
0.0
 11
115.8737457225
 21
173.4522138837
 31
0.0
  0
ARC
  5
82
330
1F
100
AcDbEntity
  8
0
  6
Continuous
 62
     7
370
    15
100
AcDbCircle
 10
120.3635272045
 20
173.4522138837
 30
0.0
 40
3.983941590756397
100
AcDbArc
 50
180.0
 51
272.6052512651
  0
LINE
  5
83
330
1F
100
AcDbEntity
  8
0
  6
Continuous
 62
     7
370
    15
100
AcDbLine
 10
71.3474687953
 20
132.4522138837
 30
0.0
 11
71.8533086865
 21
132.4522138837
 31
0.0
  0
ARC
  5
84
330
1F
100
AcDbEntity
  8
0
  6
Continuous
 62
     7
370
    15
100
AcDbCircle
 10
67.3635272045
 20
132.4522138837
 30
0.0
 40
3.983941590755545
100
AcDbArc
 50
0.0
 51
92.6052512651
  0
LINE
  5
85
330
1F
100
AcDbEntity
  8
0
  6
Continuous
 62
     7
370
    15
100
AcDbLine
 10
115.8737457225
 20
126.7022138837
 30
0.0
 11
115.8737457225
 21
132.4522138837
 31
0.0
  0
LINE
  5
86
330
1F
100
AcDbEntity
  8
0
  6
Continuous
 62
     7
370
    15
100
AcDbLine
 10
116.3795856137
 20
132.4522138837
 30
0.0
 11
116.3795856137
 21
126.7022138837
 31
0.0
  0
LINE
  5
87
330
1F
100
AcDbEntity
  8
0
  6
Continuous
 62
     7
370
    15
100
AcDbLine
 10
115.8737457225
 20
126.7022138837
 30
0.0
 11
116.3795856137
 21
126.7022138837
 31
0.0
  0
LINE
  5
88
330
1F
100
AcDbEntity
  8
0
  6
Continuous
 62
     7
370
    15
100
AcDbLine
 10
71.8533086865
 20
179.2022138837
 30
0.0
 11
71.8533086865
 21
173.4522138837
 31
0.0
  0
LINE
  5
89
330
1F
100
AcDbEntity
  8
0
  6
Continuous
 62
     7
370
    15
100
AcDbLine
 10
71.3474687953
 20
173.4522138837
 30
0.0
 11
71.3474687953
 21
179.2022138837
 31
0.0
  0
LINE
  5
8A
330
1F
100
AcDbEntity
  8
0
  6
Continuous
 62
     7
370
    15
100
AcDbLine
 10
71.8533086865
 20
179.2022138837
 30
0.0
 11
71.3474687953
 21
179.2022138837
 31
0.0
  0
LINE
  5
8B
330
1F
100
AcDbEntity
  8
0
  6
Continuous
 62
     7
370
    15
100
AcDbLine
 10
116.3795856137
 20
179.2022138837
 30
0.0
 11
116.3795856137
 21
173.4522138837
 31
0.0
  0
LINE
  5
8C
330
1F
100
AcDbEntity
  8
0
  6
Continuous
 62
     7
370
    15
100
AcDbLine
 10
115.8737457225
 20
173.4522138837
 30
0.0
 11
115.8737457225
 21
179.2022138837
 31
0.0
  0
LINE
  5
8D
330
1F
100
AcDbEntity
  8
0
  6
Continuous
 62
     7
370
    15
100
AcDbLine
 10
115.8737457225
 20
179.2022138837
 30
0.0
 11
116.3795856137
 21
179.2022138837
 31
0.0
  0
LINE
  5
8E
330
1F
100
AcDbEntity
  8
0
  6
Continuous
 62
     7
370
    15
100
AcDbLine
 10
71.3474687953
 20
126.7022138837
 30
0.0
 11
71.3474687953
 21
132.4522138837
 31
0.0
  0
LINE
  5
8F
330
1F
100
AcDbEntity
  8
0
  6
Continuous
 62
     7
370
    15
100
AcDbLine
 10
71.8533086865
 20
132.4522138837
 30
0.0
 11
71.8533086865
 21
126.7022138837
 31
0.0
  0
LINE
  5
90
330
1F
100
AcDbEntity
  8
0
  6
Continuous
 62
     7
370
    15
100
AcDbLine
 10
71.8533086865
 20
126.7022138837
 30
0.0
 11
71.3474687953
 21
126.7022138837
 31
0.0
  0
LINE
  5
91
330
1F
100
AcDbEntity
  8
0
  6
Continuous
 62
     7
370
    15
100
AcDbLine
 10
117.2135272045
 20
179.2022138837
 30
0.0
 11
117.2135272045
 21
173.4522138837
 31
0.0
  0
ARC
  5
92
330
1F
100
AcDbEntity
  8
0
  6
Continuous
 62
     7
370
    15
100
AcDbCircle
 10
120.3635272045
 20
173.4522138837
 30
0.0
 40
3.150000000000482
100
AcDbArc
 50
180.0
 51
272.605251265
  0
ARC
  5
93
330
1F
100
AcDbEntity
  8
0
  6
Continuous
 62
     7
370
    15
100
AcDbCircle
 10
120.6135272045
 20
167.9578986397
 30
0.0
 40
2.350000000000528
100
AcDbArc
 50
0.0
 51
92.6052512651
  0
LINE
  5
94
330
1F
100
AcDbEntity
  8
0
  6
Continuous
 62
     7
370
    15
100
AcDbLine
 10
122.9635272045
 20
167.9578986397
 30
0.0
 11
122.9635272045
 21
137.9465291276
 31
0.0
  0
ARC
  5
95
330
1F
100
AcDbEntity
  8
0
  6
Continuous
 62
     7
370
    15
100
AcDbCircle
 10
120.6135272045
 20
137.9465291276
 30
0.0
 40
2.350000000000471
100
AcDbArc
 50
267.3947487349
 51
0.0
  0
ARC
  5
96
330
1F
100
AcDbEntity
  8
0
  6
Continuous
 62
     7
370
    15
100
AcDbCircle
 10
120.3635272045
 20
132.4522138837
 30
0.0
 40
3.150000000000539
100
AcDbArc
 50
87.394748735
 51
180.0
  0
LINE
  5
97
330
1F
100
AcDbEntity
  8
0
  6
Continuous
 62
     7
370
    15
100
AcDbLine
 10
117.2135272045
 20
132.4522138837
 30
0.0
 11
117.2135272045
 21
126.7022138837
 31
0.0
  0
ARC
  5
98
330
1F
100
AcDbEntity
  8
0
  6
Continuous
 62
     7
370
    15
100
AcDbCircle
 10
114.8635272045
 20
126.7022138837
 30
0.0
 40
2.349999999999994
100
AcDbArc
 50
270.0
 51
0.0
  0
LINE
  5
99
330
1F
100
AcDbEntity
  8
0
  6
Continuous
 62
     7
370
    15
100
AcDbLine
 10
114.8635272045
 20
124.3522138837
 30
0.0
 11
72.8635272045
 21
124.3522138837
 31
0.0
  0
ARC
  5
9A
330
1F
100
AcDbEntity
  8
0
  6
Continuous
 62
     7
370
    15
100
AcDbCircle
 10
72.8635272045
 20
126.7022138837
 30
0.0
 40
2.349999999999994
100
AcDbArc
 50
180.0
 51
270.0
  0
LINE
  5
9B
330
1F
100
AcDbEntity
  8
0
  6
Continuous
 62
     7
370
    15
100
AcDbLine
 10
70.5135272045
 20
126.7022138837
 30
0.0
 11
70.5135272045
 21
132.4522138837
 31
0.0
  0
ARC
  5
9C
330
1F
100
AcDbEntity
  8
0
  6
Continuous
 62
     7
370
    15
100
AcDbCircle
 10
67.3635272045
 20
132.4522138837
 30
0.0
 40
3.150000000000539
100
AcDbArc
 50
0.0
 51
92.605251265
  0
ARC
  5
9D
330
1F
100
AcDbEntity
  8
0
  6
Continuous
 62
     7
370
    15
100
AcDbCircle
 10
67.1135272045
 20
137.9465291276
 30
0.0
 40
2.35000000000047
100
AcDbArc
 50
180.0
 51
272.6052512651
  0
LINE
  5
9E
330
1F
100
AcDbEntity
  8
0
  6
Continuous
 62
     7
370
    15
100
AcDbLine
 10
64.7635272045
 20
137.9465291276
 30
0.0
 11
64.7635272045
 21
167.9578986397
 31
0.0
  0
ARC
  5
9F
330
1F
100
AcDbEntity
  8
0
  6
Continuous
 62
     7
370
    15
100
AcDbCircle
 10
67.1135272045
 20
167.9578986397
 30
0.0
 40
2.350000000000527
100
AcDbArc
 50
87.3947487349
 51
180.0
  0
ARC
  5
A0
330
1F
100
AcDbEntity
  8
0
  6
Continuous
 62
     7
370
    15
100
AcDbCircle
 10
67.3635272045
 20
173.4522138837
 30
0.0
 40
3.150000000000483
100
AcDbArc
 50
267.394748735
 51
0.0
  0
LINE
  5
A1
330
1F
100
AcDbEntity
  8
0
  6
Continuous
 62
     7
370
    15
100
AcDbLine
 10
70.5135272045
 20
173.4522138837
 30
0.0
 11
70.5135272045
 21
179.2022138837
 31
0.0
  0
ARC
  5
A2
330
1F
100
AcDbEntity
  8
0
  6
Continuous
 62
     7
370
    15
100
AcDbCircle
 10
72.8635272045
 20
179.2022138837
 30
0.0
 40
2.349999999999994
100
AcDbArc
 50
90.0
 51
180.0
  0
LINE
  5
A3
330
1F
100
AcDbEntity
  8
0
  6
Continuous
 62
     7
370
    15
100
AcDbLine
 10
72.8635272045
 20
181.5522138837
 30
0.0
 11
114.8635272045
 21
181.5522138837
 31
0.0
  0
ARC
  5
A4
330
1F
100
AcDbEntity
  8
0
  6
Continuous
 62
     7
370
    15
100
AcDbCircle
 10
114.8635272045
 20
179.2022138837
 30
0.0
 40
2.349999999999994
100
AcDbArc
 50
0.0
 51
90.0
  0
ARC
  5
A5
330
1F
100
AcDbEntity
  8
0
  6
Continuous
 62
     7
370
    15
100
AcDbCircle
 10
72.8635272045
 20
126.7022138837
 30
0.0
 40
1.51605840924546
100
AcDbArc
 50
179.9999999998
 51
270.0
  0
LINE
  5
A6
330
1F
100
AcDbEntity
  8
0
  6
Continuous
 62
     7
370
    15
100
AcDbLine
 10
114.8635272045
 20
125.1861554744
 30
0.0
 11
72.8635272045
 21
125.1861554744
 31
0.0
  0
ARC
  5
A7
330
1F
100
AcDbEntity
  8
0
  6
Continuous
 62
     7
370
    15
100
AcDbCircle
 10
114.8635272045
 20
126.7022138837
 30
0.0
 40
1.51605840924546
100
AcDbArc
 50
270.0
 51
0.0000000012
  0
ARC
  5
A8
330
1F
100
AcDbEntity
  8
0
  6
Continuous
 62
     7
370
    15
100
AcDbCircle
 10
114.8635272045
 20
179.2022138837
 30
0.0
 40
1.51605840924546
100
AcDbArc
 50
0.0000000002
 51
90.0
  0
LINE
  5
A9
330
1F
100
AcDbEntity
  8
0
  6
Continuous
 62
     7
370
    15
100
AcDbLine
 10
72.8635272045
 20
180.7182722929
 30
0.0
 11
114.8635272045
 21
180.7182722929
 31
0.0
  0
ARC
  5
AA
330
1F
100
AcDbEntity
  8
0
  6
Continuous
 62
     7
370
    15
100
AcDbCircle
 10
72.8635272045
 20
179.2022138837
 30
0.0
 40
1.516058409245034
100
AcDbArc
 50
90.0
 51
179.9999999988
  0
LINE
  5
AB
330
1F
100
AcDbEntity
  8
0
  6
Continuous
 62
     7
370
    15
100
AcDbLine
 10
114.8635272045
 20
180.2124324017
 30
0.0
 11
114.8635272045
 21
180.7182722929
 31
0.0
  0
LINE
  5
AC
330
1F
100
AcDbEntity
  8
0
  6
Continuous
 62
     7
370
    15
100
AcDbLine
 10
114.8635272045
 20
180.2124324017
 30
0.0
 11
72.8635272045
 21
180.2124324017
 31
0.0
  0
LINE
  5
AD
330
1F
100
AcDbEntity
  8
0
  6
Continuous
 62
     7
370
    15
100
AcDbLine
 10
72.8635272045
 20
180.7182722929
 30
0.0
 11
72.8635272045
 21
180.2124324017
 31
0.0
  0
ARC
  5
AE
330
1F
100
AcDbEntity
  8
0
  6
Continuous
 62
     7
370
    15
100
AcDbCircle
 10
72.8635272045
 20
179.2022138837
 30
0.0
 40
1.01021851800985
100
AcDbArc
 50
90.0
 51
179.9999999981
  0
LINE
  5
AF
330
1F
100
AcDbEntity
  8
0
  6
Continuous
 62
     7
370
    15
100
AcDbLine
 10
114.8635272045
 20
125.6919953657
 30
0.0
 11
114.8635272045
 21
125.1861554744
 31
0.0
  0
ARC
  5
B0
330
1F
100
AcDbEntity
  8
0
  6
Continuous
 62
     7
370
    15
100
AcDbCircle
 10
114.8635272045
 20
126.7022138837
 30
0.0
 40
1.010218518010191
100
AcDbArc
 50
270.0
 51
0.0000000019
  0
ARC
  5
B1
330
1F
100
AcDbEntity
  8
0
  6
Continuous
 62
     7
370
    15
100
AcDbCircle
 10
72.8635272045
 20
126.7022138837
 30
0.0
 40
1.010218518010205
100
AcDbArc
 50
179.9999999994
 51
270.0
  0
LINE
  5
B2
330
1F
100
AcDbEntity
  8
0
  6
Continuous
 62
     7
370
    15
100
AcDbLine
 10
72.8635272045
 20
125.6919953657
 30
0.0
 11
72.8635272045
 21
125.1861554744
 31
0.0
  0
LINE
  5
B3
330
1F
100
AcDbEntity
  8
0
  6
Continuous
 62
     7
370
    15
100
AcDbLine
 10
72.8635272045
 20
125.6919953657
 30
0.0
 11
114.8635272045
 21
125.6919953657
 31
0.0
  0
ARC
  5
B4
330
1F
100
AcDbEntity
  8
0
  6
Continuous
 62
     7
370
    15
100
AcDbCircle
 10
114.8635272045
 20
179.2022138837
 30
0.0
 40
1.010218518010205
100
AcDbArc
 50
0.0000000006
 51
90.0
  0
CIRCLE
  5
B5
330
1F
100
AcDbEntity
  8
0
  6
Continuous
 62
     7
370
    15
100
AcDbCircle
 10
67.3635272045
 20
178.9522138837
 30
0.0
 40
2.275000000000006
  0
CIRCLE
  5
B6
330
1F
100
AcDbEntity
  8
0
  6
Continuous
 62
     7
370
    15
100
AcDbCircle
 10
120.3635272045
 20
178.9522138837
 30
0.0
 40
2.275000000000006
  0
CIRCLE
  5
B7
330
1F
100
AcDbEntity
  8
0
  6
Continuous
 62
     7
370
    15
100
AcDbCircle
 10
120.3635272045
 20
126.9522138837
 30
0.0
 40
2.275000000000006
  0
CIRCLE
  5
B8
330
1F
100
AcDbEntity
  8
0
  6
Continuous
 62
     7
370
    15
100
AcDbCircle
 10
67.3635272045
 20
126.9522138837
 30
0.0
 40
2.275000000000006
  0
CIRCLE
  5
B9
330
1F
100
AcDbEntity
  8
0
  6
Continuous
 62
     7
370
    15
100
AcDbCircle
 10
67.3635272045
 20
173.4522138837
 30
0.0
 40
2.625
  0
CIRCLE
  5
BA
330
1F
100
AcDbEntity
  8
0
  6
Continuous
 62
     7
370
    15
100
AcDbCircle
 10
120.3635272045
 20
173.4522138837
 30
0.0
 40
2.625
  0
CIRCLE
  5
BB
330
1F
100
AcDbEntity
  8
0
  6
Continuous
 62
     7
370
    15
100
AcDbCircle
 10
120.3635272045
 20
132.4522138837
 30
0.0
 40
2.624999999999972
  0
CIRCLE
  5
BC
330
1F
100
AcDbEntity
  8
0
  6
Continuous
 62
     7
370
    15
100
AcDbCircle
 10
67.3635272045
 20
132.4522138837
 30
0.0
 40
2.624999999999972
  0
ELLIPSE
  5
BD
330
1F
100
AcDbEntity
  8
0
  6
Continuous
 62
     7
370
    15
100
AcDbEllipse
 10
120.3629178923
 20
178.9516045715
 30
0.0
 11
-2.829288756678323
 21
-2.829288756678323
 31
0.0
210
0.0
220
0.0
230
1.0
 40
0.9996954599
 41
2.356346783439784
 42
3.926838523739816
  0
LINE
  5
BE
330
1F
100
AcDbEntity
  8
0
  6
Continuous
 62
     7
370
    15
100
AcDbLine
 10
124.3635272045
 20
178.9528231031
 30
0.0
 11
124.3635272045
 21
126.9516046643
 31
0.0
  0
LINE
  5
BF
330
1F
100
AcDbEntity
  8
0
  6
Continuous
 62
     7
370
    15
100
AcDbLine
 10
120.3641364239
 20
122.9522138837
 30
0.0
 11
67.3629179851
 21
122.9522138837
 31
0.0
  0
LINE
  5
C0
330
1F
100
AcDbEntity
  8
0
  6
Continuous
 62
     7
370
    15
100
AcDbLine
 10
63.3635272045
 20
126.9516046643
 30
0.0
 11
63.3635272045
 21
178.9528231031
 31
0.0
  0
ELLIPSE
  5
C1
330
1F
100
AcDbEntity
  8
0
  6
Continuous
 62
     7
370
    15
100
AcDbEllipse
 10
67.3641365167
 20
126.9528231959
 30
0.0
 11
2.829288756678337
 21
2.829288756678352
 31
0.0
210
0.0
220
0.0
230
1.0
 40
0.9996954599
 41
2.356346783439785
 42
3.926838523739814
  0
ELLIPSE
  5
C2
330
1F
100
AcDbEntity
  8
0
  6
Continuous
 62
     7
370
    15
100
AcDbEllipse
 10
120.3629178923
 20
126.9528231959
 30
0.0
 11
-2.829288756678324
 21
2.829288756678352
 31
0.0
210
0.0
220
0.0
230
1.0
 40
0.9996954599
 41
2.356346783439792
 42
3.926838523739823
  0
ELLIPSE
  5
C3
330
1F
100
AcDbEntity
  8
0
  6
Continuous
 62
     7
370
    15
100
AcDbEllipse
 10
67.3641365167
 20
178.9516045715
 30
0.0
 11
2.829288756678338
 21
-2.829288756678324
 31
0.0
210
0.0
220
0.0
230
1.0
 40
0.9996954599
 41
2.356346783439926
 42
3.926838523739819
  0
LINE
  5
C4
330
1F
100
AcDbEntity
  8
0
  6
Continuous
 62
     7
370
    15
100
AcDbLine
 10
67.3629179851
 20
182.9522138837
 30
0.0
 11
120.3641364239
 21
182.9522138837
 31
0.0
  0
CIRCLE
  5
C5
330
1F
100
AcDbEntity
  8
0
  6
Continuous
 62
     7
370
    15
100
AcDbCircle
 10
120.3635272045
 20
126.9522138837
 30
0.0
 40
1.62499999999136
  0
CIRCLE
  5
C6
330
1F
100
AcDbEntity
  8
0
  6
Continuous
 62
     7
370
    15
100
AcDbCircle
 10
67.3635272045
 20
126.9522138837
 30
0.0
 40
1.624999999988631
  0
CIRCLE
  5
C7
330
1F
100
AcDbEntity
  8
0
  6
Continuous
 62
     7
370
    15
100
AcDbCircle
 10
120.3635272045
 20
178.9522138837
 30
0.0
 40
1.624999999988631
  0
CIRCLE
  5
C8
330
1F
100
AcDbEntity
  8
0
  6
Continuous
 62
     7
370
    15
100
AcDbCircle
 10
67.3635272045
 20
178.9522138837
 30
0.0
 40
1.62499999999136
  0
CIRCLE
  5
C9
330
1F
100
AcDbEntity
  8
0
  6
Continuous
 62
     7
370
    15
100
AcDbCircle
 10
120.3635272045
 20
178.9522138837
 30
0.0
 40
1.250000000025921
  0
CIRCLE
  5
CA
330
1F
100
AcDbEntity
  8
0
  6
Continuous
 62
     7
370
    15
100
AcDbCircle
 10
67.3635272045
 20
126.9522138837
 30
0.0
 40
1.250000000025921
  0
CIRCLE
  5
CB
330
1F
100
AcDbEntity
  8
0
  6
Continuous
 62
     7
370
    15
100
AcDbCircle
 10
120.3635272045
 20
126.9522138837
 30
0.0
 40
1.250000000000227
  0
CIRCLE
  5
CC
330
1F
100
AcDbEntity
  8
0
  6
Continuous
 62
     7
370
    15
100
AcDbCircle
 10
67.3635272045
 20
178.9522138837
 30
0.0
 40
1.250000000000227
  0
CIRCLE
  5
CD
330
1F
100
AcDbEntity
  8
0
  6
Continuous
 62
     7
370
    15
100
AcDbCircle
 10
67.3635272045
 20
173.4522138837
 30
0.0
 40
1.625
  0
CIRCLE
  5
CE
330
1F
100
AcDbEntity
  8
0
  6
Continuous
 62
     7
370
    15
100
AcDbCircle
 10
67.3635272045
 20
132.4522138837
 30
0.0
 40
1.624999999999972
  0
CIRCLE
  5
CF
330
1F
100
AcDbEntity
  8
0
  6
Continuous
 62
     7
370
    15
100
AcDbCircle
 10
120.3635272045
 20
173.4522138837
 30
0.0
 40
1.625
  0
CIRCLE
  5
D0
330
1F
100
AcDbEntity
  8
0
  6
Continuous
 62
     7
370
    15
100
AcDbCircle
 10
120.3635272045
 20
132.4522138837
 30
0.0
 40
1.624999999999972
  0
CIRCLE
  5
D1
330
1F
100
AcDbEntity
  8
0
  6
Continuous
 62
     7
370
    15
100
AcDbCircle
 10
70.1135272045
 20
152.9522138837
 30
0.0
 40
1.624999999983174
  0
CIRCLE
  5
D2
330
1F
100
AcDbEntity
  8
0
  6
Continuous
 62
     7
370
    15
100
AcDbCircle
 10
70.1135272045
 20
152.9522138837
 30
0.0
 40
1.249999999992056
  0
CIRCLE
  5
D3
330
1F
100
AcDbEntity
  8
0
  6
Continuous
 62
     7
370
    15
100
AcDbCircle
 10
70.1135272045
 20
139.9522138837
 30
0.0
 40
1.624999999983146
  0
CIRCLE
  5
D4
330
1F
100
AcDbEntity
  8
0
  6
Continuous
 62
     7
370
    15
100
AcDbCircle
 10
70.1135272045
 20
139.9522138837
 30
0.0
 40
1.249999999992056
  0
CIRCLE
  5
D5
330
1F
100
AcDbEntity
  8
0
  6
Continuous
 62
     7
370
    15
100
AcDbCircle
 10
70.1135272045
 20
165.9522138837
 30
0.0
 40
1.624999999983174
  0
CIRCLE
  5
D6
330
1F
100
AcDbEntity
  8
0
  6
Continuous
 62
     7
370
    15
100
AcDbCircle
 10
70.1135272045
 20
165.9522138837
 30
0.0
 40
1.249999999992056
  0
ARC
  5
D7
330
1F
100
AcDbEntity
  8
0
  6
Continuous
 62
     7
370
    15
100
AcDbCircle
 10
70.1135272045
 20
165.9522138837
 30
0.0
 40
3.250000000000035
100
AcDbArc
 50
0.0
 51
57.6345621608
  0
LINE
  5
D8
330
1F
100
AcDbEntity
  8
0
  6
Continuous
 62
     7
370
    15
100
AcDbLine
 10
73.3635272045
 20
165.9522138837
 30
0.0
 11
73.3635272045
 21
139.9522138837
 31
0.0
  0
ARC
  5
D9
330
1F
100
AcDbEntity
  8
0
  6
Continuous
 62
     7
370
    15
100
AcDbCircle
 10
70.1135272045
 20
139.9522138837
 30
0.0
 40
3.250000000000014
100
AcDbArc
 50
302.3654378392
 51
0.0
  0
LINE
  5
DA
330
1F
100
AcDbEntity
  8
0
  6
Continuous
 62
     7
370
    15
100
AcDbLine
 10
71.8533086865
 20
137.2070981493
 30
0.0
 11
71.8533086865
 21
132.4522138837
 31
0.0
  0
LINE
  5
DB
330
1F
100
AcDbEntity
  8
0
  6
Continuous
 62
     7
370
    15
100
AcDbLine
 10
71.8533086865
 20
173.4522138837
 30
0.0
 11
71.8533086865
 21
168.697329618
 31
0.0
  0
LINE
  5
DC
330
1F
100
AcDbEntity
  8
0
  6
Continuous
 62
     7
370
    15
100
AcDbLine
 10
66.1033086865
 20
137.9465291276
 30
0.0
 11
66.1033086865
 21
167.9578986397
 31
0.0
  0
ARC
  5
DD
330
1F
100
AcDbEntity
  8
0
  6
Continuous
 62
     7
370
    15
100
AcDbCircle
 10
67.3635272045
 20
173.4522138837
 30
0.0
 40
4.489781481990509
100
AcDbArc
 50
267.3947487349
 51
0.0
  0
ARC
  5
DE
330
1F
100
AcDbEntity
  8
0
  6
Continuous
 62
     7
370
    15
100
AcDbCircle
 10
67.1135272045
 20
167.9578986397
 30
0.0
 40
1.010218518010501
100
AcDbArc
 50
87.394748735
 51
180.0
  0
ARC
  5
DF
330
1F
100
AcDbEntity
  8
0
  6
Continuous
 62
     7
370
    15
100
AcDbCircle
 10
67.1135272045
 20
137.9465291276
 30
0.0
 40
1.010218518010473
100
AcDbArc
 50
180.0
 51
272.605251265
  0
ARC
  5
E0
330
1F
100
AcDbEntity
  8
0
  6
Continuous
 62
     7
370
    15
100
AcDbCircle
 10
67.3635272045
 20
132.4522138837
 30
0.0
 40
4.489781481990537
100
AcDbArc
 50
0.0
 51
92.6052512651
  0
ARC
  5
E1
330
1F
100
AcDbEntity
  8
0
  6
Continuous
 62
     7
370
    15
100
AcDbCircle
 10
117.6135272045
 20
139.9522138837
 30
0.0
 40
3.250000000000011
100
AcDbArc
 50
180.0
 51
237.6345621608
  0
LINE
  5
E2
330
1F
100
AcDbEntity
  8
0
  6
Continuous
 62
     7
370
    15
100
AcDbLine
 10
114.3635272045
 20
139.9522138837
 30
0.0
 11
114.3635272045
 21
165.9522138837
 31
0.0
  0
ARC
  5
E3
330
1F
100
AcDbEntity
  8
0
  6
Continuous
 62
     7
370
    15
100
AcDbCircle
 10
117.6135272045
 20
165.9522138837
 30
0.0
 40
3.25
100
AcDbArc
 50
122.3654378392
 51
180.0
  0
CIRCLE
  5
E4
330
1F
100
AcDbEntity
  8
0
  6
Continuous
 62
     7
370
    15
100
AcDbCircle
 10
117.6135272045
 20
152.9522138837
 30
0.0
 40
1.624999999961545
  0
CIRCLE
  5
E5
330
1F
100
AcDbEntity
  8
0
  6
Continuous
 62
     7
370
    15
100
AcDbCircle
 10
117.6135272045
 20
165.9522138837
 30
0.0
 40
1.624999999961574
  0
CIRCLE
  5
E6
330
1F
100
AcDbEntity
  8
0
  6
Continuous
 62
     7
370
    15
100
AcDbCircle
 10
117.6135272045
 20
139.9522138837
 30
0.0
 40
1.624999999961574
  0
LINE
  5
E7
330
1F
100
AcDbEntity
  8
0
  6
Continuous
 62
     7
370
    15
100
AcDbLine
 10
115.8737457225
 20
168.697329618
 30
0.0
 11
115.8737457225
 21
173.4522138837
 31
0.0
  0
LINE
  5
E8
330
1F
100
AcDbEntity
  8
0
  6
Continuous
 62
     7
370
    15
100
AcDbLine
 10
115.8737457225
 20
132.4522138837
 30
0.0
 11
115.8737457225
 21
137.2070981493
 31
0.0
  0
ARC
  5
E9
330
1F
100
AcDbEntity
  8
0
  6
Continuous
 62
     7
370
    15
100
AcDbCircle
 10
120.3635272045
 20
132.4522138837
 30
0.0
 40
4.489781481990537
100
AcDbArc
 50
87.3947487349
 51
180.0
  0
ARC
  5
EA
330
1F
100
AcDbEntity
  8
0
  6
Continuous
 62
     7
370
    15
100
AcDbCircle
 10
120.6135272045
 20
137.9465291276
 30
0.0
 40
1.010218518010473
100
AcDbArc
 50
267.394748735
 51
0.0
  0
ARC
  5
EB
330
1F
100
AcDbEntity
  8
0
  6
Continuous
 62
     7
370
    15
100
AcDbCircle
 10
120.3635272045
 20
173.4522138837
 30
0.0
 40
4.489781481990509
100
AcDbArc
 50
180.0
 51
272.6052512651
  0
ARC
  5
EC
330
1F
100
AcDbEntity
  8
0
  6
Continuous
 62
     7
370
    15
100
AcDbCircle
 10
120.6135272045
 20
167.9578986397
 30
0.0
 40
1.010218518010501
100
AcDbArc
 50
0.0
 51
92.605251265
  0
LINE
  5
ED
330
1F
100
AcDbEntity
  8
0
  6
Continuous
 62
     7
370
    15
100
AcDbLine
 10
121.6237457225
 20
167.9578986397
 30
0.0
 11
121.6237457225
 21
137.9465291276
 31
0.0
  0
CIRCLE
  5
EE
330
1F
100
AcDbEntity
  8
0
  6
Continuous
 62
     7
370
    15
100
AcDbCircle
 10
117.6135272045
 20
165.9522138837
 30
0.0
 40
1.249999999977263
  0
CIRCLE
  5
EF
330
1F
100
AcDbEntity
  8
0
  6
Continuous
 62
     7
370
    15
100
AcDbCircle
 10
117.6135272045
 20
139.9522138837
 30
0.0
 40
1.249999999977263
  0
CIRCLE
  5
F0
330
1F
100
AcDbEntity
  8
0
  6
Continuous
 62
     7
370
    15
100
AcDbCircle
 10
117.6135272045
 20
152.9522138837
 30
0.0
 40
1.249999999977263
  0
SPLINE
  5
F1
330
1F
100
AcDbEntity
  8
0
  6
Continuous
 62
     7
370
    15
100
AcDbSpline
210
0.0
220
0.0
230
1.0
 70
     8
 71
     3
 72
    15
 73
    11
 74
     0
 42
0.000000001
 43
0.00000001
 40
0.0
 40
0.0
 40
0.0
 40
0.0
 40
0.1522668535753534
 40
0.2967187578507725
 40
0.4334033578175036
 40
0.562302165335272
 40
0.68341612311016
 40
0.7967299342455383
 40
0.9022653338621147
 40
1.0
 40
1.0
 40
1.0
 40
1.0
 10
44.09870674944636
 20
124.3295119833545
 30
0.0
 10
44.0987073195588
 20
124.3472412183282
 30
0.0
 10
44.09870843052317
 20
124.3817897524017
 30
0.0
 10
44.0987098691292
 20
124.6453876650281
 30
0.0
 10
44.09871108128107
 20
125.019633972841
 30
0.0
 10
44.09871205570275
 20
125.4809192016837
 30
0.0
 10
44.09871279747691
 20
125.9894755113742
 30
0.0
 10
44.09871329807513
 20
126.5151116625498
 30
0.0
 10
44.0987135853799
 20
127.0326682248314
 30
0.0
 10
44.09871357270118
 20
127.3726645974849
 30
0.0
 10
44.09871356660509
 20
127.5361388987602
 30
0.0
  0
SPLINE
  5
F2
330
1F
100
AcDbEntity
  8
0
  6
Continuous
 62
     7
370
    15
100
AcDbSpline
210
0.0
220
0.0
230
1.0
 70
     8
 71
     3
 72
    11
 73
     7
 74
     0
 42
0.000000001
 43
0.00000001
 40
0.0
 40
0.0
 40
0.0
 40
0.0
 40
0.2499431968718891
 40
0.499898492060575
 40
0.7499182915379633
 40
1.0
 40
1.0
 40
1.0
 40
1.0
 10
44.09871356662869
 20
178.3983201107676
 30
0.0
 10
44.09866791307417
 20
178.712403522878
 30
0.0
 10
44.09857660375526
 20
179.3405855500757
 30
0.0
 10
44.09843882822594
 20
180.1965274515831
 30
0.0
 10
44.09830053854711
 20
180.914371557477
 30
0.0
 10
44.0982078284167
 20
181.2011000722545
 30
0.0
 10
44.09816146761307
 20
181.3444820771114
 30
0.0
  0
SPLINE
  5
F3
330
1F
100
AcDbEntity
  8
0
  6
Continuous
 62
     7
370
    15
100
AcDbSpline
210
0.0
220
0.0
230
1.0
 70
     8
 71
     3
 72
     9
 73
     5
 74
     0
 42
0.000000001
 43
0.00000001
 40
0.0
 40
0.0
 40
0.0
 40
0.0
 40
0.5882371318442001
 40
1.0
 40
1.0
 40
1.0
 40
1.0
 10
44.09871379240118
 20
181.5747463614809
 30
0.0
 10
44.08487983392438
 20
181.6304503005532
 30
0.0
 10
44.06136217798612
 20
181.7251467011318
 30
0.0
 10
44.00950617311697
 20
181.6952912796293
 30
0.0
 10
43.98815379582096
 20
181.6829979256415
 30
0.0
  0
SPLINE
  5
F4
330
1F
100
AcDbEntity
  8
0
  6
Continuous
 62
     7
370
    15
100
AcDbSpline
210
0.0
220
0.0
230
1.0
 70
     8
 71
     3
 72
    11
 73
     7
 74
     0
 42
0.000000001
 43
0.00000001
 40
0.0
 40
0.0
 40
0.0
 40
0.0
 40
0.2554153223074773
 40
0.5148610306702633
 40
0.7663725439786014
 40
1.0
 40
1.0
 40
1.0
 40
1.0
 10
44.04740332069508
 20
181.6939208743472
 30
0.0
 10
44.00239870905999
 20
181.7840186203254
 30
0.0
 10
43.9116793249525
 20
181.9656358308214
 30
0.0
 10
43.67931235840982
 20
182.1678937492506
 30
0.0
 10
43.40929504260228
 20
182.2984284741738
 30
0.0
 10
43.21643868760838
 20
182.3159936554827
 30
0.0
 10
43.12356521744162
 20
182.3244524866283
 30
0.0
  0
SPLINE
  5
F5
330
1F
100
AcDbEntity
  8
0
  6
Continuous
 62
     7
370
    15
100
AcDbSpline
210
0.0
220
0.0
230
1.0
 70
     8
 71
     3
 72
     9
 73
     5
 74
     0
 42
0.000000001
 43
0.00000001
 40
0.0
 40
0.0
 40
0.0
 40
0.0
 40
0.7015000842432579
 40
1.0
 40
1.0
 40
1.0
 40
1.0
 10
44.04740332069508
 20
181.2088253370139
 30
0.0
 10
44.06889920677458
 20
181.2675425326731
 30
0.0
 10
44.09954194875325
 20
181.3512448685361
 30
0.0
 10
44.10463282601138
 20
181.3399769166344
 30
0.0
 10
44.10615245244406
 20
181.336613433941
 30
0.0
  0
LINE
  5
F6
330
1F
100
AcDbEntity
  8
0
  6
Continuous
 62
     7
370
    15
100
AcDbLine
 10
44.3645090643
 20
176.4522138837
 30
0.0
 11
44.1145090643
 21
176.4522138837
 31
0.0
  0
LINE
  5
F7
330
1F
100
AcDbEntity
  8
0
  6
Continuous
 62
     7
370
    15
100
AcDbLine
 10
44.1145090643
 20
170.4522138837
 30
0.0
 11
44.3645090643
 21
170.4522138837
 31
0.0
  0
LINE
  5
F8
330
1F
100
AcDbEntity
  8
0
  6
Continuous
 62
     7
370
    15
100
AcDbLine
 10
44.3645090643
 20
135.4522138837
 30
0.0
 11
44.1145090643
 21
135.4522138837
 31
0.0
  0
LINE
  5
F9
330
1F
100
AcDbEntity
  8
0
  6
Continuous
 62
     7
370
    15
100
AcDbLine
 10
44.1145090643
 20
129.4522138837
 30
0.0
 11
44.3645090643
 21
129.4522138837
 31
0.0
  0
LINE
  5
FA
330
1F
100
AcDbEntity
  8
0
  6
Continuous
 62
     7
370
    15
100
AcDbLine
 10
10.3645090643
 20
135.5965291276
 30
0.0
 11
11.3645090643
 21
135.5965291276
 31
0.0
  0
LINE
  5
FB
330
1F
100
AcDbEntity
  8
0
  6
Continuous
 62
     7
370
    15
100
AcDbLine
 10
11.3645090643
 20
170.3078986397
 30
0.0
 11
10.3645090643
 21
170.3078986397
 31
0.0
  0
SPLINE
  5
FC
330
1F
100
AcDbEntity
  8
0
  6
Continuous
 62
     7
370
    15
100
AcDbSpline
210
0.0
220
0.0
230
1.0
 70
     8
 71
     3
 72
    14
 73
    10
 74
     0
 42
0.000000001
 43
0.00000001
 40
0.0
 40
0.0
 40
0.0
 40
0.0
 40
0.1279960780379711
 40
0.2662082168714649
 40
0.4146071830316637
 40
0.5732214414462925
 40
0.7420309588676902
 40
0.9210369698903963
 40
0.9999999999999999
 40
0.9999999999999999
 40
0.9999999999999999
 40
0.9999999999999999
 10
44.09871356660509
 20
178.3682888685947
 30
0.0
 10
44.09871357269542
 20
178.5317574696475
 30
0.0
 10
44.09871358536218
 20
178.8717419868906
 30
0.0
 10
44.09871329815459
 20
179.3893952916827
 30
0.0
 10
44.09871279714442
 20
179.9146222345275
 30
0.0
 10
44.09871205706951
 20
180.4248681188757
 30
0.0
 10
44.0987110756824
 20
180.879229521118
 30
0.0
 10
44.09871013487461
 20
181.1990871800191
 30
0.0
 10
44.09870946988043
 20
181.3044700138456
 30
0.0
 10
44.09870926632905
 20
181.3367271709213
 30
0.0
  0
SPLINE
  5
FD
330
1F
100
AcDbEntity
  8
0
  6
Continuous
 62
     7
370
    15
100
AcDbSpline
210
0.0
220
0.0
230
1.0
 70
     8
 71
     3
 72
     9
 73
     5
 74
     0
 42
0.000000001
 43
0.00000001
 40
0.0
 40
0.0
 40
0.0
 40
0.0
 40
0.0188241236701508
 40
1.0
 40
1.0
 40
1.0
 40
1.0
 10
44.09870845573355
 20
181.4782140022375
 30
0.0
 10
44.09870844602665
 20
181.4799204175699
 30
0.0
 10
44.09870793036335
 20
181.570570870272
 30
0.0
 10
44.09870733429285
 20
181.5727639687242
 30
0.0
 10
44.09870674944284
 20
181.57491578402
 30
0.0
  0
LINE
  5
FE
330
1F
100
AcDbEntity
  8
0
  6
Continuous
 62
     7
370
    15
100
AcDbLine
 10
11.3645090643
 20
126.9516046643
 30
0.0
 11
11.3645090643
 21
122.9522138837
 31
0.0
  0
LINE
  5
FF
330
1F
100
AcDbEntity
  8
0
  6
Continuous
 62
     7
370
    15
100
AcDbLine
 10
11.3645090643
 20
126.9516046643
 30
0.0
 11
43.1319610597
 21
127.5062511954
 31
0.0
  0
SPLINE
  5
100
330
1F
100
AcDbEntity
  8
0
  6
Continuous
 62
     7
370
    15
100
AcDbSpline
210
0.0
220
0.0
230
1.0
 70
     8
 71
     3
 72
    53
 73
    49
 74
     0
 42
0.000000001
 43
0.00000001
 40
0.0
 40
0.0
 40
0.0
 40
0.0
 40
0.0217273179212264
 40
0.0434641108112135
 40
0.06520684496469
 40
0.0869520175128953
 40
0.1086962685406374
 40
0.1304371423075601
 40
0.1521749920211653
 40
0.173910713543267
 40
0.1956450925362164
 40
0.2173788874210982
 40
0.2391129123790361
 40
0.2608479770762586
 40
0.2825842060607743
 40
0.3043213438417878
 40
0.3260590473151815
 40
0.3477969763299624
 40
0.369534884141906
 40
0.3912727241505538
 40
0.4130106503833254
 40
0.4347487063686654
 40
0.4564868249610833
 40
0.4782249170442129
 40
0.4999629603414769
 40
0.5217010845006127
 40
0.543439483029223
 40
0.5651781930112092
 40
0.5869171445299531
 40
0.6086562495786656
 40
0.6303954908856523
 40
0.6521349953273433
 40
0.6738748377090729
 40
0.6956148441286754
 40
0.7173547053239805
 40
0.7390940682956868
 40
0.7608326268076239
 40
0.7825702557282778
 40
0.8043075189257337
 40
0.8260452749334748
 40
0.8477842975831636
 40
0.8695253507023498
 40
0.891269271173498
 40
0.9130169273699104
 40
0.9347671410595293
 40
0.9565167080956699
 40
0.978262173265479
 40
0.9999999999999999
 40
0.9999999999999999
 40
0.9999999999999999
 40
0.9999999999999999
 10
43.13196079232497
 20
127.5062511965946
 30
0.0
 10
43.13215679330297
 20
127.4607525990995
 30
0.0
 10
43.13254888073216
 20
127.3697355628295
 30
0.0
 10
43.13310409282509
 20
127.2333471926741
 30
0.0
 10
43.13363540366653
 20
127.0972385054042
 30
0.0
 10
43.13414041893518
 20
126.9615894300033
 30
0.0
 10
43.13461976695972
 20
126.8265783270544
 30
0.0
 10
43.13507328676004
 20
126.6923777379887
 30
0.0
 10
43.13550097578413
 20
126.5591450716938
 30
0.0
 10
43.13590280513793
 20
126.4270293355875
 30
0.0
 10
43.13627876677482
 20
126.2961781370508
 30
0.0
 10
43.1366288491385
 20
126.1667391214725
 30
0.0
 10
43.13695304193618
 20
126.0388600112106
 30
0.0
 10
43.13725132956298
 20
125.9126914055209
 30
0.0
 10
43.13752370727187
 20
125.788375168183
 30
0.0
 10
43.13777016896186
 20
125.6660533312131
 30
0.0
 10
43.13799070777845
 20
125.5458685906743
 30
0.0
 10
43.13818531752944
 20
125.4279637298377
 30
0.0
 10
43.13835399264806
 20
125.3124810188769
 30
0.0
 10
43.13849672780513
 20
125.1995648379831
 30
0.0
 10
43.13861351742809
 20
125.0893413923051
 30
0.0
 10
43.13870435842517
 20
124.9819326963942
 30
0.0
 10
43.1387692483885
 20
124.8774614198633
 30
0.0
 10
43.13880818548937
 20
124.7760502428169
 30
0.0
 10
43.13882116844993
 20
124.6778211861605
 30
0.0
 10
43.13880819660149
 20
124.5828993922396
 30
0.0
 10
43.13876927052011
 20
124.4913895601244
 30
0.0
 10
43.13870439158109
 20
124.4033901727526
 30
0.0
 10
43.13861356167692
 20
124.3190010678053
 30
0.0
 10
43.13849678329787
 20
124.2383220114043
 30
0.0
 10
43.13835405940795
 20
124.1614518939924
 30
0.0
 10
43.13818539482067
 20
124.0884938476513
 30
0.0
 10
43.13799079577336
 20
124.0195272811029
 30
0.0
 10
43.13777026776079
 20
123.9546217594658
 30
0.0
 10
43.13752381712731
 20
123.8938492230255
 30
0.0
 10
43.13725145058882
 20
123.8372812984315
 30
0.0
 10
43.13695317580628
 20
123.7849887495844
 30
0.0
 10
43.13662899632653
 20
123.7370458761853
 30
0.0
 10
43.13627892460917
 20
123.6935051569119
 30
0.0
 10
43.13590297417583
 20
123.6544060472144
 30
0.0
 10
43.1355011561411
 20
123.6197902006673
 30
0.0
 10
43.13507347936353
 20
123.5896996674273
 30
0.0
 10
43.13461996611535
 20
123.5641726348151
 30
0.0
 10
43.13414061230973
 20
123.5432635247124
 30
0.0
 10
43.13363560663692
 20
123.5269623904433
 30
0.0
 10
43.13310430579977
 20
123.5153851978487
 30
0.0
 10
43.1325491007679
 20
123.5081151800989
 30
0.0
 10
43.13215704399929
 20
123.5071989581125
 30
0.0
 10
43.13196105005004
 20
123.5067409275928
 30
0.0
  0
LINE
  5
101
330
1F
100
AcDbEntity
  8
0
  6
Continuous
 62
     7
370
    15
100
AcDbLine
 10
11.3645090643
 20
122.9522138837
 30
0.0
 11
43.1319614707
 21
123.506716828
 31
0.0
  0
LINE
  5
102
330
1F
100
AcDbEntity
  8
0
  6
Continuous
 62
     7
370
    15
100
AcDbLine
 10
11.3645090643
 20
178.9528231031
 30
0.0
 11
11.3645090643
 21
126.9516046643
 31
0.0
  0
LINE
  5
103
330
1F
100
AcDbEntity
  8
0
  6
Continuous
 62
     7
370
    15
100
AcDbLine
 10
43.1319614707
 20
178.3983201578
 30
0.0
 11
11.3645090643
 21
178.9528231031
 31
0.0
  0
LINE
  5
104
330
1F
100
AcDbEntity
  8
0
  6
Continuous
 62
     7
370
    15
100
AcDbLine
 10
43.1319614707
 20
178.3983201587
 30
0.0
 11
43.1319614707
 21
127.5062511954
 31
0.0
  0
LINE
  5
105
330
1F
100
AcDbEntity
  8
0
  6
Continuous
 62
     7
370
    15
100
AcDbLine
 10
11.3645090643
 20
182.9522138837
 30
0.0
 11
11.3645090643
 21
178.9528231031
 31
0.0
  0
LINE
  5
106
330
1F
100
AcDbEntity
  8
0
  6
Continuous
 62
     7
370
    15
100
AcDbLine
 10
11.3645090643
 20
182.9522138837
 30
0.0
 11
43.1319610597
 21
182.3977109465
 31
0.0
  0
LINE
  5
107
330
1F
100
AcDbEntity
  8
0
  6
Continuous
 62
     7
370
    15
100
AcDbLine
 10
43.1319610596
 20
182.3977109439
 30
0.0
 11
43.1349935794
 21
182.3194865124
 31
0.0
  0
LINE
  5
108
330
1F
100
AcDbEntity
  8
0
  6
Continuous
 62
     7
370
    15
100
AcDbLine
 10
44.0808208434
 20
127.5061238496
 30
0.0
 11
44.1145090643
 21
127.5061076087
 31
0.0
  0
SPLINE
  5
109
330
1F
100
AcDbEntity
  8
0
  6
Continuous
 62
     7
370
    15
100
AcDbSpline
210
0.0
220
0.0
230
1.0
 70
     8
 71
     3
 72
    11
 73
     7
 74
     0
 42
0.000000001
 43
0.00000001
 40
0.0
 40
0.0
 40
0.0
 40
0.0
 40
0.2823223587811
 40
0.5646447175622005
 40
0.8469670763433009
 40
0.9999999999999999
 40
0.9999999999999999
 40
0.9999999999999999
 40
0.9999999999999999
 10
43.13196147070002
 20
123.5067168280361
 30
0.0
 10
43.2614848696622
 20
123.5235957594275
 30
0.0
 10
43.52053166758658
 20
123.5573536222102
 30
0.0
 10
43.84142938283077
 20
123.7905085613892
 30
0.0
 10
44.04384310387131
 20
124.0650797579646
 30
0.0
 10
44.07089964347899
 20
124.263437305416
 30
0.0
 10
44.08041036156884
 20
124.3331625083488
 30
0.0
  0
SPLINE
  5
10A
330
1F
100
AcDbEntity
  8
0
  6
Continuous
 62
     7
370
    15
100
AcDbSpline
210
0.0
220
0.0
230
1.0
 70
     8
 71
     3
 72
    22
 73
    18
 74
     0
 42
0.000000001
 43
0.00000001
 40
0.0
 40
0.0
 40
0.0
 40
0.0
 40
0.125
 40
0.125
 40
0.25
 40
0.25
 40
0.375
 40
0.375
 40
0.5
 40
0.5
 40
0.625
 40
0.625
 40
0.75
 40
0.75
 40
0.875
 40
0.875
 40
1.0
 40
1.0
 40
1.0
 40
1.0
 10
44.11450906403535
 20
134.1896532325681
 30
0.0
 10
44.11450713823266
 20
134.061807350781
 30
0.0
 10
44.10246840364503
 20
133.9291970253321
 30
0.0
 10
44.06870310962974
 20
133.6539651912766
 30
0.0
 10
44.04664036525455
 20
133.5104169378622
 30
0.0
 10
44.00420785409409
 20
133.2165860314976
 30
0.0
 10
43.98404699458745
 20
133.0673150054187
 30
0.0
 10
43.95524371719316
 20
132.7631627855907
 30
0.0
 10
43.9467399506204
 20
132.6073344253169
 30
0.0
 10
43.94684513794547
 20
132.2940685981745
 30
0.0
 10
43.95533950246505
 20
132.1399093437138
 30
0.0
 10
43.98419090551488
 20
131.8359401699771
 30
0.0
 10
44.00454705965819
 20
131.6853885936002
 30
0.0
 10
44.0470545095043
 20
131.3912491494624
 30
0.0
 10
44.06883634944123
 20
131.2494648081885
 30
0.0
 10
44.10245835326349
 20
130.9752240290584
 30
0.0
 10
44.11450713583634
 20
130.8427795082762
 30
0.0
 10
44.11450906403551
 20
130.7147745347868
 30
0.0
  0
LINE
  5
10B
330
1F
100
AcDbEntity
  8
0
  6
Continuous
 62
     7
370
    15
100
AcDbLine
 10
44.1145090643
 20
127.5061076087
 30
0.0
 11
44.1145090643
 21
130.7147895983
 31
0.0
  0
LINE
  5
10C
330
1F
100
AcDbEntity
  8
0
  6
Continuous
 62
     7
370
    15
100
AcDbLine
 10
44.1145090643
 20
178.3983201587
 30
0.0
 11
44.0804228957
 21
178.3983201587
 31
0.0
  0
LINE
  5
10D
330
1F
100
AcDbEntity
  8
0
  6
Continuous
 62
     7
370
    15
100
AcDbLine
 10
44.1145090643
 20
175.1896381691
 30
0.0
 11
44.1145090643
 21
178.3983201587
 31
0.0
  0
SPLINE
  5
10E
330
1F
100
AcDbEntity
  8
0
  6
Continuous
 62
     7
370
    15
100
AcDbSpline
210
0.0
220
0.0
230
1.0
 70
     8
 71
     3
 72
    22
 73
    18
 74
     0
 42
0.000000001
 43
0.00000001
 40
0.0
 40
0.0
 40
0.0
 40
0.0
 40
0.125
 40
0.125
 40
0.25
 40
0.25
 40
0.375
 40
0.375
 40
0.5
 40
0.5
 40
0.625
 40
0.625
 40
0.75
 40
0.75
 40
0.875
 40
0.875
 40
1.0
 40
1.0
 40
1.0
 40
1.0
 10
44.11450906403535
 20
171.7147745347868
 30
0.0
 10
44.11450713823266
 20
171.8426204165739
 30
0.0
 10
44.10246840364503
 20
171.9752307420228
 30
0.0
 10
44.06870310962974
 20
172.2504625760783
 30
0.0
 10
44.04664036525455
 20
172.3940108294927
 30
0.0
 10
44.00420785409409
 20
172.6878417358573
 30
0.0
 10
43.98404699458745
 20
172.8371127619363
 30
0.0
 10
43.95524371719316
 20
173.1412649817643
 30
0.0
 10
43.9467399506204
 20
173.297093342038
 30
0.0
 10
43.94684513794547
 20
173.6103591691804
 30
0.0
 10
43.95533950246505
 20
173.7645184236411
 30
0.0
 10
43.98419090551488
 20
174.0684875973778
 30
0.0
 10
44.00454705965819
 20
174.2190391737547
 30
0.0
 10
44.0470545095043
 20
174.5131786178925
 30
0.0
 10
44.06883634944123
 20
174.6549629591663
 30
0.0
 10
44.10245835326349
 20
174.9292037382965
 30
0.0
 10
44.11450713583634
 20
175.0616482590787
 30
0.0
 10
44.11450906403551
 20
175.1896532325681
 30
0.0
  0
LINE
  5
10F
330
1F
100
AcDbEntity
  8
0
  6
Continuous
 62
     7
370
    15
100
AcDbLine
 10
44.1145090643
 20
134.1896381691
 30
0.0
 11
44.1145090643
 21
171.7147895983
 31
0.0
  0
LINE
  5
110
330
1F
100
AcDbEntity
  8
0
  6
Continuous
 62
     7
370
    15
100
AcDbLine
 10
44.0792481938
 20
181.5771751781
 30
0.0
 11
44.1145090643
 21
181.3978632442
 31
0.0
  0
LINE
  5
111
330
1F
100
AcDbEntity
  8
0
  6
Continuous
 62
     7
370
    15
100
AcDbLine
 10
44.1145090643
 20
181.3410333343
 30
0.0
 11
44.1145090643
 21
181.3978632442
 31
0.0
  0
LINE
  5
112
330
1F
100
AcDbEntity
  8
0
  6
Continuous
 62
     7
370
    15
100
AcDbLine
 10
44.3645090643
 20
170.4522138837
 30
0.0
 11
44.3645090643
 21
176.4522138837
 31
0.0
  0
LINE
  5
113
330
1F
100
AcDbEntity
  8
0
  6
Continuous
 62
     7
370
    15
100
AcDbLine
 10
44.3645090643
 20
129.4522138837
 30
0.0
 11
44.3645090643
 21
135.4522138837
 31
0.0
  0
LINE
  5
114
330
1F
100
AcDbEntity
  8
0
  6
Continuous
 62
     7
370
    15
100
AcDbLine
 10
10.3645090643
 20
167.9578986397
 30
0.0
 11
10.3645090643
 21
137.9465291276
 31
0.0
  0
LINE
  5
115
330
1F
100
AcDbEntity
  8
0
  6
Continuous
 62
     7
370
    15
100
AcDbLine
 10
11.3645090643
 20
167.9578986397
 30
0.0
 11
10.3645090643
 21
167.9578986397
 31
0.0
  0
LINE
  5
116
330
1F
100
AcDbEntity
  8
0
  6
Continuous
 62
     7
370
    15
100
AcDbLine
 10
11.3645090643
 20
137.9465291276
 30
0.0
 11
10.3645090643
 21
137.9465291276
 31
0.0
  0
LINE
  5
117
330
1F
100
AcDbEntity
  8
0
  6
Continuous
 62
     7
370
    15
100
AcDbLine
 10
10.3645090643
 20
137.9465291276
 30
0.0
 11
10.3645090643
 21
135.5965291276
 31
0.0
  0
LINE
  5
118
330
1F
100
AcDbEntity
  8
0
  6
Continuous
 62
     7
370
    15
100
AcDbLine
 10
10.3645090643
 20
170.3078986397
 30
0.0
 11
10.3645090643
 21
167.9578986397
 31
0.0
  0
LINE
  5
119
330
1F
100
AcDbEntity
  8
0
  6
Continuous
 62
     7
370
    15
100
AcDbLine
 10
10.3645090643
 20
173.4522138837
 30
0.0
 11
11.3645090643
 21
173.4522138837
 31
0.0
  0
LINE
  5
11A
330
1F
100
AcDbEntity
  8
0
  6
Continuous
 62
     7
370
    15
100
AcDbLine
 10
10.3645090643
 20
170.3078986397
 30
0.0
 11
10.3645090643
 21
173.4522138837
 31
0.0
  0
LINE
  5
11B
330
1F
100
AcDbEntity
  8
0
  6
Continuous
 62
     7
370
    15
100
AcDbLine
 10
11.3645090643
 20
132.4522138837
 30
0.0
 11
10.3645090643
 21
132.4522138837
 31
0.0
  0
LINE
  5
11C
330
1F
100
AcDbEntity
  8
0
  6
Continuous
 62
     7
370
    15
100
AcDbLine
 10
10.3645090643
 20
132.4522138837
 30
0.0
 11
10.3645090643
 21
135.5965291276
 31
0.0
  0
LINE
  5
11D
330
1F
100
AcDbEntity
  8
0
  6
Continuous
 62
     7
370
    15
100
AcDbLine
 10
11.3645090643
 20
126.7022138837
 30
0.0
 11
10.3645090643
 21
126.7022138837
 31
0.0
  0
LINE
  5
11E
330
1F
100
AcDbEntity
  8
0
  6
Continuous
 62
     7
370
    15
100
AcDbLine
 10
11.3645090643
 20
124.3522138837
 30
0.0
 11
10.3645090643
 21
124.3522138837
 31
0.0
  0
LINE
  5
11F
330
1F
100
AcDbEntity
  8
0
  6
Continuous
 62
     7
370
    15
100
AcDbLine
 10
10.3645090643
 20
126.7022138837
 30
0.0
 11
10.3645090643
 21
124.3522138837
 31
0.0
  0
LINE
  5
120
330
1F
100
AcDbEntity
  8
0
  6
Continuous
 62
     7
370
    15
100
AcDbLine
 10
11.3645090643
 20
179.2022138837
 30
0.0
 11
10.3645090643
 21
179.2022138837
 31
0.0
  0
LINE
  5
121
330
1F
100
AcDbEntity
  8
0
  6
Continuous
 62
     7
370
    15
100
AcDbLine
 10
10.3645090643
 20
179.2022138837
 30
0.0
 11
10.3645090643
 21
173.4522138837
 31
0.0
  0
LINE
  5
122
330
1F
100
AcDbEntity
  8
0
  6
Continuous
 62
     7
370
    15
100
AcDbLine
 10
10.3645090643
 20
181.5522138837
 30
0.0
 11
11.3645090643
 21
181.5522138837
 31
0.0
  0
LINE
  5
123
330
1F
100
AcDbEntity
  8
0
  6
Continuous
 62
     7
370
    15
100
AcDbLine
 10
10.3645090643
 20
181.5522138837
 30
0.0
 11
10.3645090643
 21
179.2022138837
 31
0.0
  0
LINE
  5
124
330
1F
100
AcDbEntity
  8
0
  6
Continuous
 62
     7
370
    15
100
AcDbLine
 10
10.3645090643
 20
132.4522138837
 30
0.0
 11
10.3645090643
 21
126.7022138837
 31
0.0
  0
SPLINE
  5
125
330
1F
100
AcDbEntity
  8
0
  6
Continuous
 62
     8
370
    15
100
AcDbSpline
210
0.0
220
0.0
230
1.0
 70
     8
 71
     3
 72
    15
 73
    11
 74
     0
 42
0.000000001
 43
0.00000001
 40
0.0
 40
0.0
 40
0.0
 40
0.0
 40
0.0090925437650532
 40
0.1534501526523858
 40
0.2938933570699262
 40
0.4304227153676384
 40
0.5669695937251129
 40
0.7074144150037782
 40
0.8517577459504749
 40
1.0
 40
1.0
 40
1.0
 40
1.0
 10
43.1349935794244
 20
182.319486512408
 30
0.0
 10
43.13506006852077
 20
182.317872451355
 30
0.0
 10
43.13618217056972
 20
182.2906327787872
 30
0.0
 10
43.13759356118983
 20
182.092146034817
 30
0.0
 10
43.13895643588797
 20
181.7324741085669
 30
0.0
 10
43.13930297579788
 20
181.242260601469
 30
0.0
 10
43.13894549593324
 20
180.6550383733846
 30
0.0
 10
43.13763729988803
 20
179.9720323815984
 30
0.0
 10
43.13533656032728
 20
179.2087914598021
 30
0.0
 10
43.13309645095683
 20
178.6708666760172
 30
0.0
 10
43.13196147070005
 20
178.3983201578475
 30
0.0
  0
SPLINE
  5
126
330
1F
100
AcDbEntity
  8
0
  6
Continuous
 62
     8
370
    15
100
AcDbSpline
210
0.0
220
0.0
230
1.0
 70
     8
 71
     3
 72
    11
 73
     7
 74
     0
 42
0.000000001
 43
0.00000001
 40
0.0
 40
0.0
 40
0.0
 40
0.0
 40
0.2818836184749436
 40
0.5637672369498911
 40
0.845650855424834
 40
1.0
 40
1.0
 40
1.0
 40
1.0
 10
43.1319610596915
 20
127.5062511953575
 30
0.0
 10
43.26148101239203
 20
127.5062392297995
 30
0.0
 10
43.52052091779309
 20
127.5062152986837
 30
0.0
 10
43.84147109341482
 20
127.5061794020099
 30
0.0
 10
44.04415509197429
 20
127.5061489189929
 30
0.0
 10
44.07123821427476
 20
127.5061304015337
 30
0.0
 10
44.08082084335167
 20
127.5061238496325
 30
0.0
  0
SPLINE
  5
127
330
1F
100
AcDbEntity
  8
0
  6
Continuous
 62
     8
370
    15
100
AcDbSpline
210
0.0
220
0.0
230
1.0
 70
    24
 71
     3
 72
    11
 73
     7
 74
     0
 42
0.000000001
 43
0.00000001
 40
0.0
 40
0.0
 40
0.0
 40
0.0
 40
0.1530731736165592
 40
0.4353821157443729
 40
0.7176910578721867
 40
0.9999999999999999
 40
0.9999999999999999
 40
0.9999999999999999
 40
0.9999999999999999
 10
44.0804228957042
 20
178.3983201586925
 30
0.0
 10
44.0709099774982
 20
178.3983201586925
 30
0.0
 10
44.04385262735921
 20
178.3983201586925
 30
0.0
 10
43.84143066552444
 20
178.3983201586925
 30
0.0
 10
43.52053134691318
 20
178.3983201586925
 30
0.0
 10
43.26148476277107
 20
178.3983201586925
 30
0.0
 10
43.13196147070002
 20
178.3983201586925
 30
0.0
  0
SPLINE
  5
128
330
1F
100
AcDbEntity
  8
0
  6
Continuous
 62
     7
370
    15
100
AcDbSpline
210
0.0
220
0.0
230
1.0
 70
     8
 71
     3
 72
    15
 73
    11
 74
     0
 42
0.000000001
 43
0.00000001
 40
0.0
 40
0.0
 40
0.0
 40
0.0
 40
0.1522668535729364
 40
0.2967187578470515
 40
0.433403357813353
 40
0.5623021653313516
 40
0.6834161231069289
 40
0.7967299342432855
 40
0.902265333860982
 40
1.0
 40
1.0
 40
1.0
 40
1.0
 10
64.74082530427995
 20
196.8439011304606
 30
0.0
 10
64.75855453924521
 20
196.8439005603496
 30
0.0
 10
64.79310307330258
 20
196.843899449388
 30
0.0
 10
65.05670098590464
 20
196.8438980107856
 30
0.0
 10
65.43094729369744
 20
196.8438967986369
 30
0.0
 10
65.8922325225255
 20
196.8438958242177
 30
0.0
 10
66.4007888322066
 20
196.8438950824455
 30
0.0
 10
66.92642498337734
 20
196.8438945818487
 30
0.0
 10
67.44398154565731
 20
196.8438942945448
 30
0.0
 10
67.78397791831055
 20
196.8438943072237
 30
0.0
 10
67.94745221958576
 20
196.8438943133198
 30
0.0
  0
SPLINE
  5
129
330
1F
100
AcDbEntity
  8
0
  6
Continuous
 62
     7
370
    15
100
AcDbSpline
210
0.0
220
0.0
230
1.0
 70
     8
 71
     3
 72
    11
 73
     7
 74
     0
 42
0.000000001
 43
0.00000001
 40
0.0
 40
0.0
 40
0.0
 40
0.0
 40
0.2499431968718917
 40
0.4998984920605776
 40
0.749918291537962
 40
0.9999999999999999
 40
0.9999999999999999
 40
0.9999999999999999
 40
0.9999999999999999
 10
119.8096334315932
 20
196.8438943132962
 30
0.0
 10
120.1237168437036
 20
196.8439399668508
 30
0.0
 10
120.7518988709013
 20
196.8440312761697
 30
0.0
 10
121.6078407724087
 20
196.844169051699
 30
0.0
 10
122.3256848783026
 20
196.8443073413778
 30
0.0
 10
122.61241339308
 20
196.8444000515082
 30
0.0
 10
122.755795397937
 20
196.8444464123119
 30
0.0
  0
SPLINE
  5
12A
330
1F
100
AcDbEntity
  8
0
  6
Continuous
 62
     7
370
    15
100
AcDbSpline
210
0.0
220
0.0
230
1.0
 70
     8
 71
     3
 72
     9
 73
     5
 74
     0
 42
0.000000001
 43
0.00000001
 40
0.0
 40
0.0
 40
0.0
 40
0.0
 40
0.5882371318392354
 40
1.0
 40
1.0
 40
1.0
 40
1.0
 10
122.9860596823035
 20
196.8438940875232
 30
0.0
 10
123.0417636213762
 20
196.857728046
 30
0.0
 10
123.1364600219562
 20
196.8812457019384
 30
0.0
 10
123.1066046004541
 20
196.9331017068083
 30
0.0
 10
123.0943112464662
 20
196.954454084105
 30
0.0
  0
SPLINE
  5
12B
330
1F
100
AcDbEntity
  8
0
  6
Continuous
 62
     7
370
    15
100
AcDbSpline
210
0.0
220
0.0
230
1.0
 70
     8
 71
     3
 72
    11
 73
     7
 74
     0
 42
0.000000001
 43
0.00000001
 40
0.0
 40
0.0
 40
0.0
 40
0.0
 40
0.255415322307476
 40
0.514861030670263
 40
0.7663725439785959
 40
1.0
 40
1.0
 40
1.0
 40
1.0
 10
123.1052341951728
 20
196.8952045592299
 30
0.0
 10
123.195331941151
 20
196.9402091708649
 30
0.0
 10
123.376949151647
 20
197.0309285549724
 30
0.0
 10
123.5792070700761
 20
197.2632955215151
 30
0.0
 10
123.7097417949994
 20
197.5333128373226
 30
0.0
 10
123.7273069763082
 20
197.7261691923165
 30
0.0
 10
123.7357658074539
 20
197.8190426624833
 30
0.0
  0
SPLINE
  5
12C
330
1F
100
AcDbEntity
  8
0
  6
Continuous
 62
     7
370
    15
100
AcDbSpline
210
0.0
220
0.0
230
1.0
 70
     8
 71
     3
 72
     9
 73
     5
 74
     0
 42
0.000000001
 43
0.00000001
 40
0.0
 40
0.0
 40
0.0
 40
0.0
 40
0.7015000842432503
 40
0.9999999999999999
 40
0.9999999999999999
 40
0.9999999999999999
 40
0.9999999999999999
 10
122.6201386578395
 20
196.8952045592299
 30
0.0
 10
122.6788558534996
 20
196.8737086731504
 30
0.0
 10
122.7625581893638
 20
196.8430659311717
 30
0.0
 10
122.7512902374618
 20
196.8379750539135
 30
0.0
 10
122.7479267547684
 20
196.8364554274809
 30
0.0
  0
LINE
  5
12D
330
1F
100
AcDbEntity
  8
0
  6
Continuous
 62
     7
370
    15
100
AcDbLine
 10
70.3635272045
 20
196.5780988157
 30
0.0
 11
70.3635272045
 21
196.8280988157
 31
0.0
  0
LINE
  5
12E
330
1F
100
AcDbEntity
  8
0
  6
Continuous
 62
     7
370
    15
100
AcDbLine
 10
64.3635272045
 20
196.9958155896
 30
0.0
 11
64.3635272045
 21
196.5780988157
 31
0.0
  0
LINE
  5
12F
330
1F
100
AcDbEntity
  8
0
  6
Continuous
 62
     7
370
    15
100
AcDbLine
 10
123.3635272045
 20
196.5780988157
 30
0.0
 11
123.3635272045
 21
196.9958155896
 31
0.0
  0
LINE
  5
130
330
1F
100
AcDbEntity
  8
0
  6
Continuous
 62
     7
370
    15
100
AcDbLine
 10
117.3635272045
 20
196.8280988157
 30
0.0
 11
117.3635272045
 21
196.5780988157
 31
0.0
  0
LINE
  5
131
330
1F
100
AcDbEntity
  8
0
  6
Continuous
 62
     7
370
    15
100
AcDbLine
 10
124.3635272045
 20
229.5780988157
 30
0.0
 11
120.3641364239
 21
229.5780988157
 31
0.0
  0
LINE
  5
132
330
1F
100
AcDbEntity
  8
0
  6
Continuous
 62
     7
370
    15
100
AcDbLine
 10
124.3635272045
 20
229.5780988157
 30
0.0
 11
123.8090242673
 21
197.8106468202
 31
0.0
  0
LINE
  5
133
330
1F
100
AcDbEntity
  8
0
  6
Continuous
 62
     7
370
    15
100
AcDbLine
 10
123.8090242647
 20
197.8106468203
 30
0.0
 11
123.7307990842
 21
197.8076142847
 31
0.0
  0
LINE
  5
134
330
1F
100
AcDbEntity
  8
0
  6
Continuous
 62
     7
370
    15
100
AcDbLine
 10
120.3641364239
 20
229.5780988157
 30
0.0
 11
119.8096334787
 21
197.8106464092
 31
0.0
  0
LINE
  5
135
330
1F
100
AcDbEntity
  8
0
  6
Continuous
 62
     7
370
    15
100
AcDbLine
 10
120.3641364239
 20
229.5780988157
 30
0.0
 11
67.3629179851
 21
229.5780988157
 31
0.0
  0
LINE
  5
136
330
1F
100
AcDbEntity
  8
0
  6
Continuous
 62
     7
370
    15
100
AcDbLine
 10
119.8096334795
 20
197.8106464092
 30
0.0
 11
67.9175645162
 21
197.8106464092
 31
0.0
  0
LINE
  5
137
330
1F
100
AcDbEntity
  8
0
  6
Continuous
 62
     7
370
    15
100
AcDbLine
 10
67.3629179851
 20
229.5780988157
 30
0.0
 11
67.9175645162
 21
197.8106468202
 31
0.0
  0
LINE
  5
138
330
1F
100
AcDbEntity
  8
0
  6
Continuous
 62
     7
370
    15
100
AcDbLine
 10
67.3629179851
 20
229.5780988157
 30
0.0
 11
63.3635272045
 21
229.5780988157
 31
0.0
  0
SPLINE
  5
139
330
1F
100
AcDbEntity
  8
0
  6
Continuous
 62
     7
370
    15
100
AcDbSpline
210
0.0
220
0.0
230
1.0
 70
     8
 71
     3
 72
    53
 73
    49
 74
     0
 42
0.000000001
 43
0.00000001
 40
0.0
 40
0.0
 40
0.0
 40
0.0
 40
0.0217273179209806
 40
0.0434641108107332
 40
0.0652068449639872
 40
0.0869520175119783
 40
0.1086962685395213
 40
0.1304371423062521
 40
0.152174992019678
 40
0.1739107135416088
 40
0.1956450925344025
 40
0.2173788874191368
 40
0.2391129123769392
 40
0.2608479770740382
 40
0.2825842060584374
 40
0.3043213438393497
 40
0.3260590473126493
 40
0.3477969763273492
 40
0.36953488413922
 40
0.3912727241478087
 40
0.4130106503805313
 40
0.434748706365834
 40
0.4564868249582256
 40
0.4782249170413368
 40
0.4999629603385971
 40
0.5217010844977387
 40
0.5434394830263658
 40
0.5651781930083782
 40
0.5869171445271602
 40
0.6086562495759221
 40
0.6303954908829693
 40
0.6521349953247302
 40
0.6738748377065403
 40
0.6956148441262345
 40
0.7173547053216442
 40
0.7390940682934662
 40
0.7608326268055268
 40
0.7825702557263174
 40
0.8043075189239213
 40
0.8260452749318199
 40
0.8477842975816781
 40
0.869525350701044
 40
0.8912692711723824
 40
0.9130169273689948
 40
0.9347671410588274
 40
0.9565167080951894
 40
0.9782621732652338
 40
1.0
 40
1.0
 40
1.0
 40
1.0
 10
67.91756451742017
 20
197.8106470875999
 30
0.0
 10
67.87206591992553
 20
197.8104510866219
 30
0.0
 10
67.78104888365662
 20
197.8100589991928
 30
0.0
 10
67.64466051350267
 20
197.8095037870998
 30
0.0
 10
67.50855182623413
 20
197.8089724762583
 30
0.0
 10
67.37290275083457
 20
197.8084674609897
 30
0.0
 10
67.2378916478869
 20
197.8079881129651
 30
0.0
 10
67.1036910588223
 20
197.8075345931648
 30
0.0
 10
66.97045839252846
 20
197.8071069041407
 30
0.0
 10
66.83834265642315
 20
197.8067050747869
 30
0.0
 10
66.70749145788727
 20
197.80632911315
 30
0.0
 10
66.5780524423097
 20
197.8059790307863
 30
0.0
 10
66.45017333204841
 20
197.8056548379886
 30
0.0
 10
66.32400472635926
 20
197.8053565503618
 30
0.0
 10
66.19968848902181
 20
197.8050841726529
 30
0.0
 10
66.07736665205229
 20
197.8048377109629
 30
0.0
 10
65.95718191151367
 20
197.8046171721464
 30
0.0
 10
65.83927705067735
 20
197.8044225623953
 30
0.0
 10
65.72379433971653
 20
197.8042538872767
 30
0.0
 10
65.61087815882273
 20
197.8041111521197
 30
0.0
 10
65.50065471314463
 20
197.8039943624966
 30
0.0
 10
65.39324601723354
 20
197.8039035214996
 30
0.0
 10
65.28877474070242
 20
197.8038386315363
 30
0.0
 10
65.18736356365572
 20
197.8037996944354
 30
0.0
 10
65.0891345069988
 20
197.8037867114749
 30
0.0
 10
64.9942127130775
 20
197.8037996833233
 30
0.0
 10
64.90270288096175
 20
197.8038386094047
 30
0.0
 10
64.8147034935894
 20
197.8039034883437
 30
0.0
 10
64.73031438864147
 20
197.8039943182478
 30
0.0
 10
64.64963533223985
 20
197.8041110966269
 30
0.0
 10
64.57276521482727
 20
197.8042538205169
 30
0.0
 10
64.49980716848536
 20
197.8044224851041
 30
0.0
 10
64.43084060193634
 20
197.8046170841515
 30
0.0
 10
64.36593508029841
 20
197.804837612164
 30
0.0
 10
64.30516254385743
 20
197.8050840627975
 30
0.0
 10
64.24859461926265
 20
197.805356429336
 30
0.0
 10
64.19630207041477
 20
197.8056547041186
 30
0.0
 10
64.14835919701505
 20
197.8059788835983
 30
0.0
 10
64.10481847774088
 20
197.8063289553156
 30
0.0
 10
64.06571936804275
 20
197.806704905749
 30
0.0
 10
64.03110352149508
 20
197.8071067237838
 30
0.0
 10
64.00101298825454
 20
197.8075344005613
 30
0.0
 10
63.9754859556419
 20
197.8079879138095
 30
0.0
 10
63.9545768455388
 20
197.8084672676151
 30
0.0
 10
63.93827571126933
 20
197.8089722732879
 30
0.0
 10
63.92669851867444
 20
197.8095035741251
 30
0.0
 10
63.91942850092448
 20
197.810058779157
 30
0.0
 10
63.91851227893813
 20
197.8104508359256
 30
0.0
 10
63.91805424841843
 20
197.8106468298749
 30
0.0
  0
LINE
  5
13A
330
1F
100
AcDbEntity
  8
0
  6
Continuous
 62
     7
370
    15
100
AcDbLine
 10
63.3635272045
 20
229.5780988157
 30
0.0
 11
63.9180301489
 21
197.8106464092
 31
0.0
  0
LINE
  5
13B
330
1F
100
AcDbEntity
  8
0
  6
Continuous
 62
     7
370
    15
100
AcDbLine
 10
67.9174371705
 20
196.8617870366
 30
0.0
 11
67.9174209295
 21
196.8280988157
 31
0.0
  0
SPLINE
  5
13C
330
1F
100
AcDbEntity
  8
0
  6
Continuous
 62
     7
370
    15
100
AcDbSpline
210
0.0
220
0.0
230
1.0
 70
     8
 71
     3
 72
    11
 73
     7
 74
     0
 42
0.000000001
 43
0.00000001
 40
0.0
 40
0.0
 40
0.0
 40
0.0
 40
0.2823223587601595
 40
0.5646447175203195
 40
0.8469670762804795
 40
0.9999999999999999
 40
0.9999999999999999
 40
0.9999999999999999
 40
0.9999999999999999
 10
63.91803014886169
 20
197.8106464092249
 30
0.0
 10
63.93490908025309
 20
197.6811230102629
 30
0.0
 10
63.96866694303591
 20
197.4220762123388
 30
0.0
 10
64.20182188221412
 20
197.1011784970921
 30
0.0
 10
64.47639307882055
 20
196.8987647760387
 30
0.0
 10
64.67475062630685
 20
196.8717082364298
 30
0.0
 10
64.74447582927387
 20
196.8621975183365
 30
0.0
  0
LINE
  5
13D
330
1F
100
AcDbEntity
  8
0
  6
Continuous
 62
     7
370
    15
100
AcDbLine
 10
119.8096334795
 20
196.8621849842
 30
0.0
 11
119.8096334795
 21
196.8280988157
 31
0.0
  0
LINE
  5
13E
330
1F
100
AcDbEntity
  8
0
  6
Continuous
 62
     7
370
    15
100
AcDbLine
 10
67.9174209295
 20
196.8280988157
 30
0.0
 11
119.8096334795
 21
196.8280988157
 31
0.0
  0
LINE
  5
13F
330
1F
100
AcDbEntity
  8
0
  6
Continuous
 62
     7
370
    15
100
AcDbLine
 10
122.9884884989
 20
196.8633596861
 30
0.0
 11
122.809176565
 21
196.8280988157
 31
0.0
  0
LINE
  5
140
330
1F
100
AcDbEntity
  8
0
  6
Continuous
 62
     7
370
    15
100
AcDbLine
 10
122.7523466551
 20
196.8280988157
 30
0.0
 11
122.809176565
 21
196.8280988157
 31
0.0
  0
LINE
  5
141
330
1F
100
AcDbEntity
  8
0
  6
Continuous
 62
     7
370
    15
100
AcDbLine
 10
117.2135272045
 20
229.5780988157
 30
0.0
 11
117.2135272045
 21
230.5780988157
 31
0.0
  0
LINE
  5
142
330
1F
100
AcDbEntity
  8
0
  6
Continuous
 62
     7
370
    15
100
AcDbLine
 10
114.8635272045
 20
229.5780988157
 30
0.0
 11
114.8635272045
 21
230.5780988157
 31
0.0
  0
LINE
  5
143
330
1F
100
AcDbEntity
  8
0
  6
Continuous
 62
     7
370
    15
100
AcDbLine
 10
117.2135272045
 20
230.5780988157
 30
0.0
 11
114.8635272045
 21
230.5780988157
 31
0.0
  0
LINE
  5
144
330
1F
100
AcDbEntity
  8
0
  6
Continuous
 62
     7
370
    15
100
AcDbLine
 10
72.8635272045
 20
229.5780988157
 30
0.0
 11
72.8635272045
 21
230.5780988157
 31
0.0
  0
LINE
  5
145
330
1F
100
AcDbEntity
  8
0
  6
Continuous
 62
     7
370
    15
100
AcDbLine
 10
70.5135272045
 20
229.5780988157
 30
0.0
 11
70.5135272045
 21
230.5780988157
 31
0.0
  0
LINE
  5
146
330
1F
100
AcDbEntity
  8
0
  6
Continuous
 62
     7
370
    15
100
AcDbLine
 10
72.8635272045
 20
230.5780988157
 30
0.0
 11
70.5135272045
 21
230.5780988157
 31
0.0
  0
LINE
  5
147
330
1F
100
AcDbEntity
  8
0
  6
Continuous
 62
     7
370
    15
100
AcDbLine
 10
114.8635272045
 20
230.5780988157
 30
0.0
 11
72.8635272045
 21
230.5780988157
 31
0.0
  0
LINE
  5
148
330
1F
100
AcDbEntity
  8
0
  6
Continuous
 62
     7
370
    15
100
AcDbLine
 10
64.3635272045
 20
196.5780988157
 30
0.0
 11
70.3635272045
 21
196.5780988157
 31
0.0
  0
LINE
  5
149
330
1F
100
AcDbEntity
  8
0
  6
Continuous
 62
     7
370
    15
100
AcDbLine
 10
117.3635272045
 20
196.5780988157
 30
0.0
 11
123.3635272045
 21
196.5780988157
 31
0.0
  0
LINE
  5
14A
330
1F
100
AcDbEntity
  8
0
  6
Continuous
 62
     7
370
    15
100
AcDbLine
 10
120.5067090227
 20
230.5780988157
 30
0.0
 11
120.5067090227
 21
229.5780988157
 31
0.0
  0
LINE
  5
14B
330
1F
100
AcDbEntity
  8
0
  6
Continuous
 62
     7
370
    15
100
AcDbLine
 10
117.2135272045
 20
230.5780988157
 30
0.0
 11
120.5067090227
 21
230.5780988157
 31
0.0
  0
LINE
  5
14C
330
1F
100
AcDbEntity
  8
0
  6
Continuous
 62
     7
370
    15
100
AcDbLine
 10
67.2203453863
 20
229.5780988157
 30
0.0
 11
67.2203453863
 21
230.5780988157
 31
0.0
  0
LINE
  5
14D
330
1F
100
AcDbEntity
  8
0
  6
Continuous
 62
     7
370
    15
100
AcDbLine
 10
67.2203453863
 20
230.5780988157
 30
0.0
 11
70.5135272045
 21
230.5780988157
 31
0.0
  0
LINE
  5
14E
330
1F
100
AcDbEntity
  8
0
  6
Continuous
 62
     7
370
    15
100
AcDbLine
 10
122.9635272045
 20
229.5780988157
 30
0.0
 11
122.9635272045
 21
230.5780988157
 31
0.0
  0
LINE
  5
14F
330
1F
100
AcDbEntity
  8
0
  6
Continuous
 62
     7
370
    15
100
AcDbLine
 10
122.9635272045
 20
230.5780988157
 30
0.0
 11
120.5067090227
 21
230.5780988157
 31
0.0
  0
LINE
  5
150
330
1F
100
AcDbEntity
  8
0
  6
Continuous
 62
     7
370
    15
100
AcDbLine
 10
64.7635272045
 20
229.5780988157
 30
0.0
 11
64.7635272045
 21
230.5780988157
 31
0.0
  0
LINE
  5
151
330
1F
100
AcDbEntity
  8
0
  6
Continuous
 62
     7
370
    15
100
AcDbLine
 10
67.2203453863
 20
230.5780988157
 30
0.0
 11
64.7635272045
 21
230.5780988157
 31
0.0
  0
SPLINE
  5
152
330
1F
100
AcDbEntity
  8
0
  6
Continuous
 62
     8
370
    15
100
AcDbSpline
210
0.0
220
0.0
230
1.0
 70
     8
 71
     3
 72
    15
 73
    11
 74
     0
 42
0.000000001
 43
0.00000001
 40
0.0
 40
0.0
 40
0.0
 40
0.0
 40
0.0090939642613063
 40
0.1534513109741776
 40
0.2938940418536031
 40
0.430422715124287
 40
0.5669695935401006
 40
0.7074144148787712
 40
0.8517577458871385
 40
1.0
 40
1.0
 40
1.0
 40
1.0
 10
123.7307990842247
 20
197.8076142847331
 30
0.0
 10
123.7291847683386
 20
197.8075477848218
 30
0.0
 10
123.7019448450291
 20
197.8064256670871
 30
0.0
 10
123.5034569808166
 20
197.8050142871079
 30
0.0
 10
123.1437853008126
 20
197.803651435407
 30
0.0
 10
122.6535729561832
 20
197.8033049064346
 30
0.0
 10
122.0663516923471
 20
197.803662383518
 30
0.0
 10
121.3833457029418
 20
197.8049705801685
 30
0.0
 10
120.6201047804926
 20
197.8072713195633
 30
0.0
 10
120.0821799967974
 20
197.8095114289565
 30
0.0
 10
119.809633478673
 20
197.8106464092249
 30
0.0
  0
SPLINE
  5
153
330
1F
100
AcDbEntity
  8
0
  6
Continuous
 62
     8
370
    15
100
AcDbSpline
210
0.0
220
0.0
230
1.0
 70
     8
 71
     3
 72
    11
 73
     7
 74
     0
 42
0.000000001
 43
0.00000001
 40
0.0
 40
0.0
 40
0.0
 40
0.0
 40
0.2818836184749232
 40
0.5637672369498502
 40
0.8456508554247727
 40
1.0
 40
1.0
 40
1.0
 40
1.0
 10
67.91756451618303
 20
197.8106468202334
 30
0.0
 10
67.91755255062512
 20
197.6811268675329
 30
0.0
 10
67.9175286195093
 20
197.4220869621318
 30
0.0
 10
67.91749272283553
 20
197.1011367865101
 30
0.0
 10
67.91746223981846
 20
196.8984527879506
 30
0.0
 10
67.91744372235931
 20
196.8713696656501
 30
0.0
 10
67.91743717045807
 20
196.8617870365732
 30
0.0
  0
SPLINE
  5
154
330
1F
100
AcDbEntity
  8
0
  6
Continuous
 62
     8
370
    15
100
AcDbSpline
210
0.0
220
0.0
230
1.0
 70
    24
 71
     3
 72
    11
 73
     7
 74
     0
 42
0.000000001
 43
0.00000001
 40
0.0
 40
0.0
 40
0.0
 40
0.0
 40
0.2823089421278117
 40
0.5646178842556238
 40
0.8469268263834359
 40
1.0
 40
1.0
 40
1.0
 40
1.0
 10
119.809633479518
 20
197.8106464092249
 30
0.0
 10
119.809633479518
 20
197.6811231171538
 30
0.0
 10
119.809633479518
 20
197.4220765330118
 30
0.0
 10
119.8096334795181
 20
197.1011772144005
 30
0.0
 10
119.809633479518
 20
196.8987552525657
 30
0.0
 10
119.809633479518
 20
196.8716979024267
 30
0.0
 10
119.809633479518
 20
196.8621849842207
 30
0.0
  0
SPLINE
  5
155
330
1F
100
AcDbEntity
  8
0
  6
Continuous
 62
     7
370
    15
100
AcDbSpline
210
0.0
220
0.0
230
1.0
 70
     8
 71
     3
 72
    15
 73
    11
 74
     0
 42
0.000000001
 43
0.00000001
 40
0.0
 40
0.0
 40
0.0
 40
0.0
 40
0.1522668535726973
 40
0.2967187578466831
 40
0.4334033578129431
 40
0.5623021653309646
 40
0.683416123106609
 40
0.7967299342430629
 40
0.902265333860868
 40
1.0
 40
1.0
 40
1.0
 40
1.0
 10
122.9862291047163
 20
104.7030407081902
 30
0.0
 10
122.9684998697519
 20
104.703041278301
 30
0.0
 10
122.9339513356961
 20
104.7030423892624
 30
0.0
 10
122.6703534230964
 20
104.7030438278644
 30
0.0
 10
122.2961071153056
 20
104.7030450400128
 30
0.0
 10
121.834821886479
 20
104.7030460144318
 30
0.0
 10
121.3262655767988
 20
104.7030467562037
 30
0.0
 10
120.8006294256285
 20
104.7030472568004
 30
0.0
 10
120.2830728633487
 20
104.7030475441042
 30
0.0
 10
119.9430764906955
 20
104.7030475314253
 30
0.0
 10
119.7796021894203
 20
104.7030475253292
 30
0.0
  0
SPLINE
  5
156
330
1F
100
AcDbEntity
  8
0
  6
Continuous
 62
     7
370
    15
100
AcDbSpline
210
0.0
220
0.0
230
1.0
 70
     8
 71
     3
 72
    11
 73
     7
 74
     0
 42
0.000000001
 43
0.00000001
 40
0.0
 40
0.0
 40
0.0
 40
0.0
 40
0.2499431968718907
 40
0.4998984920605402
 40
0.7499182915379242
 40
1.0
 40
1.0
 40
1.0
 40
1.0
 10
67.91742097741293
 20
104.7030475253528
 30
0.0
 10
67.60333756530247
 20
104.7030018717983
 30
0.0
 10
66.97515553810481
 20
104.7029105624794
 30
0.0
 10
66.11921363659751
 20
104.70277278695
 30
0.0
 10
65.40136953070358
 20
104.7026344972712
 30
0.0
 10
65.11464101592608
 20
104.7025417871408
 30
0.0
 10
64.97125901106912
 20
104.7024954263372
 30
0.0
  0
SPLINE
  5
157
330
1F
100
AcDbEntity
  8
0
  6
Continuous
 62
     7
370
    15
100
AcDbSpline
210
0.0
220
0.0
230
1.0
 70
     8
 71
     3
 72
     9
 73
     5
 74
     0
 42
0.000000001
 43
0.00000001
 40
0.0
 40
0.0
 40
0.0
 40
0.0
 40
0.5882371318395011
 40
1.0
 40
1.0
 40
1.0
 40
1.0
 10
64.74099472670238
 20
104.7030477511258
 30
0.0
 10
64.68529078762971
 20
104.689213792649
 30
0.0
 10
64.59059438704978
 20
104.6656961367106
 30
0.0
 10
64.62044980855192
 20
104.6138401318407
 30
0.0
 10
64.63274316253981
 20
104.5924877545441
 30
0.0
  0
SPLINE
  5
158
330
1F
100
AcDbEntity
  8
0
  6
Continuous
 62
     7
370
    15
100
AcDbSpline
210
0.0
220
0.0
230
1.0
 70
     8
 71
     3
 72
    11
 73
     7
 74
     0
 42
0.000000001
 43
0.00000001
 40
0.0
 40
0.0
 40
0.0
 40
0.0
 40
0.2554153223074791
 40
0.5148610306702671
 40
0.7663725439785969
 40
0.9999999999999999
 40
0.9999999999999999
 40
0.9999999999999999
 40
0.9999999999999999
 10
64.6218202138333
 20
104.6517372794192
 30
0.0
 10
64.53172246785508
 20
104.6067326677841
 30
0.0
 10
64.35010525735909
 20
104.5160132836767
 30
0.0
 10
64.14784733892995
 20
104.2836463171339
 30
0.0
 10
64.01731261400666
 20
104.0136290013264
 30
0.0
 10
63.99974743269784
 20
103.8207726463325
 30
0.0
 10
63.99128860155221
 20
103.7278991761657
 30
0.0
  0
SPLINE
  5
159
330
1F
100
AcDbEntity
  8
0
  6
Continuous
 62
     7
370
    15
100
AcDbSpline
210
0.0
220
0.0
230
1.0
 70
     8
 71
     3
 72
     9
 73
     5
 74
     0
 42
0.000000001
 43
0.00000001
 40
0.0
 40
0.0
 40
0.0
 40
0.0
 40
0.7015000842432434
 40
1.0
 40
1.0
 40
1.0
 40
1.0
 10
65.10691575116671
 20
104.6517372794192
 30
0.0
 10
65.04819855550664
 20
104.6732331654987
 30
0.0
 10
64.96449621964246
 20
104.7038759074773
 30
0.0
 10
64.97576417154436
 20
104.7089667847355
 30
0.0
 10
64.97912765423781
 20
104.7104864111682
 30
0.0
  0
LINE
  5
15A
330
1F
100
AcDbEntity
  8
0
  6
Continuous
 62
     7
370
    15
100
AcDbLine
 10
64.3635272045
 20
104.968843023
 30
0.0
 11
64.3635272045
 21
104.5511262491
 31
0.0
  0
LINE
  5
15B
330
1F
100
AcDbEntity
  8
0
  6
Continuous
 62
     7
370
    15
100
AcDbLine
 10
70.3635272045
 20
104.718843023
 30
0.0
 11
70.3635272045
 21
104.968843023
 31
0.0
  0
LINE
  5
15C
330
1F
100
AcDbEntity
  8
0
  6
Continuous
 62
     7
370
    15
100
AcDbLine
 10
117.3635272045
 20
104.968843023
 30
0.0
 11
117.3635272045
 21
104.718843023
 31
0.0
  0
LINE
  5
15D
330
1F
100
AcDbEntity
  8
0
  6
Continuous
 62
     7
370
    15
100
AcDbLine
 10
123.3635272045
 20
104.5511262491
 30
0.0
 11
123.3635272045
 21
104.968843023
 31
0.0
  0
LINE
  5
15E
330
1F
100
AcDbEntity
  8
0
  6
Continuous
 62
     7
370
    15
100
AcDbLine
 10
67.3629179851
 20
71.968843023
 30
0.0
 11
120.3641364239
 21
71.968843023
 31
0.0
  0
LINE
  5
15F
330
1F
100
AcDbEntity
  8
0
  6
Continuous
 62
     7
370
    15
100
AcDbLine
 10
67.3629179851
 20
71.968843023
 30
0.0
 11
67.9174209295
 21
103.7362954294
 31
0.0
  0
LINE
  5
160
330
1F
100
AcDbEntity
  8
0
  6
Continuous
 62
     7
370
    15
100
AcDbLine
 10
67.9174209295
 20
103.7362954294
 30
0.0
 11
119.8094898928
 21
103.7362954294
 31
0.0
  0
LINE
  5
161
330
1F
100
AcDbEntity
  8
0
  6
Continuous
 62
     7
370
    15
100
AcDbLine
 10
120.3641364239
 20
71.968843023
 30
0.0
 11
119.8094898928
 21
103.7362950184
 31
0.0
  0
LINE
  5
162
330
1F
100
AcDbEntity
  8
0
  6
Continuous
 62
     7
370
    15
100
AcDbLine
 10
63.3635272045
 20
71.968843023
 30
0.0
 11
67.3629179851
 21
71.968843023
 31
0.0
  0
LINE
  5
163
330
1F
100
AcDbEntity
  8
0
  6
Continuous
 62
     7
370
    15
100
AcDbLine
 10
63.3635272045
 20
71.968843023
 30
0.0
 11
63.9180301453
 21
103.7362952239
 31
0.0
  0
LINE
  5
164
330
1F
100
AcDbEntity
  8
0
  6
Continuous
 62
     7
370
    15
100
AcDbLine
 10
63.9180301443
 20
103.7362950184
 30
0.0
 11
63.9962553248
 21
103.7393275539
 31
0.0
  0
LINE
  5
165
330
1F
100
AcDbEntity
  8
0
  6
Continuous
 62
     7
370
    15
100
AcDbLine
 10
120.3641364239
 20
71.968843023
 30
0.0
 11
124.3635272045
 21
71.968843023
 31
0.0
  0
SPLINE
  5
166
330
1F
100
AcDbEntity
  8
0
  6
Continuous
 62
     7
370
    15
100
AcDbSpline
210
0.0
220
0.0
230
1.0
 70
     8
 71
     3
 72
    53
 73
    49
 74
     0
 42
0.000000001
 43
0.00000001
 40
0.0
 40
0.0
 40
0.0
 40
0.0
 40
0.0217273179209806
 40
0.0434641108107332
 40
0.0652068449639872
 40
0.0869520175119783
 40
0.1086962685395213
 40
0.1304371423062521
 40
0.152174992019678
 40
0.1739107135416088
 40
0.1956450925344025
 40
0.2173788874191368
 40
0.2391129123769392
 40
0.2608479770740382
 40
0.2825842060584374
 40
0.3043213438393497
 40
0.3260590473126493
 40
0.3477969763273492
 40
0.36953488413922
 40
0.3912727241478087
 40
0.4130106503805313
 40
0.434748706365834
 40
0.4564868249582256
 40
0.4782249170413368
 40
0.4999629603385971
 40
0.5217010844977387
 40
0.5434394830263658
 40
0.5651781930083782
 40
0.5869171445271602
 40
0.6086562495759221
 40
0.6303954908829693
 40
0.6521349953247302
 40
0.6738748377065403
 40
0.6956148441262345
 40
0.7173547053216442
 40
0.7390940682934662
 40
0.7608326268055268
 40
0.7825702557263174
 40
0.8043075189239213
 40
0.8260452749318199
 40
0.8477842975816781
 40
0.869525350701044
 40
0.8912692711723824
 40
0.9130169273689948
 40
0.9347671410588274
 40
0.9565167080951894
 40
0.9782621732652338
 40
1.0
 40
1.0
 40
1.0
 40
1.0
 10
119.8094898915859
 20
103.7362947510491
 30
0.0
 10
119.8549884890806
 20
103.7364907520271
 30
0.0
 10
119.9460055253494
 20
103.7368828394563
 30
0.0
 10
120.0823938955034
 20
103.7374380515492
 30
0.0
 10
120.218502582772
 20
103.7379693623907
 30
0.0
 10
120.3541516581715
 20
103.7384743776593
 30
0.0
 10
120.4891627611192
 20
103.7389537256839
 30
0.0
 10
120.6233633501838
 20
103.7394072454842
 30
0.0
 10
120.7565960164776
 20
103.7398349345083
 30
0.0
 10
120.8887117525829
 20
103.7402367638621
 30
0.0
 10
121.0195629511188
 20
103.740612725499
 30
0.0
 10
121.1490019666964
 20
103.7409628078627
 30
0.0
 10
121.2768810769577
 20
103.7412870006604
 30
0.0
 10
121.4030496826468
 20
103.7415852882872
 30
0.0
 10
121.5273659199843
 20
103.7418576659961
 30
0.0
 10
121.6496877569538
 20
103.7421041276861
 30
0.0
 10
121.7698724974924
 20
103.7423246665027
 30
0.0
 10
121.8877773583287
 20
103.7425192762537
 30
0.0
 10
122.0032600692896
 20
103.7426879513723
 30
0.0
 10
122.1161762501834
 20
103.7428306865293
 30
0.0
 10
122.2263996958614
 20
103.7429474761524
 30
0.0
 10
122.3338083917725
 20
103.7430383171494
 30
0.0
 10
122.4382796683037
 20
103.7431032071127
 30
0.0
 10
122.5396908453504
 20
103.7431421442136
 30
0.0
 10
122.6379199020073
 20
103.7431551271742
 30
0.0
 10
122.7328416959286
 20
103.7431421553258
 30
0.0
 10
122.8243515280443
 20
103.7431032292444
 30
0.0
 10
122.9123509154167
 20
103.7430383503053
 30
0.0
 10
122.9967400203646
 20
103.7429475204012
 30
0.0
 10
123.0774190767662
 20
103.7428307420221
 30
0.0
 10
123.1542891941788
 20
103.7426880181322
 30
0.0
 10
123.2272472405207
 20
103.7425193535449
 30
0.0
 10
123.2962138070697
 20
103.7423247544976
 30
0.0
 10
123.3611193287077
 20
103.7421042264851
 30
0.0
 10
123.4218918651487
 20
103.7418577758515
 30
0.0
 10
123.4784597897434
 20
103.741585409313
 30
0.0
 10
123.5307523385913
 20
103.7412871345304
 30
0.0
 10
123.578695211991
 20
103.7409629550507
 30
0.0
 10
123.6222359312652
 20
103.7406128833334
 30
0.0
 10
123.6613350409633
 20
103.7402369329
 30
0.0
 10
123.695950887511
 20
103.7398351148653
 30
0.0
 10
123.7260414207515
 20
103.7394074380877
 30
0.0
 10
123.7515684533642
 20
103.7389539248395
 30
0.0
 10
123.7724775634673
 20
103.7384745710339
 30
0.0
 10
123.7887786977368
 20
103.7379695653611
 30
0.0
 10
123.8003558903316
 20
103.7374382645239
 30
0.0
 10
123.8076259080816
 20
103.736883059492
 30
0.0
 10
123.8085421300679
 20
103.7364910027234
 30
0.0
 10
123.8090001605877
 20
103.7362950087742
 30
0.0
  0
LINE
  5
167
330
1F
100
AcDbEntity
  8
0
  6
Continuous
 62
     7
370
    15
100
AcDbLine
 10
123.8090242601
 20
103.7362954294
 30
0.0
 11
124.3635272045
 21
71.968843023
 31
0.0
  0
LINE
  5
168
330
1F
100
AcDbEntity
  8
0
  6
Continuous
 62
     7
370
    15
100
AcDbLine
 10
119.8096172385
 20
104.6851548021
 30
0.0
 11
119.8096334795
 21
104.718843023
 31
0.0
  0
SPLINE
  5
169
330
1F
100
AcDbEntity
  8
0
  6
Continuous
 62
     7
370
    15
100
AcDbSpline
210
0.0
220
0.0
230
1.0
 70
     8
 71
     3
 72
    11
 73
     7
 74
     0
 42
0.000000001
 43
0.00000001
 40
0.0
 40
0.0
 40
0.0
 40
0.0
 40
0.153032923725681
 40
0.4353552824837875
 40
0.717677641241894
 40
1.0
 40
1.0
 40
1.0
 40
1.0
 10
122.9825785797225
 20
104.6847443203144
 30
0.0
 10
123.0523037826928
 20
104.6752336022208
 30
0.0
 10
123.2506613301826
 20
104.6481770626118
 30
0.0
 10
123.525232526792
 20
104.4457633415571
 30
0.0
 10
123.7583874659702
 20
104.1248656263102
 30
0.0
 10
123.792145328753
 20
103.8658188283861
 30
0.0
 10
123.8090242601444
 20
103.7362954294241
 30
0.0
  0
LINE
  5
16A
330
1F
100
AcDbEntity
  8
0
  6
Continuous
 62
     7
370
    15
100
AcDbLine
 10
67.9174209295
 20
104.6847568544
 30
0.0
 11
67.9174209295
 21
104.718843023
 31
0.0
  0
LINE
  5
16B
330
1F
100
AcDbEntity
  8
0
  6
Continuous
 62
     7
370
    15
100
AcDbLine
 10
119.8096334795
 20
104.718843023
 30
0.0
 11
67.9174209295
 21
104.718843023
 31
0.0
  0
LINE
  5
16C
330
1F
100
AcDbEntity
  8
0
  6
Continuous
 62
     7
370
    15
100
AcDbLine
 10
64.7385659101
 20
104.6835821525
 30
0.0
 11
64.917877844
 21
104.718843023
 31
0.0
  0
LINE
  5
16D
330
1F
100
AcDbEntity
  8
0
  6
Continuous
 62
     7
370
    15
100
AcDbLine
 10
64.9747077539
 20
104.718843023
 30
0.0
 11
64.917877844
 21
104.718843023
 31
0.0
  0
LINE
  5
16E
330
1F
100
AcDbEntity
  8
0
  6
Continuous
 62
     7
370
    15
100
AcDbLine
 10
72.8635272045
 20
70.968843023
 30
0.0
 11
114.8635272045
 21
70.968843023
 31
0.0
  0
LINE
  5
16F
330
1F
100
AcDbEntity
  8
0
  6
Continuous
 62
     7
370
    15
100
AcDbLine
 10
72.8635272045
 20
71.968843023
 30
0.0
 11
72.8635272045
 21
70.968843023
 31
0.0
  0
LINE
  5
170
330
1F
100
AcDbEntity
  8
0
  6
Continuous
 62
     7
370
    15
100
AcDbLine
 10
114.8635272045
 20
70.968843023
 30
0.0
 11
114.8635272045
 21
71.968843023
 31
0.0
  0
LINE
  5
171
330
1F
100
AcDbEntity
  8
0
  6
Continuous
 62
     7
370
    15
100
AcDbLine
 10
114.8635272045
 20
70.968843023
 30
0.0
 11
117.2135272045
 21
70.968843023
 31
0.0
  0
LINE
  5
172
330
1F
100
AcDbEntity
  8
0
  6
Continuous
 62
     7
370
    15
100
AcDbLine
 10
117.2135272045
 20
71.968843023
 30
0.0
 11
117.2135272045
 21
70.968843023
 31
0.0
  0
LINE
  5
173
330
1F
100
AcDbEntity
  8
0
  6
Continuous
 62
     7
370
    15
100
AcDbLine
 10
70.5135272045
 20
70.968843023
 30
0.0
 11
72.8635272045
 21
70.968843023
 31
0.0
  0
LINE
  5
174
330
1F
100
AcDbEntity
  8
0
  6
Continuous
 62
     7
370
    15
100
AcDbLine
 10
70.5135272045
 20
71.968843023
 30
0.0
 11
70.5135272045
 21
70.968843023
 31
0.0
  0
LINE
  5
175
330
1F
100
AcDbEntity
  8
0
  6
Continuous
 62
     7
370
    15
100
AcDbLine
 10
67.3635272045
 20
104.968843023
 30
0.0
 11
64.3635272045
 21
104.968843023
 31
0.0
  0
LINE
  5
176
330
1F
100
AcDbEntity
  8
0
  6
Continuous
 62
     7
370
    15
100
AcDbLine
 10
70.3635272045
 20
104.968843023
 30
0.0
 11
67.3635272045
 21
104.968843023
 31
0.0
  0
LINE
  5
177
330
1F
100
AcDbEntity
  8
0
  6
Continuous
 62
     7
370
    15
100
AcDbLine
 10
120.3635272045
 20
104.968843023
 30
0.0
 11
117.3635272045
 21
104.968843023
 31
0.0
  0
LINE
  5
178
330
1F
100
AcDbEntity
  8
0
  6
Continuous
 62
     7
370
    15
100
AcDbLine
 10
123.3635272045
 20
104.968843023
 30
0.0
 11
120.3635272045
 21
104.968843023
 31
0.0
  0
LINE
  5
179
330
1F
100
AcDbEntity
  8
0
  6
Continuous
 62
     7
370
    15
100
AcDbLine
 10
67.2203453863
 20
70.968843023
 30
0.0
 11
67.2203453863
 21
71.968843023
 31
0.0
  0
LINE
  5
17A
330
1F
100
AcDbEntity
  8
0
  6
Continuous
 62
     7
370
    15
100
AcDbLine
 10
70.5135272045
 20
70.968843023
 30
0.0
 11
67.2203453863
 21
70.968843023
 31
0.0
  0
LINE
  5
17B
330
1F
100
AcDbEntity
  8
0
  6
Continuous
 62
     7
370
    15
100
AcDbLine
 10
120.5067090227
 20
71.968843023
 30
0.0
 11
120.5067090227
 21
70.968843023
 31
0.0
  0
LINE
  5
17C
330
1F
100
AcDbEntity
  8
0
  6
Continuous
 62
     7
370
    15
100
AcDbLine
 10
120.5067090227
 20
70.968843023
 30
0.0
 11
117.2135272045
 21
70.968843023
 31
0.0
  0
LINE
  5
17D
330
1F
100
AcDbEntity
  8
0
  6
Continuous
 62
     7
370
    15
100
AcDbLine
 10
64.7635272045
 20
71.968843023
 30
0.0
 11
64.7635272045
 21
70.968843023
 31
0.0
  0
LINE
  5
17E
330
1F
100
AcDbEntity
  8
0
  6
Continuous
 62
     7
370
    15
100
AcDbLine
 10
64.7635272045
 20
70.968843023
 30
0.0
 11
67.2203453863
 21
70.968843023
 31
0.0
  0
LINE
  5
17F
330
1F
100
AcDbEntity
  8
0
  6
Continuous
 62
     7
370
    15
100
AcDbLine
 10
122.9635272045
 20
71.968843023
 30
0.0
 11
122.9635272045
 21
70.968843023
 31
0.0
  0
LINE
  5
180
330
1F
100
AcDbEntity
  8
0
  6
Continuous
 62
     7
370
    15
100
AcDbLine
 10
120.5067090227
 20
70.968843023
 30
0.0
 11
122.9635272045
 21
70.968843023
 31
0.0
  0
SPLINE
  5
181
330
1F
100
AcDbEntity
  8
0
  6
Continuous
 62
     8
370
    15
100
AcDbSpline
210
0.0
220
0.0
230
1.0
 70
     8
 71
     3
 72
    15
 73
    11
 74
     0
 42
0.000000001
 43
0.00000001
 40
0.0
 40
0.0
 40
0.0
 40
0.0
 40
0.0090939642626997
 40
0.15345131099769
 40
0.2938940418986348
 40
0.4304227151902384
 40
0.5669695935599217
 40
0.7074144148722303
 40
0.8517577458739944
 40
1.0
 40
1.0
 40
1.0
 40
1.0
 10
63.99625532478136
 20
103.7393275539159
 30
0.0
 10
63.99786964066752
 20
103.7393940538272
 30
0.0
 10
64.02510956397698
 20
103.7405161715619
 30
0.0
 10
64.22359742818949
 20
103.7419275515411
 30
0.0
 10
64.5832691081934
 20
103.743290403242
 30
0.0
 10
65.07348145274389
 20
103.7436369322141
 30
0.0
 10
65.66070271639063
 20
103.7432794551322
 30
0.0
 10
66.34370870551373
 20
103.7419712584861
 30
0.0
 10
67.10694962776422
 20
103.7396705190966
 30
0.0
 10
67.6448744113823
 20
103.737430409706
 30
0.0
 10
67.91742092948557
 20
103.736295429439
 30
0.0
  0
SPLINE
  5
182
330
1F
100
AcDbEntity
  8
0
  6
Continuous
 62
     8
370
    15
100
AcDbSpline
210
0.0
220
0.0
230
1.0
 70
     8
 71
     3
 72
    11
 73
     7
 74
     0
 42
0.000000001
 43
0.00000001
 40
0.0
 40
0.0
 40
0.0
 40
0.0
 40
0.2818836184749211
 40
0.563767236949846
 40
0.8456508554247664
 40
1.0
 40
1.0
 40
1.0
 40
1.0
 10
119.809489892823
 20
103.7362950184156
 30
0.0
 10
119.809501858381
 20
103.8658149711161
 30
0.0
 10
119.8095257894968
 20
104.1248548765172
 30
0.0
 10
119.8095616861705
 20
104.4458050521389
 30
0.0
 10
119.8095921691876
 20
104.6484890506984
 30
0.0
 10
119.8096106866468
 20
104.6755721729989
 30
0.0
 10
119.809617238548
 20
104.6851548020758
 30
0.0
  0
SPLINE
  5
183
330
1F
100
AcDbEntity
  8
0
  6
Continuous
 62
     8
370
    15
100
AcDbSpline
210
0.0
220
0.0
230
1.0
 70
    24
 71
     3
 72
    11
 73
     7
 74
     0
 42
0.000000001
 43
0.00000001
 40
0.0
 40
0.0
 40
0.0
 40
0.0
 40
0.2823089421278117
 40
0.5646178842556238
 40
0.8469268263834359
 40
1.0
 40
1.0
 40
1.0
 40
1.0
 10
67.91742092948805
 20
103.7362954294241
 30
0.0
 10
67.91742092948805
 20
103.8658187214952
 30
0.0
 10
67.91742092948805
 20
104.1248653056373
 30
0.0
 10
67.91742092948803
 20
104.4457646242486
 30
0.0
 10
67.91742092948805
 20
104.6481865860833
 30
0.0
 10
67.91742092948805
 20
104.6752439362223
 30
0.0
 10
67.91742092948805
 20
104.6847568544283
 30
0.0
  0
SPLINE
  5
184
330
1F
100
AcDbEntity
  8
0
  6
Continuous
 62
     7
370
    15
100
AcDbSpline
210
0.0
220
0.0
230
1.0
 70
     8
 71
     3
 72
    15
 73
    11
 74
     0
 42
0.000000001
 43
0.00000001
 40
0.0
 40
0.0
 40
0.0
 40
0.0
 40
0.1522668535753541
 40
0.2967187578507569
 40
0.4334033578174698
 40
0.5623021653352394
 40
0.6834161231101409
 40
0.7967299342455361
 40
0.902265333862115
 40
1.0
 40
1.0
 40
1.0
 40
1.0
 10
143.6283476595593
 20
181.5749157840004
 30
0.0
 10
143.6283470894469
 20
181.5571865490267
 30
0.0
 10
143.6283459784825
 20
181.5226380149532
 30
0.0
 10
143.6283445398764
 20
181.2590401023268
 30
0.0
 10
143.6283433277246
 20
180.8847937945139
 30
0.0
 10
143.6283423533029
 20
180.4235085656713
 30
0.0
 10
143.6283416115287
 20
179.9149522559808
 30
0.0
 10
143.6283411109305
 20
179.3893161048052
 30
0.0
 10
143.6283408236257
 20
178.8717595425234
 30
0.0
 10
143.6283408363045
 20
178.53176316987
 30
0.0
 10
143.6283408424005
 20
178.3682888685947
 30
0.0
  0
SPLINE
  5
185
330
1F
100
AcDbEntity
  8
0
  6
Continuous
 62
     7
370
    15
100
AcDbSpline
210
0.0
220
0.0
230
1.0
 70
     8
 71
     3
 72
    11
 73
     7
 74
     0
 42
0.000000001
 43
0.00000001
 40
0.0
 40
0.0
 40
0.0
 40
0.0
 40
0.2499431968718891
 40
0.499898492060575
 40
0.7499182915379633
 40
1.0
 40
1.0
 40
1.0
 40
1.0
 10
143.6283408423769
 20
127.5061076565873
 30
0.0
 10
143.6283864959315
 20
127.1920242444769
 30
0.0
 10
143.6284778052504
 20
126.5638422172792
 30
0.0
 10
143.6286155807797
 20
125.7079003157718
 30
0.0
 10
143.6287538704585
 20
124.9900562098779
 30
0.0
 10
143.6288465805889
 20
124.7033276951004
 30
0.0
 10
143.6288929413926
 20
124.5599456902435
 30
0.0
  0
SPLINE
  5
186
330
1F
100
AcDbEntity
  8
0
  6
Continuous
 62
     7
370
    15
100
AcDbSpline
210
0.0
220
0.0
230
1.0
 70
     8
 71
     3
 72
     9
 73
     5
 74
     0
 42
0.000000001
 43
0.00000001
 40
0.0
 40
0.0
 40
0.0
 40
0.0
 40
0.5882371318442001
 40
1.0
 40
1.0
 40
1.0
 40
1.0
 10
143.6283406166044
 20
124.329681405874
 30
0.0
 10
143.6421745750813
 20
124.2739774668017
 30
0.0
 10
143.6656922310195
 20
124.1792810662231
 30
0.0
 10
143.7175482358887
 20
124.2091364877256
 30
0.0
 10
143.7389006131847
 20
124.2214298417134
 30
0.0
  0
SPLINE
  5
187
330
1F
100
AcDbEntity
  8
0
  6
Continuous
 62
     7
370
    15
100
AcDbSpline
210
0.0
220
0.0
230
1.0
 70
     8
 71
     3
 72
    11
 73
     7
 74
     0
 42
0.000000001
 43
0.00000001
 40
0.0
 40
0.0
 40
0.0
 40
0.0
 40
0.2554153223074773
 40
0.5148610306702633
 40
0.7663725439786014
 40
1.0
 40
1.0
 40
1.0
 40
1.0
 10
143.6796510883106
 20
124.2105068930077
 30
0.0
 10
143.7246556999456
 20
124.1204091470295
 30
0.0
 10
143.8153750840531
 20
123.9387919365335
 30
0.0
 10
144.0477420505958
 20
123.7365340181043
 30
0.0
 10
144.3177593664034
 20
123.6059992931811
 30
0.0
 10
144.5106157213972
 20
123.5884341118723
 30
0.0
 10
144.603489191564
 20
123.5799752807266
 30
0.0
  0
SPLINE
  5
188
330
1F
100
AcDbEntity
  8
0
  6
Continuous
 62
     7
370
    15
100
AcDbSpline
210
0.0
220
0.0
230
1.0
 70
     8
 71
     3
 72
     9
 73
     5
 74
     0
 42
0.000000001
 43
0.00000001
 40
0.0
 40
0.0
 40
0.0
 40
0.0
 40
0.7015000842432579
 40
1.0
 40
1.0
 40
1.0
 40
1.0
 10
143.6796510883106
 20
124.695602430341
 30
0.0
 10
143.6581552022311
 20
124.6368852346818
 30
0.0
 10
143.6275124602524
 20
124.5531828988188
 30
0.0
 10
143.6224215829943
 20
124.5644508507205
 30
0.0
 10
143.6209019565616
 20
124.567814333414
 30
0.0
  0
LINE
  5
189
330
1F
100
AcDbEntity
  8
0
  6
Continuous
 62
     7
370
    15
100
AcDbLine
 10
143.3625453447
 20
170.4522138837
 30
0.0
 11
143.6125453447
 21
170.4522138837
 31
0.0
  0
LINE
  5
18A
330
1F
100
AcDbEntity
  8
0
  6
Continuous
 62
     7
370
    15
100
AcDbLine
 10
143.6125453447
 20
176.4522138837
 30
0.0
 11
143.3625453447
 21
176.4522138837
 31
0.0
  0
LINE
  5
18B
330
1F
100
AcDbEntity
  8
0
  6
Continuous
 62
     7
370
    15
100
AcDbLine
 10
143.3625453447
 20
129.4522138837
 30
0.0
 11
143.6125453447
 21
129.4522138837
 31
0.0
  0
LINE
  5
18C
330
1F
100
AcDbEntity
  8
0
  6
Continuous
 62
     7
370
    15
100
AcDbLine
 10
143.6125453447
 20
135.4522138837
 30
0.0
 11
143.3625453447
 21
135.4522138837
 31
0.0
  0
LINE
  5
18D
330
1F
100
AcDbEntity
  8
0
  6
Continuous
 62
     7
370
    15
100
AcDbLine
 10
177.3625453447
 20
170.3078986397
 30
0.0
 11
176.3625453447
 21
170.3078986397
 31
0.0
  0
LINE
  5
18E
330
1F
100
AcDbEntity
  8
0
  6
Continuous
 62
     7
370
    15
100
AcDbLine
 10
176.3625453447
 20
135.5965291276
 30
0.0
 11
177.3625453447
 21
135.5965291276
 31
0.0
  0
SPLINE
  5
18F
330
1F
100
AcDbEntity
  8
0
  6
Continuous
 62
     7
370
    15
100
AcDbSpline
210
0.0
220
0.0
230
1.0
 70
     8
 71
     3
 72
    14
 73
    10
 74
     0
 42
0.000000001
 43
0.00000001
 40
0.0
 40
0.0
 40
0.0
 40
0.0
 40
0.1279960780379717
 40
0.2662082168714671
 40
0.4146071830316461
 40
0.5732214414462584
 40
0.7420309588676579
 40
0.9210369698903917
 40
1.0
 40
1.0
 40
1.0
 40
1.0
 10
143.6283408424005
 20
127.5361388987602
 30
0.0
 10
143.6283408363102
 20
127.3726702977074
 30
0.0
 10
143.6283408236434
 20
127.0326857804643
 30
0.0
 10
143.628341110851
 20
126.5150324756723
 30
0.0
 10
143.6283416118612
 20
125.9898055328275
 30
0.0
 10
143.6283423519361
 20
125.4795596484793
 30
0.0
 10
143.6283433333232
 20
125.025198246237
 30
0.0
 10
143.6283442741311
 20
124.7053405873359
 30
0.0
 10
143.6283449391252
 20
124.5999577535093
 30
0.0
 10
143.6283451426766
 20
124.5677005964336
 30
0.0
  0
SPLINE
  5
190
330
1F
100
AcDbEntity
  8
0
  6
Continuous
 62
     7
370
    15
100
AcDbSpline
210
0.0
220
0.0
230
1.0
 70
     8
 71
     3
 72
     9
 73
     5
 74
     0
 42
0.000000001
 43
0.00000001
 40
0.0
 40
0.0
 40
0.0
 40
0.0
 40
0.0188241236701288
 40
1.0
 40
1.0
 40
1.0
 40
1.0
 10
143.6283459532721
 20
124.4262137651174
 30
0.0
 10
143.628345962979
 20
124.424507349785
 30
0.0
 10
143.6283464786422
 20
124.3338568970828
 30
0.0
 10
143.6283470747128
 20
124.3316637986306
 30
0.0
 10
143.6283476595628
 20
124.3295119833349
 30
0.0
  0
LINE
  5
191
330
1F
100
AcDbEntity
  8
0
  6
Continuous
 62
     7
370
    15
100
AcDbLine
 10
176.3625453447
 20
122.9522138837
 30
0.0
 11
176.3625453447
 21
126.9516046643
 31
0.0
  0
LINE
  5
192
330
1F
100
AcDbEntity
  8
0
  6
Continuous
 62
     7
370
    15
100
AcDbLine
 10
176.3625453447
 20
122.9522138837
 30
0.0
 11
144.5950933493
 21
123.5067168209
 31
0.0
  0
LINE
  5
193
330
1F
100
AcDbEntity
  8
0
  6
Continuous
 62
     7
370
    15
100
AcDbLine
 10
144.5950933494
 20
123.5067168234
 30
0.0
 11
144.5920608138
 21
123.584942004
 31
0.0
  0
LINE
  5
194
330
1F
100
AcDbEntity
  8
0
  6
Continuous
 62
     7
370
    15
100
AcDbLine
 10
176.3625453447
 20
126.9516046643
 30
0.0
 11
144.5950929383
 21
127.5061076095
 31
0.0
  0
LINE
  5
195
330
1F
100
AcDbEntity
  8
0
  6
Continuous
 62
     7
370
    15
100
AcDbLine
 10
176.3625453447
 20
126.9516046643
 30
0.0
 11
176.3625453447
 21
178.9528231031
 31
0.0
  0
LINE
  5
196
330
1F
100
AcDbEntity
  8
0
  6
Continuous
 62
     7
370
    15
100
AcDbLine
 10
144.5950929383
 20
127.5061076087
 30
0.0
 11
144.5950929383
 21
178.398176572
 31
0.0
  0
LINE
  5
197
330
1F
100
AcDbEntity
  8
0
  6
Continuous
 62
     7
370
    15
100
AcDbLine
 10
176.3625453447
 20
178.9528231031
 30
0.0
 11
144.5950931439
 21
178.3981765684
 31
0.0
  0
LINE
  5
198
330
1F
100
AcDbEntity
  8
0
  6
Continuous
 62
     7
370
    15
100
AcDbLine
 10
176.3625453447
 20
178.9528231031
 30
0.0
 11
176.3625453447
 21
182.9522138837
 31
0.0
  0
SPLINE
  5
199
330
1F
100
AcDbEntity
  8
0
  6
Continuous
 62
     7
370
    15
100
AcDbSpline
210
0.0
220
0.0
230
1.0
 70
     8
 71
     3
 72
    53
 73
    49
 74
     0
 42
0.000000001
 43
0.00000001
 40
0.0
 40
0.0
 40
0.0
 40
0.0
 40
0.0217273179212264
 40
0.0434641108112135
 40
0.0652068449646899
 40
0.0869520175128952
 40
0.1086962685406374
 40
0.1304371423075601
 40
0.1521749920211657
 40
0.1739107135432675
 40
0.1956450925362187
 40
0.2173788874211019
 40
0.2391129123790403
 40
0.2608479770762683
 40
0.2825842060607879
 40
0.3043213438418049
 40
0.3260590473152036
 40
0.3477969763299892
 40
0.3695348841419336
 40
0.3912727241505849
 40
0.4130106503833581
 40
0.4347487063687001
 40
0.4564868249611184
 40
0.4782249170442486
 40
0.4999629603415121
 40
0.5217010845006483
 40
0.5434394830292576
 40
0.5651781930112435
 40
0.586917144529987
 40
0.6086562495786979
 40
0.6303954908856825
 40
0.652134995327371
 40
0.6738748377090956
 40
0.6956148441286948
 40
0.7173547053239949
 40
0.7390940682956975
 40
0.7608326268076296
 40
0.7825702557282808
 40
0.8043075189257356
 40
0.8260452749334761
 40
0.8477842975831638
 40
0.8695253507023499
 40
0.891269271173498
 40
0.9130169273699104
 40
0.9347671410595294
 40
0.95651670809567
 40
0.978262173265479
 40
1.0
 40
1.0
 40
1.0
 40
1.0
 10
144.5950936166807
 20
178.3981765707603
 30
0.0
 10
144.5948976157027
 20
178.4436751682555
 30
0.0
 10
144.5945055282735
 20
178.5346922045254
 30
0.0
 10
144.5939503161805
 20
178.6710805746808
 30
0.0
 10
144.5934190053391
 20
178.8071892619508
 30
0.0
 10
144.5929139900705
 20
178.9428383373516
 30
0.0
 10
144.5924346420459
 20
179.0778494403005
 30
0.0
 10
144.5919811222456
 20
179.2120500293662
 30
0.0
 10
144.5915534332215
 20
179.3452826956611
 30
0.0
 10
144.5911516038677
 20
179.4773984317673
 30
0.0
 10
144.5907756422308
 20
179.608249630304
 30
0.0
 10
144.5904255598671
 20
179.7376886458824
 30
0.0
 10
144.5901013670695
 20
179.8655677561443
 30
0.0
 10
144.5898030794427
 20
179.9917363618341
 30
0.0
 10
144.5895307017338
 20
180.116052599172
 30
0.0
 10
144.5892842400438
 20
180.2383744361419
 30
0.0
 10
144.5890637012272
 20
180.3585591766808
 30
0.0
 10
144.5888690914762
 20
180.4764640375173
 30
0.0
 10
144.5887004163576
 20
180.5919467484782
 30
0.0
 10
144.5885576812005
 20
180.704862929372
 30
0.0
 10
144.5884408915775
 20
180.81508637505
 30
0.0
 10
144.5883500505805
 20
180.9224950709609
 30
0.0
 10
144.5882851606171
 20
181.0269663474918
 30
0.0
 10
144.5882462235163
 20
181.1283775245381
 30
0.0
 10
144.5882332405557
 20
181.2266065811946
 30
0.0
 10
144.5882462124042
 20
181.3215283751154
 30
0.0
 10
144.5882851384855
 20
181.4130382072307
 30
0.0
 10
144.5883500174245
 20
181.5010375946025
 30
0.0
 10
144.5884408473287
 20
181.5854266995497
 30
0.0
 10
144.5885576257078
 20
181.6661057559507
 30
0.0
 10
144.5887003495977
 20
181.7429758733626
 30
0.0
 10
144.588869014185
 20
181.8159339197037
 30
0.0
 10
144.5890636132323
 20
181.884900486252
 30
0.0
 10
144.5892841412449
 20
181.9498060078892
 30
0.0
 10
144.5895305918783
 20
182.0105785443294
 30
0.0
 10
144.5898029584168
 20
182.0671464689235
 30
0.0
 10
144.5901012331994
 20
182.1194390177705
 30
0.0
 10
144.5904254126791
 20
182.1673818911696
 30
0.0
 10
144.5907754843965
 20
182.210922610443
 30
0.0
 10
144.5911514348298
 20
182.2500217201406
 30
0.0
 10
144.5915532528645
 20
182.2846375666876
 30
0.0
 10
144.5919809296421
 20
182.3147280999276
 30
0.0
 10
144.5924344428903
 20
182.3402551325398
 30
0.0
 10
144.5929137966959
 20
182.3611642426424
 30
0.0
 10
144.5934188023687
 20
182.3774653769116
 30
0.0
 10
144.5939501032059
 20
182.3890425695062
 30
0.0
 10
144.5945053082377
 20
182.3963125872561
 30
0.0
 10
144.5948973650063
 20
182.3972288092424
 30
0.0
 10
144.5950933589556
 20
182.3976868397621
 30
0.0
  0
LINE
  5
19A
330
1F
100
AcDbEntity
  8
0
  6
Continuous
 62
     7
370
    15
100
AcDbLine
 10
176.3625453447
 20
182.9522138837
 30
0.0
 11
144.5950929383
 21
182.3977109393
 31
0.0
  0
LINE
  5
19B
330
1F
100
AcDbEntity
  8
0
  6
Continuous
 62
     7
370
    15
100
AcDbLine
 10
143.6462335657
 20
178.3983039177
 30
0.0
 11
143.6125453447
 21
178.3983201587
 31
0.0
  0
SPLINE
  5
19C
330
1F
100
AcDbEntity
  8
0
  6
Continuous
 62
     7
370
    15
100
AcDbSpline
210
0.0
220
0.0
230
1.0
 70
     8
 71
     3
 72
    11
 73
     7
 74
     0
 42
0.000000001
 43
0.00000001
 40
0.0
 40
0.0
 40
0.0
 40
0.0
 40
0.2823223587811
 40
0.5646447175622005
 40
0.8469670763433009
 40
0.9999999999999999
 40
0.9999999999999999
 40
0.9999999999999999
 40
0.9999999999999999
 10
144.5950929383056
 20
182.3977109393188
 30
0.0
 10
144.4655695393434
 20
182.3808320079275
 30
0.0
 10
144.206522741419
 20
182.3470741451447
 30
0.0
 10
143.8856250261749
 20
182.1139192059657
 30
0.0
 10
143.6832113051343
 20
181.8393480093903
 30
0.0
 10
143.6561547655267
 20
181.6409904619389
 30
0.0
 10
143.6466440474368
 20
181.5712652590061
 30
0.0
  0
LINE
  5
19D
330
1F
100
AcDbEntity
  8
0
  6
Continuous
 62
     7
370
    15
100
AcDbLine
 10
143.6125453447
 20
130.7147895983
 30
0.0
 11
143.6125453447
 21
127.5061076087
 31
0.0
  0
SPLINE
  5
19E
330
1F
100
AcDbEntity
  8
0
  6
Continuous
 62
     7
370
    15
100
AcDbSpline
210
0.0
220
0.0
230
1.0
 70
     8
 71
     3
 72
    22
 73
    18
 74
     0
 42
0.000000001
 43
0.00000001
 40
0.0
 40
0.0
 40
0.0
 40
0.0
 40
0.125
 40
0.125
 40
0.25
 40
0.25
 40
0.375
 40
0.375
 40
0.5
 40
0.5
 40
0.625
 40
0.625
 40
0.75
 40
0.75
 40
0.875
 40
0.875
 40
1.0
 40
1.0
 40
1.0
 40
1.0
 10
143.6125453449703
 20
134.1896532325681
 30
0.0
 10
143.612547270773
 20
134.061807350781
 30
0.0
 10
143.6245860053606
 20
133.9291970253321
 30
0.0
 10
143.6583512993759
 20
133.6539651912766
 30
0.0
 10
143.6804140437511
 20
133.5104169378622
 30
0.0
 10
143.7228465549115
 20
133.2165860314976
 30
0.0
 10
143.7430074144182
 20
133.0673150054187
 30
0.0
 10
143.7718106918125
 20
132.7631627855907
 30
0.0
 10
143.7803144583852
 20
132.6073344253169
 30
0.0
 10
143.7802092710602
 20
132.2940685981745
 30
0.0
 10
143.7717149065406
 20
132.1399093437138
 30
0.0
 10
143.7428635034908
 20
131.8359401699771
 30
0.0
 10
143.7225073493474
 20
131.6853885936002
 30
0.0
 10
143.6799998995013
 20
131.3912491494624
 30
0.0
 10
143.6582180595644
 20
131.2494648081885
 30
0.0
 10
143.6245960557422
 20
130.9752240290584
 30
0.0
 10
143.6125472731693
 20
130.8427795082762
 30
0.0
 10
143.6125453449702
 20
130.7147745347868
 30
0.0
  0
LINE
  5
19F
330
1F
100
AcDbEntity
  8
0
  6
Continuous
 62
     7
370
    15
100
AcDbLine
 10
143.6125453447
 20
171.7147895983
 30
0.0
 11
143.6125453447
 21
134.1896381691
 31
0.0
  0
SPLINE
  5
1A0
330
1F
100
AcDbEntity
  8
0
  6
Continuous
 62
     7
370
    15
100
AcDbSpline
210
0.0
220
0.0
230
1.0
 70
     8
 71
     3
 72
    22
 73
    18
 74
     0
 42
0.000000001
 43
0.00000001
 40
0.0
 40
0.0
 40
0.0
 40
0.0
 40
0.125
 40
0.125
 40
0.25
 40
0.25
 40
0.375
 40
0.375
 40
0.5
 40
0.5
 40
0.625
 40
0.625
 40
0.75
 40
0.75
 40
0.875
 40
0.875
 40
1.0
 40
1.0
 40
1.0
 40
1.0
 10
143.6125453449703
 20
175.1896532325681
 30
0.0
 10
143.612547270773
 20
175.061807350781
 30
0.0
 10
143.6245860053606
 20
174.9291970253321
 30
0.0
 10
143.6583512993759
 20
174.6539651912765
 30
0.0
 10
143.6804140437511
 20
174.5104169378622
 30
0.0
 10
143.7228465549115
 20
174.2165860314976
 30
0.0
 10
143.7430074144182
 20
174.0673150054187
 30
0.0
 10
143.7718106918125
 20
173.7631627855907
 30
0.0
 10
143.7803144583852
 20
173.6073344253169
 30
0.0
 10
143.7802092710602
 20
173.2940685981745
 30
0.0
 10
143.7717149065406
 20
173.1399093437138
 30
0.0
 10
143.7428635034908
 20
172.8359401699771
 30
0.0
 10
143.7225073493474
 20
172.6853885936002
 30
0.0
 10
143.6799998995013
 20
172.3912491494624
 30
0.0
 10
143.6582180595644
 20
172.2494648081885
 30
0.0
 10
143.6245960557422
 20
171.9752240290584
 30
0.0
 10
143.6125472731693
 20
171.8427795082762
 30
0.0
 10
143.6125453449702
 20
171.7147745347868
 30
0.0
  0
LINE
  5
1A1
330
1F
100
AcDbEntity
  8
0
  6
Continuous
 62
     7
370
    15
100
AcDbLine
 10
143.6125453447
 20
178.3983201587
 30
0.0
 11
143.6125453447
 21
175.1896381691
 31
0.0
  0
LINE
  5
1A2
330
1F
100
AcDbEntity
  8
0
  6
Continuous
 62
     7
370
    15
100
AcDbLine
 10
143.6466315133
 20
127.5061076087
 30
0.0
 11
143.6125453447
 21
127.5061076087
 31
0.0
  0
LINE
  5
1A3
330
1F
100
AcDbEntity
  8
0
  6
Continuous
 62
     7
370
    15
100
AcDbLine
 10
143.6478062152
 20
124.3272525892
 30
0.0
 11
143.6125453447
 21
124.5065645232
 31
0.0
  0
LINE
  5
1A4
330
1F
100
AcDbEntity
  8
0
  6
Continuous
 62
     7
370
    15
100
AcDbLine
 10
143.6125453447
 20
124.5633944331
 30
0.0
 11
143.6125453447
 21
124.5065645232
 31
0.0
  0
LINE
  5
1A5
330
1F
100
AcDbEntity
  8
0
  6
Continuous
 62
     7
370
    15
100
AcDbLine
 10
143.3625453447
 20
176.4522138837
 30
0.0
 11
143.3625453447
 21
170.4522138837
 31
0.0
  0
LINE
  5
1A6
330
1F
100
AcDbEntity
  8
0
  6
Continuous
 62
     7
370
    15
100
AcDbLine
 10
143.3625453447
 20
135.4522138837
 30
0.0
 11
143.3625453447
 21
129.4522138837
 31
0.0
  0
LINE
  5
1A7
330
1F
100
AcDbEntity
  8
0
  6
Continuous
 62
     7
370
    15
100
AcDbLine
 10
177.3625453447
 20
167.9578986397
 30
0.0
 11
177.3625453447
 21
170.3078986397
 31
0.0
  0
LINE
  5
1A8
330
1F
100
AcDbEntity
  8
0
  6
Continuous
 62
     7
370
    15
100
AcDbLine
 10
176.3625453447
 20
167.9578986397
 30
0.0
 11
177.3625453447
 21
167.9578986397
 31
0.0
  0
LINE
  5
1A9
330
1F
100
AcDbEntity
  8
0
  6
Continuous
 62
     7
370
    15
100
AcDbLine
 10
177.3625453447
 20
135.5965291276
 30
0.0
 11
177.3625453447
 21
137.9465291276
 31
0.0
  0
LINE
  5
1AA
330
1F
100
AcDbEntity
  8
0
  6
Continuous
 62
     7
370
    15
100
AcDbLine
 10
176.3625453447
 20
137.9465291276
 30
0.0
 11
177.3625453447
 21
137.9465291276
 31
0.0
  0
LINE
  5
1AB
330
1F
100
AcDbEntity
  8
0
  6
Continuous
 62
     7
370
    15
100
AcDbLine
 10
177.3625453447
 20
137.9465291276
 30
0.0
 11
177.3625453447
 21
167.9578986397
 31
0.0
  0
LINE
  5
1AC
330
1F
100
AcDbEntity
  8
0
  6
Continuous
 62
     7
370
    15
100
AcDbLine
 10
176.3625453447
 20
173.4522138837
 30
0.0
 11
177.3625453447
 21
173.4522138837
 31
0.0
  0
LINE
  5
1AD
330
1F
100
AcDbEntity
  8
0
  6
Continuous
 62
     7
370
    15
100
AcDbLine
 10
177.3625453447
 20
173.4522138837
 30
0.0
 11
177.3625453447
 21
170.3078986397
 31
0.0
  0
LINE
  5
1AE
330
1F
100
AcDbEntity
  8
0
  6
Continuous
 62
     7
370
    15
100
AcDbLine
 10
177.3625453447
 20
132.4522138837
 30
0.0
 11
176.3625453447
 21
132.4522138837
 31
0.0
  0
LINE
  5
1AF
330
1F
100
AcDbEntity
  8
0
  6
Continuous
 62
     7
370
    15
100
AcDbLine
 10
177.3625453447
 20
135.5965291276
 30
0.0
 11
177.3625453447
 21
132.4522138837
 31
0.0
  0
LINE
  5
1B0
330
1F
100
AcDbEntity
  8
0
  6
Continuous
 62
     7
370
    15
100
AcDbLine
 10
176.3625453447
 20
124.3522138837
 30
0.0
 11
177.3625453447
 21
124.3522138837
 31
0.0
  0
LINE
  5
1B1
330
1F
100
AcDbEntity
  8
0
  6
Continuous
 62
     7
370
    15
100
AcDbLine
 10
176.3625453447
 20
126.7022138837
 30
0.0
 11
177.3625453447
 21
126.7022138837
 31
0.0
  0
LINE
  5
1B2
330
1F
100
AcDbEntity
  8
0
  6
Continuous
 62
     7
370
    15
100
AcDbLine
 10
177.3625453447
 20
124.3522138837
 30
0.0
 11
177.3625453447
 21
126.7022138837
 31
0.0
  0
LINE
  5
1B3
330
1F
100
AcDbEntity
  8
0
  6
Continuous
 62
     7
370
    15
100
AcDbLine
 10
177.3625453447
 20
126.7022138837
 30
0.0
 11
177.3625453447
 21
132.4522138837
 31
0.0
  0
LINE
  5
1B4
330
1F
100
AcDbEntity
  8
0
  6
Continuous
 62
     7
370
    15
100
AcDbLine
 10
176.3625453447
 20
179.2022138837
 30
0.0
 11
177.3625453447
 21
179.2022138837
 31
0.0
  0
LINE
  5
1B5
330
1F
100
AcDbEntity
  8
0
  6
Continuous
 62
     7
370
    15
100
AcDbLine
 10
176.3625453447
 20
181.5522138837
 30
0.0
 11
177.3625453447
 21
181.5522138837
 31
0.0
  0
LINE
  5
1B6
330
1F
100
AcDbEntity
  8
0
  6
Continuous
 62
     7
370
    15
100
AcDbLine
 10
177.3625453447
 20
179.2022138837
 30
0.0
 11
177.3625453447
 21
181.5522138837
 31
0.0
  0
LINE
  5
1B7
330
1F
100
AcDbEntity
  8
0
  6
Continuous
 62
     7
370
    15
100
AcDbLine
 10
177.3625453447
 20
173.4522138837
 30
0.0
 11
177.3625453447
 21
179.2022138837
 31
0.0
  0
SPLINE
  5
1B8
330
1F
100
AcDbEntity
  8
0
  6
Continuous
 62
     8
370
    15
100
AcDbSpline
210
0.0
220
0.0
230
1.0
 70
     8
 71
     3
 72
    15
 73
    11
 74
     0
 42
0.000000001
 43
0.00000001
 40
0.0
 40
0.0
 40
0.0
 40
0.0
 40
0.0090939642613076
 40
0.1534513109741792
 40
0.2938940418536045
 40
0.4304227151242879
 40
0.5669695935401017
 40
0.7074144148787722
 40
0.8517577458871386
 40
1.0
 40
1.0
 40
1.0
 40
1.0
 10
144.5920608138138
 20
123.5849420039558
 30
0.0
 10
144.5919943139025
 20
123.5865563198419
 30
0.0
 10
144.5908721961678
 20
123.6137962431514
 30
0.0
 10
144.5894608161886
 20
123.8122841073639
 30
0.0
 10
144.5880979644878
 20
124.1719557873679
 30
0.0
 10
144.5877514355153
 20
124.6621681319973
 30
0.0
 10
144.5881089125987
 20
125.2493893958334
 30
0.0
 10
144.5894171092493
 20
125.9323953852387
 30
0.0
 10
144.591717848644
 20
126.6956363076879
 30
0.0
 10
144.5939579580373
 20
127.2335610913831
 30
0.0
 10
144.5950929383056
 20
127.5061076095075
 30
0.0
  0
SPLINE
  5
1B9
330
1F
100
AcDbEntity
  8
0
  6
Continuous
 62
     8
370
    15
100
AcDbSpline
210
0.0
220
0.0
230
1.0
 70
     8
 71
     3
 72
    11
 73
     7
 74
     0
 42
0.000000001
 43
0.00000001
 40
0.0
 40
0.0
 40
0.0
 40
0.0
 40
0.2818836184749436
 40
0.5637672369498911
 40
0.845650855424834
 40
1.0
 40
1.0
 40
1.0
 40
1.0
 10
144.5950933493141
 20
178.3981765719975
 30
0.0
 10
144.4655733966136
 20
178.3981885375554
 30
0.0
 10
144.2065334912126
 20
178.3982124686712
 30
0.0
 10
143.8855833155908
 20
178.398248365345
 30
0.0
 10
143.6828993170313
 20
178.398278848362
 30
0.0
 10
143.6558161947309
 20
178.3982973658212
 30
0.0
 10
143.646233565654
 20
178.3983039177224
 30
0.0
  0
SPLINE
  5
1BA
330
1F
100
AcDbEntity
  8
0
  6
Continuous
 62
     8
370
    15
100
AcDbSpline
210
0.0
220
0.0
230
1.0
 70
    24
 71
     3
 72
    11
 73
     7
 74
     0
 42
0.000000001
 43
0.00000001
 40
0.0
 40
0.0
 40
0.0
 40
0.0
 40
0.2823089421278133
 40
0.564617884255627
 40
0.8469268263834407
 40
0.9999999999999999
 40
0.9999999999999999
 40
0.9999999999999999
 40
0.9999999999999999
 10
144.5950929383056
 20
127.5061076086625
 30
0.0
 10
144.4655696462346
 20
127.5061076086625
 30
0.0
 10
144.2065230620925
 20
127.5061076086624
 30
0.0
 10
143.8856237434812
 20
127.5061076086624
 30
0.0
 10
143.6832017816465
 20
127.5061076086625
 30
0.0
 10
143.6561444315074
 20
127.5061076086624
 30
0.0
 10
143.6466315133015
 20
127.5061076086625
 30
0.0
  0
CIRCLE
  5
1BB
330
1F
100
AcDbEntity
  8
0
  6
Continuous
 62
     7
370
    15
100
AcDbCircle
 10
203.3928705441
 20
173.4522138837
 30
0.0
 40
1.625
  0
CIRCLE
  5
1BC
330
1F
100
AcDbEntity
  8
0
  6
Continuous
 62
     7
370
    15
100
AcDbCircle
 10
203.3928705441
 20
173.4522138837
 30
0.0
 40
3.000000000000028
  0
CIRCLE
  5
1BD
330
1F
100
AcDbEntity
  8
0
  6
Continuous
 62
     7
370
    15
100
AcDbCircle
 10
203.3928705441
 20
132.4522138837
 30
0.0
 40
1.624999999999972
  0
CIRCLE
  5
1BE
330
1F
100
AcDbEntity
  8
0
  6
Continuous
 62
     7
370
    15
100
AcDbCircle
 10
203.3928705441
 20
132.4522138837
 30
0.0
 40
3.0
  0
CIRCLE
  5
1BF
330
1F
100
AcDbEntity
  8
0
  6
Continuous
 62
     7
370
    15
100
AcDbCircle
 10
256.3928705441
 20
132.4522138837
 30
0.0
 40
1.624999999999972
  0
CIRCLE
  5
1C0
330
1F
100
AcDbEntity
  8
0
  6
Continuous
 62
     7
370
    15
100
AcDbCircle
 10
256.3928705441
 20
132.4522138837
 30
0.0
 40
3.0
  0
CIRCLE
  5
1C1
330
1F
100
AcDbEntity
  8
0
  6
Continuous
 62
     7
370
    15
100
AcDbCircle
 10
256.3928705441
 20
173.4522138837
 30
0.0
 40
1.625
  0
CIRCLE
  5
1C2
330
1F
100
AcDbEntity
  8
0
  6
Continuous
 62
     7
370
    15
100
AcDbCircle
 10
256.3928705441
 20
173.4522138837
 30
0.0
 40
3.000000000000028
  0
SPLINE
  5
1C3
330
1F
100
AcDbEntity
  8
0
  6
Continuous
 62
     7
370
    15
100
AcDbSpline
210
0.0
220
0.0
230
1.0
 70
     8
 71
     3
 72
    53
 73
    49
 74
     0
 42
0.000000001
 43
0.00000001
 40
0.0
 40
0.0
 40
0.0
 40
0.0
 40
0.0217273179209806
 40
0.0434641108107332
 40
0.0652068449639872
 40
0.0869520175119783
 40
0.1086962685395213
 40
0.1304371423062521
 40
0.152174992019678
 40
0.1739107135416088
 40
0.1956450925344025
 40
0.2173788874191368
 40
0.2391129123769392
 40
0.2608479770740382
 40
0.2825842060584374
 40
0.3043213438393497
 40
0.3260590473126493
 40
0.3477969763273492
 40
0.36953488413922
 40
0.3912727241478087
 40
0.4130106503805313
 40
0.434748706365834
 40
0.4564868249582256
 40
0.4782249170413368
 40
0.4999629603385971
 40
0.5217010844977387
 40
0.5434394830263658
 40
0.5651781930083782
 40
0.5869171445271602
 40
0.6086562495759221
 40
0.6303954908829693
 40
0.6521349953247302
 40
0.6738748377065403
 40
0.6956148441262345
 40
0.7173547053216442
 40
0.7390940682934662
 40
0.7608326268055268
 40
0.7825702557263174
 40
0.8043075189239213
 40
0.8260452749318199
 40
0.8477842975816781
 40
0.869525350701044
 40
0.8912692711723824
 40
0.9130169273689948
 40
0.9347671410588274
 40
0.9565167080951894
 40
0.9782621732652338
 40
1.0
 40
1.0
 40
1.0
 40
1.0
 10
203.9469078570069
 20
182.3976956284872
 30
0.0
 10
203.9014092595122
 20
182.3972388542565
 30
0.0
 10
203.8103922232433
 20
182.3963251066023
 30
0.0
 10
203.6740038530894
 20
182.3890585643834
 30
0.0
 10
203.5378951658208
 20
182.3774883257902
 30
0.0
 10
203.4022460904213
 20
182.3611989329971
 30
0.0
 10
203.2672349874736
 20
182.3403131285881
 30
0.0
 10
203.133034398409
 20
182.3148073644936
 30
0.0
 10
202.9998017321151
 20
182.2847341269313
 30
0.0
 10
202.8676859960098
 20
182.2501350868012
 30
0.0
 10
202.736834797474
 20
182.2110542355247
 30
0.0
 10
202.6073957818964
 20
182.1675347188094
 30
0.0
 10
202.4795166716351
 20
182.119620329092
 30
0.0
 10
202.3533480659459
 20
182.0673541939273
 30
0.0
 10
202.2290318286085
 20
182.0108078491117
 30
0.0
 10
202.106709991639
 20
181.950055142
 30
0.0
 10
201.9865252511004
 20
181.8851695667912
 30
0.0
 10
201.8686203902641
 20
181.8162245372572
 30
0.0
 10
201.7531376793032
 20
181.7432940557964
 30
0.0
 10
201.6402214984094
 20
181.6664496202941
 30
0.0
 10
201.5299980527313
 20
181.5857900451825
 30
0.0
 10
201.4225893568202
 20
181.501417712001
 30
0.0
 10
201.3181180802891
 20
181.4134338038607
 30
0.0
 10
201.2167069032424
 20
181.3219395877457
 30
0.0
 10
201.1184778465855
 20
181.2270369026336
 30
0.0
 10
201.0235560526642
 20
181.1288253393225
 30
0.0
 10
200.9320462205484
 20
181.027425411502
 30
0.0
 10
200.8440468331761
 20
180.9229622563968
 30
0.0
 10
200.7596577282281
 20
180.815559640447
 30
0.0
 10
200.6789786718265
 20
180.7053414985024
 30
0.0
 10
200.602108554414
 20
180.5924322930063
 30
0.0
 10
200.529150508072
 20
180.4769547570686
 30
0.0
 10
200.460183941523
 20
180.3590482980606
 30
0.0
 10
200.3952784198851
 20
180.2388577932567
 30
0.0
 10
200.3345058834441
 20
180.1165267160708
 30
0.0
 10
200.2779379588493
 20
179.9921988206831
 30
0.0
 10
200.2256454100014
 20
179.8660180308001
 30
0.0
 10
200.1777025366017
 20
179.7381259208213
 30
0.0
 10
200.1341618173276
 20
179.6086708736155
 30
0.0
 10
200.0950627076294
 20
179.4778029418072
 30
0.0
 10
200.0604468610818
 20
179.3456702114746
 30
0.0
 10
200.0303563278412
 20
179.2124209771379
 30
0.0
 10
200.0048292952286
 20
179.0782039145709
 30
0.0
 10
199.9839201851255
 20
178.9431719891539
 30
0.0
 10
199.967619050856
 20
178.8074919768472
 30
0.0
 10
199.9560418582611
 20
178.6713406594023
 30
0.0
 10
199.9487718405112
 20
178.5348979159892
 30
0.0
 10
199.9478556185248
 20
178.443840743721
 30
0.0
 10
199.9473975880051
 20
178.3983201553061
 30
0.0
  0
SPLINE
  5
1C4
330
1F
100
AcDbEntity
  8
0
  6
Continuous
 62
     7
370
    15
100
AcDbSpline
210
0.0
220
0.0
230
1.0
 70
     8
 71
     3
 72
    14
 73
    10
 74
     0
 42
0.000000001
 43
0.00000001
 40
0.0
 40
0.0
 40
0.0
 40
0.0
 40
0.25
 40
0.25
 40
0.5
 40
0.5
 40
0.75
 40
0.75
 40
1.0
 40
1.0
 40
1.0
 40
1.0
 10
203.9469078557698
 20
182.3977109464929
 30
0.0
 10
203.9468958902118
 20
182.3954518679336
 30
0.0
 10
203.9468839246539
 20
182.3677522711695
 30
0.0
 10
203.9468599935381
 20
182.2655568808533
 30
0.0
 10
203.9468480279801
 20
182.1910995455852
 30
0.0
 10
203.9468240968643
 20
182.0064457645342
 30
0.0
 10
203.9468121313064
 20
181.8963188078693
 30
0.0
 10
203.9467882001906
 20
181.6567051053908
 30
0.0
 10
203.9467762346326
 20
181.5273085312744
 30
0.0
 10
203.9467642690747
 20
181.3978632441625
 30
0.0
  0
SPLINE
  5
1C5
330
1F
100
AcDbEntity
  8
0
  6
Continuous
 62
     7
370
    15
100
AcDbSpline
210
0.0
220
0.0
230
1.0
 70
     8
 71
     3
 72
    14
 73
    10
 74
     0
 42
0.000000001
 43
0.00000001
 40
0.0
 40
0.0
 40
0.0
 40
0.0
 40
0.25
 40
0.25
 40
0.5
 40
0.5
 40
0.75
 40
0.75
 40
1.0
 40
1.0
 40
1.0
 40
1.0
 10
200.9472211836041
 20
178.3983201586925
 30
0.0
 10
200.9472790397916
 20
178.7908146200486
 30
0.0
 10
201.0252590673691
 20
179.1835800647039
 30
0.0
 10
201.3257970845394
 20
179.9090017257006
 30
0.0
 10
201.5480781168438
 20
180.2417780005076
 30
0.0
 10
202.1033369488008
 20
180.7970052966158
 30
0.0
 10
202.4361043418257
 20
181.0193075296362
 30
0.0
 10
203.1615173435206
 20
181.3198204088991
 30
0.0
 10
203.5543674118183
 20
181.3978039428899
 30
0.0
 10
203.9467642690747
 20
181.3978632441631
 30
0.0
  0
SPLINE
  5
1C6
330
1F
100
AcDbEntity
  8
0
  6
Continuous
 62
     7
370
    15
100
AcDbSpline
210
0.0
220
0.0
230
1.0
 70
    24
 71
     3
 72
    14
 73
    10
 74
     0
 42
0.000000001
 43
0.00000001
 40
0.0
 40
0.0
 40
0.0
 40
0.0
 40
0.25
 40
0.25
 40
0.5
 40
0.5
 40
0.75
 40
0.75
 40
1.0
 40
1.0
 40
1.0
 40
1.0
 10
199.9473734884484
 20
178.3983201586925
 30
0.0
 10
199.9496326196129
 20
178.3983201586925
 30
0.0
 10
199.9773322551534
 20
178.3983201586925
 30
0.0
 10
200.0795276917599
 20
178.3983201586925
 30
0.0
 10
200.1539850345652
 20
178.3983201586925
 30
0.0
 10
200.3386388040464
 20
178.3983201586925
 30
0.0
 10
200.4487657416818
 20
178.3983201586925
 30
0.0
 10
200.688379390824
 20
178.3983201586925
 30
0.0
 10
200.8177759307487
 20
178.3983201586925
 30
0.0
 10
200.9472211836047
 20
178.3983201586925
 30
0.0
  0
SPLINE
  5
1C7
330
1F
100
AcDbEntity
  8
0
  6
Continuous
 62
     7
370
    15
100
AcDbSpline
210
0.0
220
0.0
230
1.0
 70
     8
 71
     3
 72
    53
 73
    49
 74
     0
 42
0.000000001
 43
0.00000001
 40
0.0
 40
0.0
 40
0.0
 40
0.0
 40
0.0217273179212264
 40
0.0434641108112135
 40
0.06520684496469
 40
0.0869520175128953
 40
0.1086962685406374
 40
0.1304371423075601
 40
0.1521749920211653
 40
0.173910713543267
 40
0.1956450925362164
 40
0.2173788874210982
 40
0.2391129123790361
 40
0.2608479770762586
 40
0.2825842060607743
 40
0.3043213438417878
 40
0.3260590473151815
 40
0.3477969763299624
 40
0.369534884141906
 40
0.3912727241505538
 40
0.4130106503833254
 40
0.4347487063686654
 40
0.4564868249610833
 40
0.4782249170442129
 40
0.4999629603414769
 40
0.5217010845006127
 40
0.543439483029223
 40
0.5651781930112092
 40
0.5869171445299531
 40
0.6086562495786656
 40
0.6303954908856523
 40
0.6521349953273433
 40
0.6738748377090729
 40
0.6956148441286754
 40
0.7173547053239805
 40
0.7390940682956868
 40
0.7608326268076239
 40
0.7825702557282778
 40
0.8043075189257337
 40
0.8260452749334748
 40
0.8477842975831636
 40
0.8695253507023498
 40
0.891269271173498
 40
0.9130169273699104
 40
0.9347671410595293
 40
0.9565167080956699
 40
0.978262173265479
 40
0.9999999999999999
 40
0.9999999999999999
 40
0.9999999999999999
 40
0.9999999999999999
 10
199.94738879928
 20
127.5062511965946
 30
0.0
 10
199.9478455735107
 20
127.4607525990995
 30
0.0
 10
199.9487593211649
 20
127.3697355628295
 30
0.0
 10
199.956025863384
 20
127.2333471926741
 30
0.0
 10
199.9675961019774
 20
127.0972385054042
 30
0.0
 10
199.9838854947709
 20
126.9615894300033
 30
0.0
 10
200.0047712991803
 20
126.8265783270544
 30
0.0
 10
200.0302770632753
 20
126.6923777379887
 30
0.0
 10
200.0603503008381
 20
126.5591450716938
 30
0.0
 10
200.0949493409688
 20
126.4270293355875
 30
0.0
 10
200.134030192246
 20
126.2961781370508
 30
0.0
 10
200.1775497089618
 20
126.1667391214725
 30
0.0
 10
200.22546409868
 20
126.0388600112106
 30
0.0
 10
200.2777302338454
 20
125.9126914055209
 30
0.0
 10
200.3342765786618
 20
125.788375168183
 30
0.0
 10
200.3950292857742
 20
125.6660533312131
 30
0.0
 10
200.4599148609838
 20
125.5458685906743
 30
0.0
 10
200.5288598905185
 20
125.4279637298377
 30
0.0
 10
200.60179037198
 20
125.3124810188769
 30
0.0
 10
200.6786348074831
 20
125.1995648379831
 30
0.0
 10
200.7592943825953
 20
125.0893413923051
 30
0.0
 10
200.8436667157773
 20
124.9819326963942
 30
0.0
 10
200.9316506239182
 20
124.8774614198633
 30
0.0
 10
201.0231448400338
 20
124.7760502428169
 30
0.0
 10
201.1180475251463
 20
124.6778211861605
 30
0.0
 10
201.2162590884579
 20
124.5828993922396
 30
0.0
 10
201.3176590162786
 20
124.4913895601244
 30
0.0
 10
201.4221221713841
 20
124.4033901727526
 30
0.0
 10
201.5295247873342
 20
124.3190010678053
 30
0.0
 10
201.6397429292788
 20
124.2383220114043
 30
0.0
 10
201.7526521347749
 20
124.1614518939924
 30
0.0
 10
201.8681296707126
 20
124.0884938476513
 30
0.0
 10
201.9860361297204
 20
124.0195272811029
 30
0.0
 10
202.1062266345241
 20
123.9546217594658
 30
0.0
 10
202.2285577117096
 20
123.8938492230255
 30
0.0
 10
202.3528856070969
 20
123.8372812984315
 30
0.0
 10
202.4790663969793
 20
123.7849887495844
 30
0.0
 10
202.6069585069574
 20
123.7370458761853
 30
0.0
 10
202.7364135541626
 20
123.6935051569119
 30
0.0
 10
202.86728148597
 20
123.6544060472144
 30
0.0
 10
202.9994142163016
 20
123.6197902006673
 30
0.0
 10
203.1326634506373
 20
123.5896996674273
 30
0.0
 10
203.2668805132031
 20
123.5641726348151
 30
0.0
 10
203.4019124386189
 20
123.5432635247124
 30
0.0
 10
203.5375924509243
 20
123.5269623904433
 30
0.0
 10
203.6737437683678
 20
123.5153851978487
 30
0.0
 10
203.8101865117795
 20
123.5081151800989
 30
0.0
 10
203.9012436840467
 20
123.5071989581125
 30
0.0
 10
203.9467642724611
 20
123.5067409275928
 30
0.0
  0
SPLINE
  5
1C8
330
1F
100
AcDbEntity
  8
0
  6
Continuous
 62
     7
370
    15
100
AcDbSpline
210
0.0
220
0.0
230
1.0
 70
     8
 71
     3
 72
    14
 73
    10
 74
     0
 42
0.000000001
 43
0.00000001
 40
0.0
 40
0.0
 40
0.0
 40
0.0
 40
0.25
 40
0.25
 40
0.5
 40
0.5
 40
0.75
 40
0.75
 40
1.0
 40
1.0
 40
1.0
 40
1.0
 10
199.9473734812743
 20
127.5062511953575
 30
0.0
 10
199.9496325598336
 20
127.5062392297995
 30
0.0
 10
199.9773321565977
 20
127.5062272642416
 30
0.0
 10
200.0795275469139
 20
127.5062033331258
 30
0.0
 10
200.153984882182
 20
127.5061913675679
 30
0.0
 10
200.338638663233
 20
127.506167436452
 30
0.0
 10
200.4487656198979
 20
127.5061554708941
 30
0.0
 10
200.6883793223764
 20
127.5061315397783
 30
0.0
 10
200.8177758964928
 20
127.5061195742204
 30
0.0
 10
200.9472211836047
 20
127.5061076086625
 30
0.0
  0
SPLINE
  5
1C9
330
1F
100
AcDbEntity
  8
0
  6
Continuous
 62
     7
370
    15
100
AcDbSpline
210
0.0
220
0.0
230
1.0
 70
     8
 71
     3
 72
    14
 73
    10
 74
     0
 42
0.000000001
 43
0.00000001
 40
0.0
 40
0.0
 40
0.0
 40
0.0
 40
0.25
 40
0.25
 40
0.5
 40
0.5
 40
0.75
 40
0.75
 40
1.0
 40
1.0
 40
1.0
 40
1.0
 10
203.9467642690747
 20
124.5065645231918
 30
0.0
 10
203.5542698077186
 20
124.5066223793793
 30
0.0
 10
203.1615043630633
 20
124.5846024069568
 30
0.0
 10
202.4360827020666
 20
124.8851404241271
 30
0.0
 10
202.1033064272596
 20
125.1074214564316
 30
0.0
 10
201.5480791311514
 20
125.6626802883885
 30
0.0
 10
201.325776898131
 20
125.9954476814135
 30
0.0
 10
201.025264018868
 20
126.7208606831083
 30
0.0
 10
200.9472804848773
 20
127.1137107514061
 30
0.0
 10
200.9472211836041
 20
127.5061076086625
 30
0.0
  0
SPLINE
  5
1CA
330
1F
100
AcDbEntity
  8
0
  6
Continuous
 62
     7
370
    15
100
AcDbSpline
210
0.0
220
0.0
230
1.0
 70
    24
 71
     3
 72
    14
 73
    10
 74
     0
 42
0.000000001
 43
0.00000001
 40
0.0
 40
0.0
 40
0.0
 40
0.0
 40
0.25
 40
0.25
 40
0.5
 40
0.5
 40
0.75
 40
0.75
 40
1.0
 40
1.0
 40
1.0
 40
1.0
 10
203.946764326582
 20
124.5065645231918
 30
0.0
 10
203.9467643202582
 20
124.3897474394629
 30
0.0
 10
203.9467643134471
 20
124.2639246544436
 30
0.0
 10
203.9467643002515
 20
124.0201562607335
 30
0.0
 10
203.9467642939062
 20
123.9029328049068
 30
0.0
 10
203.9467642833765
 20
123.70840631002
 30
0.0
 10
203.9467642792262
 20
123.631730772001
 30
0.0
 10
203.9467642738316
 20
123.5320652648469
 30
0.0
 10
203.9467642725713
 20
123.5087795994716
 30
0.0
 10
203.9467642724611
 20
123.5067409275929
 30
0.0
  0
SPLINE
  5
1CB
330
1F
100
AcDbEntity
  8
0
  6
Continuous
 62
     7
370
    15
100
AcDbSpline
210
0.0
220
0.0
230
1.0
 70
     8
 71
     3
 72
    53
 73
    49
 74
     0
 42
0.000000001
 43
0.00000001
 40
0.0
 40
0.0
 40
0.0
 40
0.0
 40
0.0217273179212264
 40
0.0434641108112135
 40
0.0652068449646899
 40
0.0869520175128952
 40
0.1086962685406374
 40
0.1304371423075601
 40
0.1521749920211657
 40
0.1739107135432675
 40
0.1956450925362187
 40
0.2173788874211019
 40
0.2391129123790403
 40
0.2608479770762683
 40
0.2825842060607879
 40
0.3043213438418049
 40
0.3260590473152036
 40
0.3477969763299892
 40
0.3695348841419336
 40
0.3912727241505849
 40
0.4130106503833581
 40
0.4347487063687001
 40
0.4564868249611184
 40
0.4782249170442486
 40
0.4999629603415121
 40
0.5217010845006483
 40
0.5434394830292576
 40
0.5651781930112435
 40
0.586917144529987
 40
0.6086562495786979
 40
0.6303954908856825
 40
0.652134995327371
 40
0.6738748377090956
 40
0.6956148441286948
 40
0.7173547053239949
 40
0.7390940682956975
 40
0.7608326268076296
 40
0.7825702557282808
 40
0.8043075189257356
 40
0.8260452749334761
 40
0.8477842975831638
 40
0.8695253507023499
 40
0.891269271173498
 40
0.9130169273699104
 40
0.9347671410595294
 40
0.95651670809567
 40
0.978262173265479
 40
1.0
 40
1.0
 40
1.0
 40
1.0
 10
259.8383522888995
 20
178.3981765707603
 30
0.0
 10
259.8378955146687
 20
178.4436751682555
 30
0.0
 10
259.8369817670146
 20
178.5346922045254
 30
0.0
 10
259.8297152247955
 20
178.6710805746808
 30
0.0
 10
259.818144986202
 20
178.8071892619508
 30
0.0
 10
259.8018555934086
 20
178.9428383373516
 30
0.0
 10
259.7809697889992
 20
179.0778494403005
 30
0.0
 10
259.7554640249042
 20
179.2120500293662
 30
0.0
 10
259.7253907873414
 20
179.3452826956611
 30
0.0
 10
259.6907917472107
 20
179.4773984317673
 30
0.0
 10
259.6517108959335
 20
179.608249630304
 30
0.0
 10
259.6081913792177
 20
179.7376886458824
 30
0.0
 10
259.5602769894994
 20
179.8655677561443
 30
0.0
 10
259.508010854334
 20
179.9917363618341
 30
0.0
 10
259.4514645095177
 20
180.116052599172
 30
0.0
 10
259.3907118024052
 20
180.2383744361419
 30
0.0
 10
259.3258262271956
 20
180.3585591766808
 30
0.0
 10
259.2568811976609
 20
180.4764640375173
 30
0.0
 10
259.1839507161994
 20
180.5919467484782
 30
0.0
 10
259.1071062806963
 20
180.704862929372
 30
0.0
 10
259.0264467055841
 20
180.81508637505
 30
0.0
 10
258.942074372402
 20
180.9224950709609
 30
0.0
 10
258.854090464261
 20
181.0269663474918
 30
0.0
 10
258.7625962481456
 20
181.1283775245381
 30
0.0
 10
258.667693563033
 20
181.2266065811946
 30
0.0
 10
258.5694819997215
 20
181.3215283751154
 30
0.0
 10
258.4680820719007
 20
181.4130382072307
 30
0.0
 10
258.3636189167951
 20
181.5010375946025
 30
0.0
 10
258.2562163008451
 20
181.5854266995497
 30
0.0
 10
258.1459981589005
 20
181.6661057559507
 30
0.0
 10
258.0330889534044
 20
181.7429758733626
 30
0.0
 10
257.9176114174667
 20
181.8159339197037
 30
0.0
 10
257.799704958459
 20
181.884900486252
 30
0.0
 10
257.6795144536552
 20
181.9498060078892
 30
0.0
 10
257.5571833764697
 20
182.0105785443294
 30
0.0
 10
257.4328554810825
 20
182.0671464689235
 30
0.0
 10
257.3066746912001
 20
182.1194390177705
 30
0.0
 10
257.178782581222
 20
182.1673818911696
 30
0.0
 10
257.0493275340169
 20
182.210922610443
 30
0.0
 10
256.9184596022095
 20
182.2500217201406
 30
0.0
 10
256.7863268718778
 20
182.2846375666876
 30
0.0
 10
256.6530776375422
 20
182.3147280999276
 30
0.0
 10
256.5188605749763
 20
182.3402551325398
 30
0.0
 10
256.3838286495605
 20
182.3611642426424
 30
0.0
 10
256.2481486372552
 20
182.3774653769116
 30
0.0
 10
256.1119973198117
 20
182.3890425695062
 30
0.0
 10
255.9755545763999
 20
182.3963125872561
 30
0.0
 10
255.8844974041327
 20
182.3972288092424
 30
0.0
 10
255.8389768157183
 20
182.3976868397621
 30
0.0
  0
SPLINE
  5
1CC
330
1F
100
AcDbEntity
  8
0
  6
Continuous
 62
     7
370
    15
100
AcDbSpline
210
0.0
220
0.0
230
1.0
 70
     8
 71
     3
 72
    14
 73
    10
 74
     0
 42
0.000000001
 43
0.00000001
 40
0.0
 40
0.0
 40
0.0
 40
0.0
 40
0.25
 40
0.25
 40
0.5
 40
0.5
 40
0.75
 40
0.75
 40
1.0
 40
1.0
 40
1.0
 40
1.0
 10
259.8383676069051
 20
178.3981765719975
 30
0.0
 10
259.8361085283459
 20
178.3981885375554
 30
0.0
 10
259.8084089315818
 20
178.3982005031133
 30
0.0
 10
259.7062135412656
 20
178.3982244342291
 30
0.0
 10
259.6317562059975
 20
178.398236399787
 30
0.0
 10
259.4471024249465
 20
178.3982603309029
 30
0.0
 10
259.3369754682815
 20
178.3982722964608
 30
0.0
 10
259.097361765803
 20
178.3982962275766
 30
0.0
 10
258.9679651916867
 20
178.3983081931345
 30
0.0
 10
258.8385199045748
 20
178.3983201586925
 30
0.0
  0
SPLINE
  5
1CD
330
1F
100
AcDbEntity
  8
0
  6
Continuous
 62
     7
370
    15
100
AcDbSpline
210
0.0
220
0.0
230
1.0
 70
     8
 71
     3
 72
    14
 73
    10
 74
     0
 42
0.000000001
 43
0.00000001
 40
0.0
 40
0.0
 40
0.0
 40
0.0
 40
0.25
 40
0.25
 40
0.5
 40
0.5
 40
0.75
 40
0.75
 40
1.0
 40
1.0
 40
1.0
 40
1.0
 10
255.8389768191047
 20
181.3978632441631
 30
0.0
 10
256.2314712804608
 20
181.3978053879756
 30
0.0
 10
256.6242367251162
 20
181.319825360398
 30
0.0
 10
257.3496583861127
 20
181.0192873432279
 30
0.0
 10
257.6824346609197
 20
180.7970063109235
 30
0.0
 10
258.237661957028
 20
180.2417474789665
 30
0.0
 10
258.4599641900484
 20
179.9089800859416
 30
0.0
 10
258.7604770693115
 20
179.1835670842466
 30
0.0
 10
258.8384606033021
 20
178.7907170159488
 30
0.0
 10
258.8385199045753
 20
178.3983201586925
 30
0.0
  0
SPLINE
  5
1CE
330
1F
100
AcDbEntity
  8
0
  6
Continuous
 62
     7
370
    15
100
AcDbSpline
210
0.0
220
0.0
230
1.0
 70
    24
 71
     3
 72
    14
 73
    10
 74
     0
 42
0.000000001
 43
0.00000001
 40
0.0
 40
0.0
 40
0.0
 40
0.0
 40
0.25
 40
0.25
 40
0.5
 40
0.5
 40
0.75
 40
0.75
 40
1.0
 40
1.0
 40
1.0
 40
1.0
 10
255.8389767615975
 20
181.3978632441631
 30
0.0
 10
255.8389767679212
 20
181.5146803278921
 30
0.0
 10
255.8389767747323
 20
181.6405031129113
 30
0.0
 10
255.8389767879279
 20
181.8842715066214
 30
0.0
 10
255.8389767942733
 20
182.0014949624481
 30
0.0
 10
255.838976804803
 20
182.1960214573349
 30
0.0
 10
255.8389768089533
 20
182.2726969953539
 30
0.0
 10
255.8389768143479
 20
182.372362502508
 30
0.0
 10
255.8389768156081
 20
182.3956481678833
 30
0.0
 10
255.8389768157183
 20
182.397686839762
 30
0.0
  0
SPLINE
  5
1CF
330
1F
100
AcDbEntity
  8
0
  6
Continuous
 62
     7
370
    15
100
AcDbSpline
210
0.0
220
0.0
230
1.0
 70
     8
 71
     3
 72
    53
 73
    49
 74
     0
 42
0.000000001
 43
0.00000001
 40
0.0
 40
0.0
 40
0.0
 40
0.0
 40
0.0217273179209806
 40
0.0434641108107332
 40
0.0652068449639872
 40
0.0869520175119783
 40
0.1086962685395213
 40
0.1304371423062521
 40
0.152174992019678
 40
0.1739107135416088
 40
0.1956450925344025
 40
0.2173788874191368
 40
0.2391129123769392
 40
0.2608479770740382
 40
0.2825842060584374
 40
0.3043213438393497
 40
0.3260590473126493
 40
0.3477969763273492
 40
0.36953488413922
 40
0.3912727241478087
 40
0.4130106503805313
 40
0.434748706365834
 40
0.4564868249582256
 40
0.4782249170413368
 40
0.4999629603385971
 40
0.5217010844977387
 40
0.5434394830263658
 40
0.5651781930083782
 40
0.5869171445271602
 40
0.6086562495759221
 40
0.6303954908829693
 40
0.6521349953247302
 40
0.6738748377065403
 40
0.6956148441262345
 40
0.7173547053216442
 40
0.7390940682934662
 40
0.7608326268055268
 40
0.7825702557263174
 40
0.8043075189239213
 40
0.8260452749318199
 40
0.8477842975816781
 40
0.869525350701044
 40
0.8912692711723824
 40
0.9130169273689948
 40
0.9347671410588274
 40
0.9565167080951894
 40
0.9782621732652338
 40
1.0
 40
1.0
 40
1.0
 40
1.0
 10
255.8388332311726
 20
123.5067321388677
 30
0.0
 10
255.8843318286672
 20
123.5071889130984
 30
0.0
 10
255.9753488649361
 20
123.5081026607526
 30
0.0
 10
256.1117372350901
 20
123.5153692029716
 30
0.0
 10
256.2478459223586
 20
123.5269394415647
 30
0.0
 10
256.3834949977582
 20
123.5432288343578
 30
0.0
 10
256.5185061007058
 20
123.5641146387668
 30
0.0
 10
256.6527066897705
 20
123.5896204028613
 30
0.0
 10
256.7859393560643
 20
123.6196936404236
 30
0.0
 10
256.9180550921697
 20
123.6542926805537
 30
0.0
 10
257.0489062907055
 20
123.6933735318302
 30
0.0
 10
257.1783453062831
 20
123.7368930485455
 30
0.0
 10
257.3062244165444
 20
123.784807438263
 30
0.0
 10
257.4323930222336
 20
123.8370735734276
 30
0.0
 10
257.556709259571
 20
123.8936199182432
 30
0.0
 10
257.6790310965405
 20
123.9543726253549
 30
0.0
 10
257.7992158370791
 20
124.0192582005637
 30
0.0
 10
257.9171206979154
 20
124.0882032300977
 30
0.0
 10
258.0326034088762
 20
124.1611337115585
 30
0.0
 10
258.1455195897701
 20
124.2379781470609
 30
0.0
 10
258.2557430354481
 20
124.3186377221724
 30
0.0
 10
258.3631517313592
 20
124.4030100553539
 30
0.0
 10
258.4676230078903
 20
124.4909939634942
 30
0.0
 10
258.569034184937
 20
124.5824881796092
 30
0.0
 10
258.667263241594
 20
124.6773908647213
 30
0.0
 10
258.7621850355153
 20
124.7756024280324
 30
0.0
 10
258.853694867631
 20
124.8770023558529
 30
0.0
 10
258.9416942550034
 20
124.9814655109581
 30
0.0
 10
259.0260833599513
 20
125.0888681269079
 30
0.0
 10
259.1067624163529
 20
125.1990862688525
 30
0.0
 10
259.1836325337655
 20
125.3119954743486
 30
0.0
 10
259.2565905801074
 20
125.4274730102863
 30
0.0
 10
259.3255571466564
 20
125.5453794692943
 30
0.0
 10
259.3904626682943
 20
125.6655699740982
 30
0.0
 10
259.4512352047353
 20
125.7879010512841
 30
0.0
 10
259.5078031293301
 20
125.9122289466718
 30
0.0
 10
259.560095678178
 20
126.0384097365548
 30
0.0
 10
259.6080385515777
 20
126.1663018465336
 30
0.0
 10
259.6515792708519
 20
126.2957568937394
 30
0.0
 10
259.69067838055
 20
126.4266248255477
 30
0.0
 10
259.7252942270977
 20
126.5587575558803
 30
0.0
 10
259.7553847603382
 20
126.692006790217
 30
0.0
 10
259.7809117929509
 20
126.826223852784
 30
0.0
 10
259.801820903054
 20
126.961255778201
 30
0.0
 10
259.8181220373235
 20
127.0969357905077
 30
0.0
 10
259.8296992299183
 20
127.2330871079526
 30
0.0
 10
259.8369692476683
 20
127.3695298513657
 30
0.0
 10
259.8378854696546
 20
127.4605870236339
 30
0.0
 10
259.8383435001743
 20
127.5061076120488
 30
0.0
  0
SPLINE
  5
1D0
330
1F
100
AcDbEntity
  8
0
  6
Continuous
 62
     7
370
    15
100
AcDbSpline
210
0.0
220
0.0
230
1.0
 70
     8
 71
     3
 72
    14
 73
    10
 74
     0
 42
0.000000001
 43
0.00000001
 40
0.0
 40
0.0
 40
0.0
 40
0.0
 40
0.25
 40
0.25
 40
0.5
 40
0.5
 40
0.75
 40
0.75
 40
1.0
 40
1.0
 40
1.0
 40
1.0
 10
255.8388332324097
 20
123.506716820862
 30
0.0
 10
255.8388451979676
 20
123.5089758994213
 30
0.0
 10
255.8388571635255
 20
123.5366754961854
 30
0.0
 10
255.8388810946414
 20
123.6388708865016
 30
0.0
 10
255.8388930601993
 20
123.7133282217697
 30
0.0
 10
255.8389169913152
 20
123.8979820028207
 30
0.0
 10
255.838928956873
 20
124.0081089594856
 30
0.0
 10
255.8389528879889
 20
124.2477226619641
 30
0.0
 10
255.8389648535469
 20
124.3771192360805
 30
0.0
 10
255.8389768191047
 20
124.5065645231925
 30
0.0
  0
SPLINE
  5
1D1
330
1F
100
AcDbEntity
  8
0
  6
Continuous
 62
     7
370
    15
100
AcDbSpline
210
0.0
220
0.0
230
1.0
 70
     8
 71
     3
 72
    14
 73
    10
 74
     0
 42
0.000000001
 43
0.00000001
 40
0.0
 40
0.0
 40
0.0
 40
0.0
 40
0.25
 40
0.25
 40
0.5
 40
0.5
 40
0.75
 40
0.75
 40
1.0
 40
1.0
 40
1.0
 40
1.0
 10
258.8385199045754
 20
127.5061076086624
 30
0.0
 10
258.8384620483879
 20
127.1136131473064
 30
0.0
 10
258.7604820208103
 20
126.720847702651
 30
0.0
 10
258.4599440036401
 20
125.9954260416543
 30
0.0
 10
258.2376629713357
 20
125.6626497668473
 30
0.0
 10
257.6824041393787
 20
125.1074224707391
 30
0.0
 10
257.3496367463537
 20
124.8851202377187
 30
0.0
 10
256.6242237446589
 20
124.5846073584558
 30
0.0
 10
256.2313736763611
 20
124.5066238244651
 30
0.0
 10
255.8389768191047
 20
124.5065645231918
 30
0.0
  0
SPLINE
  5
1D2
330
1F
100
AcDbEntity
  8
0
  6
Continuous
 62
     7
370
    15
100
AcDbSpline
210
0.0
220
0.0
230
1.0
 70
    24
 71
     3
 72
    14
 73
    10
 74
     0
 42
0.000000001
 43
0.00000001
 40
0.0
 40
0.0
 40
0.0
 40
0.0
 40
0.25
 40
0.25
 40
0.5
 40
0.5
 40
0.75
 40
0.75
 40
1.0
 40
1.0
 40
1.0
 40
1.0
 10
258.8385199045754
 20
127.5061076661697
 30
0.0
 10
258.9553369883043
 20
127.506107659846
 30
0.0
 10
259.0811597733236
 20
127.5061076530349
 30
0.0
 10
259.3249281670336
 20
127.5061076398393
 30
0.0
 10
259.4421516228603
 20
127.5061076334939
 30
0.0
 10
259.6366781177472
 20
127.5061076229642
 30
0.0
 10
259.7133536557661
 20
127.5061076188139
 30
0.0
 10
259.8130191629203
 20
127.5061076134193
 30
0.0
 10
259.8363048282956
 20
127.506107612159
 30
0.0
 10
259.8383435001743
 20
127.5061076120488
 30
0.0
  0
LINE
  5
1D3
330
1F
100
AcDbEntity
  8
0
  6
Continuous
 62
     7
370
    15
100
AcDbLine
 10
203.9467642691
 20
181.3978632442
 30
0.0
 11
255.8389768191
 21
181.3978632442
 31
0.0
  0
LINE
  5
1D4
330
1F
100
AcDbEntity
  8
0
  6
Continuous
 62
     7
370
    15
100
AcDbLine
 10
255.8389768191
 20
124.5065645232
 30
0.0
 11
203.9467642691
 21
124.5065645232
 31
0.0
  0
LINE
  5
1D5
330
1F
100
AcDbEntity
  8
0
  6
Continuous
 62
     7
370
    15
100
AcDbLine
 10
259.8383675997
 20
127.5061076087
 30
0.0
 11
259.8383675997
 21
178.398176572
 31
0.0
  0
LINE
  5
1D6
330
1F
100
AcDbEntity
  8
0
  6
Continuous
 62
     7
370
    15
100
AcDbLine
 10
199.9473734884
 20
178.3983201587
 30
0.0
 11
199.9473734884
 21
127.5062511954
 31
0.0
  0
LINE
  5
1D7
330
1F
100
AcDbEntity
  8
0
  6
Continuous
 62
     7
370
    15
100
AcDbLine
 10
203.9467642691
 20
123.506716828
 30
0.0
 11
255.8388332324
 21
123.506716828
 31
0.0
  0
LINE
  5
1D8
330
1F
100
AcDbEntity
  8
0
  6
Continuous
 62
     7
370
    15
100
AcDbLine
 10
255.8389768191
 20
182.3977109393
 30
0.0
 11
203.9469078558
 21
182.3977109393
 31
0.0
  0
ELLIPSE
  5
1D9
330
1F
100
AcDbEntity
  8
0
  6
Continuous
 62
     7
370
    15
100
AcDbEllipse
 10
203.3934798563
 20
178.9516045715
 30
0.0
 11
2.829288756678323
 21
-2.829288756678323
 31
0.0
210
0.0
220
0.0
230
1.0
 40
0.9996954599
 41
2.356346783439787
 42
3.926838523739814
  0
LINE
  5
1DA
330
1F
100
AcDbEntity
  8
0
  6
Continuous
 62
     7
370
    15
100
AcDbLine
 10
203.3922613247
 20
182.9522138837
 30
0.0
 11
203.9469078558
 21
182.3977109465
 31
0.0
  0
LINE
  5
1DB
330
1F
100
AcDbEntity
  8
0
  6
Continuous
 62
     7
370
    15
100
AcDbLine
 10
199.9473734884
 20
178.3983201578
 30
0.0
 11
199.3928705441
 21
178.9528231031
 31
0.0
  0
ELLIPSE
  5
1DC
330
1F
100
AcDbEntity
  8
0
  6
Continuous
 62
     7
370
    15
100
AcDbEllipse
 10
256.3922612319
 20
178.9516045715
 30
0.0
 11
-2.829288756678323
 21
-2.829288756678323
 31
0.0
210
0.0
220
0.0
230
1.0
 40
0.9996954599
 41
2.356346783439784
 42
3.926838523739667
  0
LINE
  5
1DD
330
1F
100
AcDbEntity
  8
0
  6
Continuous
 62
     7
370
    15
100
AcDbLine
 10
260.3928705441
 20
178.9528231031
 30
0.0
 11
259.8383676033
 21
178.3981765684
 31
0.0
  0
LINE
  5
1DE
330
1F
100
AcDbEntity
  8
0
  6
Continuous
 62
     7
370
    15
100
AcDbLine
 10
256.3934797635
 20
182.9522138837
 30
0.0
 11
255.8389768191
 21
182.3977109393
 31
0.0
  0
ELLIPSE
  5
1DF
330
1F
100
AcDbEntity
  8
0
  6
Continuous
 62
     7
370
    15
100
AcDbEllipse
 10
203.3934798563
 20
126.9528231959
 30
0.0
 11
2.829288756678324
 21
2.829288756678352
 31
0.0
210
0.0
220
0.0
230
1.0
 40
0.9996954599
 41
2.356346783439778
 42
3.926838523739802
  0
LINE
  5
1E0
330
1F
100
AcDbEntity
  8
0
  6
Continuous
 62
     7
370
    15
100
AcDbLine
 10
199.3928705441
 20
126.9516046643
 30
0.0
 11
199.9473734813
 21
127.5062511954
 31
0.0
  0
LINE
  5
1E1
330
1F
100
AcDbEntity
  8
0
  6
Continuous
 62
     7
370
    15
100
AcDbLine
 10
203.3922613247
 20
122.9522138837
 30
0.0
 11
203.9467642699
 21
123.506716828
 31
0.0
  0
ELLIPSE
  5
1E2
330
1F
100
AcDbEntity
  8
0
  6
Continuous
 62
     7
370
    15
100
AcDbEllipse
 10
256.3922612319
 20
126.9528231959
 30
0.0
 11
-2.829288756678324
 21
2.829288756678352
 31
0.0
210
0.0
220
0.0
230
1.0
 40
0.9996954599
 41
2.356346783439789
 42
3.926838523739818
  0
LINE
  5
1E3
330
1F
100
AcDbEntity
  8
0
  6
Continuous
 62
     7
370
    15
100
AcDbLine
 10
256.3934797635
 20
122.9522138837
 30
0.0
 11
255.8388332324
 21
123.5067168209
 31
0.0
  0
LINE
  5
1E4
330
1F
100
AcDbEntity
  8
0
  6
Continuous
 62
     7
370
    15
100
AcDbLine
 10
260.3928705441
 20
126.9516046643
 30
0.0
 11
259.8383675997
 21
127.5061076095
 31
0.0
  0
LINE
  5
1E5
330
1F
100
AcDbEntity
  8
0
  6
Continuous
 62
     7
370
    15
100
AcDbLine
 10
199.3928705441
 20
178.9528231031
 30
0.0
 11
199.3928705441
 21
126.9516046643
 31
0.0
  0
LINE
  5
1E6
330
1F
100
AcDbEntity
  8
0
  6
Continuous
 62
     7
370
    15
100
AcDbLine
 10
256.3934797635
 20
182.9522138837
 30
0.0
 11
203.3922613247
 21
182.9522138837
 31
0.0
  0
LINE
  5
1E7
330
1F
100
AcDbEntity
  8
0
  6
Continuous
 62
     7
370
    15
100
AcDbLine
 10
203.3922613247
 20
122.9522138837
 30
0.0
 11
256.3934797635
 21
122.9522138837
 31
0.0
  0
LINE
  5
1E8
330
1F
100
AcDbEntity
  8
0
  6
Continuous
 62
     7
370
    15
100
AcDbLine
 10
260.3928705441
 20
126.9516046643
 30
0.0
 11
260.3928705441
 21
178.9528231031
 31
0.0
  0
LINE
  5
1E9
330
1F
100
AcDbEntity
  8
0
  6
Continuous
 62
     8
370
    15
100
AcDbLine
 10
200.9472211836
 20
134.1896830792
 30
0.0
 11
200.9472211836
 21
171.7147446881
 31
0.0
  0
LINE
  5
1EA
330
1F
100
AcDbEntity
  8
0
  6
Continuous
 62
     8
370
    15
100
AcDbLine
 10
200.9472211836
 20
175.1896830792
 30
0.0
 11
200.9472211836
 21
178.3983201587
 31
0.0
  0
LINE
  5
1EB
330
1F
100
AcDbEntity
  8
0
  6
Continuous
 62
     8
370
    15
100
AcDbLine
 10
258.8385199046
 20
178.3983201587
 30
0.0
 11
258.8385199046
 21
175.1896830792
 31
0.0
  0
LINE
  5
1EC
330
1F
100
AcDbEntity
  8
0
  6
Continuous
 62
     8
370
    15
100
AcDbLine
 10
258.8385199046
 20
171.7147446881
 30
0.0
 11
258.8385199046
 21
134.1896830792
 31
0.0
  0
LINE
  5
1ED
330
1F
100
AcDbEntity
  8
0
  6
Continuous
 62
     8
370
    15
100
AcDbLine
 10
258.8385199046
 20
130.7147446881
 30
0.0
 11
258.8385199046
 21
127.5061076087
 31
0.0
  0
LINE
  5
1EE
330
1F
100
AcDbEntity
  8
0
  6
Continuous
 62
     8
370
    15
100
AcDbLine
 10
200.9472211836
 20
127.5061076087
 30
0.0
 11
200.9472211836
 21
130.7147446881
 31
0.0
  0
ENDSEC
  0
SECTION
  2
OBJECTS
  0
DICTIONARY
  5
C
330
0
100
AcDbDictionary
281
     1
  3
ACAD_GROUP
350
D
  3
ACAD_LAYOUT
350
1A
  3
ACAD_MLINESTYLE
350
17
  3
ACAD_PLOTSETTINGS
350
19
  3
ACAD_PLOTSTYLENAME
350
E
  3
ACAD_SCALELIST
350
47
  0
DICTIONARY
  5
D
102
{ACAD_REACTORS
330
C
102
}
330
C
100
AcDbDictionary
281
     1
  0
DICTIONARY
  5
1A
102
{ACAD_REACTORS
330
C
102
}
330
C
100
AcDbDictionary
281
     1
  3
Layout1
350
1E
  3
Layout2
350
26
  3
Model
350
22
  0
DICTIONARY
  5
17
102
{ACAD_REACTORS
330
C
102
}
330
C
100
AcDbDictionary
281
     1
  3
Standard
350
18
  0
DICTIONARY
  5
19
102
{ACAD_REACTORS
330
C
102
}
330
C
100
AcDbDictionary
281
     1
  0
ACDBDICTIONARYWDFLT
  5
E
102
{ACAD_REACTORS
330
C
102
}
330
C
100
AcDbDictionary
281
     1
  3
Normal
350
F
100
AcDbDictionaryWithDefault
340
F
  0
DICTIONARY
  5
47
102
{ACAD_REACTORS
330
C
102
}
330
C
100
AcDbDictionary
281
     1
  3
A0
350
48
  3
A1
350
49
  3
A2
350
4A
  3
A3
350
4B
  3
A4
350
4C
  3
A5
350
4D
  3
A6
350
4E
  3
A7
350
4F
  3
A8
350
50
  3
A9
350
51
  3
B0
350
52
  3
B1
350
53
  3
B2
350
54
  3
B3
350
55
  3
B4
350
56
  3
B5
350
57
  3
B6
350
58
  3
B7
350
59
  3
B8
350
5A
  3
B9
350
5B
  3
C0
350
5C
  3
C1
350
5D
  3
C2
350
5E
  3
C3
350
5F
  3
C4
350
60
  3
C5
350
61
  3
C6
350
62
  3
C7
350
63
  3
C8
350
64
  3
C9
350
65
  3
D0
350
66
  3
D1
350
67
  3
D2
350
68
  0
LAYOUT
  5
1E
102
{ACAD_REACTORS
330
1A
102
}
330
1A
100
AcDbPlotSettings
  1

  2
none_device
  4

  6

 40
0.0
 41
0.0
 42
0.0
 43
0.0
 44
0.0
 45
0.0
 46
0.0
 47
0.0
 48
0.0
 49
0.0
140
0.0
141
0.0
142
1.0
143
1.0
 70
   688
 72
     1
 73
     0
 74
     5
  7

 75
    16
147
1.0
148
0.0
149
0.0
100
AcDbLayout
  1
Layout1
 70
     1
 71
     1
 10
0.0
 20
0.0
 11
420.0
 21
297.0
 12
0.0
 22
0.0
 32
0.0
 14
1.0000000000E+20
 24
1.0000000000E+20
 34
1.0000000000E+20
 15
-1.0000000000E+20
 25
-1.0000000000E+20
 35
-1.0000000000E+20
146
0.0
 13
0.0
 23
0.0
 33
0.0
 16
1.0
 26
0.0
 36
0.0
 17
0.0
 27
1.0
 37
0.0
 76
     0
330
1B
  0
LAYOUT
  5
26
102
{ACAD_REACTORS
330
1A
102
}
330
1A
100
AcDbPlotSettings
  1

  2
none_device
  4

  6

 40
0.0
 41
0.0
 42
0.0
 43
0.0
 44
0.0
 45
0.0
 46
0.0
 47
0.0
 48
0.0
 49
0.0
140
0.0
141
0.0
142
1.0
143
1.0
 70
   688
 72
     1
 73
     0
 74
     5
  7

 75
    16
147
1.0
148
0.0
149
0.0
100
AcDbLayout
  1
Layout2
 70
     1
 71
     2
 10
0.0
 20
0.0
 11
0.0
 21
0.0
 12
0.0
 22
0.0
 32
0.0
 14
0.0
 24
0.0
 34
0.0
 15
0.0
 25
0.0
 35
0.0
146
0.0
 13
0.0
 23
0.0
 33
0.0
 16
1.0
 26
0.0
 36
0.0
 17
0.0
 27
1.0
 37
0.0
 76
     0
330
23
  0
LAYOUT
  5
22
102
{ACAD_REACTORS
330
1A
102
}
330
1A
100
AcDbPlotSettings
  1

  2
none_device
  4
Letter_(8.50_x_11.00_Inches)
  6

 40
6.35
 41
6.35
 42
6.35000508
 43
6.35000508
 44
215.9
 45
279.4
 46
0.0
 47
0.0
 48
0.0
 49
0.0
140
0.0
141
0.0
142
1.0
143
1.0
 70
  1712
 72
     1
 73
     0
 74
     0
  7

 75
     0
147
1.0
148
0.0
149
0.0
100
AcDbLayout
  1
Model
 70
     1
 71
     0
 10
0.0
 20
0.0
 11
420.0
 21
297.0
 12
0.0
 22
0.0
 32
0.0
 14
0.0
 24
0.0
 34
0.0
 15
420.0
 25
297.0
 35
0.0
146
0.0
 13
0.0
 23
0.0
 33
0.0
 16
1.0
 26
0.0
 36
0.0
 17
0.0
 27
1.0
 37
0.0
 76
     0
330
1F
331
29
  0
MLINESTYLE
  5
18
102
{ACAD_REACTORS
330
17
102
}
330
17
100
AcDbMlineStyle
  2
Standard
 70
     0
  3

 62
   256
 51
90.0
 52
90.0
 71
     2
 49
0.5
 62
   256
  6
BYLAYER
 49
-0.5
 62
   256
  6
BYLAYER
  0
ACDBPLACEHOLDER
  5
F
102
{ACAD_REACTORS
330
E
102
}
330
E
  0
SCALE
  5
48
102
{ACAD_REACTORS
330
47
102
}
330
47
100
AcDbScale
 70
     0
300
1:1
140
1.0
141
1.0
290
     1
  0
SCALE
  5
49
102
{ACAD_REACTORS
330
47
102
}
330
47
100
AcDbScale
 70
     0
300
1:2
140
1.0
141
2.0
290
     0
  0
SCALE
  5
4A
102
{ACAD_REACTORS
330
47
102
}
330
47
100
AcDbScale
 70
     0
300
1:4
140
1.0
141
4.0
290
     0
  0
SCALE
  5
4B
102
{ACAD_REACTORS
330
47
102
}
330
47
100
AcDbScale
 70
     0
300
1:5
140
1.0
141
5.0
290
     0
  0
SCALE
  5
4C
102
{ACAD_REACTORS
330
47
102
}
330
47
100
AcDbScale
 70
     0
300
1:8
140
1.0
141
8.0
290
     0
  0
SCALE
  5
4D
102
{ACAD_REACTORS
330
47
102
}
330
47
100
AcDbScale
 70
     0
300
1:10
140
1.0
141
10.0
290
     0
  0
SCALE
  5
4E
102
{ACAD_REACTORS
330
47
102
}
330
47
100
AcDbScale
 70
     0
300
1:16
140
1.0
141
16.0
290
     0
  0
SCALE
  5
4F
102
{ACAD_REACTORS
330
47
102
}
330
47
100
AcDbScale
 70
     0
300
1:20
140
1.0
141
20.0
290
     0
  0
SCALE
  5
50
102
{ACAD_REACTORS
330
47
102
}
330
47
100
AcDbScale
 70
     0
300
1:30
140
1.0
141
30.0
290
     0
  0
SCALE
  5
51
102
{ACAD_REACTORS
330
47
102
}
330
47
100
AcDbScale
 70
     0
300
1:40
140
1.0
141
40.0
290
     0
  0
SCALE
  5
52
102
{ACAD_REACTORS
330
47
102
}
330
47
100
AcDbScale
 70
     0
300
1:50
140
1.0
141
50.0
290
     0
  0
SCALE
  5
53
102
{ACAD_REACTORS
330
47
102
}
330
47
100
AcDbScale
 70
     0
300
1:100
140
1.0
141
100.0
290
     0
  0
SCALE
  5
54
102
{ACAD_REACTORS
330
47
102
}
330
47
100
AcDbScale
 70
     0
300
2:1
140
2.0
141
1.0
290
     0
  0
SCALE
  5
55
102
{ACAD_REACTORS
330
47
102
}
330
47
100
AcDbScale
 70
     0
300
4:1
140
4.0
141
1.0
290
     0
  0
SCALE
  5
56
102
{ACAD_REACTORS
330
47
102
}
330
47
100
AcDbScale
 70
     0
300
8:1
140
8.0
141
1.0
290
     0
  0
SCALE
  5
57
102
{ACAD_REACTORS
330
47
102
}
330
47
100
AcDbScale
 70
     0
300
10:1
140
10.0
141
1.0
290
     0
  0
SCALE
  5
58
102
{ACAD_REACTORS
330
47
102
}
330
47
100
AcDbScale
 70
     0
300
100:1
140
100.0
141
1.0
290
     0
  0
SCALE
  5
59
102
{ACAD_REACTORS
330
47
102
}
330
47
100
AcDbScale
 70
     0
300
1/128" = 1'-0"
140
0.0078125
141
12.0
290
     0
  0
SCALE
  5
5A
102
{ACAD_REACTORS
330
47
102
}
330
47
100
AcDbScale
 70
     0
300
1/64" = 1'-0"
140
0.015625
141
12.0
290
     0
  0
SCALE
  5
5B
102
{ACAD_REACTORS
330
47
102
}
330
47
100
AcDbScale
 70
     0
300
1/32" = 1'-0"
140
0.03125
141
12.0
290
     0
  0
SCALE
  5
5C
102
{ACAD_REACTORS
330
47
102
}
330
47
100
AcDbScale
 70
     0
300
1/16" = 1'-0"
140
0.0625
141
12.0
290
     0
  0
SCALE
  5
5D
102
{ACAD_REACTORS
330
47
102
}
330
47
100
AcDbScale
 70
     0
300
3/32" = 1'-0"
140
0.09375
141
12.0
290
     0
  0
SCALE
  5
5E
102
{ACAD_REACTORS
330
47
102
}
330
47
100
AcDbScale
 70
     0
300
1/8" = 1'-0"
140
0.125
141
12.0
290
     0
  0
SCALE
  5
5F
102
{ACAD_REACTORS
330
47
102
}
330
47
100
AcDbScale
 70
     0
300
3/16" = 1'-0"
140
0.1875
141
12.0
290
     0
  0
SCALE
  5
60
102
{ACAD_REACTORS
330
47
102
}
330
47
100
AcDbScale
 70
     0
300
1/4" = 1'-0"
140
0.25
141
12.0
290
     0
  0
SCALE
  5
61
102
{ACAD_REACTORS
330
47
102
}
330
47
100
AcDbScale
 70
     0
300
3/8" = 1'-0"
140
0.375
141
12.0
290
     0
  0
SCALE
  5
62
102
{ACAD_REACTORS
330
47
102
}
330
47
100
AcDbScale
 70
     0
300
1/2" = 1'-0"
140
0.5
141
12.0
290
     0
  0
SCALE
  5
63
102
{ACAD_REACTORS
330
47
102
}
330
47
100
AcDbScale
 70
     0
300
3/4" = 1'-0"
140
0.75
141
12.0
290
     0
  0
SCALE
  5
64
102
{ACAD_REACTORS
330
47
102
}
330
47
100
AcDbScale
 70
     0
300
1" = 1'-0"
140
1.0
141
12.0
290
     0
  0
SCALE
  5
65
102
{ACAD_REACTORS
330
47
102
}
330
47
100
AcDbScale
 70
     0
300
1-1/2" = 1'-0"
140
1.5
141
12.0
290
     0
  0
SCALE
  5
66
102
{ACAD_REACTORS
330
47
102
}
330
47
100
AcDbScale
 70
     0
300
3" = 1'-0"
140
3.0
141
12.0
290
     0
  0
SCALE
  5
67
102
{ACAD_REACTORS
330
47
102
}
330
47
100
AcDbScale
 70
     0
300
6" = 1'-0"
140
6.0
141
12.0
290
     0
  0
SCALE
  5
68
102
{ACAD_REACTORS
330
47
102
}
330
47
100
AcDbScale
 70
     0
300
1'-0" = 1'-0"
140
12.0
141
12.0
290
     0
  0
ENDSEC
  0
EOF
