  0
SECTION
  2
HEADER
  9
$ACADVER
  1
AC1015
  9
$ACADMAINTVER
 70
     6
  9
$DWGCODEPAGE
  3
ANSI_1252
  9
$INSBASE
 10
0.0
 20
0.0
 30
0.0
  9
$EXTMIN
 10
0.0
 20
0.0
 30
0.0
  9
$EXTMAX
 10
420.0
 20
297.0
 30
0.0
  9
$LIMMIN
 10
0.0
 20
0.0
  9
$LIMMAX
 10
420.0
 20
297.0
  9
$ORTHOMODE
 70
     0
  9
$REGENMODE
 70
     1
  9
$FILLMODE
 70
     1
  9
$QTEXTMODE
 70
     0
  9
$MIRRTEXT
 70
     1
  9
$LTSCALE
 40
1.0
  9
$ATTMODE
 70
     1
  9
$TEXTSIZE
 40
3.5
  9
$TRACEWID
 40
1.0
  9
$TEXTSTYLE
  7
Standard
  9
$CLAYER
  8
0
  9
$CELTYPE
  6
ByLayer
  9
$CECOLOR
 62
   256
  9
$CELTSCALE
 40
1.0
  9
$DISPSILH
 70
     0
  9
$DIMSCALE
 40
1.0
  9
$DIMASZ
 40
6.0
  9
$DIMEXO
 40
1.0
  9
$DIMDLI
 40
3.75
  9
$DIMRND
 40
0.0
  9
$DIMDLE
 40
0.0
  9
$DIMEXE
 40
1.0
  9
$DIMTP
 40
0.0
  9
$DIMTM
 40
0.0
  9
$DIMTXT
 40
3.5
  9
$DIMCEN
 40
2.5
  9
$DIMTSZ
 40
0.0
  9
$DIMTOL
 70
     0
  9
$DIMLIM
 70
     0
  9
$DIMTIH
 70
     1
  9
$DIMTOH
 70
     1
  9
$DIMSE1
 70
     0
  9
$DIMSE2
 70
     0
  9
$DIMTAD
 70
     1
  9
$DIMZIN
 70
     0
  9
$DIMBLK
  1

  9
$DIMASO
 70
     1
  9
$DIMSHO
 70
     1
  9
$DIMPOST
  1

  9
$DIMAPOST
  1

  9
$DIMALT
 70
     0
  9
$DIMALTD
 70
     3
  9
$DIMALTF
 40
0.0393700787
  9
$DIMLFAC
 40
2.0
  9
$DIMTOFL
 70
     1
  9
$DIMTVP
 40
0.0
  9
$DIMTIX
 70
     0
  9
$DIMSOXD
 70
     0
  9
$DIMSAH
 70
     0
  9
$DIMBLK1
  1

  9
$DIMBLK2
  1

  9
$DIMSTYLE
  2
ISO-25
  9
$DIMCLRD
 70
     0
  9
$DIMCLRE
 70
     0
  9
$DIMCLRT
 70
     0
  9
$DIMTFAC
 40
1.0
  9
$DIMGAP
 40
1.524
  9
$DIMJUST
 70
     0
  9
$DIMSD1
 70
     0
  9
$DIMSD2
 70
     0
  9
$DIMTOLJ
 70
     0
  9
$DIMTZIN
 70
     0
  9
$DIMALTZ
 70
     0
  9
$DIMALTTZ
 70
     0
  9
$DIMUPT
 70
     0
  9
$DIMDEC
 70
     2
  9
$DIMTDEC
 70
     2
  9
$DIMALTU
 70
     2
  9
$DIMALTTD
 70
     3
  9
$DIMTXSTY
  7
Standard
  9
$DIMAUNIT
 70
     0
  9
$DIMADEC
 70
     2
  9
$DIMALTRND
 40
0.0
  9
$DIMAZIN
 70
     0
  9
$DIMDSEP
 70
    44
  9
$DIMATFIT
 70
     3
  9
$DIMFRAC
 70
     0
  9
$DIMLDRBLK
  1

  9
$DIMLUNIT
 70
     2
  9
$DIMLWD
 70
    -2
  9
$DIMLWE
 70
    -2
  9
$DIMTMOVE
 70
     0
  9
$LUNITS
 70
     2
  9
$LUPREC
 70
     2
  9
$SKETCHINC
 40
1.0
  9
$FILLETRAD
 40
10.0
  9
$AUNITS
 70
     0
  9
$AUPREC
 70
     2
  9
$MENU
  1
.
  9
$ELEVATION
 40
0.0
  9
$PELEVATION
 40
0.0
  9
$THICKNESS
 40
0.0
  9
$LIMCHECK
 70
     0
  9
$CHAMFERA
 40
0.0
  9
$CHAMFERB
 40
0.0
  9
$CHAMFERC
 40
0.0
  9
$CHAMFERD
 40
0.0
  9
$SKPOLY
 70
     0
  9
$TDCREATE
 40
2456937.458497037
  9
$TDUCREATE
 40
2456937.333497037
  9
$TDUPDATE
 40
2456937.458497928
  9
$TDUUPDATE
 40
2456937.333497928
  9
$TDINDWG
 40
0.0000000116
  9
$TDUSRTIMER
 40
0.0000000116
  9
$USRTIMER
 70
     1
  9
$ANGBASE
 50
0.0
  9
$ANGDIR
 70
     0
  9
$PDMODE
 70
     0
  9
$PDSIZE
 40
-1.0
  9
$PLINEWID
 40
0.0
  9
$SPLFRAME
 70
     0
  9
$SPLINETYPE
 70
     6
  9
$SPLINESEGS
 70
     8
  9
$HANDSEED
  5
1BB
  9
$SURFTAB1
 70
     6
  9
$SURFTAB2
 70
     6
  9
$SURFTYPE
 70
     6
  9
$SURFU
 70
     6
  9
$SURFV
 70
     6
  9
$UCSBASE
  2

  9
$UCSNAME
  2

  9
$UCSORG
 10
0.0
 20
0.0
 30
0.0
  9
$UCSXDIR
 10
1.0
 20
0.0
 30
0.0
  9
$UCSYDIR
 10
0.0
 20
1.0
 30
0.0
  9
$UCSORTHOREF
  2

  9
$UCSORTHOVIEW
 70
     0
  9
$UCSORGTOP
 10
0.0
 20
0.0
 30
0.0
  9
$UCSORGBOTTOM
 10
0.0
 20
0.0
 30
0.0
  9
$UCSORGLEFT
 10
0.0
 20
0.0
 30
0.0
  9
$UCSORGRIGHT
 10
0.0
 20
0.0
 30
0.0
  9
$UCSORGFRONT
 10
0.0
 20
0.0
 30
0.0
  9
$UCSORGBACK
 10
0.0
 20
0.0
 30
0.0
  9
$PUCSBASE
  2

  9
$PUCSNAME
  2

  9
$PUCSORG
 10
0.0
 20
0.0
 30
0.0
  9
$PUCSXDIR
 10
1.0
 20
0.0
 30
0.0
  9
$PUCSYDIR
 10
0.0
 20
1.0
 30
0.0
  9
$PUCSORTHOREF
  2

  9
$PUCSORTHOVIEW
 70
     0
  9
$PUCSORGTOP
 10
0.0
 20
0.0
 30
0.0
  9
$PUCSORGBOTTOM
 10
0.0
 20
0.0
 30
0.0
  9
$PUCSORGLEFT
 10
0.0
 20
0.0
 30
0.0
  9
$PUCSORGRIGHT
 10
0.0
 20
0.0
 30
0.0
  9
$PUCSORGFRONT
 10
0.0
 20
0.0
 30
0.0
  9
$PUCSORGBACK
 10
0.0
 20
0.0
 30
0.0
  9
$USERI1
 70
     0
  9
$USERI2
 70
     0
  9
$USERI3
 70
     0
  9
$USERI4
 70
     0
  9
$USERI5
 70
     0
  9
$USERR1
 40
0.0
  9
$USERR2
 40
0.0
  9
$USERR3
 40
0.0
  9
$USERR4
 40
0.0
  9
$USERR5
 40
0.0
  9
$WORLDVIEW
 70
     1
  9
$SHADEDGE
 70
     3
  9
$SHADEDIF
 70
    70
  9
$TILEMODE
 70
     1
  9
$MAXACTVP
 70
    64
  9
$PINSBASE
 10
0.0
 20
0.0
 30
0.0
  9
$PLIMCHECK
 70
     0
  9
$PEXTMIN
 10
1.0000000000E+20
 20
1.0000000000E+20
 30
1.0000000000E+20
  9
$PEXTMAX
 10
-1.0000000000E+20
 20
-1.0000000000E+20
 30
-1.0000000000E+20
  9
$PLIMMIN
 10
0.0
 20
0.0
  9
$PLIMMAX
 10
420.0
 20
297.0
  9
$UNITMODE
 70
     0
  9
$VISRETAIN
 70
     1
  9
$PLINEGEN
 70
     0
  9
$PSLTSCALE
 70
     1
  9
$TREEDEPTH
 70
  3020
  9
$CMLSTYLE
  2
Standard
  9
$CMLJUST
 70
     0
  9
$CMLSCALE
 40
20.0
  9
$PROXYGRAPHICS
 70
     1
  9
$MEASUREMENT
 70
     1
  9
$CELWEIGHT
370
    -1
  9
$ENDCAPS
280
     0
  9
$JOINSTYLE
280
     0
  9
$LWDISPLAY
290
     1
  9
$INSUNITS
 70
     4
  9
$HYPERLINKBASE
  1

  9
$STYLESHEET
  1

  9
$XEDIT
290
     1
  9
$CEPSNTYPE
380
     0
  9
$PSTYLEMODE
290
     1
  9
$FINGERPRINTGUID
  2
{3FA99609-0195-4C65-893E-192A55642D1E}
  9
$VERSIONGUID
  2
{FAEB1C32-E019-11D5-929B-00C0DF256EC4}
  9
$EXTNAMES
290
     1
  9
$PSVPSCALE
 40
0.0
  9
$OLESTARTUP
290
     0
  0
ENDSEC
  0
SECTION
  2
CLASSES
  0
CLASS
  1
ACDBDICTIONARYWDFLT
  2
AcDbDictionaryWithDefault
  3
ObjectDBX Classes
 90
        0
280
     0
281
     0
  0
CLASS
  1
VISUALSTYLE
  2
AcDbVisualStyle
  3
ObjectDBX Classes
 90
     4095
280
     0
281
     0
  0
CLASS
  1
MATERIAL
  2
AcDbMaterial
  3
ObjectDBX Classes
 90
     1153
280
     0
281
     0
  0
CLASS
  1
SCALE
  2
AcDbScale
  3
ObjectDBX Classes
 90
     1153
280
     0
281
     0
  0
CLASS
  1
SUN
  2
AcDbSun
  3
SCENEOE
 90
     1153
280
     0
281
     0
  0
CLASS
  1
ACDBPLACEHOLDER
  2
AcDbPlaceHolder
  3
ObjectDBX Classes
 90
        0
280
     0
281
     0
  0
CLASS
  1
LAYOUT
  2
AcDbLayout
  3
ObjectDBX Classes
 90
        0
280
     0
281
     0
  0
ENDSEC
  0
SECTION
  2
TABLES
  0
TABLE
  2
VPORT
  5
8
330
0
100
AcDbSymbolTable
 70
     1
  0
VPORT
  5
29
330
8
100
AcDbSymbolTableRecord
100
AcDbViewportTableRecord
  2
*Active
 70
     0
 10
0.0
 20
0.0
 11
1.0
 21
1.0
 12
210.0
 22
148.5
 13
0.0
 23
0.0
 14
10.0
 24
10.0
 15
10.0
 25
10.0
 16
0.0
 26
0.0
 36
1.0
 17
0.0
 27
0.0
 37
0.0
 40
297.0
 41
1.4141414141
 42
50.0
 43
0.0
 44
0.0
 50
0.0
 51
0.0
 71
     0
 72
  2000
 73
     1
 74
     3
 75
     0
 76
     0
 77
     0
 78
     0
281
     0
 65
     1
110
0.0
120
0.0
130
0.0
111
1.0
121
0.0
131
0.0
112
0.0
122
1.0
132
0.0
 79
     0
146
0.0
  0
ENDTAB
  0
TABLE
  2
LTYPE
  5
5
330
0
100
AcDbSymbolTable
 70
     6
  0
LTYPE
  5
14
330
5
100
AcDbSymbolTableRecord
100
AcDbLinetypeTableRecord
  2
ByBlock
 70
     0
  3

 72
    65
 73
     0
 40
0.0
  0
LTYPE
  5
15
330
5
100
AcDbSymbolTableRecord
100
AcDbLinetypeTableRecord
  2
ByLayer
 70
     0
  3

 72
    65
 73
     0
 40
0.0
  0
LTYPE
  5
16
330
5
100
AcDbSymbolTableRecord
100
AcDbLinetypeTableRecord
  2
Continuous
 70
     0
  3
Solid line
 72
    65
 73
     0
 40
0.0
  0
LTYPE
  5
6A
330
5
100
AcDbSymbolTableRecord
100
AcDbLinetypeTableRecord
  2
HIDDEN
 70
     0
  3
Hidden __ __ __ __ __ __ __ __ __ __ __ __ __ __
 72
    65
 73
     2
 40
1.905
 49
1.27
 74
     0
 49
-0.635
 74
     0
  0
LTYPE
  5
6B
330
5
100
AcDbSymbolTableRecord
100
AcDbLinetypeTableRecord
  2
PHANTOM
 70
     0
  3
Phantom ______  __  __  ______  __  __  ______
 72
    65
 73
     6
 40
12.7
 49
6.35
 74
     0
 49
-1.27
 74
     0
 49
1.27
 74
     0
 49
-1.27
 74
     0
 49
1.27
 74
     0
 49
-1.27
 74
     0
  0
LTYPE
  5
6C
330
5
100
AcDbSymbolTableRecord
100
AcDbLinetypeTableRecord
  2
CENTER
 70
     0
  3
Center ____ _ ____ _ ____ _ ____ _ ____ _ ____
 72
    65
 73
     4
 40
10.16
 49
6.35
 74
     0
 49
-1.27
 74
     0
 49
1.27
 74
     0
 49
-1.27
 74
     0
  0
LTYPE
  5
6D
330
5
100
AcDbSymbolTableRecord
100
AcDbLinetypeTableRecord
  2
CENTERX2
 70
     0
  3
Center (2x) ________  __  ________  __  _____
 72
    65
 73
     4
 40
20.32
 49
12.7
 74
     0
 49
-2.54
 74
     0
 49
2.54
 74
     0
 49
-2.54
 74
     0
  0
LTYPE
  5
6E
330
5
100
AcDbSymbolTableRecord
100
AcDbLinetypeTableRecord
  2
DOT2
 70
     0
  3
Dot (.5x) ........................................
 72
    65
 73
     2
 40
0.635
 49
0.0
 74
     0
 49
-0.635
 74
     0
  0
ENDTAB
  0
TABLE
  2
LAYER
  5
2
330
0
100
AcDbSymbolTable
 70
     1
  0
LAYER
  5
10
330
2
100
AcDbSymbolTableRecord
100
AcDbLayerTableRecord
  2
0
 70
     0
 62
     7
  6
Continuous
370
    -3
390
F
  0
ENDTAB
  0
TABLE
  2
STYLE
  5
3
330
0
100
AcDbSymbolTable
 70
     1
  0
STYLE
  5
11
330
3
100
AcDbSymbolTableRecord
100
AcDbTextStyleTableRecord
  2
Standard
 70
     0
 40
0.0
 41
1.0
 50
0.0
 71
     0
 42
3.5
  3
txt
  4

  0
ENDTAB
  0
TABLE
  2
VIEW
  5
6
330
0
100
AcDbSymbolTable
 70
     0
  0
ENDTAB
  0
TABLE
  2
UCS
  5
7
330
0
100
AcDbSymbolTable
 70
     0
  0
ENDTAB
  0
TABLE
  2
APPID
  5
9
330
0
100
AcDbSymbolTable
 70
     1
  0
APPID
  5
12
330
9
100
AcDbSymbolTableRecord
100
AcDbRegAppTableRecord
  2
ACAD
 70
     0
  0
ENDTAB
  0
TABLE
  2
DIMSTYLE
  5
A
330
0
100
AcDbSymbolTable
 70
     1
100
AcDbDimStyleTable
  0
DIMSTYLE
105
27
330
A
100
AcDbSymbolTableRecord
100
AcDbDimStyleTableRecord
  2
ISO-25
 70
     0
 41
2.5
 42
0.625
 43
3.75
 44
1.25
 73
     0
 74
     0
 77
     1
 78
     8
140
2.5
141
2.5
143
0.0393700787
147
0.625
171
     3
172
     1
178
     0
271
     2
272
     2
274
     3
278
    44
283
     0
284
     8
340
11
  0
ENDTAB
  0
TABLE
  2
BLOCK_RECORD
  5
1
330
0
100
AcDbSymbolTable
 70
     1
  0
BLOCK_RECORD
  5
1F
330
1
100
AcDbSymbolTableRecord
100
AcDbBlockTableRecord
  2
*Model_Space
340
22
  0
BLOCK_RECORD
  5
1B
330
1
100
AcDbSymbolTableRecord
100
AcDbBlockTableRecord
  2
*Paper_Space
340
1E
  0
BLOCK_RECORD
  5
23
330
1
100
AcDbSymbolTableRecord
100
AcDbBlockTableRecord
  2
*Paper_Space0
340
26
  0
ENDTAB
  0
ENDSEC
  0
SECTION
  2
BLOCKS
  0
BLOCK
  5
20
330
1F
100
AcDbEntity
  8
0
100
AcDbBlockBegin
  2
*Model_Space
 70
     0
 10
0.0
 20
0.0
 30
0.0
  3
*Model_Space
  1
*Model_Space
  0
ENDBLK
  5
21
330
1F
100
AcDbEntity
  8
0
100
AcDbBlockEnd
  0
BLOCK
  5
1C
330
1B
100
AcDbEntity
 67
     1
  8
0
100
AcDbBlockBegin
  2
*Paper_Space
 70
     0
 10
0.0
 20
0.0
 30
0.0
  3
*Paper_Space
  1
*Paper_Space
  0
ENDBLK
  5
1D
330
1B
100
AcDbEntity
 67
     1
  8
0
100
AcDbBlockEnd
  0
BLOCK
  5
24
330
23
100
AcDbEntity
  8
0
100
AcDbBlockBegin
  2
*Paper_Space0
 70
     0
 10
0.0
 20
0.0
 30
0.0
  3
*Paper_Space0
  1
*Paper_Space0
  0
ENDBLK
  5
25
330
23
100
AcDbEntity
  8
0
100
AcDbBlockEnd
  0
ENDSEC
  0
SECTION
  2
ENTITIES
  0
SPLINE
  5
6F
330
1F
100
AcDbEntity
  8
0
  6
Continuous
 62
     7
370
    15
100
AcDbSpline
210
0.0
220
0.0
230
1.0
 70
     8
 71
     3
 72
    14
 73
    10
 74
     0
 42
0.000000001
 43
0.00000001
 40
0.0
 40
0.0
 40
0.0
 40
0.0
 40
0.25
 40
0.25
 40
0.5
 40
0.5
 40
0.75
 40
0.75
 40
1.0
 40
1.0
 40
1.0
 40
1.0
 10
47.93535401849997
 20
154.1897195289449
 30
0.0
 10
47.81583841750223
 20
154.1897644920116
 30
0.0
 10
47.69877099692868
 20
154.1898094550782
 30
0.0
 10
47.48447540050613
 20
154.1898993812116
 30
0.0
 10
47.3873073359936
 20
154.1899443442782
 30
0.0
 10
47.22533353672827
 20
154.1900342704116
 30
0.0
 10
47.16057323670076
 20
154.1900792334783
 30
0.0
 10
47.07177206089408
 20
154.1901691596116
 30
0.0
 10
47.04775609443388
 20
154.1902141226782
 30
0.0
 10
47.04565748925268
 20
154.1902590857449
 30
0.0
  0
SPLINE
  5
70
330
1F
100
AcDbEntity
  8
0
  6
Continuous
 62
     7
370
    15
100
AcDbSpline
210
0.0
220
0.0
230
1.0
 70
     8
 71
     3
 72
    47
 73
    43
 74
     0
 42
0.000000001
 43
0.00000001
 40
0.0
 40
0.0
 40
0.0
 40
0.0
 40
0.0250040480066752
 40
0.0500171481851434
 40
0.0750338953894812
 40
0.1000491580969521
 40
0.1250589556795679
 40
0.1500635360166727
 40
0.1750643054179919
 40
0.2000624176577999
 40
0.2250589389146894
 40
0.2500550153642094
 40
0.2750519700633516
 40
0.3000504075302022
 40
0.3250500260976469
 40
0.3500502675801945
 40
0.3750505117648935
 40
0.4000502586132726
 40
0.4250493157375281
 40
0.4500479798705733
 40
0.4750465303741887
 40
0.5000449593016503
 40
0.5250431358866098
 40
0.5500409847821679
 40
0.5750386639063972
 40
0.6000365541316104
 40
0.6250346436359139
 40
0.6500325252153779
 40
0.6750296026250237
 40
0.7000252727064558
 40
0.725019107519478
 40
0.750011252543377
 40
0.7750029302619053
 40
0.7999953599615941
 40
0.8249896172655324
 40
0.849986801587729
 40
0.874988203500848
 40
0.8999950179264637
 40
0.925004716497336
 40
0.9500123506603649
 40
0.9750125973625262
 40
0.9999999999999999
 40
0.9999999999999999
 40
0.9999999999999999
 40
0.9999999999999999
 10
50.04520058536255
 20
157.1897553150261
 30
0.0
 10
50.00593195831729
 20
157.1893004438198
 30
0.0
 10
49.92738048787436
 20
157.188390536731
 30
0.0
 10
49.80972201230919
 20
157.1811866183203
 30
0.0
 10
49.69240731622439
 20
157.1697145953934
 30
0.0
 10
49.57564053027119
 20
157.1535598074415
 30
0.0
 10
49.45962046200627
 20
157.1328341552773
 30
0.0
 10
49.34452892399294
 20
157.1075551641025
 30
0.0
 10
49.23053596820429
 20
157.0777846452519
 30
0.0
 10
49.11780960171982
 20
157.0435718878281
 30
0.0
 10
49.00651787154989
 20
157.0049689915891
 30
0.0
 10
48.89682834511519
 20
156.9620284921601
 30
0.0
 10
48.78891264333986
 20
156.9147988771655
 30
0.0
 10
48.68293310585985
 20
156.8633590890168
 30
0.0
 10
48.57904622655617
 20
156.8078034634949
 30
0.0
 10
48.4774107894538
 20
156.7482230047738
 30
0.0
 10
48.37818540834049
 20
156.6847093297029
 30
0.0
 10
48.28152800452466
 20
156.61735481807
 30
0.0
 10
48.18759960394186
 20
156.5462477316413
 30
0.0
 10
48.09654845204899
 20
156.4714949607741
 30
0.0
 10
48.00850170872266
 20
156.393227603553
 30
0.0
 10
47.92358958836943
 20
156.3115712881239
 30
0.0
 10
47.84194148478751
 20
156.2266527826403
 30
0.0
 10
47.76368661477402
 20
156.1385988702029
 30
0.0
 10
47.68895618979643
 20
156.0475349917554
 30
0.0
 10
47.61787548986698
 20
155.9535942638508
 30
0.0
 10
47.55053679933342
 20
155.8569359672759
 30
0.0
 10
47.48703603028429
 20
155.7577157627092
 30
0.0
 10
47.42746816995767
 20
155.656090197332
 30
0.0
 10
47.37192859845938
 20
155.5522155342003
 30
0.0
 10
47.32051230678085
 20
155.4462477421282
 30
0.0
 10
47.27331484210593
 20
155.3383416912253
 30
0.0
 10
47.23039383630587
 20
155.2286671401636
 30
0.0
 10
47.19180475217048
 20
155.1173911749864
 30
0.0
 10
47.15760286641293
 20
155.0046804353308
 30
0.0
 10
47.127844631065
 20
154.8907014781782
 30
0.0
 10
47.10258234483207
 20
154.7756217636038
 30
0.0
 10
47.08188594658417
 20
154.659615220889
 30
0.0
 10
47.06574259820803
 20
154.5428751242582
 30
0.0
 10
47.05427103149267
 20
154.4256039365762
 30
0.0
 10
47.04706077210681
 20
154.3080066362305
 30
0.0
 10
47.04614622464338
 20
154.2295015417773
 30
0.0
 10
47.04568906840576
 20
154.1902590802871
 30
0.0
  0
SPLINE
  5
71
330
1F
100
AcDbEntity
  8
0
  6
Continuous
 62
     7
370
    15
100
AcDbSpline
210
0.0
220
0.0
230
1.0
 70
    24
 71
     3
 72
    14
 73
    10
 74
     0
 42
0.000000001
 43
0.00000001
 40
0.0
 40
0.0
 40
0.0
 40
0.0
 40
0.25
 40
0.25
 40
0.5
 40
0.5
 40
0.75
 40
0.75
 40
1.0
 40
1.0
 40
1.0
 40
1.0
 10
50.04520057897896
 20
157.1898021730362
 30
0.0
 10
50.04520057897896
 20
157.1875430418711
 30
0.0
 10
50.04520057897895
 20
157.1598434063303
 30
0.0
 10
50.04520057897896
 20
157.0576479697233
 30
0.0
 10
50.04520057897896
 20
156.9831906269178
 30
0.0
 10
50.04520057897896
 20
156.7985368574368
 30
0.0
 10
50.04520057897896
 20
156.6884099198016
 30
0.0
 10
50.04520057897895
 20
156.44879627066
 30
0.0
 10
50.04520057897896
 20
156.3193997307356
 30
0.0
 10
50.04520057897896
 20
156.1899544778799
 30
0.0
  0
SPLINE
  5
72
330
1F
100
AcDbEntity
  8
0
  6
Continuous
 62
     7
370
    15
100
AcDbSpline
210
0.0
220
0.0
230
1.0
 70
     8
 71
     3
 72
     8
 73
     4
 74
     0
 42
0.000000001
 43
0.00000001
 40
0.0
 40
0.0
 40
0.0
 40
0.0
 40
1.0
 40
1.0
 40
1.0
 40
1.0
 10
49.83068800407396
 20
156.1784175608199
 30
0.0
 10
49.90193593635004
 20
156.1860889323834
 30
0.0
 10
49.97359626661827
 20
156.1899376483652
 30
0.0
 10
50.04520057472396
 20
156.1899544778799
 30
0.0
  0
SPLINE
  5
73
330
1F
100
AcDbEntity
  8
0
  6
Continuous
 62
     7
370
    15
100
AcDbSpline
210
0.0
220
0.0
230
1.0
 70
     8
 71
     3
 72
    22
 73
    18
 74
     0
 42
0.000000001
 43
0.00000001
 40
0.0
 40
0.0
 40
0.0
 40
0.0
 40
0.125
 40
0.125
 40
0.25
 40
0.25
 40
0.375
 40
0.375
 40
0.5
 40
0.5
 40
0.625
 40
0.625
 40
0.75
 40
0.75
 40
0.875
 40
0.875
 40
1.0
 40
1.0
 40
1.0
 40
1.0
 10
47.93535432011596
 20
154.1897195289676
 30
0.0
 10
47.92748827415165
 20
154.3190321800631
 30
0.0
 10
47.93314544653064
 20
154.4485053868058
 30
0.0
 10
47.97012063176354
 20
154.7013147738986
 30
0.0
 10
48.00152774438641
 20
154.8260457337945
 30
0.0
 10
48.09031667225636
 20
155.0688726151251
 30
0.0
 10
48.14642237697674
 20
155.1837960559648
 30
0.0
 10
48.28130183118898
 20
155.4010810094665
 30
0.0
 10
48.36118467051171
 20
155.5043844541827
 30
0.0
 10
48.53800219811883
 20
155.6899115120603
 30
0.0
 10
48.63508359768911
 20
155.7729326800963
 30
0.0
 10
48.8468112583682
 20
155.9192451798432
 30
0.0
 10
48.96067937597978
 20
155.9816160233476
 30
0.0
 10
49.19604533322267
 20
156.0808659646596
 30
0.0
 10
49.31945811022815
 20
156.1187004973885
 30
0.0
 10
49.57299360284713
 20
156.168397880304
 30
0.0
 10
49.70114349558725
 20
156.1800577610154
 30
0.0
 10
49.83068795583669
 20
156.178413759778
 30
0.0
  0
SPLINE
  5
74
330
1F
100
AcDbEntity
  8
0
  6
Continuous
 62
     7
370
    15
100
AcDbSpline
210
0.0
220
0.0
230
1.0
 70
     8
 71
     3
 72
    14
 73
    10
 74
     0
 42
0.000000001
 43
0.00000001
 40
0.0
 40
0.0
 40
0.0
 40
0.0
 40
0.25
 40
0.25
 40
0.5
 40
0.5
 40
0.75
 40
0.75
 40
1.0
 40
1.0
 40
1.0
 40
1.0
 10
140.9284358501679
 20
122.9174099269649
 30
0.0
 10
141.0479514511657
 20
122.9173649638982
 30
0.0
 10
141.1650188717392
 20
122.9173200008316
 30
0.0
 10
141.3793144681618
 20
122.9172300746982
 30
0.0
 10
141.4764825326743
 20
122.9171851116316
 30
0.0
 10
141.6384563319396
 20
122.9170951854982
 30
0.0
 10
141.7032166319672
 20
122.9170502224316
 30
0.0
 10
141.7920178077738
 20
122.9169602962982
 30
0.0
 10
141.8160337742341
 20
122.9169153332316
 30
0.0
 10
141.8181323794152
 20
122.9168703701649
 30
0.0
  0
SPLINE
  5
75
330
1F
100
AcDbEntity
  8
0
  6
Continuous
 62
     7
370
    15
100
AcDbSpline
210
0.0
220
0.0
230
1.0
 70
     8
 71
     3
 72
    47
 73
    43
 74
     0
 42
0.000000001
 43
0.00000001
 40
0.0
 40
0.0
 40
0.0
 40
0.0
 40
0.0250040480066752
 40
0.0500171481851434
 40
0.0750338953894812
 40
0.1000491580969521
 40
0.1250589556795679
 40
0.1500635360166727
 40
0.1750643054179919
 40
0.2000624176577999
 40
0.2250589389146894
 40
0.2500550153642094
 40
0.2750519700633516
 40
0.3000504075302022
 40
0.3250500260976469
 40
0.3500502675801945
 40
0.3750505117648935
 40
0.4000502586132726
 40
0.4250493157375281
 40
0.4500479798705733
 40
0.4750465303741887
 40
0.5000449593016503
 40
0.5250431358866098
 40
0.5500409847821679
 40
0.5750386639063972
 40
0.6000365541316104
 40
0.6250346436359139
 40
0.6500325252153779
 40
0.6750296026250237
 40
0.7000252727064558
 40
0.725019107519478
 40
0.750011252543377
 40
0.7750029302619053
 40
0.7999953599615941
 40
0.8249896172655324
 40
0.849986801587729
 40
0.874988203500848
 40
0.8999950179264637
 40
0.925004716497336
 40
0.9500123506603649
 40
0.9750125973625262
 40
0.9999999999999999
 40
0.9999999999999999
 40
0.9999999999999999
 40
0.9999999999999999
 10
138.8185892833054
 20
119.9173741408837
 30
0.0
 10
138.8578579103506
 20
119.91782901209
 30
0.0
 10
138.9364093807935
 20
119.9187389191788
 30
0.0
 10
139.0540678563587
 20
119.9259428375895
 30
0.0
 10
139.1713825524435
 20
119.9374148605164
 30
0.0
 10
139.2881493383967
 20
119.9535696484683
 30
0.0
 10
139.4041694066617
 20
119.9742953006325
 30
0.0
 10
139.519260944675
 20
119.9995742918073
 30
0.0
 10
139.6332539004636
 20
120.0293448106579
 30
0.0
 10
139.7459802669481
 20
120.0635575680817
 30
0.0
 10
139.857271997118
 20
120.1021604643207
 30
0.0
 10
139.9669615235527
 20
120.1451009637498
 30
0.0
 10
140.074877225328
 20
120.1923305787444
 30
0.0
 10
140.180856762808
 20
120.243770366893
 30
0.0
 10
140.2847436421117
 20
120.2993259924149
 30
0.0
 10
140.3863790792141
 20
120.358906451136
 30
0.0
 10
140.4856044603274
 20
120.4224201262069
 30
0.0
 10
140.5822618641432
 20
120.4897746378398
 30
0.0
 10
140.676190264726
 20
120.5608817242685
 30
0.0
 10
140.7672414166189
 20
120.6356344951357
 30
0.0
 10
140.8552881599452
 20
120.7139018523568
 30
0.0
 10
140.9402002802985
 20
120.795558167786
 30
0.0
 10
141.0218483838804
 20
120.8804766732695
 30
0.0
 10
141.1001032538939
 20
120.9685305857069
 30
0.0
 10
141.1748336788715
 20
121.0595944641544
 30
0.0
 10
141.2459143788009
 20
121.153535192059
 30
0.0
 10
141.3132530693345
 20
121.2501934886339
 30
0.0
 10
141.3767538383836
 20
121.3494136932006
 30
0.0
 10
141.4363216987102
 20
121.4510392585779
 30
0.0
 10
141.4918612702085
 20
121.5549139217096
 30
0.0
 10
141.5432775618871
 20
121.6608817137816
 30
0.0
 10
141.590475026562
 20
121.7687877646846
 30
0.0
 10
141.633396032362
 20
121.8784623157462
 30
0.0
 10
141.6719851164974
 20
121.9897382809235
 30
0.0
 10
141.706187002255
 20
122.102449020579
 30
0.0
 10
141.7359452376029
 20
122.2164279777316
 30
0.0
 10
141.7612075238358
 20
122.331507692306
 30
0.0
 10
141.7819039220838
 20
122.4475142350208
 30
0.0
 10
141.7980472704599
 20
122.5642543316516
 30
0.0
 10
141.8095188371752
 20
122.6815255193336
 30
0.0
 10
141.8167290965611
 20
122.7991228196794
 30
0.0
 10
141.8176436440245
 20
122.8776279141325
 30
0.0
 10
141.8181008002622
 20
122.9168703756227
 30
0.0
  0
SPLINE
  5
76
330
1F
100
AcDbEntity
  8
0
  6
Continuous
 62
     7
370
    15
100
AcDbSpline
210
0.0
220
0.0
230
1.0
 70
    24
 71
     3
 72
    14
 73
    10
 74
     0
 42
0.000000001
 43
0.00000001
 40
0.0
 40
0.0
 40
0.0
 40
0.0
 40
0.25
 40
0.25
 40
0.5
 40
0.5
 40
0.75
 40
0.75
 40
1.0
 40
1.0
 40
1.0
 40
1.0
 10
138.818589289689
 20
119.9173272828736
 30
0.0
 10
138.818589289689
 20
119.9195864140387
 30
0.0
 10
138.818589289689
 20
119.9472860495795
 30
0.0
 10
138.818589289689
 20
120.0494814861865
 30
0.0
 10
138.818589289689
 20
120.123938828992
 30
0.0
 10
138.818589289689
 20
120.308592598473
 30
0.0
 10
138.818589289689
 20
120.4187195361082
 30
0.0
 10
138.818589289689
 20
120.6583331852499
 30
0.0
 10
138.818589289689
 20
120.7877297251742
 30
0.0
 10
138.818589289689
 20
120.9171749780299
 30
0.0
  0
SPLINE
  5
77
330
1F
100
AcDbEntity
  8
0
  6
Continuous
 62
     7
370
    15
100
AcDbSpline
210
0.0
220
0.0
230
1.0
 70
     8
 71
     3
 72
     8
 73
     4
 74
     0
 42
0.000000001
 43
0.00000001
 40
0.0
 40
0.0
 40
0.0
 40
0.0
 40
1.0
 40
1.0
 40
1.0
 40
1.0
 10
139.033101864594
 20
120.9287118950899
 30
0.0
 10
138.9618539323179
 20
120.9210405235264
 30
0.0
 10
138.8901936020497
 20
120.9171918075446
 30
0.0
 10
138.818589293944
 20
120.9171749780299
 30
0.0
  0
SPLINE
  5
78
330
1F
100
AcDbEntity
  8
0
  6
Continuous
 62
     7
370
    15
100
AcDbSpline
210
0.0
220
0.0
230
1.0
 70
     8
 71
     3
 72
    22
 73
    18
 74
     0
 42
0.000000001
 43
0.00000001
 40
0.0
 40
0.0
 40
0.0
 40
0.0
 40
0.125
 40
0.125
 40
0.25
 40
0.25
 40
0.375
 40
0.375
 40
0.5
 40
0.5
 40
0.625
 40
0.625
 40
0.75
 40
0.75
 40
0.875
 40
0.875
 40
1.0
 40
1.0
 40
1.0
 40
1.0
 10
140.9284355485519
 20
122.9174099269422
 30
0.0
 10
140.9363015945163
 20
122.7880972758467
 30
0.0
 10
140.9306444221373
 20
122.6586240691041
 30
0.0
 10
140.8936692369044
 20
122.4058146820112
 30
0.0
 10
140.8622621242815
 20
122.2810837221154
 30
0.0
 10
140.7734731964116
 20
122.0382568407847
 30
0.0
 10
140.7173674916912
 20
121.923333399945
 30
0.0
 10
140.582488037479
 20
121.7060484464433
 30
0.0
 10
140.5026051981562
 20
121.6027450017271
 30
0.0
 10
140.3257876705491
 20
121.4172179438495
 30
0.0
 10
140.2287062709788
 20
121.3341967758135
 30
0.0
 10
140.0169786102997
 20
121.1878842760667
 30
0.0
 10
139.9031104926881
 20
121.1255134325622
 30
0.0
 10
139.6677445354453
 20
121.0262634912502
 30
0.0
 10
139.5443317584398
 20
120.9884289585213
 30
0.0
 10
139.2907962658208
 20
120.9387315756058
 30
0.0
 10
139.1626463730807
 20
120.9270716948945
 30
0.0
 10
139.0331019128313
 20
120.9287156961319
 30
0.0
  0
SPLINE
  5
79
330
1F
100
AcDbEntity
  8
0
  6
Continuous
 62
     7
370
    15
100
AcDbSpline
210
0.0
220
0.0
230
1.0
 70
     8
 71
     3
 72
     8
 73
     4
 74
     0
 42
0.000000001
 43
0.00000001
 40
0.0
 40
0.0
 40
0.0
 40
0.0
 40
1.0
 40
1.0
 40
1.0
 40
1.0
 10
138.8185892939439
 20
156.1899544778799
 30
0.0
 10
138.8901743951999
 20
156.1899403499369
 30
0.0
 10
138.9618290453203
 20
156.1860883432222
 30
0.0
 10
139.033084966159
 20
156.1784189213499
 30
0.0
  0
SPLINE
  5
7A
330
1F
100
AcDbEntity
  8
0
  6
Continuous
 62
     7
370
    15
100
AcDbSpline
210
0.0
220
0.0
230
1.0
 70
    24
 71
     3
 72
    14
 73
    10
 74
     0
 42
0.000000001
 43
0.00000001
 40
0.0
 40
0.0
 40
0.0
 40
0.0
 40
0.25
 40
0.25
 40
0.5
 40
0.5
 40
0.75
 40
0.75
 40
1.0
 40
1.0
 40
1.0
 40
1.0
 10
138.818589293944
 20
156.1899544778799
 30
0.0
 10
138.8185892939439
 20
156.3193997307356
 30
0.0
 10
138.818589293944
 20
156.44879627066
 30
0.0
 10
138.8185892939439
 20
156.6884099198016
 30
0.0
 10
138.818589293944
 20
156.7985368574368
 30
0.0
 10
138.818589293944
 20
156.9831906269178
 30
0.0
 10
138.818589293944
 20
157.0576479697233
 30
0.0
 10
138.8185892939439
 20
157.1598434063303
 30
0.0
 10
138.818589293944
 20
157.1875430418711
 30
0.0
 10
138.818589293944
 20
157.1898021730362
 30
0.0
  0
SPLINE
  5
7B
330
1F
100
AcDbEntity
  8
0
  6
Continuous
 62
     7
370
    15
100
AcDbSpline
210
0.0
220
0.0
230
1.0
 70
     8
 71
     3
 72
    47
 73
    43
 74
     0
 42
0.000000001
 43
0.00000001
 40
0.0
 40
0.0
 40
0.0
 40
0.0
 40
0.0250040480445576
 40
0.0500171482588392
 40
0.075033895496934
 40
0.1000491582361075
 40
0.1250589558484429
 40
0.150063536213378
 40
0.1750643056406397
 40
0.2000624179045068
 40
0.2250589391835693
 40
0.2500550156533936
 40
0.2750519703709604
 40
0.3000504078543262
 40
0.3250500264363542
 40
0.3500502679315409
 40
0.3750505121269186
 40
0.4000502589840293
 40
0.4250493161150596
 40
0.4500479802529401
 40
0.4750465307594426
 40
0.5000449596878426
 40
0.5250431362717946
 40
0.5500409851644097
 40
0.5750386642837688
 40
0.6000365545021918
 40
0.6250346439977719
 40
0.6500325255665808
 40
0.6750296029636298
 40
0.7000252730305394
 40
0.7250191078271113
 40
0.7500112528326595
 40
0.7750029305309275
 40
0.7999953602084569
 40
0.824989617488323
 40
0.8499868017845292
 40
0.874988203669748
 40
0.899995018065532
 40
0.925004716604597
 40
0.950012350733841
 40
0.9750125974002456
 40
1.0
 40
1.0
 40
1.0
 40
1.0
 10
141.8180855214032
 20
154.1902590790513
 30
0.0
 10
141.8176306501682
 20
154.229527706138
 30
0.0
 10
141.816720743022
 20
154.3080791766607
 30
0.0
 10
141.8095168245142
 20
154.4257376523359
 30
0.0
 10
141.7980448014831
 20
154.5430523485169
 30
0.0
 10
141.7818900134202
 20
154.6598191345522
 30
0.0
 10
141.7611643611394
 20
154.7758392028847
 30
0.0
 10
141.7358853698445
 20
154.8909307409516
 30
0.0
 10
141.7061148508712
 20
155.0049236967797
 30
0.0
 10
141.6719020933236
 20
155.1176500632896
 30
0.0
 10
141.6332991969605
 20
155.2289417934709
 30
0.0
 10
141.5903586974083
 20
155.3386313199032
 30
0.0
 10
141.5431290822927
 20
155.4465470216623
 30
0.0
 10
141.4916892940273
 20
155.5525265591131
 30
0.0
 10
141.4361336683939
 20
155.6564134383748
 30
0.0
 10
141.3765532095673
 20
155.7580488754228
 30
0.0
 10
141.313039534398
 20
155.8572742564698
 30
0.0
 10
141.2456850226745
 20
155.953931660208
 30
0.0
 10
141.1745779361641
 20
156.0478600607024
 30
0.0
 10
141.0998251652257
 20
156.1389112124975
 30
0.0
 10
141.0215578079445
 20
156.2269579557175
 30
0.0
 10
140.9399014924672
 20
156.3118700759569
 30
0.0
 10
140.8549829869479
 20
156.3935181794181
 30
0.0
 10
140.7669290744878
 20
156.4717730493052
 30
0.0
 10
140.6758651960309
 20
156.5465034741515
 30
0.0
 10
140.5819244681314
 20
156.6175841739465
 30
0.0
 10
140.4852661715766
 20
156.6849228643439
 30
0.0
 10
140.3860459670451
 20
156.7484236332562
 30
0.0
 10
140.2844204017183
 20
156.8079914934465
 30
0.0
 10
140.1805457386525
 20
156.8635310648102
 30
0.0
 10
140.0745779466618
 20
156.9149473563571
 30
0.0
 10
139.9666718958557
 20
156.962144820905
 30
0.0
 10
139.8569973449065
 20
157.0050658265843
 30
0.0
 10
139.7457213798567
 20
157.0436549106063
 30
0.0
 10
139.6330106403435
 20
157.0778567962591
 30
0.0
 10
139.5190316833476
 20
157.1076150315121
 30
0.0
 10
139.403951968944
 20
157.1328773176612
 30
0.0
 10
139.2879454264134
 20
157.1535737158379
 30
0.0
 10
139.1712053299797
 20
157.1697170641567
 30
0.0
 10
139.053934142507
 20
157.1811886308298
 30
0.0
 10
138.9363368423818
 20
157.1883988901881
 30
0.0
 10
138.8578317480794
 20
157.1893134376475
 30
0.0
 10
138.8185892866662
 20
157.1897705938832
 30
0.0
  0
SPLINE
  5
7C
330
1F
100
AcDbEntity
  8
0
  6
Continuous
 62
     7
370
    15
100
AcDbSpline
210
0.0
220
0.0
230
1.0
 70
     8
 71
     3
 72
    14
 73
    10
 74
     0
 42
0.000000001
 43
0.00000001
 40
0.0
 40
0.0
 40
0.0
 40
0.0
 40
0.25
 40
0.25
 40
0.5
 40
0.5
 40
0.75
 40
0.75
 40
1.0
 40
1.0
 40
1.0
 40
1.0
 10
141.8181323794152
 20
154.1902590854349
 30
0.0
 10
141.816033783124
 20
154.1902228630382
 30
0.0
 10
141.7920180131863
 20
154.1901866406416
 30
0.0
 10
141.7032175551294
 20
154.1901141958483
 30
0.0
 10
141.638457775707
 20
154.1900779734516
 30
0.0
 10
141.4764852059647
 20
154.1900055286582
 30
0.0
 10
141.3793178492577
 20
154.1899693062616
 30
0.0
 10
141.1650236611141
 20
154.1898968614682
 30
0.0
 10
141.0479569396036
 20
154.1898606390716
 30
0.0
 10
140.9284419258859
 20
154.1898244166749
 30
0.0
  0
SPLINE
  5
7D
330
1F
100
AcDbEntity
  8
0
  6
Continuous
 62
     7
370
    15
100
AcDbSpline
210
0.0
220
0.0
230
1.0
 70
     8
 71
     3
 72
    22
 73
    18
 74
     0
 42
0.000000001
 43
0.00000001
 40
0.0
 40
0.0
 40
0.0
 40
0.0
 40
0.125
 40
0.125
 40
0.25
 40
0.25
 40
0.375
 40
0.375
 40
0.5
 40
0.5
 40
0.625
 40
0.625
 40
0.75
 40
0.75
 40
0.875
 40
0.875
 40
1.0
 40
1.0
 40
1.0
 40
1.0
 10
139.0330850344302
 20
156.1784135455044
 30
0.0
 10
139.1626259630358
 20
156.1800586683082
 30
0.0
 10
139.290072779903
 20
156.1683931387165
 30
0.0
 10
139.5409470386942
 20
156.1195081382825
 30
0.0
 10
139.6657457936734
 20
156.0815927437687
 30
0.0
 10
139.9022457703663
 20
155.9820953228373
 30
0.0
 10
140.0142983407648
 20
155.920818976398
 30
0.0
 10
140.2259539005785
 20
155.7751060016525
 30
0.0
 10
140.3249702656029
 20
155.6906219475969
 30
0.0
 10
140.5013763559965
 20
155.5058193593894
 30
0.0
 10
140.5803463636363
 20
155.4042118654516
 30
0.0
 10
140.7169535575873
 20
155.1847762497163
 30
0.0
 10
140.7729487163554
 20
155.0698135106704
 30
0.0
 10
140.8610931901955
 20
154.8297267119001
 30
0.0
 10
140.893289466829
 20
154.7033745165822
 30
0.0
 10
140.9306973876875
 20
154.4486754162795
 30
0.0
 10
140.9363005055839
 20
154.3191338721769
 30
0.0
 10
140.9284419242618
 20
154.1898243899385
 30
0.0
  0
SPLINE
  5
7E
330
1F
100
AcDbEntity
  8
0
  6
Continuous
 62
     7
370
    15
100
AcDbSpline
210
0.0
220
0.0
230
1.0
 70
     8
 71
     3
 72
     8
 73
     4
 74
     0
 42
0.000000001
 43
0.00000001
 40
0.0
 40
0.0
 40
0.0
 40
0.0
 40
1.0
 40
1.0
 40
1.0
 40
1.0
 10
50.04520057472397
 20
120.9171749780299
 30
0.0
 10
49.97361547346806
 20
120.9171891059729
 30
0.0
 10
49.90196082334764
 20
120.9210411126876
 30
0.0
 10
49.83070490250897
 20
120.9287105345599
 30
0.0
  0
SPLINE
  5
7F
330
1F
100
AcDbEntity
  8
0
  6
Continuous
 62
     7
370
    15
100
AcDbSpline
210
0.0
220
0.0
230
1.0
 70
    24
 71
     3
 72
    14
 73
    10
 74
     0
 42
0.000000001
 43
0.00000001
 40
0.0
 40
0.0
 40
0.0
 40
0.0
 40
0.25
 40
0.25
 40
0.5
 40
0.5
 40
0.75
 40
0.75
 40
1.0
 40
1.0
 40
1.0
 40
1.0
 10
50.04520057472396
 20
120.9171749780299
 30
0.0
 10
50.04520057472397
 20
120.7877297251742
 30
0.0
 10
50.04520057472396
 20
120.6583331852499
 30
0.0
 10
50.04520057472397
 20
120.4187195361082
 30
0.0
 10
50.04520057472396
 20
120.308592598473
 30
0.0
 10
50.04520057472396
 20
120.123938828992
 30
0.0
 10
50.04520057472396
 20
120.0494814861865
 30
0.0
 10
50.04520057472397
 20
119.9472860495795
 30
0.0
 10
50.04520057472396
 20
119.9195864140387
 30
0.0
 10
50.04520057472396
 20
119.9173272828736
 30
0.0
  0
SPLINE
  5
80
330
1F
100
AcDbEntity
  8
0
  6
Continuous
 62
     7
370
    15
100
AcDbSpline
210
0.0
220
0.0
230
1.0
 70
     8
 71
     3
 72
    47
 73
    43
 74
     0
 42
0.000000001
 43
0.00000001
 40
0.0
 40
0.0
 40
0.0
 40
0.0
 40
0.0250040480445422
 40
0.0500171482588111
 40
0.0750338954968946
 40
0.1000491582360532
 40
0.1250589558483764
 40
0.1500635362132995
 40
0.1750643056405498
 40
0.2000624179044068
 40
0.2250589391834598
 40
0.2500550156532758
 40
0.2750519703708367
 40
0.3000504078541927
 40
0.3250500264362161
 40
0.3500502679313965
 40
0.3750505121267685
 40
0.4000502589838726
 40
0.4250493161148998
 40
0.4500479802527796
 40
0.4750465307592786
 40
0.5000449596876783
 40
0.5250431362716322
 40
0.5500409851642467
 40
0.5750386642836091
 40
0.6000365545020322
 40
0.6250346439976181
 40
0.6500325255664278
 40
0.6750296029634856
 40
0.7000252730303991
 40
0.7250191078269822
 40
0.7500112528325337
 40
0.7750029305308164
 40
0.7999953602083483
 40
0.8249896174882264
 40
0.8499868017844471
 40
0.874988203669673
 40
0.8999950180654737
 40
0.9250047166045511
 40
0.9500123507338099
 40
0.9750125974002278
 40
1.0
 40
1.0
 40
1.0
 40
1.0
 10
47.04570434726471
 20
122.9168703768585
 30
0.0
 10
47.04615921849975
 20
122.8776017497718
 30
0.0
 10
47.047069125646
 20
122.7990502792492
 30
0.0
 10
47.05427304415377
 20
122.6813918035741
 30
0.0
 10
47.06574506718477
 20
122.564077107393
 30
0.0
 10
47.08189985524767
 20
122.4473103213579
 30
0.0
 10
47.10262550752851
 20
122.3312902530254
 30
0.0
 10
47.1279044988233
 20
122.2161987149586
 30
0.0
 10
47.15767501779656
 20
122.1022057591305
 30
0.0
 10
47.19188777534415
 20
121.9894793926206
 30
0.0
 10
47.23049067170732
 20
121.8781876624394
 30
0.0
 10
47.27343117125938
 20
121.7684981360071
 30
0.0
 10
47.320660786375
 20
121.660582434248
 30
0.0
 10
47.37210057464029
 20
121.5546028967972
 30
0.0
 10
47.42765620027374
 20
121.4507160175356
 30
0.0
 10
47.48723665910029
 20
121.3490805804876
 30
0.0
 10
47.55075033426958
 20
121.2498551994406
 30
0.0
 10
47.61810484599293
 20
121.1531977957024
 30
0.0
 10
47.6892119325034
 20
121.059269395208
 30
0.0
 10
47.76396470344176
 20
120.9682182434129
 30
0.0
 10
47.84223206072289
 20
120.8801715001928
 30
0.0
 10
47.9238883762002
 20
120.7952593799535
 30
0.0
 10
48.00880688171943
 20
120.7136112764922
 30
0.0
 10
48.09686079417957
 20
120.6353564066051
 30
0.0
 10
48.18792467263641
 20
120.5606259817588
 30
0.0
 10
48.2818654005359
 20
120.4895452819638
 30
0.0
 10
48.37852369709074
 20
120.4222065915663
 30
0.0
 10
48.47774390162225
 20
120.358705822654
 30
0.0
 10
48.57936946694907
 20
120.2991379624637
 30
0.0
 10
48.68324413001485
 20
120.2435983910999
 30
0.0
 10
48.78921192200559
 20
120.192182099553
 30
0.0
 10
48.89711797281165
 20
120.144984635005
 30
0.0
 10
49.00679252376096
 20
120.1020636293257
 30
0.0
 10
49.11806848881078
 20
120.0634745453037
 30
0.0
 10
49.23077922832404
 20
120.0292726596509
 30
0.0
 10
49.3447581853199
 20
119.9995144243978
 30
0.0
 10
49.45983789972361
 20
119.9742521382487
 30
0.0
 10
49.57584444225424
 20
119.953555740072
 30
0.0
 10
49.69258453868797
 20
119.9374123917532
 30
0.0
 10
49.80985572616073
 20
119.92594082508
 30
0.0
 10
49.92745302628605
 20
119.9187305657217
 30
0.0
 10
50.00595812058848
 20
119.9178160182622
 30
0.0
 10
50.04520058200173
 20
119.9173588620266
 30
0.0
  0
SPLINE
  5
81
330
1F
100
AcDbEntity
  8
0
  6
Continuous
 62
     7
370
    15
100
AcDbSpline
210
0.0
220
0.0
230
1.0
 70
     8
 71
     3
 72
    14
 73
    10
 74
     0
 42
0.000000001
 43
0.00000001
 40
0.0
 40
0.0
 40
0.0
 40
0.0
 40
0.25
 40
0.25
 40
0.5
 40
0.5
 40
0.75
 40
0.75
 40
1.0
 40
1.0
 40
1.0
 40
1.0
 10
47.04565748925274
 20
122.9168703704749
 30
0.0
 10
47.04775608554393
 20
122.9169065928716
 30
0.0
 10
47.07177185548159
 20
122.9169428152682
 30
0.0
 10
47.1605723135385
 20
122.9170152600616
 30
0.0
 10
47.22533209296091
 20
122.9170514824582
 30
0.0
 10
47.38730466270321
 20
122.9171239272516
 30
0.0
 10
47.48447201941025
 20
122.9171601496483
 30
0.0
 10
47.69876620755381
 20
122.9172325944416
 30
0.0
 10
47.81583292906432
 20
122.9172688168382
 30
0.0
 10
47.93534794278197
 20
122.9173050392349
 30
0.0
  0
SPLINE
  5
82
330
1F
100
AcDbEntity
  8
0
  6
Continuous
 62
     7
370
    15
100
AcDbSpline
210
0.0
220
0.0
230
1.0
 70
     8
 71
     3
 72
    22
 73
    18
 74
     0
 42
0.000000001
 43
0.00000001
 40
0.0
 40
0.0
 40
0.0
 40
0.0
 40
0.125
 40
0.125
 40
0.25
 40
0.25
 40
0.375
 40
0.375
 40
0.5
 40
0.5
 40
0.625
 40
0.625
 40
0.75
 40
0.75
 40
0.875
 40
0.875
 40
1.0
 40
1.0
 40
1.0
 40
1.0
 10
49.83070483423768
 20
120.9287159104055
 30
0.0
 10
49.70116390563212
 20
120.9270707876016
 30
0.0
 10
49.57371708876497
 20
120.9387363171933
 30
0.0
 10
49.3228428299737
 20
120.9876213176273
 30
0.0
 10
49.19804407499453
 20
121.0255367121412
 30
0.0
 10
48.96154409830163
 20
121.1250341330725
 30
0.0
 10
48.84949152790316
 20
121.1863104795118
 30
0.0
 10
48.63783596808941
 20
121.3320234542573
 30
0.0
 10
48.53881960306498
 20
121.4165075083129
 30
0.0
 10
48.36241351267138
 20
121.6013100965204
 30
0.0
 10
48.28344350503156
 20
121.7029175904582
 30
0.0
 10
48.14683631108054
 20
121.9223532061935
 30
0.0
 10
48.09084115231249
 20
122.0373159452395
 30
0.0
 10
48.0026966784724
 20
122.2774027440097
 30
0.0
 10
47.970500401839
 20
122.4037549393276
 30
0.0
 10
47.93309248098047
 20
122.6584540396303
 30
0.0
 10
47.92748936308404
 20
122.7879955837329
 30
0.0
 10
47.93534794440615
 20
122.9173050659713
 30
0.0
  0
LINE
  5
83
330
1F
100
AcDbEntity
  8
0
  6
Continuous
 62
     7
370
    15
100
AcDbLine
 10
50.0452005747
 20
120.917174978
 30
0.0
 11
138.8185892939
 21
120.917174978
 31
0.0
  0
LINE
  5
84
330
1F
100
AcDbEntity
  8
0
  6
Continuous
 62
     7
370
    15
100
AcDbLine
 10
48.0455051844
 20
153.6608119381
 30
0.0
 11
48.0455051844
 21
123.4463175178
 31
0.0
  0
LINE
  5
85
330
1F
100
AcDbEntity
  8
0
  6
Continuous
 62
     7
370
    15
100
AcDbLine
 10
138.8185892939
 20
156.1899544779
 30
0.0
 11
50.0452005747
 21
156.1899544779
 31
0.0
  0
LINE
  5
86
330
1F
100
AcDbEntity
  8
0
  6
Continuous
 62
     7
370
    15
100
AcDbLine
 10
140.8182846843
 20
123.4463175178
 30
0.0
 11
140.8182846843
 21
153.6608119381
 31
0.0
  0
ARC
  5
87
330
1F
100
AcDbEntity
  8
0
  6
Continuous
 62
     7
370
    15
100
AcDbCircle
 10
139.0568949343
 20
122.803564728
 30
0.0
 40
1.875000000000008
100
AcDbArc
 50
20.0476480586
 51
269.2729193052
  0
ARC
  5
88
330
1F
100
AcDbEntity
  8
0
  6
Continuous
 62
     7
370
    15
100
AcDbCircle
 10
49.8068949343
 20
154.303564728
 30
0.0
 40
1.875000000000001
100
AcDbArc
 50
200.0476480586
 51
89.2729193052
  0
ARC
  5
89
330
1F
100
AcDbEntity
  8
0
  6
Continuous
 62
     7
370
    15
100
AcDbCircle
 10
139.0568949343
 20
154.303564728
 30
0.0
 40
1.874999999999994
100
AcDbArc
 50
90.7275965024
 51
339.9523519414
  0
ARC
  5
8A
330
1F
100
AcDbEntity
  8
0
  6
Continuous
 62
     7
370
    15
100
AcDbCircle
 10
49.8068949343
 20
122.803564728
 30
0.0
 40
1.875000000000006
100
AcDbArc
 50
270.7275965024
 51
159.9523519414
  0
LINE
  5
8B
330
1F
100
AcDbEntity
  8
0
  6
Continuous
 62
     7
370
    15
100
AcDbLine
 10
50.0452005747
 20
119.9173272829
 30
0.0
 11
138.8185892897
 21
119.9173272829
 31
0.0
  0
LINE
  5
8C
330
1F
100
AcDbEntity
  8
0
  6
Continuous
 62
     7
370
    15
100
AcDbLine
 10
138.8185892939
 20
157.189802173
 30
0.0
 11
50.045200579
 21
157.189802173
 31
0.0
  0
LINE
  5
8D
330
1F
100
AcDbEntity
  8
0
  6
Continuous
 62
     7
370
    15
100
AcDbLine
 10
47.0456574893
 20
154.1902590857
 30
0.0
 11
47.0456574893
 21
122.9168703705
 31
0.0
  0
SPLINE
  5
8E
330
1F
100
AcDbEntity
  8
0
  6
Continuous
 62
     7
370
    15
100
AcDbSpline
210
0.0
220
0.0
230
1.0
 70
     8
 71
     3
 72
     8
 73
     4
 74
     0
 42
0.000000001
 43
0.00000001
 40
0.0
 40
0.0
 40
0.0
 40
0.0
 40
1.0
 40
1.0
 40
1.0
 40
1.0
 10
48.04550518441077
 20
153.6608119381006
 30
0.0
 10
47.98311296896997
 20
153.8317905950385
 30
0.0
 10
47.94640448709333
 20
154.0080622548466
 30
0.0
 10
47.93535432938148
 20
154.1897193766484
 30
0.0
  0
SPLINE
  5
8F
330
1F
100
AcDbEntity
  8
0
  6
Continuous
 62
     7
370
    15
100
AcDbSpline
210
0.0
220
0.0
230
1.0
 70
     8
 71
     3
 72
     8
 73
     4
 74
     0
 42
0.000000001
 43
0.00000001
 40
0.0
 40
0.0
 40
0.0
 40
0.0
 40
1.0
 40
1.0
 40
1.0
 40
1.0
 10
47.93534794277987
 20
122.9173050392081
 30
0.0
 10
47.94639007868388
 20
123.0989985479016
 30
0.0
 10
47.98310068890508
 20
123.2753052087724
 30
0.0
 10
48.04550518441077
 20
123.4463175178092
 30
0.0
  0
LINE
  5
90
330
1F
100
AcDbEntity
  8
0
  6
Continuous
 62
     7
370
    15
100
AcDbLine
 10
141.8181323794
 20
122.9168703702
 30
0.0
 11
141.8181323794
 21
154.1902590854
 31
0.0
  0
SPLINE
  5
91
330
1F
100
AcDbEntity
  8
0
  6
Continuous
 62
     7
370
    15
100
AcDbSpline
210
0.0
220
0.0
230
1.0
 70
     8
 71
     3
 72
     8
 73
     4
 74
     0
 42
0.000000001
 43
0.00000001
 40
0.0
 40
0.0
 40
0.0
 40
0.0
 40
1.0
 40
1.0
 40
1.0
 40
1.0
 10
140.8182846842572
 20
123.4463175178092
 30
0.0
 10
140.880676899698
 20
123.2753388608713
 30
0.0
 10
140.9173853815746
 20
123.0990672010632
 30
0.0
 10
140.9284355392864
 20
122.9174100792614
 30
0.0
  0
SPLINE
  5
92
330
1F
100
AcDbEntity
  8
0
  6
Continuous
 62
     7
370
    15
100
AcDbSpline
210
0.0
220
0.0
230
1.0
 70
     8
 71
     3
 72
     8
 73
     4
 74
     0
 42
0.000000001
 43
0.00000001
 40
0.0
 40
0.0
 40
0.0
 40
0.0
 40
1.0
 40
1.0
 40
1.0
 40
1.0
 10
140.9284419258881
 20
154.1898244167017
 30
0.0
 10
140.917399789984
 20
154.0081309080082
 30
0.0
 10
140.8806891797628
 20
153.8318242471374
 30
0.0
 10
140.8182846842572
 20
153.6608119381006
 30
0.0
  0
ELLIPSE
  5
93
330
1F
100
AcDbEntity
  8
0
  6
Continuous
 62
     7
370
    15
100
AcDbEllipse
 10
138.9314379502
 20
154.3031077438
 30
0.0
 11
2.121966567508764
 21
2.121966567508736
 31
0.0
210
0.0
220
0.0
230
1.0
 40
0.9996954599
 41
5.497939437029672
 42
7.068431177329536
  0
LINE
  5
94
330
1F
100
AcDbEntity
  8
0
  6
Continuous
 62
     7
370
    15
100
AcDbLine
 10
141.9318949343
 20
154.3040216425
 30
0.0
 11
141.8181323794
 21
154.1902590854
 31
0.0
  0
LINE
  5
95
330
1F
100
AcDbEntity
  8
0
  6
Continuous
 62
     7
370
    15
100
AcDbLine
 10
138.8185892921
 20
157.189802173
 30
0.0
 11
138.9323518489
 21
157.303564728
 31
0.0
  0
ELLIPSE
  5
96
330
1F
100
AcDbEntity
  8
0
  6
Continuous
 62
     7
370
    15
100
AcDbEllipse
 10
49.9323519185
 20
122.8040217121
 30
0.0
 11
-2.121966567508743
 21
-2.121966567508736
 31
0.0
210
0.0
220
0.0
230
1.0
 40
0.9996954599
 41
5.497939437029661
 42
7.068431177329526
  0
LINE
  5
97
330
1F
100
AcDbEntity
  8
0
  6
Continuous
 62
     7
370
    15
100
AcDbLine
 10
46.9318949343
 20
122.8031078134
 30
0.0
 11
47.0456574893
 21
122.9168703705
 31
0.0
  0
LINE
  5
98
330
1F
100
AcDbEntity
  8
0
  6
Continuous
 62
     7
370
    15
100
AcDbLine
 10
50.0452005765
 20
119.9173272829
 30
0.0
 11
49.9314380198
 21
119.803564728
 31
0.0
  0
ELLIPSE
  5
99
330
1F
100
AcDbEntity
  8
0
  6
Continuous
 62
     7
370
    15
100
AcDbEllipse
 10
49.9323519185
 20
154.3031077438
 30
0.0
 11
-2.121966567508743
 21
2.121966567508736
 31
0.0
210
0.0
220
0.0
230
1.0
 40
0.9996954599
 41
5.49793943702968
 42
7.068431177329524
  0
LINE
  5
9A
330
1F
100
AcDbEntity
  8
0
  6
Continuous
 62
     7
370
    15
100
AcDbLine
 10
49.9314380198
 20
157.303564728
 30
0.0
 11
50.045200579
 21
157.189802173
 31
0.0
  0
LINE
  5
9B
330
1F
100
AcDbEntity
  8
0
  6
Continuous
 62
     7
370
    15
100
AcDbLine
 10
47.0456574893
 20
154.1902590857
 30
0.0
 11
46.9318949343
 21
154.3040216425
 31
0.0
  0
ELLIPSE
  5
9C
330
1F
100
AcDbEntity
  8
0
  6
Continuous
 62
     7
370
    15
100
AcDbEllipse
 10
138.9314379502
 20
122.8040217121
 30
0.0
 11
2.121966567508764
 21
-2.121966567508736
 31
0.0
210
0.0
220
0.0
230
1.0
 40
0.9996954599
 41
5.49793943702967
 42
7.068431177329527
  0
LINE
  5
9D
330
1F
100
AcDbEntity
  8
0
  6
Continuous
 62
     7
370
    15
100
AcDbLine
 10
138.9323518489
 20
119.803564728
 30
0.0
 11
138.8185892897
 21
119.9173272829
 31
0.0
  0
LINE
  5
9E
330
1F
100
AcDbEntity
  8
0
  6
Continuous
 62
     7
370
    15
100
AcDbLine
 10
141.8181323794
 20
122.9168703702
 30
0.0
 11
141.9318949343
 21
122.8031078134
 31
0.0
  0
LINE
  5
9F
330
1F
100
AcDbEntity
  8
0
  6
Continuous
 62
     7
370
    15
100
AcDbLine
 10
141.9318949343
 20
122.8031078134
 30
0.0
 11
141.9318949343
 21
154.3040216425
 31
0.0
  0
LINE
  5
A0
330
1F
100
AcDbEntity
  8
0
  6
Continuous
 62
     7
370
    15
100
AcDbLine
 10
46.9318949343
 20
154.3040216425
 30
0.0
 11
46.9318949343
 21
122.8031078134
 31
0.0
  0
LINE
  5
A1
330
1F
100
AcDbEntity
  8
0
  6
Continuous
 62
     7
370
    15
100
AcDbLine
 10
138.9323518489
 20
157.303564728
 30
0.0
 11
49.9314380198
 21
157.303564728
 31
0.0
  0
LINE
  5
A2
330
1F
100
AcDbEntity
  8
0
  6
Continuous
 62
     7
370
    15
100
AcDbLine
 10
49.9314380198
 20
119.803564728
 30
0.0
 11
138.9323518489
 21
119.803564728
 31
0.0
  0
CIRCLE
  5
A3
330
1F
100
AcDbEntity
  8
0
  6
Continuous
 62
     7
370
    15
100
AcDbCircle
 10
139.0568949343
 20
154.303564728
 30
0.0
 40
1.150000000000006
  0
CIRCLE
  5
A4
330
1F
100
AcDbEntity
  8
0
  6
Continuous
 62
     7
370
    15
100
AcDbCircle
 10
49.8068949343
 20
122.803564728
 30
0.0
 40
1.149999999999991
  0
CIRCLE
  5
A5
330
1F
100
AcDbEntity
  8
0
  6
Continuous
 62
     7
370
    15
100
AcDbCircle
 10
49.8068949343
 20
154.303564728
 30
0.0
 40
1.150000000000006
  0
CIRCLE
  5
A6
330
1F
100
AcDbEntity
  8
0
  6
Continuous
 62
     7
370
    15
100
AcDbCircle
 10
139.0568949343
 20
122.803564728
 30
0.0
 40
1.149999999999991
  0
SPLINE
  5
A7
330
1F
100
AcDbEntity
  8
0
  6
Continuous
 62
     7
370
    15
100
AcDbSpline
210
0.0
220
0.0
230
1.0
 70
     8
 71
     3
 72
    11
 73
     7
 74
     0
 42
0.000000001
 43
0.00000001
 40
0.0
 40
0.0
 40
0.0
 40
0.0
 40
0.2499237137080083
 40
0.4998506704324626
 40
0.7498832094020021
 40
1.0
 40
1.0
 40
1.0
 40
1.0
 10
27.27316956919477
 20
122.9379305137553
 30
0.0
 10
27.27321506133386
 20
122.7211908002741
 30
0.0
 10
27.27330604620235
 20
122.2877085608918
 30
0.0
 10
27.27344335226178
 20
121.6953211071193
 30
0.0
 10
27.27358114328628
 20
121.1977539155835
 30
0.0
 10
27.27367351724187
 20
120.9987181035966
 30
0.0
 10
27.27371971200001
 20
120.8991834335187
 30
0.0
  0
SPLINE
  5
A8
330
1F
100
AcDbEntity
  8
0
  6
Continuous
 62
     7
370
    15
100
AcDbSpline
210
0.0
220
0.0
230
1.0
 70
     8
 71
     3
 72
     9
 73
     5
 74
     0
 42
0.000000001
 43
0.00000001
 40
0.0
 40
0.0
 40
0.0
 40
0.0
 40
0.4823283359100888
 40
1.0
 40
1.0
 40
1.0
 40
1.0
 10
27.27316941541418
 20
120.7402662540667
 30
0.0
 10
27.28771858492354
 20
120.6841622129575
 30
0.0
 10
27.31788303603734
 20
120.5678430234508
 30
0.0
 10
27.38102470311904
 20
120.5685447345783
 30
0.0
 10
27.41371135499064
 20
120.5689079905454
 30
0.0
  0
SPLINE
  5
A9
330
1F
100
AcDbEntity
  8
0
  6
Continuous
 62
     7
370
    15
100
AcDbSpline
210
0.0
220
0.0
230
1.0
 70
     8
 71
     3
 72
    11
 73
     7
 74
     0
 42
0.000000001
 43
0.00000001
 40
0.0
 40
0.0
 40
0.0
 40
0.0
 40
0.2554166358607002
 40
0.5148631071890417
 40
0.7663743255140826
 40
1.0
 40
1.0
 40
1.0
 40
1.0
 10
27.32448130987069
 20
120.6025872790768
 30
0.0
 10
27.36948620962419
 20
120.5125740024897
 30
0.0
 10
27.46020607384813
 20
120.3311272650219
 30
0.0
 10
27.69257230715469
 20
120.129100343714
 30
0.0
 10
27.96258789945418
 20
119.9987774825928
 30
0.0
 10
28.15544421885138
 20
119.9813454693644
 30
0.0
 10
28.24831736118648
 20
119.9729507958022
 30
0.0
  0
LINE
  5
AA
330
1F
100
AcDbEntity
  8
0
  6
Continuous
 62
     7
370
    15
100
AcDbLine
 10
27.3244813099
 20
120.9475219582
 30
0.0
 11
27.2823116455
 21
120.9132213184
 31
0.0
  0
SPLINE
  5
AB
330
1F
100
AcDbEntity
  8
0
  6
Continuous
 62
     7
370
    15
100
AcDbSpline
210
0.0
220
0.0
230
1.0
 70
     8
 71
     3
 72
     9
 73
     5
 74
     0
 42
0.000000001
 43
0.00000001
 40
0.0
 40
0.0
 40
0.0
 40
0.0
 40
0.0126014321107621
 40
0.9999999999999999
 40
0.9999999999999999
 40
0.9999999999999999
 40
0.9999999999999999
 10
27.27317810743985
 20
120.9057921342181
 30
0.0
 10
27.27297345840958
 20
120.9056238087382
 30
0.0
 10
27.25673331772848
 20
120.8922661618928
 30
0.0
 10
27.25707304630452
 20
120.9276238449048
 30
0.0
 10
27.25740849381398
 20
120.9625359704748
 30
0.0
  0
SPLINE
  5
AC
330
1F
100
AcDbEntity
  8
0
  6
Continuous
 62
     7
370
    15
100
AcDbSpline
210
0.0
220
0.0
230
1.0
 70
     8
 71
     3
 72
     9
 73
     5
 74
     0
 42
0.000000001
 43
0.00000001
 40
0.0
 40
0.0
 40
0.0
 40
0.0
 40
0.3070597144913032
 40
1.0
 40
1.0
 40
1.0
 40
1.0
 10
27.2731738479307
 20
155.3249398362746
 30
0.0
 10
27.27317344680723
 20
155.2224275425617
 30
0.0
 10
27.27317214047022
 20
154.8885762137323
 30
0.0
 10
27.27317083468586
 20
154.4637076634336
 30
0.0
 10
27.27316992985527
 20
154.169299128886
 30
0.0
  0
SPLINE
  5
AD
330
1F
100
AcDbEntity
  8
0
  6
Continuous
 62
     7
370
    15
100
AcDbSpline
210
0.0
220
0.0
230
1.0
 70
     8
 71
     3
 72
    10
 73
     6
 74
     0
 42
0.000000001
 43
0.00000001
 40
0.0
 40
0.0
 40
0.0
 40
0.0
 40
0.3911643360689889
 40
0.782248646138214
 40
1.0
 40
1.0
 40
1.0
 40
1.0
 10
27.27318079034927
 20
156.3670303864225
 30
0.0
 10
27.27317988522127
 20
156.3323186155932
 30
0.0
 10
27.27317807515043
 20
156.2629021754105
 30
0.0
 10
27.27317576067642
 20
155.8491663836
 30
0.0
 10
27.27317435181348
 20
155.4630390780401
 30
0.0
 10
27.2731738479307
 20
155.3249398362746
 30
0.0
  0
LINE
  5
AE
330
1F
100
AcDbEntity
  8
0
  6
Continuous
 62
     7
370
    15
100
AcDbLine
 10
27.2731784773
 20
120.8829502838
 30
0.0
 11
27.2731807903
 21
120.7400990695
 31
0.0
  0
LINE
  5
AF
330
1F
100
AcDbEntity
  8
0
  6
Continuous
 62
     7
370
    15
100
AcDbLine
 10
34.757373414
 20
154.3040216425
 30
0.0
 11
34.757373414
 21
157.303564728
 31
0.0
  0
LINE
  5
B0
330
1F
100
AcDbEntity
  8
0
  6
Continuous
 62
     7
370
    15
100
AcDbLine
 10
34.757373414
 20
154.3040216425
 30
0.0
 11
28.2399210075
 21
154.1902590854
 31
0.0
  0
SPLINE
  5
B1
330
1F
100
AcDbEntity
  8
0
  6
Continuous
 62
     7
370
    15
100
AcDbSpline
210
0.0
220
0.0
230
1.0
 70
     8
 71
     3
 72
    47
 73
    43
 74
     0
 42
0.000000001
 43
0.00000001
 40
0.0
 40
0.0
 40
0.0
 40
0.0
 40
0.0250040480445576
 40
0.0500171482588392
 40
0.075033895496934
 40
0.1000491582361075
 40
0.1250589558484429
 40
0.150063536213378
 40
0.1750643056406397
 40
0.2000624179045068
 40
0.2250589391835693
 40
0.2500550156533936
 40
0.2750519703709604
 40
0.3000504078543262
 40
0.3250500264363542
 40
0.3500502679315409
 40
0.3750505121269186
 40
0.4000502589840293
 40
0.4250493161150596
 40
0.4500479802529401
 40
0.4750465307594426
 40
0.5000449596878426
 40
0.5250431362717946
 40
0.5500409851644097
 40
0.5750386642837688
 40
0.6000365545021918
 40
0.6250346439977719
 40
0.6500325255665808
 40
0.6750296029636298
 40
0.7000252730305394
 40
0.7250191078271113
 40
0.7500112528326595
 40
0.7750029305309275
 40
0.7999953602084569
 40
0.824989617488323
 40
0.8499868017845292
 40
0.874988203669748
 40
0.899995018065532
 40
0.925004716604597
 40
0.950012350733841
 40
0.9750125974002456
 40
1.0
 40
1.0
 40
1.0
 40
1.0
 10
28.23992182538045
 20
154.1902590790513
 30
0.0
 10
28.23969698292996
 20
154.229527706138
 30
0.0
 10
28.23924721662968
 20
154.3080791766607
 30
0.0
 10
28.23861601800039
 20
154.4257376523359
 30
0.0
 10
28.23801641823344
 20
154.5430523485169
 30
0.0
 10
28.23745157368741
 20
154.6598191345522
 30
0.0
 10
28.23692062624608
 20
154.7758392028847
 30
0.0
 10
28.23642387190143
 20
154.8909307409516
 30
0.0
 10
28.23596128180348
 20
155.0049236967797
 30
0.0
 10
28.23553288793793
 20
155.1176500632896
 30
0.0
 10
28.23513870195983
 20
155.2289417934709
 30
0.0
 10
28.23477873936305
 20
155.3386313199032
 30
0.0
 10
28.23445302138527
 20
155.4465470216623
 30
0.0
 10
28.23416156014644
 20
155.5525265591131
 30
0.0
 10
28.23390436142337
 20
155.6564134383748
 30
0.0
 10
28.23368143453364
 20
155.7580488754228
 30
0.0
 10
28.23349278736704
 20
155.8572742564698
 30
0.0
 10
28.23333842714003
 20
155.953931660208
 30
0.0
 10
28.23321836003412
 20
156.0478600607024
 30
0.0
 10
28.23313259281742
 20
156.1389112124975
 30
0.0
 10
28.23308112883183
 20
156.2269579557175
 30
0.0
 10
28.23306396941453
 20
156.3118700759569
 30
0.0
 10
28.23308111513401
 20
156.3935181794181
 30
0.0
 10
28.23313256564783
 20
156.4717730493052
 30
0.0
 10
28.2332183196572
 20
156.5465034741515
 30
0.0
 10
28.23333837233553
 20
156.6175841739465
 30
0.0
 10
28.23349271811931
 20
156.6849228643439
 30
0.0
 10
28.23368135101474
 20
156.7484236332562
 30
0.0
 10
28.23390426408157
 20
156.8079914934465
 30
0.0
 10
28.23416144951624
 20
156.8635310648102
 30
0.0
 10
28.23445289956008
 20
156.9149473563571
 30
0.0
 10
28.23477860903015
 20
156.962144820905
 30
0.0
 10
28.23513855723526
 20
157.0050658265843
 30
0.0
 10
28.23553272955821
 20
157.0436549106063
 30
0.0
 10
28.23596111065114
 20
157.0778567962591
 30
0.0
 10
28.23642368837669
 20
157.1076150315121
 30
0.0
 10
28.23692043114823
 20
157.1328773176612
 30
0.0
 10
28.23745133000477
 20
157.1535737158379
 30
0.0
 10
28.23801614958285
 20
157.1697170641567
 30
0.0
 10
28.23861573316247
 20
157.1811886308298
 30
0.0
 10
28.23924690866867
 20
157.1883988901881
 30
0.0
 10
28.23969671388822
 20
157.1893134376475
 30
0.0
 10
28.23992155871043
 20
157.1897705938832
 30
0.0
  0
LINE
  5
B2
330
1F
100
AcDbEntity
  8
0
  6
Continuous
 62
     7
370
    15
100
AcDbLine
 10
28.2399210075
 20
157.189802173
 30
0.0
 11
34.757373414
 21
157.303564728
 31
0.0
  0
LINE
  5
B3
330
1F
100
AcDbEntity
  8
0
  6
Continuous
 62
     7
370
    15
100
AcDbLine
 10
34.757373414
 20
122.8031078134
 30
0.0
 11
34.757373414
 21
154.3040216425
 31
0.0
  0
LINE
  5
B4
330
1F
100
AcDbEntity
  8
0
  6
Continuous
 62
     7
370
    15
100
AcDbLine
 10
28.2399210075
 20
122.9168703702
 30
0.0
 11
34.757373414
 21
122.8031078134
 31
0.0
  0
LINE
  5
B5
330
1F
100
AcDbEntity
  8
0
  6
Continuous
 62
     7
370
    15
100
AcDbLine
 10
28.2399210075
 20
122.9168703702
 30
0.0
 11
28.2399210075
 21
154.1902590854
 31
0.0
  0
LINE
  5
B6
330
1F
100
AcDbEntity
  8
0
  6
Continuous
 62
     7
370
    15
100
AcDbLine
 10
34.757373414
 20
119.803564728
 30
0.0
 11
34.757373414
 21
122.8031078134
 31
0.0
  0
LINE
  5
B7
330
1F
100
AcDbEntity
  8
0
  6
Continuous
 62
     7
370
    15
100
AcDbLine
 10
34.757373414
 20
119.803564728
 30
0.0
 11
28.2399210075
 21
119.9173272829
 31
0.0
  0
SPLINE
  5
B8
330
1F
100
AcDbEntity
  8
0
  6
Continuous
 62
     7
370
    15
100
AcDbSpline
210
0.0
220
0.0
230
1.0
 70
     8
 71
     3
 72
    47
 73
    43
 74
     0
 42
0.000000001
 43
0.00000001
 40
0.0
 40
0.0
 40
0.0
 40
0.0
 40
0.0250040480066752
 40
0.0500171481851434
 40
0.0750338953894812
 40
0.1000491580969521
 40
0.1250589556795679
 40
0.1500635360166727
 40
0.1750643054179919
 40
0.2000624176577999
 40
0.2250589389146894
 40
0.2500550153642094
 40
0.2750519700633516
 40
0.3000504075302022
 40
0.3250500260976469
 40
0.3500502675801945
 40
0.3750505117648935
 40
0.4000502586132726
 40
0.4250493157375281
 40
0.4500479798705733
 40
0.4750465303741887
 40
0.5000449593016503
 40
0.5250431358866098
 40
0.5500409847821679
 40
0.5750386639063972
 40
0.6000365541316104
 40
0.6250346436359139
 40
0.6500325252153779
 40
0.6750296026250237
 40
0.7000252727064558
 40
0.725019107519478
 40
0.750011252543377
 40
0.7750029302619053
 40
0.7999953599615941
 40
0.8249896172655324
 40
0.849986801587729
 40
0.874988203500848
 40
0.8999950179264637
 40
0.925004716497336
 40
0.9500123506603649
 40
0.9750125973625262
 40
0.9999999999999999
 40
0.9999999999999999
 40
0.9999999999999999
 40
0.9999999999999999
 10
28.23992182536542
 20
119.9173741408837
 30
0.0
 10
28.2396969829149
 20
119.91782901209
 30
0.0
 10
28.23924721661454
 20
119.9187389191788
 30
0.0
 10
28.23861601798521
 20
119.9259428375895
 30
0.0
 10
28.23801641821825
 20
119.9374148605164
 30
0.0
 10
28.23745157367226
 20
119.9535696484683
 30
0.0
 10
28.23692062623099
 20
119.9742953006325
 30
0.0
 10
28.23642387188643
 20
119.9995742918073
 30
0.0
 10
28.2359612817886
 20
120.0293448106579
 30
0.0
 10
28.23553288792319
 20
120.0635575680817
 30
0.0
 10
28.23513870194525
 20
120.1021604643207
 30
0.0
 10
28.23477873934866
 20
120.1451009637498
 30
0.0
 10
28.23445302137109
 20
120.1923305787444
 30
0.0
 10
28.23416156013248
 20
120.243770366893
 30
0.0
 10
28.23390436140967
 20
120.2993259924149
 30
0.0
 10
28.23368143452021
 20
120.358906451136
 30
0.0
 10
28.23349278735389
 20
120.4224201262069
 30
0.0
 10
28.23333842712718
 20
120.4897746378398
 30
0.0
 10
28.23321836002158
 20
120.5608817242685
 30
0.0
 10
28.23313259280523
 20
120.6356344951357
 30
0.0
 10
28.23308112881999
 20
120.7139018523568
 30
0.0
 10
28.23306396940307
 20
120.795558167786
 30
0.0
 10
28.23308111512294
 20
120.8804766732695
 30
0.0
 10
28.23313256563715
 20
120.9685305857069
 30
0.0
 10
28.23321831964694
 20
121.0595944641544
 30
0.0
 10
28.2333383723257
 20
121.153535192059
 30
0.0
 10
28.23349271810994
 20
121.2501934886339
 30
0.0
 10
28.23368135100584
 20
121.3494136932006
 30
0.0
 10
28.23390426407316
 20
121.4510392585779
 30
0.0
 10
28.23416144950833
 20
121.5549139217096
 30
0.0
 10
28.23445289955271
 20
121.6608817137816
 30
0.0
 10
28.23477860902331
 20
121.7687877646846
 30
0.0
 10
28.235138557229
 20
121.8784623157462
 30
0.0
 10
28.23553272955254
 20
121.9897382809235
 30
0.0
 10
28.23596111064607
 20
122.102449020579
 30
0.0
 10
28.23642368837227
 20
122.2164279777316
 30
0.0
 10
28.23692043114447
 20
122.331507692306
 30
0.0
 10
28.23745133000171
 20
122.4475142350208
 30
0.0
 10
28.23801614958052
 20
122.5642543316516
 30
0.0
 10
28.23861573316087
 20
122.6815255193336
 30
0.0
 10
28.23924690866788
 20
122.7991228196794
 30
0.0
 10
28.23969671388795
 20
122.8776279141325
 30
0.0
 10
28.23992155871043
 20
122.9168703756227
 30
0.0
  0
SPLINE
  5
B9
330
1F
100
AcDbEntity
  8
0
  6
Continuous
 62
     7
370
    15
100
AcDbSpline
210
0.0
220
0.0
230
1.0
 70
     8
 71
     3
 72
    14
 73
    10
 74
     0
 42
0.000000001
 43
0.00000001
 40
0.0
 40
0.0
 40
0.0
 40
0.0
 40
0.25
 40
0.25
 40
0.5
 40
0.5
 40
0.75
 40
0.75
 40
1.0
 40
1.0
 40
1.0
 40
1.0
 10
27.26345856818105
 20
122.9174099269649
 30
0.0
 10
27.27670395117357
 20
122.9173649638982
 30
0.0
 10
27.31173351299599
 20
122.9173200008316
 30
0.0
 10
27.42088970184387
 20
122.9172300746982
 30
0.0
 10
27.49498570983419
 20
122.9171851116316
 30
0.0
 10
27.67275568638099
 20
122.9170951854982
 30
0.0
 10
27.77637978927967
 20
122.9170502224316
 30
0.0
 10
27.99987929125954
 20
122.9169602962982
 30
0.0
 10
28.11969199724765
 20
122.9169153332316
 30
0.0
 10
28.23992100751043
 20
122.9168703701649
 30
0.0
  0
SPLINE
  5
BA
330
1F
100
AcDbEntity
  8
0
  6
Continuous
 62
     7
370
    15
100
AcDbSpline
210
0.0
220
0.0
230
1.0
 70
     8
 71
     3
 72
    14
 73
    10
 74
     0
 42
0.000000001
 43
0.00000001
 40
0.0
 40
0.0
 40
0.0
 40
0.0
 40
0.25
 40
0.25
 40
0.5
 40
0.5
 40
0.75
 40
0.75
 40
1.0
 40
1.0
 40
1.0
 40
1.0
 10
28.23992100751043
 20
119.9173272828736
 30
0.0
 10
28.11049546979375
 20
119.9195864140387
 30
0.0
 10
27.9815627180846
 20
119.9472860495795
 30
0.0
 10
27.74369639704652
 20
120.0494814861865
 30
0.0
 10
27.63485234174382
 20
120.123938828992
 30
0.0
 10
27.45339358785209
 20
120.308592598473
 30
0.0
 10
27.38084717595274
 20
120.4187195361082
 30
0.0
 10
27.28281864391987
 20
120.6583331852499
 30
0.0
 10
27.25737341395452
 20
120.7877297251742
 30
0.0
 10
27.25737341395452
 20
120.9171749780299
 30
0.0
  0
SPLINE
  5
BB
330
1F
100
AcDbEntity
  8
0
  6
Continuous
 62
     7
370
    15
100
AcDbSpline
210
0.0
220
0.0
230
1.0
 70
     8
 71
     3
 72
     8
 73
     4
 74
     0
 42
0.000000001
 43
0.00000001
 40
0.0
 40
0.0
 40
0.0
 40
0.0
 40
1.0
 40
1.0
 40
1.0
 40
1.0
 10
27.25737341424058
 20
120.9287118950899
 30
0.0
 10
27.25737341432603
 20
120.9210405235264
 30
0.0
 10
27.25737341443054
 20
120.9171918075446
 30
0.0
 10
27.2573734145541
 20
120.9171749780299
 30
0.0
  0
SPLINE
  5
BC
330
1F
100
AcDbEntity
  8
0
  6
Continuous
 62
     7
370
    15
100
AcDbSpline
210
0.0
220
0.0
230
1.0
 70
     8
 71
     3
 72
    13
 73
     9
 74
     0
 42
0.000000001
 43
0.00000001
 40
0.0
 40
0.0
 40
0.0
 40
0.0
 40
0.0402079707176813
 40
0.2624410471802652
 40
0.4846715568754934
 40
0.7068860434930606
 40
0.9291281234297676
 40
1.0
 40
1.0
 40
1.0
 40
1.0
 10
27.26346128953637
 20
122.9174099269422
 30
0.0
 10
27.2637126742155
 20
122.8794764364987
 30
0.0
 10
27.26535348466326
 20
122.6318811269741
 30
0.0
 10
27.26755266912167
 20
122.1711073237955
 30
0.0
 10
27.26677812758179
 20
121.6084781986086
 30
0.0
 10
27.26286807706996
 20
121.1890363569742
 30
0.0
 10
27.25877616389109
 20
120.9793932445095
 30
0.0
 10
27.25816428022108
 20
120.958484043498
 30
0.0
 10
27.25801633317533
 20
120.9534284182697
 30
0.0
  0
SPLINE
  5
BD
330
1F
100
AcDbEntity
  8
0
  6
Continuous
 62
     7
370
    15
100
AcDbSpline
210
0.0
220
0.0
230
1.0
 70
    24
 71
     3
 72
     8
 73
     4
 74
     0
 42
0.000000001
 43
0.00000001
 40
0.0
 40
0.0
 40
0.0
 40
0.0
 40
1.0
 40
1.0
 40
1.0
 40
1.0
 10
27.25737341424367
 20
156.1899544778799
 30
0.0
 10
27.25737341432267
 20
156.1899403499369
 30
0.0
 10
27.2573734144178
 20
156.1860883432222
 30
0.0
 10
27.25737341452907
 20
156.1784189213499
 30
0.0
  0
SPLINE
  5
BE
330
1F
100
AcDbEntity
  8
0
  6
Continuous
 62
     7
370
    15
100
AcDbSpline
210
0.0
220
0.0
230
1.0
 70
     8
 71
     3
 72
    11
 73
     7
 74
     0
 42
0.000000001
 43
0.00000001
 40
0.0
 40
0.0
 40
0.0
 40
0.0
 40
0.1530736540711538
 40
0.4353824360474356
 40
0.7176912180237179
 40
1.0
 40
1.0
 40
1.0
 40
1.0
 10
27.29145943288597
 20
156.3632919920439
 30
0.0
 10
27.30097237735372
 20
156.4330393600361
 30
0.0
 10
27.32802973716844
 20
156.6314195396208
 30
0.0
 10
27.53045179737867
 20
156.9060108708271
 30
0.0
 10
27.85135113512607
 20
157.1391652710743
 30
0.0
 10
28.11039771671564
 20
157.1729232057156
 30
0.0
 10
28.23992100751043
 20
157.1898021730362
 30
0.0
  0
SPLINE
  5
BF
330
1F
100
AcDbEntity
  8
0
  6
Continuous
 62
     7
370
    15
100
AcDbSpline
210
0.0
220
0.0
230
1.0
 70
     8
 71
     3
 72
    14
 73
    10
 74
     0
 42
0.000000001
 43
0.00000001
 40
0.0
 40
0.0
 40
0.0
 40
0.0
 40
0.25
 40
0.25
 40
0.5
 40
0.5
 40
0.75
 40
0.75
 40
1.0
 40
1.0
 40
1.0
 40
1.0
 10
28.23992100750705
 20
154.1902590854349
 30
0.0
 10
28.11969250657683
 20
154.1902228630382
 30
0.0
 10
27.99988030593339
 20
154.1901866406416
 30
0.0
 10
27.77638161506882
 20
154.1901141958483
 30
0.0
 10
27.67275781665415
 20
154.1900779734516
 30
0.0
 10
27.49498809814065
 20
154.1900055286582
 30
0.0
 10
27.42089204278487
 20
154.1899693062616
 30
0.0
 10
27.31173533388806
 20
154.1898968614682
 30
0.0
 10
27.27670529901081
 20
154.1898606390716
 30
0.0
 10
27.26345924154468
 20
154.1898244166749
 30
0.0
  0
SPLINE
  5
C0
330
1F
100
AcDbEntity
  8
0
  6
Continuous
 62
     7
370
    15
100
AcDbSpline
210
0.0
220
0.0
230
1.0
 70
     8
 71
     3
 72
    22
 73
    18
 74
     0
 42
0.000000001
 43
0.00000001
 40
0.0
 40
0.0
 40
0.0
 40
0.0
 40
0.125
 40
0.125
 40
0.25
 40
0.25
 40
0.375
 40
0.375
 40
0.5
 40
0.5
 40
0.625
 40
0.625
 40
0.75
 40
0.75
 40
0.875
 40
0.875
 40
1.0
 40
1.0
 40
1.0
 40
1.0
 10
27.25737341436222
 20
156.1784135455044
 30
0.0
 10
27.25737385764083
 20
156.1800586683082
 30
0.0
 10
27.25773103449845
 20
156.1683931387165
 30
0.0
 10
27.25887736858586
 20
156.1195081382825
 30
0.0
 10
27.25967767799226
 20
156.0815927437687
 30
0.0
 10
27.26141075518776
 20
155.9820953228373
 30
0.0
 10
27.2623350248438
 20
155.920818976398
 30
0.0
 10
27.26407880512295
 20
155.7751060016525
 30
0.0
 10
27.26489624477791
 20
155.6906219475969
 30
0.0
 10
27.26616847162077
 20
155.5058193593894
 30
0.0
 10
27.26664551391694
 20
155.4042118654516
 30
0.0
 10
27.26714882275456
 20
155.1847762497163
 30
0.0
 10
27.26716580948645
 20
155.0698135106704
 30
0.0
 10
27.26676442995259
 20
154.8297267119001
 30
0.0
 10
27.26632936588009
 20
154.7033745165822
 30
0.0
 10
27.26511369838956
 20
154.4486754162795
 30
0.0
 10
27.26433421316688
 20
154.3191338721769
 30
0.0
 10
27.26346322958917
 20
154.1898243899385
 30
0.0
  0
SPLINE
  5
C1
330
1F
100
AcDbEntity
  8
0
  6
Continuous
 62
     7
370
    15
100
AcDbSpline
210
0.0
220
0.0
230
1.0
 70
     8
 71
     3
 72
     8
 73
     4
 74
     0
 42
0.000000001
 43
0.00000001
 40
0.0
 40
0.0
 40
0.0
 40
0.0
 40
1.0
 40
1.0
 40
1.0
 40
1.0
 10
27.25737341395452
 20
123.4463175178092
 30
0.0
 10
27.25737341395441
 20
123.2753388608713
 30
0.0
 10
27.26223389734829
 20
123.0990672010632
 30
0.0
 10
27.26345853372749
 20
122.9174100792614
 30
0.0
  0
LINE
  5
C2
330
1F
100
AcDbEntity
  8
0
  6
Continuous
 62
     7
370
    15
100
AcDbLine
 10
27.257373414
 20
123.4463175178
 30
0.0
 11
27.257373414
 21
153.6608119381
 31
0.0
  0
SPLINE
  5
C3
330
1F
100
AcDbEntity
  8
0
  6
Continuous
 62
     7
370
    15
100
AcDbSpline
210
0.0
220
0.0
230
1.0
 70
     8
 71
     3
 72
     8
 73
     4
 74
     0
 42
0.000000001
 43
0.00000001
 40
0.0
 40
0.0
 40
0.0
 40
0.0
 40
1.0
 40
1.0
 40
1.0
 40
1.0
 10
27.26345924154368
 20
154.1898244167017
 30
0.0
 10
27.26223542235824
 20
154.0081309080082
 30
0.0
 10
27.25737341395441
 20
153.8318242471374
 30
0.0
 10
27.25737341395452
 20
153.6608119381006
 30
0.0
  0
LINE
  5
C4
330
1F
100
AcDbEntity
  8
0
  6
Continuous
 62
     7
370
    15
100
AcDbLine
 10
27.2573734141
 20
120.9287156961
 30
0.0
 11
27.2573734141
 21
123.453636052
 31
0.0
  0
LINE
  5
C5
330
1F
100
AcDbEntity
  8
0
  6
Continuous
 62
     7
370
    15
100
AcDbLine
 10
27.257373414
 20
153.6608119381
 30
0.0
 11
27.257373414
 21
156.1784135455
 31
0.0
  0
LINE
  5
C6
330
1F
100
AcDbEntity
  8
0
  6
Continuous
 62
     7
370
    15
100
AcDbLine
 10
140.8223587344
 20
177.4741094181
 30
0.0
 11
140.7882778165
 21
177.4320477708
 31
0.0
  0
SPLINE
  5
C7
330
1F
100
AcDbEntity
  8
0
  6
Continuous
 62
     7
370
    15
100
AcDbSpline
210
0.0
220
0.0
230
1.0
 70
     8
 71
     3
 72
    11
 73
     7
 74
     0
 42
0.000000001
 43
0.00000001
 40
0.0
 40
0.0
 40
0.0
 40
0.0
 40
0.2336258980568653
 40
0.4851371715597327
 40
0.7445835502976045
 40
1.0
 40
1.0
 40
1.0
 40
1.0
 10
141.7626092798316
 20
176.5082117194889
 30
0.0
 10
141.7542103962541
 20
176.6010848483013
 30
0.0
 10
141.7367696473605
 20
176.7939410658726
 30
0.0
 10
141.6064319185071
 20
177.0639567026073
 30
0.0
 10
141.4043892303685
 20
177.2963229734357
 30
0.0
 10
141.2229322529273
 20
177.3870428656174
 30
0.0
 10
141.1329139133004
 20
177.4320477708047
 30
0.0
  0
SPLINE
  5
C8
330
1F
100
AcDbEntity
  8
0
  6
Continuous
 62
     7
370
    15
100
AcDbSpline
210
0.0
220
0.0
230
1.0
 70
     8
 71
     3
 72
     9
 73
     5
 74
     0
 42
0.000000001
 43
0.00000001
 40
0.0
 40
0.0
 40
0.0
 40
0.0
 40
0.5177073422455565
 40
1.0
 40
1.0
 40
1.0
 40
1.0
 10
141.1667296829278
 20
177.342865873414
 30
0.0
 10
141.1670596955343
 20
177.3755399628376
 30
0.0
 10
141.1676971456525
 20
177.4386530129285
 30
0.0
 10
141.0513249386657
 20
177.4688136317135
 30
0.0
 10
140.9951994776693
 20
177.4833598767069
 30
0.0
  0
SPLINE
  5
C9
330
1F
100
AcDbEntity
  8
0
  6
Continuous
 62
     7
370
    15
100
AcDbSpline
210
0.0
220
0.0
230
1.0
 70
     8
 71
     3
 72
    11
 73
     7
 74
     0
 42
0.000000001
 43
0.00000001
 40
0.0
 40
0.0
 40
0.0
 40
0.0
 40
0.2501121268320554
 40
0.5001425320991344
 40
0.7500699127220403
 40
1.0
 40
1.0
 40
1.0
 40
1.0
 10
140.8364936385169
 20
177.4828085462982
 30
0.0
 10
140.7370112513224
 20
177.4828548107415
 30
0.0
 10
140.5380789817801
 20
177.4829473245119
 30
0.0
 10
140.0406304353043
 20
177.4830853216481
 30
0.0
 10
139.4483041373835
 20
177.4832228339218
 30
0.0
 10
139.0148201724111
 20
177.4833139521474
 30
0.0
 10
138.7980770162988
 20
177.4833595115069
 30
0.0
  0
SPLINE
  5
CA
330
1F
100
AcDbEntity
  8
0
  6
Continuous
 62
     7
370
    15
100
AcDbSpline
210
0.0
220
0.0
230
1.0
 70
     8
 71
     3
 72
    11
 73
     7
 74
     0
 42
0.000000001
 43
0.00000001
 40
0.0
 40
0.0
 40
0.0
 40
0.0
 40
0.2499270177599978
 40
0.4998529627086792
 40
0.7498842945333302
 40
1.0
 40
1.0
 40
1.0
 40
1.0
 10
50.04520068143591
 20
177.4833591508301
 30
0.0
 10
49.82991640715436
 20
177.4833135096
 30
0.0
 10
49.39934878269866
 20
177.4832222273356
 30
0.0
 10
48.81260248889021
 20
177.4830844665525
 30
0.0
 10
48.32038055081381
 20
177.4829462190934
 30
0.0
 10
48.12372863435429
 20
177.4828535373889
 30
0.0
 10
48.02538608876405
 20
177.4828071887191
 30
0.0
  0
SPLINE
  5
CB
330
1F
100
AcDbEntity
  8
0
  6
Continuous
 62
     7
370
    15
100
AcDbSpline
210
0.0
220
0.0
230
1.0
 70
     8
 71
     3
 72
     9
 73
     5
 74
     0
 42
0.000000001
 43
0.00000001
 40
0.0
 40
0.0
 40
0.0
 40
0.0
 40
0.4823444714074683
 40
1.0
 40
1.0
 40
1.0
 40
1.0
 10
47.86859861410571
 20
177.4833593028025
 30
0.0
 10
47.81239288826504
 20
177.4688151720149
 30
0.0
 10
47.69586677638351
 20
177.4386621762833
 30
0.0
 10
47.69519963735053
 20
177.375544977996
 30
0.0
 10
47.69485428914176
 20
177.3428720113534
 30
0.0
  0
SPLINE
  5
CC
330
1F
100
AcDbEntity
  8
0
  6
Continuous
 62
     7
370
    15
100
AcDbSpline
210
0.0
220
0.0
230
1.0
 70
     8
 71
     3
 72
    11
 73
     7
 74
     0
 42
0.000000001
 43
0.00000001
 40
0.0
 40
0.0
 40
0.0
 40
0.0
 40
0.2554166355932236
 40
0.51486304631375
 40
0.7663742361376996
 40
1.0
 40
1.0
 40
1.0
 40
1.0
 10
47.73034988713624
 20
177.4320465891314
 30
0.0
 10
47.64031270019542
 20
177.3870415134206
 30
0.0
 10
47.45881778604383
 20
177.2963213051373
 30
0.0
 10
47.25673451381284
 20
177.0639552812941
 30
0.0
 10
47.12637220592485
 20
176.7939403008867
 30
0.0
 10
47.10893040407353
 20
176.6010846075866
 30
0.0
 10
47.10053101447915
 20
176.5082117428829
 30
0.0
  0
LINE
  5
CD
330
1F
100
AcDbEntity
  8
0
  6
Continuous
 62
     7
370
    15
100
AcDbLine
 10
48.0710001478
 20
177.4320465891
 30
0.0
 11
48.0400181397
 21
177.4728194645
 31
0.0
  0
LINE
  5
CE
330
1F
100
AcDbEntity
  8
0
  6
Continuous
 62
     7
370
    15
100
AcDbLine
 10
46.9318949343
 20
169.9991556667
 30
0.0
 11
49.9314380198
 21
169.9991556667
 31
0.0
  0
LINE
  5
CF
330
1F
100
AcDbEntity
  8
0
  6
Continuous
 62
     7
370
    15
100
AcDbLine
 10
46.9318949343
 20
169.9991556667
 30
0.0
 11
47.0456574893
 21
176.5166080732
 31
0.0
  0
LINE
  5
D0
330
1F
100
AcDbEntity
  8
0
  6
Continuous
 62
     7
370
    15
100
AcDbLine
 10
47.0456574893
 20
176.5166080732
 30
0.0
 11
47.1043068642
 21
176.519620667
 31
0.0
  0
LINE
  5
D1
330
1F
100
AcDbEntity
  8
0
  6
Continuous
 62
     7
370
    15
100
AcDbLine
 10
50.0452005765
 20
176.5166080731
 30
0.0
 11
49.9314380198
 21
169.9991556667
 31
0.0
  0
LINE
  5
D2
330
1F
100
AcDbEntity
  8
0
  6
Continuous
 62
     7
370
    15
100
AcDbLine
 10
49.9314380198
 20
169.9991556667
 30
0.0
 11
138.9323518489
 21
169.9991556667
 31
0.0
  0
LINE
  5
D3
330
1F
100
AcDbEntity
  8
0
  6
Continuous
 62
     7
370
    15
100
AcDbLine
 10
50.0452005747
 20
176.5166080732
 30
0.0
 11
138.8185892897
 21
176.5166080732
 31
0.0
  0
LINE
  5
D4
330
1F
100
AcDbEntity
  8
0
  6
Continuous
 62
     7
370
    15
100
AcDbLine
 10
138.9323518489
 20
169.9991556667
 30
0.0
 11
138.8185892897
 21
176.5166080732
 31
0.0
  0
LINE
  5
D5
330
1F
100
AcDbEntity
  8
0
  6
Continuous
 62
     7
370
    15
100
AcDbLine
 10
138.9323518489
 20
169.9991556667
 30
0.0
 11
141.9318949343
 21
169.9991556667
 31
0.0
  0
LINE
  5
D6
330
1F
100
AcDbEntity
  8
0
  6
Continuous
 62
     7
370
    15
100
AcDbLine
 10
141.7591213719
 20
176.5196399133
 30
0.0
 11
141.8181323794
 21
176.5166080732
 31
0.0
  0
LINE
  5
D7
330
1F
100
AcDbEntity
  8
0
  6
Continuous
 62
     7
370
    15
100
AcDbLine
 10
141.8181323794
 20
176.5166080732
 30
0.0
 11
141.9318949343
 21
169.9991556667
 31
0.0
  0
SPLINE
  5
D8
330
1F
100
AcDbEntity
  8
0
  6
Continuous
 62
     7
370
    15
100
AcDbSpline
210
0.0
220
0.0
230
1.0
 70
    24
 71
     3
 72
    14
 73
    10
 74
     0
 42
0.000000001
 43
0.00000001
 40
0.0
 40
0.0
 40
0.0
 40
0.0
 40
0.25
 40
0.25
 40
0.5
 40
0.5
 40
0.75
 40
0.75
 40
1.0
 40
1.0
 40
1.0
 40
1.0
 10
138.818589289689
 20
176.516608073165
 30
0.0
 10
138.818589289689
 20
176.6460336108817
 30
0.0
 10
138.818589289689
 20
176.7749663625908
 30
0.0
 10
138.818589289689
 20
177.0128326836289
 30
0.0
 10
138.818589289689
 20
177.1216767389316
 30
0.0
 10
138.818589289689
 20
177.3031354928233
 30
0.0
 10
138.818589289689
 20
177.3756819047227
 30
0.0
 10
138.818589289689
 20
177.4737104367555
 30
0.0
 10
138.818589289689
 20
177.4991556667209
 30
0.0
 10
138.818589289689
 20
177.4991556667209
 30
0.0
  0
SPLINE
  5
D9
330
1F
100
AcDbEntity
  8
0
  6
Continuous
 62
     7
370
    15
100
AcDbSpline
210
0.0
220
0.0
230
1.0
 70
    24
 71
     3
 72
     8
 73
     4
 74
     0
 42
0.000000001
 43
0.00000001
 40
0.0
 40
0.0
 40
0.0
 40
0.0
 40
1.0
 40
1.0
 40
1.0
 40
1.0
 10
139.033101864594
 20
177.4991556664348
 30
0.0
 10
138.9618539323179
 20
177.4991556663494
 30
0.0
 10
138.8901936020497
 20
177.4991556662449
 30
0.0
 10
138.818589293944
 20
177.4991556661213
 30
0.0
  0
SPLINE
  5
DA
330
1F
100
AcDbEntity
  8
0
  6
Continuous
 62
     7
370
    15
100
AcDbSpline
210
0.0
220
0.0
230
1.0
 70
     8
 71
     3
 72
    22
 73
    18
 74
     0
 42
0.000000001
 43
0.00000001
 40
0.0
 40
0.0
 40
0.0
 40
0.0
 40
0.125
 40
0.125
 40
0.25
 40
0.25
 40
0.375
 40
0.375
 40
0.5
 40
0.5
 40
0.625
 40
0.625
 40
0.75
 40
0.75
 40
0.875
 40
0.875
 40
1.0
 40
1.0
 40
1.0
 40
1.0
 10
140.9284355485519
 20
177.493067791139
 30
0.0
 10
140.9363015945163
 20
177.4921960322166
 30
0.0
 10
140.9306444221373
 20
177.4914143827361
 30
0.0
 10
140.8936692369044
 20
177.4902099983821
 30
0.0
 10
140.8622621242815
 20
177.4897732402939
 30
0.0
 10
140.7734731964116
 20
177.4893618451742
 30
0.0
 10
140.7173674916912
 20
177.4893822637806
 30
0.0
 10
140.582488037479
 20
177.4898720281995
 30
0.0
 10
140.5026051981562
 20
177.490353249464
 30
0.0
 10
140.3257876705491
 20
177.4916267319957
 30
0.0
 10
140.2287062709788
 20
177.4924261011875
 30
0.0
 10
140.0169786102997
 20
177.4941736337394
 30
0.0
 10
139.9031104926881
 20
177.4951108448211
 30
0.0
 10
139.6677445354453
 20
177.4968367898196
 30
0.0
 10
139.5443317584398
 20
177.4976338541721
 30
0.0
 10
139.2907962658208
 20
177.4987970185591
 30
0.0
 10
139.1626463730807
 20
177.4991553534277
 30
0.0
 10
139.0331019128313
 20
177.4991556665182
 30
0.0
  0
LINE
  5
DB
330
1F
100
AcDbEntity
  8
0
  6
Continuous
 62
     7
370
    15
100
AcDbLine
 10
50.0452005747
 20
177.4991556667
 30
0.0
 11
50.0452005747
 21
177.4650692512
 31
0.0
  0
LINE
  5
DC
330
1F
100
AcDbEntity
  8
0
  6
Continuous
 62
     7
370
    15
100
AcDbLine
 10
50.0452005747
 20
177.4991556667
 30
0.0
 11
138.8185892939
 21
177.4991556667
 31
0.0
  0
SPLINE
  5
DD
330
1F
100
AcDbEntity
  8
0
  6
Continuous
 62
     7
370
    15
100
AcDbSpline
210
0.0
220
0.0
230
1.0
 70
     8
 71
     3
 72
    22
 73
    18
 74
     0
 42
0.000000001
 43
0.00000001
 40
0.0
 40
0.0
 40
0.0
 40
0.0
 40
0.125
 40
0.125
 40
0.25
 40
0.25
 40
0.375
 40
0.375
 40
0.5
 40
0.5
 40
0.625
 40
0.625
 40
0.75
 40
0.75
 40
0.875
 40
0.875
 40
1.0
 40
1.0
 40
1.0
 40
1.0
 10
49.83070483423768
 20
177.4991556663132
 30
0.0
 10
49.70116390563212
 20
177.4991552230346
 30
0.0
 10
49.57371708876497
 20
177.498798046177
 30
0.0
 10
49.3228428299737
 20
177.4976517120895
 30
0.0
 10
49.19804407499453
 20
177.4968514026831
 30
0.0
 10
48.96154409830163
 20
177.4951183254877
 30
0.0
 10
48.84949152790316
 20
177.4941940558316
 30
0.0
 10
48.63783596808941
 20
177.4924502755525
 30
0.0
 10
48.53881960306498
 20
177.4916328358975
 30
0.0
 10
48.36241351267138
 20
177.4903606090546
 30
0.0
 10
48.28344350503156
 20
177.4898835667585
 30
0.0
 10
48.14683631108054
 20
177.4893802579209
 30
0.0
 10
48.09084115231249
 20
177.4893632711889
 30
0.0
 10
48.0026966784724
 20
177.4897646507228
 30
0.0
 10
47.970500401839
 20
177.4901997147953
 30
0.0
 10
47.93309248098047
 20
177.4914153822859
 30
0.0
 10
47.92748936308404
 20
177.4921948675085
 30
0.0
 10
47.93534794440615
 20
177.4930658510862
 30
0.0
  0
SPLINE
  5
DE
330
1F
100
AcDbEntity
  8
0
  6
Continuous
 62
     7
370
    15
100
AcDbSpline
210
0.0
220
0.0
230
1.0
 70
     8
 71
     3
 72
     8
 73
     4
 74
     0
 42
0.000000001
 43
0.00000001
 40
0.0
 40
0.0
 40
0.0
 40
0.0
 40
1.0
 40
1.0
 40
1.0
 40
1.0
 10
140.8182846842572
 20
177.4991556667209
 30
0.0
 10
140.880676899698
 20
177.499155666721
 30
0.0
 10
140.9173853815746
 20
177.4942951833271
 30
0.0
 10
140.9284355392864
 20
177.4930705469479
 30
0.0
  0
LINE
  5
DF
330
1F
100
AcDbEntity
  8
0
  6
Continuous
 62
     7
370
    15
100
AcDbLine
 10
139.120806689
 20
177.4991556666
 30
0.0
 11
140.8182846843
 21
177.4991556667
 31
0.0
  0
SPLINE
  5
E0
330
1F
100
AcDbEntity
  8
0
  6
Continuous
 62
     7
370
    15
100
AcDbSpline
210
0.0
220
0.0
230
1.0
 70
     8
 71
     3
 72
     8
 73
     4
 74
     0
 42
0.000000001
 43
0.00000001
 40
0.0
 40
0.0
 40
0.0
 40
0.0
 40
1.0
 40
1.0
 40
1.0
 40
1.0
 10
47.93534794277987
 20
177.4930698391317
 30
0.0
 10
47.94639007868388
 20
177.4942936583172
 30
0.0
 10
47.98310068890508
 20
177.499155666721
 30
0.0
 10
48.04550518441077
 20
177.4991556667209
 30
0.0
  0
LINE
  5
E1
330
1F
100
AcDbEntity
  8
0
  6
Continuous
 62
     7
370
    15
100
AcDbLine
 10
48.0455051844
 20
177.4991556667
 30
0.0
 11
50.0452005747
 21
177.4991556667
 31
0.0
  0
SPLINE
  5
E2
330
1F
100
AcDbEntity
  8
0
  6
Continuous
 62
     8
370
    15
100
AcDbSpline
210
0.0
220
0.0
230
1.0
 70
     8
 71
     3
 72
    15
 73
    11
 74
     0
 42
0.000000001
 43
0.00000001
 40
0.0
 40
0.0
 40
0.0
 40
0.0
 40
0.0091340484440051
 40
0.1534778182982779
 40
0.2939468929517306
 40
0.4305415191973517
 40
0.5670469453644015
 40
0.707458369586613
 40
0.8517760206637471
 40
1.0
 40
1.0
 40
1.0
 40
1.0
 10
47.10430686418617
 20
176.5196206669927
 30
0.0
 10
47.10552310644795
 20
176.5196870695936
 30
0.0
 10
47.12595941243038
 20
176.5208028208816
 30
0.0
 10
47.27483334019775
 20
176.5222028226167
 30
0.0
 10
47.54466285938469
 20
176.5235855262218
 30
0.0
 10
47.91242003992667
 20
176.5239585333232
 30
0.0
 10
48.35288107828717
 20
176.5235745149
 30
0.0
 10
48.86504930468943
 20
176.5222489505115
 30
0.0
 10
49.43740560927107
 20
176.5199671810612
 30
0.0
 10
49.84080670670257
 20
176.517737699271
 30
0.0
 10
50.04520057654396
 20
176.5166080731649
 30
0.0
  0
SPLINE
  5
E3
330
1F
100
AcDbEntity
  8
0
  6
Continuous
 62
     8
370
    15
100
AcDbSpline
210
0.0
220
0.0
230
1.0
 70
     8
 71
     3
 72
    15
 73
    11
 74
     0
 42
0.000000001
 43
0.00000001
 40
0.0
 40
0.0
 40
0.0
 40
0.0
 40
0.1483001316577206
 40
0.2927235262106296
 40
0.4332703044285849
 40
0.5699407131368665
 40
0.7065931109933581
 40
0.8471559826047967
 40
0.9916295570914557
 40
1.0
 40
1.0
 40
1.0
 40
1.0
 10
138.8185892896889
 20
176.5166080731833
 30
0.0
 10
139.0229212452683
 20
176.5177366201304
 30
0.0
 10
139.4262436825857
 20
176.5199642125011
 30
0.0
 10
139.9985639662235
 20
176.5222465878604
 30
0.0
 10
140.5108287118348
 20
176.5235739696442
 30
0.0
 10
140.9513119128592
 20
176.5239584832034
 30
0.0
 10
141.3190787054287
 20
176.5235862367888
 30
0.0
 10
141.5888025768647
 20
176.5222045338682
 30
0.0
 10
141.7375714071175
 20
176.5208109500987
 30
0.0
 10
141.7580024726122
 20
176.5197007149099
 30
0.0
 10
141.7591213719333
 20
176.5196399133135
 30
0.0
  0
SPLINE
  5
E4
330
1F
100
AcDbEntity
  8
0
  6
Continuous
 62
     8
370
    15
100
AcDbSpline
210
0.0
220
0.0
230
1.0
 70
    24
 71
     3
 72
    11
 73
     7
 74
     0
 42
0.000000001
 43
0.00000001
 40
0.0
 40
0.0
 40
0.0
 40
0.0
 40
0.1530723804542574
 40
0.4353815869695047
 40
0.7176907934847526
 40
1.0
 40
1.0
 40
1.0
 40
1.0
 10
50.04520057472396
 20
177.465069251157
 30
0.0
 10
50.04520057472396
 20
177.4555563763056
 30
0.0
 10
50.04520057472394
 20
177.4284990421402
 30
0.0
 10
50.04520057472398
 20
177.2260772427117
 30
0.0
 10
50.04520057472396
 20
176.9051779556956
 30
0.0
 10
50.04520057472396
 20
176.6461313673418
 30
0.0
 10
50.04520057472396
 20
176.516608073165
 30
0.0
  0
LINE
  5
E5
330
1F
100
AcDbEntity
  8
0
  6
Continuous
 62
     7
370
    15
100
AcDbLine
 10
48.0414311342
 20
99.064652308
 30
0.0
 11
48.0755120521
 21
99.1067139553
 31
0.0
  0
SPLINE
  5
E6
330
1F
100
AcDbEntity
  8
0
  6
Continuous
 62
     7
370
    15
100
AcDbSpline
210
0.0
220
0.0
230
1.0
 70
     8
 71
     3
 72
    11
 73
     7
 74
     0
 42
0.000000001
 43
0.00000001
 40
0.0
 40
0.0
 40
0.0
 40
0.0
 40
0.2336258980568634
 40
0.4851371715597299
 40
0.7445835502976009
 40
1.0
 40
1.0
 40
1.0
 40
1.0
 10
47.10118058883634
 20
100.0305500065898
 30
0.0
 10
47.10957947241384
 20
99.93767687777736
 30
0.0
 10
47.12702022130744
 20
99.74482066020605
 30
0.0
 10
47.25735795016077
 20
99.47480502347142
 30
0.0
 10
47.45940063829944
 20
99.24243875264304
 30
0.0
 10
47.64085761574066
 20
99.15171886046132
 30
0.0
 10
47.73087595536749
 20
99.10671395527399
 30
0.0
  0
SPLINE
  5
E7
330
1F
100
AcDbEntity
  8
0
  6
Continuous
 62
     7
370
    15
100
AcDbSpline
210
0.0
220
0.0
230
1.0
 70
     8
 71
     3
 72
     9
 73
     5
 74
     0
 42
0.000000001
 43
0.00000001
 40
0.0
 40
0.0
 40
0.0
 40
0.0
 40
0.5177073422455659
 40
1.0
 40
1.0
 40
1.0
 40
1.0
 10
47.69706018574016
 20
99.19589585266466
 30
0.0
 10
47.69673017313368
 20
99.16322176324107
 30
0.0
 10
47.69609272301554
 20
99.10010871315014
 30
0.0
 10
47.81246493000231
 20
99.06994809436515
 30
0.0
 10
47.86859039099872
 20
99.05540184937182
 30
0.0
  0
SPLINE
  5
E8
330
1F
100
AcDbEntity
  8
0
  6
Continuous
 62
     7
370
    15
100
AcDbSpline
210
0.0
220
0.0
230
1.0
 70
     8
 71
     3
 72
    11
 73
     7
 74
     0
 42
0.000000001
 43
0.00000001
 40
0.0
 40
0.0
 40
0.0
 40
0.0
 40
0.2501121268320612
 40
0.5001425320991374
 40
0.7500699127220442
 40
1.0
 40
1.0
 40
1.0
 40
1.0
 10
48.02729623015099
 20
99.05595317978052
 30
0.0
 10
48.12677861734554
 20
99.05590691533712
 30
0.0
 10
48.32571088688783
 20
99.05581440156679
 30
0.0
 10
48.82315943336365
 20
99.05567640443059
 30
0.0
 10
49.41548573128446
 20
99.05553889215695
 30
0.0
 10
49.84896969625682
 20
99.05544777393129
 30
0.0
 10
50.06571285236912
 20
99.05540221457176
 30
0.0
  0
SPLINE
  5
E9
330
1F
100
AcDbEntity
  8
0
  6
Continuous
 62
     7
370
    15
100
AcDbSpline
210
0.0
220
0.0
230
1.0
 70
     8
 71
     3
 72
    11
 73
     7
 74
     0
 42
0.000000001
 43
0.00000001
 40
0.0
 40
0.0
 40
0.0
 40
0.0
 40
0.2499270177600015
 40
0.499852962708679
 40
0.7498842945333295
 40
0.9999999999999999
 40
0.9999999999999999
 40
0.9999999999999999
 40
0.9999999999999999
 10
138.818589187232
 20
99.05540257524855
 30
0.0
 10
139.0338734615136
 20
99.0554482164787
 30
0.0
 10
139.4644410859693
 20
99.0555394987431
 30
0.0
 10
140.0511873797777
 20
99.05567725952619
 30
0.0
 10
140.5434093178541
 20
99.0558155069853
 30
0.0
 10
140.7400612343137
 20
99.05590818868976
 30
0.0
 10
140.8384037799039
 20
99.05595453735958
 30
0.0
  0
SPLINE
  5
EA
330
1F
100
AcDbEntity
  8
0
  6
Continuous
 62
     7
370
    15
100
AcDbSpline
210
0.0
220
0.0
230
1.0
 70
     8
 71
     3
 72
     9
 73
     5
 74
     0
 42
0.000000001
 43
0.00000001
 40
0.0
 40
0.0
 40
0.0
 40
0.0
 40
0.4823444714074007
 40
1.0
 40
1.0
 40
1.0
 40
1.0
 10
140.995191254561
 20
99.055402423276
 30
0.0
 10
141.0513969804019
 20
99.06994655406352
 30
0.0
 10
141.1679230922839
 20
99.10009954979515
 30
0.0
 10
141.1685902313173
 20
99.16321674808256
 30
0.0
 10
141.1689355795262
 20
99.19588971472531
 30
0.0
  0
SPLINE
  5
EB
330
1F
100
AcDbEntity
  8
0
  6
Continuous
 62
     7
370
    15
100
AcDbSpline
210
0.0
220
0.0
230
1.0
 70
     8
 71
     3
 72
    11
 73
     7
 74
     0
 42
0.000000001
 43
0.00000001
 40
0.0
 40
0.0
 40
0.0
 40
0.0
 40
0.2554166355932214
 40
0.5148630463137501
 40
0.7663742361376961
 40
1.0
 40
1.0
 40
1.0
 40
1.0
 10
141.1334399815317
 20
99.10671513694726
 30
0.0
 10
141.2234771684725
 20
99.15172021265806
 30
0.0
 10
141.4049720826241
 20
99.24244042094136
 30
0.0
 10
141.6070553548551
 20
99.47480644478463
 30
0.0
 10
141.7374176627431
 20
99.74482142519194
 30
0.0
 10
141.7548594645944
 20
99.93767711849212
 30
0.0
 10
141.7632588541888
 20
100.0305499831958
 30
0.0
  0
LINE
  5
EC
330
1F
100
AcDbEntity
  8
0
  6
Continuous
 62
     7
370
    15
100
AcDbLine
 10
140.7927897209
 20
99.1067151369
 30
0.0
 11
140.823771729
 21
99.0659422615
 31
0.0
  0
LINE
  5
ED
330
1F
100
AcDbEntity
  8
0
  6
Continuous
 62
     7
370
    15
100
AcDbLine
 10
141.9318949343
 20
106.5396060594
 30
0.0
 11
138.9323518489
 21
106.5396060594
 31
0.0
  0
LINE
  5
EE
330
1F
100
AcDbEntity
  8
0
  6
Continuous
 62
     7
370
    15
100
AcDbLine
 10
141.9318949343
 20
106.5396060594
 30
0.0
 11
141.8181323794
 21
100.0221536529
 31
0.0
  0
LINE
  5
EF
330
1F
100
AcDbEntity
  8
0
  6
Continuous
 62
     7
370
    15
100
AcDbLine
 10
141.8181323794
 20
100.0221536529
 30
0.0
 11
141.7594830045
 21
100.0191410591
 31
0.0
  0
LINE
  5
F0
330
1F
100
AcDbEntity
  8
0
  6
Continuous
 62
     7
370
    15
100
AcDbLine
 10
138.8185892921
 20
100.0221536529
 30
0.0
 11
138.9323518489
 21
106.5396060594
 31
0.0
  0
LINE
  5
F1
330
1F
100
AcDbEntity
  8
0
  6
Continuous
 62
     7
370
    15
100
AcDbLine
 10
49.9314380198
 20
106.5396060594
 30
0.0
 11
46.9318949343
 21
106.5396060594
 31
0.0
  0
LINE
  5
F2
330
1F
100
AcDbEntity
  8
0
  6
Continuous
 62
     7
370
    15
100
AcDbLine
 10
49.9314380198
 20
106.5396060594
 30
0.0
 11
50.045200579
 21
100.0221536529
 31
0.0
  0
LINE
  5
F3
330
1F
100
AcDbEntity
  8
0
  6
Continuous
 62
     7
370
    15
100
AcDbLine
 10
47.1046684967
 20
100.0191218128
 30
0.0
 11
47.0456574893
 21
100.0221536529
 31
0.0
  0
LINE
  5
F4
330
1F
100
AcDbEntity
  8
0
  6
Continuous
 62
     7
370
    15
100
AcDbLine
 10
47.0456574893
 20
100.0221536529
 30
0.0
 11
46.9318949343
 21
106.5396060594
 31
0.0
  0
LINE
  5
F5
330
1F
100
AcDbEntity
  8
0
  6
Continuous
 62
     7
370
    15
100
AcDbLine
 10
138.9323518489
 20
106.5396060594
 30
0.0
 11
49.9314380198
 21
106.5396060594
 31
0.0
  0
LINE
  5
F6
330
1F
100
AcDbEntity
  8
0
  6
Continuous
 62
     7
370
    15
100
AcDbLine
 10
138.8185892939
 20
100.0221536529
 30
0.0
 11
50.045200579
 21
100.0221536529
 31
0.0
  0
SPLINE
  5
F7
330
1F
100
AcDbEntity
  8
0
  6
Continuous
 62
     7
370
    15
100
AcDbSpline
210
0.0
220
0.0
230
1.0
 70
    24
 71
     3
 72
    14
 73
    10
 74
     0
 42
0.000000001
 43
0.00000001
 40
0.0
 40
0.0
 40
0.0
 40
0.0
 40
0.25
 40
0.25
 40
0.5
 40
0.5
 40
0.75
 40
0.75
 40
1.0
 40
1.0
 40
1.0
 40
1.0
 10
50.04520057897896
 20
100.0221536529137
 30
0.0
 10
50.04520057897896
 20
99.89272811519704
 30
0.0
 10
50.04520057897895
 20
99.76379536348789
 30
0.0
 10
50.04520057897896
 20
99.5259290424498
 30
0.0
 10
50.04520057897896
 20
99.4170849871471
 30
0.0
 10
50.04520057897896
 20
99.23562623325536
 30
0.0
 10
50.04520057897896
 20
99.16307982135602
 30
0.0
 10
50.04520057897895
 20
99.06505128932316
 30
0.0
 10
50.04520057897896
 20
99.03960605935781
 30
0.0
 10
50.04520057897896
 20
99.03960605935781
 30
0.0
  0
SPLINE
  5
F8
330
1F
100
AcDbEntity
  8
0
  6
Continuous
 62
     7
370
    15
100
AcDbSpline
210
0.0
220
0.0
230
1.0
 70
    24
 71
     3
 72
     8
 73
     4
 74
     0
 42
0.000000001
 43
0.00000001
 40
0.0
 40
0.0
 40
0.0
 40
0.0
 40
1.0
 40
1.0
 40
1.0
 40
1.0
 10
49.83068800407396
 20
99.03960605964386
 30
0.0
 10
49.90193593635004
 20
99.03960605972932
 30
0.0
 10
49.97359626661827
 20
99.03960605983383
 30
0.0
 10
50.04520057472396
 20
99.03960605995739
 30
0.0
  0
SPLINE
  5
F9
330
1F
100
AcDbEntity
  8
0
  6
Continuous
 62
     7
370
    15
100
AcDbSpline
210
0.0
220
0.0
230
1.0
 70
     8
 71
     3
 72
    22
 73
    18
 74
     0
 42
0.000000001
 43
0.00000001
 40
0.0
 40
0.0
 40
0.0
 40
0.0
 40
0.125
 40
0.125
 40
0.25
 40
0.25
 40
0.375
 40
0.375
 40
0.5
 40
0.5
 40
0.625
 40
0.625
 40
0.75
 40
0.75
 40
0.875
 40
0.875
 40
1.0
 40
1.0
 40
1.0
 40
1.0
 10
47.93535432011596
 20
99.04569393493966
 30
0.0
 10
47.92748827415165
 20
99.04656569386209
 30
0.0
 10
47.93314544653064
 20
99.04734734334261
 30
0.0
 10
47.97012063176354
 20
99.04855172769655
 30
0.0
 10
48.00152774438641
 20
99.04898848578473
 30
0.0
 10
48.09031667225636
 20
99.04939988090447
 30
0.0
 10
48.14642237697674
 20
99.04937946229809
 30
0.0
 10
48.28130183118898
 20
99.04888969787923
 30
0.0
 10
48.36118467051171
 20
99.04840847661474
 30
0.0
 10
48.53800219811883
 20
99.04713499408301
 30
0.0
 10
48.63508359768911
 20
99.04633562489116
 30
0.0
 10
48.8468112583682
 20
99.04458809233934
 30
0.0
 10
48.96067937597978
 20
99.04365088125763
 30
0.0
 10
49.19604533322267
 20
99.04192493625908
 30
0.0
 10
49.31945811022815
 20
99.04112787190657
 30
0.0
 10
49.57299360284713
 20
99.03996470751963
 30
0.0
 10
49.70114349558725
 20
99.03960637265104
 30
0.0
 10
49.83068795583669
 20
99.0396060595605
 30
0.0
  0
LINE
  5
FA
330
1F
100
AcDbEntity
  8
0
  6
Continuous
 62
     7
370
    15
100
AcDbLine
 10
138.8185892939
 20
99.0396060594
 30
0.0
 11
138.8185892939
 21
99.0736924749
 31
0.0
  0
LINE
  5
FB
330
1F
100
AcDbEntity
  8
0
  6
Continuous
 62
     7
370
    15
100
AcDbLine
 10
138.8185892939
 20
99.0396060594
 30
0.0
 11
50.0452005747
 21
99.0396060594
 31
0.0
  0
SPLINE
  5
FC
330
1F
100
AcDbEntity
  8
0
  6
Continuous
 62
     7
370
    15
100
AcDbSpline
210
0.0
220
0.0
230
1.0
 70
     8
 71
     3
 72
    22
 73
    18
 74
     0
 42
0.000000001
 43
0.00000001
 40
0.0
 40
0.0
 40
0.0
 40
0.0
 40
0.125
 40
0.125
 40
0.25
 40
0.25
 40
0.375
 40
0.375
 40
0.5
 40
0.5
 40
0.625
 40
0.625
 40
0.75
 40
0.75
 40
0.875
 40
0.875
 40
1.0
 40
1.0
 40
1.0
 40
1.0
 10
139.0330850344302
 20
99.03960605976552
 30
0.0
 10
139.1626259630358
 20
99.03960650304413
 30
0.0
 10
139.290072779903
 20
99.03996367990175
 30
0.0
 10
139.5409470386942
 20
99.04111001398914
 30
0.0
 10
139.6657457936734
 20
99.04191032339556
 30
0.0
 10
139.9022457703663
 20
99.04364340059105
 30
0.0
 10
140.0142983407648
 20
99.04456767024708
 30
0.0
 10
140.2259539005785
 20
99.04631145052622
 30
0.0
 10
140.3249702656029
 20
99.04712889018118
 30
0.0
 10
140.5013763559965
 20
99.04840111702406
 30
0.0
 10
140.5803463636363
 20
99.04887815932022
 30
0.0
 10
140.7169535575873
 20
99.04938146815785
 30
0.0
 10
140.7729487163554
 20
99.04939845488974
 30
0.0
 10
140.8610931901955
 20
99.04899707535587
 30
0.0
 10
140.893289466829
 20
99.04856201128338
 30
0.0
 10
140.9306973876875
 20
99.04734634379285
 30
0.0
 10
140.9363005055839
 20
99.04656685857016
 30
0.0
 10
140.9284419242618
 20
99.04569587499246
 30
0.0
  0
SPLINE
  5
FD
330
1F
100
AcDbEntity
  8
0
  6
Continuous
 62
     7
370
    15
100
AcDbSpline
210
0.0
220
0.0
230
1.0
 70
     8
 71
     3
 72
     8
 73
     4
 74
     0
 42
0.000000001
 43
0.00000001
 40
0.0
 40
0.0
 40
0.0
 40
0.0
 40
1.0
 40
1.0
 40
1.0
 40
1.0
 10
48.04550518441077
 20
99.03960605935781
 30
0.0
 10
47.98311296896997
 20
99.03960605935768
 30
0.0
 10
47.94640448709333
 20
99.04446654275158
 30
0.0
 10
47.93535432938148
 20
99.04569117913077
 30
0.0
  0
LINE
  5
FE
330
1F
100
AcDbEntity
  8
0
  6
Continuous
 62
     7
370
    15
100
AcDbLine
 10
49.7429831797
 20
99.0396060595
 30
0.0
 11
48.0455051844
 21
99.0396060594
 31
0.0
  0
SPLINE
  5
FF
330
1F
100
AcDbEntity
  8
0
  6
Continuous
 62
     7
370
    15
100
AcDbSpline
210
0.0
220
0.0
230
1.0
 70
     8
 71
     3
 72
     8
 73
     4
 74
     0
 42
0.000000001
 43
0.00000001
 40
0.0
 40
0.0
 40
0.0
 40
0.0
 40
1.0
 40
1.0
 40
1.0
 40
1.0
 10
140.9284419258881
 20
99.04569188694697
 30
0.0
 10
140.917399789984
 20
99.04446806776153
 30
0.0
 10
140.8806891797628
 20
99.03960605935768
 30
0.0
 10
140.8182846842572
 20
99.03960605935781
 30
0.0
  0
LINE
  5
100
330
1F
100
AcDbEntity
  8
0
  6
Continuous
 62
     7
370
    15
100
AcDbLine
 10
140.8182846843
 20
99.0396060594
 30
0.0
 11
138.8128471247
 21
99.0396060594
 31
0.0
  0
SPLINE
  5
101
330
1F
100
AcDbEntity
  8
0
  6
Continuous
 62
     8
370
    15
100
AcDbSpline
210
0.0
220
0.0
230
1.0
 70
     8
 71
     3
 72
    15
 73
    11
 74
     0
 42
0.000000001
 43
0.00000001
 40
0.0
 40
0.0
 40
0.0
 40
0.0
 40
0.0091340484480184
 40
0.1534778183655774
 40
0.2939468930806174
 40
0.4305415193861273
 40
0.5670469454211303
 40
0.7074583695678843
 40
0.8517760206261181
 40
1.0
 40
1.0
 40
1.0
 40
1.0
 10
141.7594830044818
 20
100.019141059086
 30
0.0
 10
141.75826676222
 20
100.0190746564851
 30
0.0
 10
141.7378304562375
 20
100.0179589051971
 30
0.0
 10
141.5889565284701
 20
100.016558903462
 30
0.0
 10
141.3191270092835
 20
100.0151761998567
 30
0.0
 10
140.9513698289109
 20
100.0148031927562
 30
0.0
 10
140.5109087909568
 20
100.015187211176
 30
0.0
 10
139.9987405651602
 20
100.0165127755552
 30
0.0
 10
139.4263842610049
 20
100.0187945449943
 30
0.0
 10
139.0229831637391
 20
100.0210240267787
 30
0.0
 10
138.8185892939428
 20
100.022153652882
 30
0.0
  0
SPLINE
  5
102
330
1F
100
AcDbEntity
  8
0
  6
Continuous
 62
     8
370
    15
100
AcDbSpline
210
0.0
220
0.0
230
1.0
 70
     8
 71
     3
 72
    15
 73
    11
 74
     0
 42
0.000000001
 43
0.00000001
 40
0.0
 40
0.0
 40
0.0
 40
0.0
 40
0.1483001317458431
 40
0.2927235262546314
 40
0.4332703042961535
 40
0.569940712695623
 40
0.7065931106923208
 40
0.8471559824479774
 40
0.9916295570828666
 40
1.0
 40
1.0
 40
1.0
 40
1.0
 10
50.04520057472619
 20
100.0221536528212
 30
0.0
 10
49.8408686192524
 20
100.0210251058805
 30
0.0
 10
49.43754618232227
 20
100.0187975135235
 30
0.0
 10
48.86522589968123
 20
100.0165151381902
 30
0.0
 10
48.35296115548617
 20
100.0151877564284
 30
0.0
 10
47.9124779554122
 20
100.0148032428768
 30
0.0
 10
47.54471116323855
 20
100.0151754892896
 30
0.0
 10
47.27498729180331
 20
100.0165571922106
 30
0.0
 10
47.12621846155057
 20
100.01795077598
 30
0.0
 10
47.10578739605565
 20
100.0190610111688
 30
0.0
 10
47.10466849673463
 20
100.0191218127652
 30
0.0
  0
SPLINE
  5
103
330
1F
100
AcDbEntity
  8
0
  6
Continuous
 62
     8
370
    15
100
AcDbSpline
210
0.0
220
0.0
230
1.0
 70
    24
 71
     3
 72
    11
 73
     7
 74
     0
 42
0.000000001
 43
0.00000001
 40
0.0
 40
0.0
 40
0.0
 40
0.0
 40
0.1530723804542552
 40
0.4353815869695032
 40
0.7176907934847516
 40
1.0
 40
1.0
 40
1.0
 40
1.0
 10
138.818589293944
 20
99.07369247492169
 30
0.0
 10
138.8185892939439
 20
99.0832053497731
 30
0.0
 10
138.8185892939439
 20
99.1102626839385
 30
0.0
 10
138.818589293944
 20
99.31268448336694
 30
0.0
 10
138.818589293944
 20
99.6335837703831
 30
0.0
 10
138.818589293944
 20
99.89263035873684
 30
0.0
 10
138.818589293944
 20
100.0221536529137
 30
0.0
  0
SPLINE
  5
104
330
1F
100
AcDbEntity
  8
0
  6
Continuous
 62
     7
370
    15
100
AcDbSpline
210
0.0
220
0.0
230
1.0
 70
     8
 71
     3
 72
    11
 73
     7
 74
     0
 42
0.000000001
 43
0.00000001
 40
0.0
 40
0.0
 40
0.0
 40
0.0
 40
0.2499237137080083
 40
0.4998506704324626
 40
0.7498832094020021
 40
1.0
 40
1.0
 40
1.0
 40
1.0
 10
163.4851793989104
 20
154.1691989421545
 30
0.0
 10
163.4851339067712
 20
154.3859386556357
 30
0.0
 10
163.4850429219028
 20
154.8194208950181
 30
0.0
 10
163.4849056158433
 20
155.4118083487906
 30
0.0
 10
163.4847678248188
 20
155.9093755403264
 30
0.0
 10
163.4846754508632
 20
156.1084113523132
 30
0.0
 10
163.4846292561051
 20
156.2079460223912
 30
0.0
  0
SPLINE
  5
105
330
1F
100
AcDbEntity
  8
0
  6
Continuous
 62
     7
370
    15
100
AcDbSpline
210
0.0
220
0.0
230
1.0
 70
     8
 71
     3
 72
     9
 73
     5
 74
     0
 42
0.000000001
 43
0.00000001
 40
0.0
 40
0.0
 40
0.0
 40
0.0
 40
0.4823283359100888
 40
1.0
 40
1.0
 40
1.0
 40
1.0
 10
163.4851795526909
 20
156.3668632018432
 30
0.0
 10
163.4706303831816
 20
156.4229672429524
 30
0.0
 10
163.4404659320678
 20
156.5392864324591
 30
0.0
 10
163.3773242649861
 20
156.5385847213315
 30
0.0
 10
163.3446376131145
 20
156.5382214653644
 30
0.0
  0
SPLINE
  5
106
330
1F
100
AcDbEntity
  8
0
  6
Continuous
 62
     7
370
    15
100
AcDbSpline
210
0.0
220
0.0
230
1.0
 70
     8
 71
     3
 72
    11
 73
     7
 74
     0
 42
0.000000001
 43
0.00000001
 40
0.0
 40
0.0
 40
0.0
 40
0.0
 40
0.2554166358607002
 40
0.5148631071890417
 40
0.7663743255140826
 40
1.0
 40
1.0
 40
1.0
 40
1.0
 10
163.4338676582344
 20
156.504542176833
 30
0.0
 10
163.3888627584809
 20
156.5945554534202
 30
0.0
 10
163.298142894257
 20
156.7760021908879
 30
0.0
 10
163.0657766609504
 20
156.9780291121958
 30
0.0
 10
162.7957610686509
 20
157.108351973317
 30
0.0
 10
162.6029047492537
 20
157.1257839865454
 30
0.0
 10
162.5100316069186
 20
157.1341786601076
 30
0.0
  0
LINE
  5
107
330
1F
100
AcDbEntity
  8
0
  6
Continuous
 62
     7
370
    15
100
AcDbLine
 10
163.4338676582
 20
156.1596074977
 30
0.0
 11
163.4760373226
 21
156.1939081376
 31
0.0
  0
SPLINE
  5
108
330
1F
100
AcDbEntity
  8
0
  6
Continuous
 62
     7
370
    15
100
AcDbSpline
210
0.0
220
0.0
230
1.0
 70
     8
 71
     3
 72
     9
 73
     5
 74
     0
 42
0.000000001
 43
0.00000001
 40
0.0
 40
0.0
 40
0.0
 40
0.0
 40
0.0126014321110383
 40
1.0
 40
1.0
 40
1.0
 40
1.0
 10
163.4851708606652
 20
156.2013373216917
 30
0.0
 10
163.4853755096955
 20
156.2015056471716
 30
0.0
 10
163.5016156503767
 20
156.214863294017
 30
0.0
 10
163.5012759218006
 20
156.179505611005
 30
0.0
 10
163.5009404742912
 20
156.1445934854351
 30
0.0
  0
SPLINE
  5
109
330
1F
100
AcDbEntity
  8
0
  6
Continuous
 62
     7
370
    15
100
AcDbSpline
210
0.0
220
0.0
230
1.0
 70
     8
 71
     3
 72
     9
 73
     5
 74
     0
 42
0.000000001
 43
0.00000001
 40
0.0
 40
0.0
 40
0.0
 40
0.0
 40
0.3070597144911612
 40
1.0
 40
1.0
 40
1.0
 40
1.0
 10
163.4851751201744
 20
121.7821896196354
 30
0.0
 10
163.4851755212979
 20
121.8847019133482
 30
0.0
 10
163.4851768276349
 20
122.2185532421776
 30
0.0
 10
163.4851781334193
 20
122.6434217924762
 30
0.0
 10
163.4851790382499
 20
122.9378303270238
 30
0.0
  0
SPLINE
  5
10A
330
1F
100
AcDbEntity
  8
0
  6
Continuous
 62
     7
370
    15
100
AcDbSpline
210
0.0
220
0.0
230
1.0
 70
     8
 71
     3
 72
    10
 73
     6
 74
     0
 42
0.000000001
 43
0.00000001
 40
0.0
 40
0.0
 40
0.0
 40
0.0
 40
0.3911643360689527
 40
0.7822486461381288
 40
1.0
 40
1.0
 40
1.0
 40
1.0
 10
163.4851681777558
 20
120.7400990694874
 30
0.0
 10
163.4851690828839
 20
120.7748108403167
 30
0.0
 10
163.4851708929547
 20
120.8442272804994
 30
0.0
 10
163.4851732074287
 20
121.2579630723099
 30
0.0
 10
163.4851746162916
 20
121.6440903778698
 30
0.0
 10
163.4851751201744
 20
121.7821896196354
 30
0.0
  0
LINE
  5
10B
330
1F
100
AcDbEntity
  8
0
  6
Continuous
 62
     7
370
    15
100
AcDbLine
 10
163.4851704908
 20
156.2241791721
 30
0.0
 11
163.4851681778
 21
156.3670303864
 31
0.0
  0
LINE
  5
10C
330
1F
100
AcDbEntity
  8
0
  6
Continuous
 62
     7
370
    15
100
AcDbLine
 10
156.0009755542
 20
122.8031078134
 30
0.0
 11
156.0009755542
 21
119.803564728
 31
0.0
  0
LINE
  5
10D
330
1F
100
AcDbEntity
  8
0
  6
Continuous
 62
     7
370
    15
100
AcDbLine
 10
156.0009755542
 20
122.8031078134
 30
0.0
 11
162.5184279606
 21
122.9168703705
 31
0.0
  0
SPLINE
  5
10E
330
1F
100
AcDbEntity
  8
0
  6
Continuous
 62
     7
370
    15
100
AcDbSpline
210
0.0
220
0.0
230
1.0
 70
     8
 71
     3
 72
    47
 73
    43
 74
     0
 42
0.000000001
 43
0.00000001
 40
0.0
 40
0.0
 40
0.0
 40
0.0
 40
0.0250040480445422
 40
0.0500171482588111
 40
0.0750338954968946
 40
0.1000491582360532
 40
0.1250589558483764
 40
0.1500635362132995
 40
0.1750643056405498
 40
0.2000624179044068
 40
0.2250589391834598
 40
0.2500550156532758
 40
0.2750519703708367
 40
0.3000504078541927
 40
0.3250500264362161
 40
0.3500502679313965
 40
0.3750505121267685
 40
0.4000502589838726
 40
0.4250493161148998
 40
0.4500479802527796
 40
0.4750465307592786
 40
0.5000449596876783
 40
0.5250431362716322
 40
0.5500409851642467
 40
0.5750386642836091
 40
0.6000365545020322
 40
0.6250346439976181
 40
0.6500325255664278
 40
0.6750296029634856
 40
0.7000252730303991
 40
0.7250191078269822
 40
0.7500112528325337
 40
0.7750029305308164
 40
0.7999953602083483
 40
0.8249896174882264
 40
0.8499868017844471
 40
0.874988203669673
 40
0.8999950180654737
 40
0.9250047166045511
 40
0.9500123507338099
 40
0.9750125974002278
 40
1.0
 40
1.0
 40
1.0
 40
1.0
 10
162.5184271427246
 20
122.9168703768585
 30
0.0
 10
162.5186519851752
 20
122.8776017497718
 30
0.0
 10
162.5191017514754
 20
122.7990502792492
 30
0.0
 10
162.5197329501048
 20
122.6813918035741
 30
0.0
 10
162.5203325498717
 20
122.564077107393
 30
0.0
 10
162.5208973944177
 20
122.4473103213579
 30
0.0
 10
162.521428341859
 20
122.3312902530254
 30
0.0
 10
162.5219250962037
 20
122.2161987149586
 30
0.0
 10
162.5223876863016
 20
122.1022057591305
 30
0.0
 10
162.5228160801672
 20
121.9894793926206
 30
0.0
 10
162.5232102661453
 20
121.8781876624394
 30
0.0
 10
162.5235702287421
 20
121.7684981360071
 30
0.0
 10
162.5238959467198
 20
121.660582434248
 30
0.0
 10
162.5241874079587
 20
121.5546028967972
 30
0.0
 10
162.5244446066818
 20
121.4507160175356
 30
0.0
 10
162.5246675335715
 20
121.3490805804876
 30
0.0
 10
162.5248561807381
 20
121.2498551994406
 30
0.0
 10
162.5250105409651
 20
121.1531977957024
 30
0.0
 10
162.525130608071
 20
121.059269395208
 30
0.0
 10
162.5252163752877
 20
120.9682182434129
 30
0.0
 10
162.5252678392733
 20
120.8801715001928
 30
0.0
 10
162.5252849986906
 20
120.7952593799535
 30
0.0
 10
162.5252678529711
 20
120.7136112764922
 30
0.0
 10
162.5252164024573
 20
120.6353564066051
 30
0.0
 10
162.5251306484479
 20
120.5606259817588
 30
0.0
 10
162.5250105957696
 20
120.4895452819638
 30
0.0
 10
162.5248562499858
 20
120.4222065915663
 30
0.0
 10
162.5246676170904
 20
120.358705822654
 30
0.0
 10
162.5244447040236
 20
120.2991379624637
 30
0.0
 10
162.5241875185889
 20
120.2435983910999
 30
0.0
 10
162.523896068545
 20
120.192182099553
 30
0.0
 10
162.523570359075
 20
120.144984635005
 30
0.0
 10
162.5232104108699
 20
120.1020636293257
 30
0.0
 10
162.5228162385469
 20
120.0634745453037
 30
0.0
 10
162.522387857454
 20
120.0292726596509
 30
0.0
 10
162.5219252797284
 20
119.9995144243978
 30
0.0
 10
162.5214285369569
 20
119.9742521382487
 30
0.0
 10
162.5208976381003
 20
119.953555740072
 30
0.0
 10
162.5203328185223
 20
119.9374123917532
 30
0.0
 10
162.5197332349426
 20
119.92594082508
 30
0.0
 10
162.5191020594364
 20
119.9187305657217
 30
0.0
 10
162.5186522542169
 20
119.9178160182622
 30
0.0
 10
162.5184274093947
 20
119.9173588620266
 30
0.0
  0
LINE
  5
10F
330
1F
100
AcDbEntity
  8
0
  6
Continuous
 62
     7
370
    15
100
AcDbLine
 10
162.5184279606
 20
119.9173272829
 30
0.0
 11
156.0009755542
 21
119.803564728
 31
0.0
  0
LINE
  5
110
330
1F
100
AcDbEntity
  8
0
  6
Continuous
 62
     7
370
    15
100
AcDbLine
 10
156.0009755542
 20
157.303564728
 30
0.0
 11
156.0009755542
 21
154.3040216425
 31
0.0
  0
LINE
  5
111
330
1F
100
AcDbEntity
  8
0
  6
Continuous
 62
     7
370
    15
100
AcDbLine
 10
156.0009755542
 20
157.303564728
 30
0.0
 11
162.5184279606
 21
157.189802173
 31
0.0
  0
SPLINE
  5
112
330
1F
100
AcDbEntity
  8
0
  6
Continuous
 62
     7
370
    15
100
AcDbSpline
210
0.0
220
0.0
230
1.0
 70
     8
 71
     3
 72
    47
 73
    43
 74
     0
 42
0.000000001
 43
0.00000001
 40
0.0
 40
0.0
 40
0.0
 40
0.0
 40
0.0250040480066752
 40
0.0500171481851434
 40
0.0750338953894812
 40
0.1000491580969521
 40
0.1250589556795679
 40
0.1500635360166727
 40
0.1750643054179919
 40
0.2000624176577999
 40
0.2250589389146894
 40
0.2500550153642094
 40
0.2750519700633516
 40
0.3000504075302022
 40
0.3250500260976469
 40
0.3500502675801945
 40
0.3750505117648935
 40
0.4000502586132726
 40
0.4250493157375281
 40
0.4500479798705733
 40
0.4750465303741887
 40
0.5000449593016503
 40
0.5250431358866098
 40
0.5500409847821679
 40
0.5750386639063972
 40
0.6000365541316104
 40
0.6250346436359139
 40
0.6500325252153779
 40
0.6750296026250237
 40
0.7000252727064558
 40
0.725019107519478
 40
0.750011252543377
 40
0.7750029302619053
 40
0.7999953599615941
 40
0.8249896172655324
 40
0.849986801587729
 40
0.874988203500848
 40
0.8999950179264637
 40
0.925004716497336
 40
0.9500123506603649
 40
0.9750125973625262
 40
0.9999999999999999
 40
0.9999999999999999
 40
0.9999999999999999
 40
0.9999999999999999
 10
162.5184271427397
 20
157.1897553150261
 30
0.0
 10
162.5186519851902
 20
157.1893004438198
 30
0.0
 10
162.5191017514906
 20
157.188390536731
 30
0.0
 10
162.5197329501199
 20
157.1811866183203
 30
0.0
 10
162.5203325498869
 20
157.1697145953934
 30
0.0
 10
162.5208973944329
 20
157.1535598074415
 30
0.0
 10
162.5214283418741
 20
157.1328341552773
 30
0.0
 10
162.5219250962187
 20
157.1075551641025
 30
0.0
 10
162.5223876863165
 20
157.0777846452519
 30
0.0
 10
162.5228160801819
 20
157.0435718878281
 30
0.0
 10
162.5232102661599
 20
157.0049689915891
 30
0.0
 10
162.5235702287565
 20
156.9620284921601
 30
0.0
 10
162.523895946734
 20
156.9147988771655
 30
0.0
 10
162.5241874079726
 20
156.8633590890168
 30
0.0
 10
162.5244446066954
 20
156.8078034634949
 30
0.0
 10
162.5246675335849
 20
156.7482230047738
 30
0.0
 10
162.5248561807512
 20
156.6847093297029
 30
0.0
 10
162.5250105409779
 20
156.61735481807
 30
0.0
 10
162.5251306080835
 20
156.5462477316413
 30
0.0
 10
162.5252163752999
 20
156.4714949607741
 30
0.0
 10
162.5252678392851
 20
156.393227603553
 30
0.0
 10
162.5252849987021
 20
156.3115712881239
 30
0.0
 10
162.5252678529822
 20
156.2266527826403
 30
0.0
 10
162.525216402468
 20
156.1385988702029
 30
0.0
 10
162.5251306484582
 20
156.0475349917554
 30
0.0
 10
162.5250105957794
 20
155.9535942638508
 30
0.0
 10
162.5248562499952
 20
155.8569359672759
 30
0.0
 10
162.5246676170993
 20
155.7577157627092
 30
0.0
 10
162.524444704032
 20
155.656090197332
 30
0.0
 10
162.5241875185968
 20
155.5522155342003
 30
0.0
 10
162.5238960685524
 20
155.4462477421282
 30
0.0
 10
162.5235703590818
 20
155.3383416912253
 30
0.0
 10
162.5232104108761
 20
155.2286671401636
 30
0.0
 10
162.5228162385526
 20
155.1173911749864
 30
0.0
 10
162.5223878574591
 20
155.0046804353308
 30
0.0
 10
162.5219252797329
 20
154.8907014781782
 30
0.0
 10
162.5214285369606
 20
154.7756217636038
 30
0.0
 10
162.5208976381034
 20
154.659615220889
 30
0.0
 10
162.5203328185246
 20
154.5428751242582
 30
0.0
 10
162.5197332349443
 20
154.4256039365762
 30
0.0
 10
162.5191020594372
 20
154.3080066362305
 30
0.0
 10
162.5186522542172
 20
154.2295015417773
 30
0.0
 10
162.5184274093947
 20
154.1902590802871
 30
0.0
  0
LINE
  5
113
330
1F
100
AcDbEntity
  8
0
  6
Continuous
 62
     7
370
    15
100
AcDbLine
 10
162.5184279606
 20
154.1902590857
 30
0.0
 11
156.0009755542
 21
154.3040216425
 31
0.0
  0
LINE
  5
114
330
1F
100
AcDbEntity
  8
0
  6
Continuous
 62
     7
370
    15
100
AcDbLine
 10
156.0009755542
 20
154.3040216425
 30
0.0
 11
156.0009755542
 21
122.8031078134
 31
0.0
  0
LINE
  5
115
330
1F
100
AcDbEntity
  8
0
  6
Continuous
 62
     7
370
    15
100
AcDbLine
 10
162.5184279606
 20
154.1902590857
 30
0.0
 11
162.5184279606
 21
122.9168703705
 31
0.0
  0
SPLINE
  5
116
330
1F
100
AcDbEntity
  8
0
  6
Continuous
 62
     7
370
    15
100
AcDbSpline
210
0.0
220
0.0
230
1.0
 70
     8
 71
     3
 72
    14
 73
    10
 74
     0
 42
0.000000001
 43
0.00000001
 40
0.0
 40
0.0
 40
0.0
 40
0.0
 40
0.25
 40
0.25
 40
0.5
 40
0.5
 40
0.75
 40
0.75
 40
1.0
 40
1.0
 40
1.0
 40
1.0
 10
163.4948903999241
 20
154.1897195289449
 30
0.0
 10
163.4816450169315
 20
154.1897644920116
 30
0.0
 10
163.4466154551091
 20
154.1898094550782
 30
0.0
 10
163.3374592662612
 20
154.1898993812116
 30
0.0
 10
163.2633632582709
 20
154.1899443442782
 30
0.0
 10
163.0855932817241
 20
154.1900342704116
 30
0.0
 10
162.9819691788254
 20
154.1900792334783
 30
0.0
 10
162.7584696768456
 20
154.1901691596116
 30
0.0
 10
162.6386569708575
 20
154.1902141226782
 30
0.0
 10
162.5184279605947
 20
154.1902590857449
 30
0.0
  0
SPLINE
  5
117
330
1F
100
AcDbEntity
  8
0
  6
Continuous
 62
     7
370
    15
100
AcDbSpline
210
0.0
220
0.0
230
1.0
 70
     8
 71
     3
 72
    14
 73
    10
 74
     0
 42
0.000000001
 43
0.00000001
 40
0.0
 40
0.0
 40
0.0
 40
0.0
 40
0.25
 40
0.25
 40
0.5
 40
0.5
 40
0.75
 40
0.75
 40
1.0
 40
1.0
 40
1.0
 40
1.0
 10
162.5184279605947
 20
157.1898021730362
 30
0.0
 10
162.6478534983114
 20
157.1875430418711
 30
0.0
 10
162.7767862500205
 20
157.1598434063303
 30
0.0
 10
163.0146525710586
 20
157.0576479697233
 30
0.0
 10
163.1234966263613
 20
156.9831906269178
 30
0.0
 10
163.304955380253
 20
156.7985368574368
 30
0.0
 10
163.3775017921524
 20
156.6884099198016
 30
0.0
 10
163.4755303241852
 20
156.44879627066
 30
0.0
 10
163.5009755541506
 20
156.3193997307356
 30
0.0
 10
163.5009755541506
 20
156.1899544778799
 30
0.0
  0
SPLINE
  5
118
330
1F
100
AcDbEntity
  8
0
  6
Continuous
 62
     7
370
    15
100
AcDbSpline
210
0.0
220
0.0
230
1.0
 70
     8
 71
     3
 72
     8
 73
     4
 74
     0
 42
0.000000001
 43
0.00000001
 40
0.0
 40
0.0
 40
0.0
 40
0.0
 40
1.0
 40
1.0
 40
1.0
 40
1.0
 10
163.5009755538645
 20
156.1784175608199
 30
0.0
 10
163.5009755537791
 20
156.1860889323834
 30
0.0
 10
163.5009755536746
 20
156.1899376483652
 30
0.0
 10
163.500975553551
 20
156.1899544778799
 30
0.0
  0
SPLINE
  5
119
330
1F
100
AcDbEntity
  8
0
  6
Continuous
 62
     7
370
    15
100
AcDbSpline
210
0.0
220
0.0
230
1.0
 70
     8
 71
     3
 72
    13
 73
     9
 74
     0
 42
0.000000001
 43
0.00000001
 40
0.0
 40
0.0
 40
0.0
 40
0.0
 40
0.0402079707176813
 40
0.2624410471802652
 40
0.4846715568754934
 40
0.7068860434930606
 40
0.9291281234297676
 40
1.0
 40
1.0
 40
1.0
 40
1.0
 10
163.4948876785687
 20
154.1897195289676
 30
0.0
 10
163.4946362938896
 20
154.2276530194111
 30
0.0
 10
163.4929954834419
 20
154.4752483289357
 30
0.0
 10
163.4907962989834
 20
154.9360221321143
 30
0.0
 10
163.4915708405233
 20
155.4986512573012
 30
0.0
 10
163.4954808910352
 20
155.9180930989356
 30
0.0
 10
163.499572804214
 20
156.1277362114003
 30
0.0
 10
163.5001846878841
 20
156.1486454124119
 30
0.0
 10
163.5003326349298
 20
156.1537010376401
 30
0.0
  0
SPLINE
  5
11A
330
1F
100
AcDbEntity
  8
0
  6
Continuous
 62
     7
370
    15
100
AcDbSpline
210
0.0
220
0.0
230
1.0
 70
    24
 71
     3
 72
     8
 73
     4
 74
     0
 42
0.000000001
 43
0.00000001
 40
0.0
 40
0.0
 40
0.0
 40
0.0
 40
1.0
 40
1.0
 40
1.0
 40
1.0
 10
163.5009755538615
 20
120.9171749780299
 30
0.0
 10
163.5009755537825
 20
120.9171891059729
 30
0.0
 10
163.5009755536873
 20
120.9210411126876
 30
0.0
 10
163.500975553576
 20
120.9287105345599
 30
0.0
  0
SPLINE
  5
11B
330
1F
100
AcDbEntity
  8
0
  6
Continuous
 62
     7
370
    15
100
AcDbSpline
210
0.0
220
0.0
230
1.0
 70
     8
 71
     3
 72
    11
 73
     7
 74
     0
 42
0.000000001
 43
0.00000001
 40
0.0
 40
0.0
 40
0.0
 40
0.0
 40
0.1530736540711976
 40
0.4353824360474648
 40
0.7176912180237325
 40
1.0
 40
1.0
 40
1.0
 40
1.0
 10
163.4668895352191
 20
120.743837463866
 30
0.0
 10
163.4573765907514
 20
120.6740900958738
 30
0.0
 10
163.4303192309367
 20
120.4757099162891
 30
0.0
 10
163.2278971707264
 20
120.2011185850827
 30
0.0
 10
162.906997832979
 20
119.9679641848354
 30
0.0
 10
162.6479512513895
 20
119.9342062501942
 30
0.0
 10
162.5184279605947
 20
119.9173272828736
 30
0.0
  0
SPLINE
  5
11C
330
1F
100
AcDbEntity
  8
0
  6
Continuous
 62
     7
370
    15
100
AcDbSpline
210
0.0
220
0.0
230
1.0
 70
     8
 71
     3
 72
    14
 73
    10
 74
     0
 42
0.000000001
 43
0.00000001
 40
0.0
 40
0.0
 40
0.0
 40
0.0
 40
0.25
 40
0.25
 40
0.5
 40
0.5
 40
0.75
 40
0.75
 40
1.0
 40
1.0
 40
1.0
 40
1.0
 10
162.5184279605981
 20
122.9168703704749
 30
0.0
 10
162.6386564615283
 20
122.9169065928716
 30
0.0
 10
162.7584686621717
 20
122.9169428152682
 30
0.0
 10
162.9819673530363
 20
122.9170152600616
 30
0.0
 10
163.085591151451
 20
122.9170514824582
 30
0.0
 10
163.2633608699645
 20
122.9171239272516
 30
0.0
 10
163.3374569253203
 20
122.9171601496483
 30
0.0
 10
163.446613634217
 20
122.9172325944416
 30
0.0
 10
163.4816436690943
 20
122.9172688168382
 30
0.0
 10
163.4948897265604
 20
122.9173050392349
 30
0.0
  0
SPLINE
  5
11D
330
1F
100
AcDbEntity
  8
0
  6
Continuous
 62
     7
370
    15
100
AcDbSpline
210
0.0
220
0.0
230
1.0
 70
     8
 71
     3
 72
    22
 73
    18
 74
     0
 42
0.000000001
 43
0.00000001
 40
0.0
 40
0.0
 40
0.0
 40
0.0
 40
0.125
 40
0.125
 40
0.25
 40
0.25
 40
0.375
 40
0.375
 40
0.5
 40
0.5
 40
0.625
 40
0.625
 40
0.75
 40
0.75
 40
0.875
 40
0.875
 40
1.0
 40
1.0
 40
1.0
 40
1.0
 10
163.5009755537429
 20
120.9287159104055
 30
0.0
 10
163.5009751104643
 20
120.9270707876016
 30
0.0
 10
163.5006179336067
 20
120.9387363171933
 30
0.0
 10
163.4994715995192
 20
120.9876213176273
 30
0.0
 10
163.4986712901129
 20
121.0255367121412
 30
0.0
 10
163.4969382129174
 20
121.1250341330725
 30
0.0
 10
163.4960139432613
 20
121.1863104795118
 30
0.0
 10
163.4942701629822
 20
121.3320234542573
 30
0.0
 10
163.4934527233272
 20
121.4165075083129
 30
0.0
 10
163.4921804964843
 20
121.6013100965204
 30
0.0
 10
163.4917034541882
 20
121.7029175904582
 30
0.0
 10
163.4912001453506
 20
121.9223532061935
 30
0.0
 10
163.4911831586187
 20
122.0373159452395
 30
0.0
 10
163.4915845381526
 20
122.2774027440097
 30
0.0
 10
163.492019602225
 20
122.4037549393276
 30
0.0
 10
163.4932352697156
 20
122.6584540396303
 30
0.0
 10
163.4940147549382
 20
122.7879955837329
 30
0.0
 10
163.494885738516
 20
122.9173050659713
 30
0.0
  0
SPLINE
  5
11E
330
1F
100
AcDbEntity
  8
0
  6
Continuous
 62
     7
370
    15
100
AcDbSpline
210
0.0
220
0.0
230
1.0
 70
     8
 71
     3
 72
     8
 73
     4
 74
     0
 42
0.000000001
 43
0.00000001
 40
0.0
 40
0.0
 40
0.0
 40
0.0
 40
1.0
 40
1.0
 40
1.0
 40
1.0
 10
163.5009755541506
 20
153.6608119381006
 30
0.0
 10
163.5009755541507
 20
153.8317905950385
 30
0.0
 10
163.4961150707568
 20
154.0080622548466
 30
0.0
 10
163.4948904343776
 20
154.1897193766484
 30
0.0
  0
LINE
  5
11F
330
1F
100
AcDbEntity
  8
0
  6
Continuous
 62
     7
370
    15
100
AcDbLine
 10
163.5009755542
 20
153.6608119381
 30
0.0
 11
163.5009755542
 21
123.4463175178
 31
0.0
  0
SPLINE
  5
120
330
1F
100
AcDbEntity
  8
0
  6
Continuous
 62
     7
370
    15
100
AcDbSpline
210
0.0
220
0.0
230
1.0
 70
     8
 71
     3
 72
     8
 73
     4
 74
     0
 42
0.000000001
 43
0.00000001
 40
0.0
 40
0.0
 40
0.0
 40
0.0
 40
1.0
 40
1.0
 40
1.0
 40
1.0
 10
163.4948897265614
 20
122.9173050392081
 30
0.0
 10
163.4961135457469
 20
123.0989985479016
 30
0.0
 10
163.5009755541507
 20
123.2753052087724
 30
0.0
 10
163.5009755541506
 20
123.4463175178092
 30
0.0
  0
LINE
  5
121
330
1F
100
AcDbEntity
  8
0
  6
Continuous
 62
     7
370
    15
100
AcDbLine
 10
163.5009755542
 20
123.4463175178
 30
0.0
 11
163.5009755542
 21
120.9287159104
 31
0.0
  0
LINE
  5
122
330
1F
100
AcDbEntity
  8
0
  6
Continuous
 62
     7
370
    15
100
AcDbLine
 10
163.500975554
 20
156.1784137598
 30
0.0
 11
163.500975554
 21
153.6608119381
 31
0.0
  0
LINE
  5
123
330
1F
100
AcDbEntity
  8
0
  6
Continuous
 62
     7
370
    15
100
AcDbLine
 10
184.977619675
 20
131.7406245653
 30
0.0
 11
184.8850469043
 21
131.7406245653
 31
0.0
  0
ARC
  5
124
330
1F
100
AcDbEntity
  8
0
  6
Continuous
 62
     7
370
    15
100
AcDbCircle
 10
185.2600469043
 20
131.7406245653
 30
0.0
 40
0.2824272276688191
100
AcDbArc
 50
180.0
 51
260.4059317734
  0
LINE
  5
125
330
1F
100
AcDbEntity
  8
0
  6
Continuous
 62
     7
370
    15
100
AcDbLine
 10
185.2129756994
 20
131.4621475617
 30
0.0
 11
185.1975469043
 21
131.3708695788
 31
0.0
  0
ARC
  5
126
330
1F
100
AcDbEntity
  8
0
  6
Continuous
 62
     7
370
    15
100
AcDbCircle
 10
185.2600469043
 20
131.7406245653
 30
0.0
 40
0.3750000000001084
100
AcDbArc
 50
180.0
 51
260.4059317732
  0
ARC
  5
127
330
1F
100
AcDbEntity
  8
0
  6
Continuous
 62
     7
370
    15
100
AcDbCircle
 10
184.5100469043
 20
127.303564728
 30
0.0
 40
4.125000000000199
100
AcDbArc
 50
0.0
 51
80.4059317731
  0
ARC
  5
128
330
1F
100
AcDbEntity
  8
0
  6
Continuous
 62
     7
370
    15
100
AcDbCircle
 10
184.5100469043
 20
127.303564728
 30
0.0
 40
4.217572770697506
100
AcDbArc
 50
0.0
 51
80.4059317731
  0
LINE
  5
129
330
1F
100
AcDbEntity
  8
0
  6
Continuous
 62
     7
370
    15
100
AcDbLine
 10
188.6350469043
 20
127.303564728
 30
0.0
 11
188.727619675
 21
127.303564728
 31
0.0
  0
LINE
  5
12A
330
1F
100
AcDbEntity
  8
0
  6
Continuous
 62
     7
370
    15
100
AcDbLine
 10
185.1975469043
 20
145.7362598771
 30
0.0
 11
185.2129756997
 21
145.6449818926
 31
0.0
  0
ARC
  5
12B
330
1F
100
AcDbEntity
  8
0
  6
Continuous
 62
     7
370
    15
100
AcDbCircle
 10
185.2600469043
 20
145.3665048906
 30
0.0
 40
0.2824272276688247
100
AcDbArc
 50
99.5940682268
 51
180.0
  0
LINE
  5
12C
330
1F
100
AcDbEntity
  8
0
  6
Continuous
 62
     7
370
    15
100
AcDbLine
 10
184.8850469043
 20
145.3665048906
 30
0.0
 11
184.977619675
 21
145.3665048906
 31
0.0
  0
ARC
  5
12D
330
1F
100
AcDbEntity
  8
0
  6
Continuous
 62
     7
370
    15
100
AcDbCircle
 10
185.2600469043
 20
145.3665048906
 30
0.0
 40
0.3750000000001235
100
AcDbArc
 50
99.5940682268
 51
180.0
  0
LINE
  5
12E
330
1F
100
AcDbEntity
  8
0
  6
Continuous
 62
     7
370
    15
100
AcDbLine
 10
184.977619675
 20
145.3665048906
 30
0.0
 11
184.977619675
 21
131.7406245653
 31
0.0
  0
LINE
  5
12F
330
1F
100
AcDbEntity
  8
0
  6
Continuous
 62
     7
370
    15
100
AcDbLine
 10
184.8850469043
 20
145.3665048906
 30
0.0
 11
184.8850469043
 21
131.7406245653
 31
0.0
  0
ARC
  5
130
330
1F
100
AcDbEntity
  8
0
  6
Continuous
 62
     7
370
    15
100
AcDbCircle
 10
184.5100469043
 20
149.803564728
 30
0.0
 40
4.125000000000184
100
AcDbArc
 50
279.5940682269
 51
0.0
  0
LINE
  5
131
330
1F
100
AcDbEntity
  8
0
  6
Continuous
 62
     7
370
    15
100
AcDbLine
 10
188.7276196766
 20
149.803564728
 30
0.0
 11
188.6350469043
 21
149.803564728
 31
0.0
  0
ARC
  5
132
330
1F
100
AcDbEntity
  8
0
  6
Continuous
 62
     7
370
    15
100
AcDbCircle
 10
184.5100469043
 20
149.803564728
 30
0.0
 40
4.217572772331772
100
AcDbArc
 50
279.5940682269
 51
0.0
  0
LINE
  5
133
330
1F
100
AcDbEntity
  8
0
  6
Continuous
 62
     7
370
    15
100
AcDbLine
 10
188.727619675
 20
127.303564728
 30
0.0
 11
188.727619675
 21
123.428564728
 31
0.0
  0
LINE
  5
134
330
1F
100
AcDbEntity
  8
0
  6
Continuous
 62
     7
370
    15
100
AcDbLine
 10
188.727619675
 20
123.428564728
 30
0.0
 11
188.6350469043
 21
123.428564728
 31
0.0
  0
LINE
  5
135
330
1F
100
AcDbEntity
  8
0
  6
Continuous
 62
     7
370
    15
100
AcDbLine
 10
188.6350469043
 20
127.303564728
 30
0.0
 11
188.6350469043
 21
123.428564728
 31
0.0
  0
ARC
  5
136
330
1F
100
AcDbEntity
  8
0
  6
Continuous
 62
     7
370
    15
100
AcDbCircle
 10
189.0100469043
 20
123.428564728
 30
0.0
 40
0.2824272284088067
100
AcDbArc
 50
180.0
 51
270.0
  0
LINE
  5
137
330
1F
100
AcDbEntity
  8
0
  6
Continuous
 62
     7
370
    15
100
AcDbLine
 10
189.0100469043
 20
123.053564728
 30
0.0
 11
189.0100469043
 21
123.1461374987
 31
0.0
  0
ARC
  5
138
330
1F
100
AcDbEntity
  8
0
  6
Continuous
 62
     7
370
    15
100
AcDbCircle
 10
189.0100469043
 20
123.428564728
 30
0.0
 40
0.3750000000000284
100
AcDbArc
 50
180.0
 51
270.0
  0
LINE
  5
139
330
1F
100
AcDbEntity
  8
0
  6
Continuous
 62
     7
370
    15
100
AcDbLine
 10
188.6350469043
 20
153.678564728
 30
0.0
 11
188.727619675
 21
153.678564728
 31
0.0
  0
LINE
  5
13A
330
1F
100
AcDbEntity
  8
0
  6
Continuous
 62
     7
370
    15
100
AcDbLine
 10
188.727619675
 20
153.678564728
 30
0.0
 11
188.727619675
 21
149.803564728
 31
0.0
  0
LINE
  5
13B
330
1F
100
AcDbEntity
  8
0
  6
Continuous
 62
     7
370
    15
100
AcDbLine
 10
188.6350469043
 20
153.678564728
 30
0.0
 11
188.6350469043
 21
149.803564728
 31
0.0
  0
LINE
  5
13C
330
1F
100
AcDbEntity
  8
0
  6
Continuous
 62
     7
370
    15
100
AcDbLine
 10
189.0100469043
 20
153.9609919564
 30
0.0
 11
189.0100469043
 21
154.053564728
 31
0.0
  0
ARC
  5
13D
330
1F
100
AcDbEntity
  8
0
  6
Continuous
 62
     7
370
    15
100
AcDbCircle
 10
189.0100469043
 20
153.678564728
 30
0.0
 40
0.2824272284079257
100
AcDbArc
 50
90.0
 51
180.0
  0
ARC
  5
13E
330
1F
100
AcDbEntity
  8
0
  6
Continuous
 62
     7
370
    15
100
AcDbCircle
 10
189.0100469043
 20
153.678564728
 30
0.0
 40
0.3750000000000284
100
AcDbArc
 50
90.0
 51
180.0
  0
LINE
  5
13F
330
1F
100
AcDbEntity
  8
0
  6
Continuous
 62
     7
370
    15
100
AcDbLine
 10
189.0100469043
 20
123.1461374987
 30
0.0
 11
269.2600469043
 21
123.1461374987
 31
0.0
  0
LINE
  5
140
330
1F
100
AcDbEntity
  8
0
  6
Continuous
 62
     7
370
    15
100
AcDbLine
 10
269.2600469043
 20
123.1461374987
 30
0.0
 11
269.2600469043
 21
123.053564728
 31
0.0
  0
LINE
  5
141
330
1F
100
AcDbEntity
  8
0
  6
Continuous
 62
     7
370
    15
100
AcDbLine
 10
189.0100469043
 20
123.053564728
 30
0.0
 11
269.2600469043
 21
123.053564728
 31
0.0
  0
LINE
  5
142
330
1F
100
AcDbEntity
  8
0
  6
Continuous
 62
     7
370
    15
100
AcDbLine
 10
269.2600469043
 20
154.053564728
 30
0.0
 11
269.2600469043
 21
153.9609919564
 31
0.0
  0
LINE
  5
143
330
1F
100
AcDbEntity
  8
0
  6
Continuous
 62
     7
370
    15
100
AcDbLine
 10
269.2600469043
 20
153.9609919564
 30
0.0
 11
189.0100469043
 21
153.9609919564
 31
0.0
  0
LINE
  5
144
330
1F
100
AcDbEntity
  8
0
  6
Continuous
 62
     7
370
    15
100
AcDbLine
 10
269.2600469043
 20
154.053564728
 30
0.0
 11
189.0100469043
 21
154.053564728
 31
0.0
  0
ARC
  5
145
330
1F
100
AcDbEntity
  8
0
  6
Continuous
 62
     7
370
    15
100
AcDbCircle
 10
273.7600469043
 20
149.803564728
 30
0.0
 40
4.125000000000301
100
AcDbArc
 50
180.0
 51
260.4059317731
  0
LINE
  5
146
330
1F
100
AcDbEntity
  8
0
  6
Continuous
 62
     7
370
    15
100
AcDbLine
 10
273.0571181092
 20
145.6449818942
 30
0.0
 11
273.0725469043
 21
145.7362598771
 31
0.0
  0
ARC
  5
147
330
1F
100
AcDbEntity
  8
0
  6
Continuous
 62
     7
370
    15
100
AcDbCircle
 10
273.7600469043
 20
149.803564728
 30
0.0
 40
4.217572770697529
100
AcDbArc
 50
180.0
 51
260.4059317731
  0
LINE
  5
148
330
1F
100
AcDbEntity
  8
0
  6
Continuous
 62
     7
370
    15
100
AcDbLine
 10
269.6350469043
 20
149.803564728
 30
0.0
 11
269.5424741336
 21
149.803564728
 31
0.0
  0
LINE
  5
149
330
1F
100
AcDbEntity
  8
0
  6
Continuous
 62
     7
370
    15
100
AcDbLine
 10
269.5424741336
 20
149.803564728
 30
0.0
 11
269.5424741336
 21
153.678564728
 31
0.0
  0
LINE
  5
14A
330
1F
100
AcDbEntity
  8
0
  6
Continuous
 62
     7
370
    15
100
AcDbLine
 10
269.5424741336
 20
153.678564728
 30
0.0
 11
269.6350469043
 21
153.678564728
 31
0.0
  0
LINE
  5
14B
330
1F
100
AcDbEntity
  8
0
  6
Continuous
 62
     7
370
    15
100
AcDbLine
 10
269.6350469043
 20
149.803564728
 30
0.0
 11
269.6350469043
 21
153.678564728
 31
0.0
  0
ARC
  5
14C
330
1F
100
AcDbEntity
  8
0
  6
Continuous
 62
     7
370
    15
100
AcDbCircle
 10
269.2600469043
 20
123.428564728
 30
0.0
 40
0.2824272284082952
100
AcDbArc
 50
270.0
 51
0.0
  0
LINE
  5
14D
330
1F
100
AcDbEntity
  8
0
  6
Continuous
 62
     7
370
    15
100
AcDbLine
 10
269.6350469043
 20
123.428564728
 30
0.0
 11
269.5424741336
 21
123.428564728
 31
0.0
  0
ARC
  5
14E
330
1F
100
AcDbEntity
  8
0
  6
Continuous
 62
     7
370
    15
100
AcDbCircle
 10
269.2600469043
 20
123.428564728
 30
0.0
 40
0.375
100
AcDbArc
 50
270.0
 51
0.0
  0
ARC
  5
14F
330
1F
100
AcDbEntity
  8
0
  6
Continuous
 62
     7
370
    15
100
AcDbCircle
 10
269.2600469043
 20
153.678564728
 30
0.0
 40
0.2824272284082952
100
AcDbArc
 50
0.0
 51
90.0
  0
ARC
  5
150
330
1F
100
AcDbEntity
  8
0
  6
Continuous
 62
     7
370
    15
100
AcDbCircle
 10
269.2600469043
 20
153.678564728
 30
0.0
 40
0.3749999999999716
100
AcDbArc
 50
0.0
 51
90.0
  0
ARC
  5
151
330
1F
100
AcDbEntity
  8
0
  6
Continuous
 62
     7
370
    15
100
AcDbCircle
 10
273.7600469043
 20
127.303564728
 30
0.0
 40
4.1250000000003
100
AcDbArc
 50
99.5940682269
 51
180.0
  0
LINE
  5
152
330
1F
100
AcDbEntity
  8
0
  6
Continuous
 62
     7
370
    15
100
AcDbLine
 10
269.542474132
 20
127.303564728
 30
0.0
 11
269.6350469043
 21
127.303564728
 31
0.0
  0
ARC
  5
153
330
1F
100
AcDbEntity
  8
0
  6
Continuous
 62
     7
370
    15
100
AcDbCircle
 10
273.7600469043
 20
127.303564728
 30
0.0
 40
4.217572772331835
100
AcDbArc
 50
99.5940682269
 51
180.0
  0
LINE
  5
154
330
1F
100
AcDbEntity
  8
0
  6
Continuous
 62
     7
370
    15
100
AcDbLine
 10
273.0725469043
 20
131.3708695788
 30
0.0
 11
273.0571181089
 21
131.4621475633
 31
0.0
  0
LINE
  5
155
330
1F
100
AcDbEntity
  8
0
  6
Continuous
 62
     7
370
    15
100
AcDbLine
 10
269.5424741336
 20
123.428564728
 30
0.0
 11
269.5424741336
 21
127.303564728
 31
0.0
  0
LINE
  5
156
330
1F
100
AcDbEntity
  8
0
  6
Continuous
 62
     7
370
    15
100
AcDbLine
 10
269.6350469043
 20
123.428564728
 30
0.0
 11
269.6350469043
 21
127.303564728
 31
0.0
  0
LINE
  5
157
330
1F
100
AcDbEntity
  8
0
  6
Continuous
 62
     7
370
    15
100
AcDbLine
 10
273.2924741336
 20
145.3665048906
 30
0.0
 11
273.3850469043
 21
145.3665048906
 31
0.0
  0
ARC
  5
158
330
1F
100
AcDbEntity
  8
0
  6
Continuous
 62
     7
370
    15
100
AcDbCircle
 10
273.0100469043
 20
145.3665048906
 30
0.0
 40
0.2824272276685839
100
AcDbArc
 50
0.0
 51
80.4059317734
  0
ARC
  5
159
330
1F
100
AcDbEntity
  8
0
  6
Continuous
 62
     7
370
    15
100
AcDbCircle
 10
273.0100469043
 20
145.3665048906
 30
0.0
 40
0.3750000000000149
100
AcDbArc
 50
0.0
 51
80.4059317732
  0
ARC
  5
15A
330
1F
100
AcDbEntity
  8
0
  6
Continuous
 62
     7
370
    15
100
AcDbCircle
 10
273.0100469043
 20
131.7406245653
 30
0.0
 40
0.2824272276685776
100
AcDbArc
 50
279.5940682269
 51
0.0
  0
LINE
  5
15B
330
1F
100
AcDbEntity
  8
0
  6
Continuous
 62
     7
370
    15
100
AcDbLine
 10
273.3850469043
 20
131.7406245653
 30
0.0
 11
273.2924741336
 21
131.7406245653
 31
0.0
  0
ARC
  5
15C
330
1F
100
AcDbEntity
  8
0
  6
Continuous
 62
     7
370
    15
100
AcDbCircle
 10
273.0100469043
 20
131.7406245653
 30
0.0
 40
0.3750000000000161
100
AcDbArc
 50
279.5940682269
 51
0.0
  0
LINE
  5
15D
330
1F
100
AcDbEntity
  8
0
  6
Continuous
 62
     7
370
    15
100
AcDbLine
 10
273.2924741336
 20
131.7406245653
 30
0.0
 11
273.2924741336
 21
145.3665048906
 31
0.0
  0
LINE
  5
15E
330
1F
100
AcDbEntity
  8
0
  6
Continuous
 62
     7
370
    15
100
AcDbLine
 10
273.3850469043
 20
131.7406245653
 30
0.0
 11
273.3850469043
 21
145.3665048906
 31
0.0
  0
LINE
  5
15F
330
1F
100
AcDbEntity
  8
0
  6
Continuous
 62
     7
370
    15
100
AcDbLine
 10
272.1350469043
 20
149.803564728
 30
0.0
 11
272.1350469043
 21
153.678564728
 31
0.0
  0
ARC
  5
160
330
1F
100
AcDbEntity
  8
0
  6
Continuous
 62
     7
370
    15
100
AcDbCircle
 10
269.2600469043
 20
153.678564728
 30
0.0
 40
2.874999999999972
100
AcDbArc
 50
0.0
 51
90.0
  0
LINE
  5
161
330
1F
100
AcDbEntity
  8
0
  6
Continuous
 62
     7
370
    15
100
AcDbLine
 10
269.2600469043
 20
156.553564728
 30
0.0
 11
189.0100469043
 21
156.553564728
 31
0.0
  0
ARC
  5
162
330
1F
100
AcDbEntity
  8
0
  6
Continuous
 62
     7
370
    15
100
AcDbCircle
 10
189.0100469043
 20
153.678564728
 30
0.0
 40
2.875000000000028
100
AcDbArc
 50
90.0
 51
180.0
  0
LINE
  5
163
330
1F
100
AcDbEntity
  8
0
  6
Continuous
 62
     7
370
    15
100
AcDbLine
 10
186.1350469043
 20
153.678564728
 30
0.0
 11
186.1350469043
 21
149.803564728
 31
0.0
  0
ARC
  5
164
330
1F
100
AcDbEntity
  8
0
  6
Continuous
 62
     7
370
    15
100
AcDbCircle
 10
184.5100469043
 20
149.803564728
 30
0.0
 40
1.625000000000151
100
AcDbArc
 50
279.5940682269
 51
0.0
  0
ARC
  5
165
330
1F
100
AcDbEntity
  8
0
  6
Continuous
 62
     7
370
    15
100
AcDbCircle
 10
185.2600469043
 20
145.3665048906
 30
0.0
 40
2.875000000000155
100
AcDbArc
 50
99.5940682268
 51
180.0
  0
LINE
  5
166
330
1F
100
AcDbEntity
  8
0
  6
Continuous
 62
     7
370
    15
100
AcDbLine
 10
182.3850469043
 20
145.3665048906
 30
0.0
 11
182.3850469043
 21
131.7406245653
 31
0.0
  0
ARC
  5
167
330
1F
100
AcDbEntity
  8
0
  6
Continuous
 62
     7
370
    15
100
AcDbCircle
 10
185.2600469043
 20
131.7406245653
 30
0.0
 40
2.875000000000127
100
AcDbArc
 50
180.0
 51
260.4059317732
  0
ARC
  5
168
330
1F
100
AcDbEntity
  8
0
  6
Continuous
 62
     7
370
    15
100
AcDbCircle
 10
184.5100469043
 20
127.303564728
 30
0.0
 40
1.625000000000179
100
AcDbArc
 50
0.0
 51
80.4059317731
  0
LINE
  5
169
330
1F
100
AcDbEntity
  8
0
  6
Continuous
 62
     7
370
    15
100
AcDbLine
 10
186.1350469043
 20
127.303564728
 30
0.0
 11
186.1350469043
 21
123.428564728
 31
0.0
  0
ARC
  5
16A
330
1F
100
AcDbEntity
  8
0
  6
Continuous
 62
     7
370
    15
100
AcDbCircle
 10
189.0100469043
 20
123.428564728
 30
0.0
 40
2.875000000000028
100
AcDbArc
 50
180.0
 51
270.0
  0
LINE
  5
16B
330
1F
100
AcDbEntity
  8
0
  6
Continuous
 62
     7
370
    15
100
AcDbLine
 10
189.0100469043
 20
120.553564728
 30
0.0
 11
269.2600469043
 21
120.553564728
 31
0.0
  0
ARC
  5
16C
330
1F
100
AcDbEntity
  8
0
  6
Continuous
 62
     7
370
    15
100
AcDbCircle
 10
269.2600469043
 20
123.428564728
 30
0.0
 40
2.875
100
AcDbArc
 50
270.0
 51
0.0
  0
LINE
  5
16D
330
1F
100
AcDbEntity
  8
0
  6
Continuous
 62
     7
370
    15
100
AcDbLine
 10
272.1350469043
 20
123.428564728
 30
0.0
 11
272.1350469043
 21
127.303564728
 31
0.0
  0
ARC
  5
16E
330
1F
100
AcDbEntity
  8
0
  6
Continuous
 62
     7
370
    15
100
AcDbCircle
 10
273.7600469043
 20
127.303564728
 30
0.0
 40
1.625000000000184
100
AcDbArc
 50
99.5940682269
 51
180.0
  0
ARC
  5
16F
330
1F
100
AcDbEntity
  8
0
  6
Continuous
 62
     7
370
    15
100
AcDbCircle
 10
273.0100469043
 20
131.7406245653
 30
0.0
 40
2.875000000000132
100
AcDbArc
 50
279.5940682268
 51
0.0
  0
LINE
  5
170
330
1F
100
AcDbEntity
  8
0
  6
Continuous
 62
     7
370
    15
100
AcDbLine
 10
275.8850469043
 20
131.7406245653
 30
0.0
 11
275.8850469043
 21
145.3665048906
 31
0.0
  0
ARC
  5
171
330
1F
100
AcDbEntity
  8
0
  6
Continuous
 62
     7
370
    15
100
AcDbCircle
 10
273.0100469043
 20
145.3665048906
 30
0.0
 40
2.87500000000016
100
AcDbArc
 50
0.0
 51
80.4059317732
  0
ARC
  5
172
330
1F
100
AcDbEntity
  8
0
  6
Continuous
 62
     7
370
    15
100
AcDbCircle
 10
273.7600469043
 20
149.803564728
 30
0.0
 40
1.625000000000156
100
AcDbArc
 50
180.0
 51
260.4059317731
  0
CIRCLE
  5
173
330
1F
100
AcDbEntity
  8
0
  6
Continuous
 62
     7
370
    15
100
AcDbCircle
 10
273.7600469043
 20
122.803564728
 30
0.0
 40
1.149999999999991
  0
CIRCLE
  5
174
330
1F
100
AcDbEntity
  8
0
  6
Continuous
 62
     7
370
    15
100
AcDbCircle
 10
184.5100469043
 20
122.803564728
 30
0.0
 40
1.149999999999991
  0
CIRCLE
  5
175
330
1F
100
AcDbEntity
  8
0
  6
Continuous
 62
     7
370
    15
100
AcDbCircle
 10
184.5100469043
 20
154.303564728
 30
0.0
 40
1.150000000000006
  0
CIRCLE
  5
176
330
1F
100
AcDbEntity
  8
0
  6
Continuous
 62
     7
370
    15
100
AcDbCircle
 10
273.7600469043
 20
154.303564728
 30
0.0
 40
1.150000000000006
  0
LINE
  5
177
330
1F
100
AcDbEntity
  8
0
  6
Continuous
 62
     7
370
    15
100
AcDbLine
 10
276.6350469043
 20
154.3040216425
 30
0.0
 11
276.6350469043
 21
122.8031078134
 31
0.0
  0
ELLIPSE
  5
178
330
1F
100
AcDbEntity
  8
0
  6
Continuous
 62
     7
370
    15
100
AcDbEllipse
 10
273.6345899202
 20
154.3031077438
 30
0.0
 11
2.121966567508707
 21
2.121966567508736
 31
0.0
210
0.0
220
0.0
230
1.0
 40
0.9996954599
 41
5.497939437029653
 42
7.06843117732951
  0
ELLIPSE
  5
179
330
1F
100
AcDbEntity
  8
0
  6
Continuous
 62
     7
370
    15
100
AcDbEllipse
 10
273.6345899202
 20
122.8040217121
 30
0.0
 11
2.121966567508707
 21
-2.121966567508736
 31
0.0
210
0.0
220
0.0
230
1.0
 40
0.9996954599
 41
5.497939437029663
 42
7.068431177329527
  0
LINE
  5
17A
330
1F
100
AcDbEntity
  8
0
  6
Continuous
 62
     7
370
    15
100
AcDbLine
 10
273.6355038188
 20
119.803564728
 30
0.0
 11
184.6345899898
 21
119.803564728
 31
0.0
  0
LINE
  5
17B
330
1F
100
AcDbEntity
  8
0
  6
Continuous
 62
     7
370
    15
100
AcDbLine
 10
184.6345899898
 20
157.303564728
 30
0.0
 11
273.6355038188
 21
157.303564728
 31
0.0
  0
ELLIPSE
  5
17C
330
1F
100
AcDbEntity
  8
0
  6
Continuous
 62
     7
370
    15
100
AcDbEllipse
 10
184.6355038884
 20
122.8040217121
 30
0.0
 11
-2.121966567508764
 21
-2.121966567508736
 31
0.0
210
0.0
220
0.0
230
1.0
 40
0.9996954599
 41
5.497939437029659
 42
7.068431177329516
  0
LINE
  5
17D
330
1F
100
AcDbEntity
  8
0
  6
Continuous
 62
     7
370
    15
100
AcDbLine
 10
181.6350469043
 20
122.8031078134
 30
0.0
 11
181.6350469043
 21
154.3040216425
 31
0.0
  0
ELLIPSE
  5
17E
330
1F
100
AcDbEntity
  8
0
  6
Continuous
 62
     7
370
    15
100
AcDbEllipse
 10
184.6355038884
 20
154.3031077438
 30
0.0
 11
-2.121966567508764
 21
2.121966567508736
 31
0.0
210
0.0
220
0.0
230
1.0
 40
0.9996954599
 41
5.497939437029649
 42
7.068431177329514
  0
ARC
  5
17F
330
1F
100
AcDbEntity
  8
0
  6
Continuous
 62
     7
370
    15
100
AcDbCircle
 10
269.2600469043
 20
153.678564728
 30
0.0
 40
1.125
100
AcDbArc
 50
0.0
 51
90.0
  0
LINE
  5
180
330
1F
100
AcDbEntity
  8
0
  6
Continuous
 62
     7
370
    15
100
AcDbLine
 10
270.3850469043
 20
149.803564728
 30
0.0
 11
270.3850469043
 21
153.678564728
 31
0.0
  0
ARC
  5
181
330
1F
100
AcDbEntity
  8
0
  6
Continuous
 62
     7
370
    15
100
AcDbCircle
 10
273.7600469043
 20
149.803564728
 30
0.0
 40
3.375000000000164
100
AcDbArc
 50
180.0
 51
260.4059317731
  0
ARC
  5
182
330
1F
100
AcDbEntity
  8
0
  6
Continuous
 62
     7
370
    15
100
AcDbCircle
 10
273.0100469043
 20
145.3665048906
 30
0.0
 40
1.125000000000152
100
AcDbArc
 50
0.0
 51
80.4059317731
  0
LINE
  5
183
330
1F
100
AcDbEntity
  8
0
  6
Continuous
 62
     7
370
    15
100
AcDbLine
 10
274.1350469043
 20
131.7406245653
 30
0.0
 11
274.1350469043
 21
145.3665048906
 31
0.0
  0
ARC
  5
184
330
1F
100
AcDbEntity
  8
0
  6
Continuous
 62
     7
370
    15
100
AcDbCircle
 10
273.0100469043
 20
131.7406245653
 30
0.0
 40
1.125000000000292
100
AcDbArc
 50
279.5940682269
 51
0.0
  0
ARC
  5
185
330
1F
100
AcDbEntity
  8
0
  6
Continuous
 62
     7
370
    15
100
AcDbCircle
 10
273.7600469043
 20
127.303564728
 30
0.0
 40
3.375000000000057
100
AcDbArc
 50
99.5940682269
 51
180.0
  0
LINE
  5
186
330
1F
100
AcDbEntity
  8
0
  6
Continuous
 62
     7
370
    15
100
AcDbLine
 10
270.3850469043
 20
123.428564728
 30
0.0
 11
270.3850469043
 21
127.303564728
 31
0.0
  0
ARC
  5
187
330
1F
100
AcDbEntity
  8
0
  6
Continuous
 62
     7
370
    15
100
AcDbCircle
 10
269.2600469043
 20
123.428564728
 30
0.0
 40
1.125
100
AcDbArc
 50
270.0
 51
0.0
  0
LINE
  5
188
330
1F
100
AcDbEntity
  8
0
  6
Continuous
 62
     7
370
    15
100
AcDbLine
 10
189.0100469043
 20
122.303564728
 30
0.0
 11
269.2600469043
 21
122.303564728
 31
0.0
  0
ARC
  5
189
330
1F
100
AcDbEntity
  8
0
  6
Continuous
 62
     7
370
    15
100
AcDbCircle
 10
189.0100469043
 20
123.428564728
 30
0.0
 40
1.125000000000028
100
AcDbArc
 50
180.0
 51
270.0
  0
LINE
  5
18A
330
1F
100
AcDbEntity
  8
0
  6
Continuous
 62
     7
370
    15
100
AcDbLine
 10
187.8850469043
 20
127.303564728
 30
0.0
 11
187.8850469043
 21
123.428564728
 31
0.0
  0
ARC
  5
18B
330
1F
100
AcDbEntity
  8
0
  6
Continuous
 62
     7
370
    15
100
AcDbCircle
 10
184.5100469043
 20
127.303564728
 30
0.0
 40
3.37500000000015
100
AcDbArc
 50
0.0
 51
80.4059317731
  0
ARC
  5
18C
330
1F
100
AcDbEntity
  8
0
  6
Continuous
 62
     7
370
    15
100
AcDbCircle
 10
185.2600469043
 20
131.7406245653
 30
0.0
 40
1.125000000000156
100
AcDbArc
 50
180.0
 51
260.4059317731
  0
LINE
  5
18D
330
1F
100
AcDbEntity
  8
0
  6
Continuous
 62
     7
370
    15
100
AcDbLine
 10
184.1350469043
 20
145.3665048906
 30
0.0
 11
184.1350469043
 21
131.7406245653
 31
0.0
  0
ARC
  5
18E
330
1F
100
AcDbEntity
  8
0
  6
Continuous
 62
     7
370
    15
100
AcDbCircle
 10
185.2600469043
 20
145.3665048906
 30
0.0
 40
1.125000000000301
100
AcDbArc
 50
99.5940682269
 51
180.0
  0
ARC
  5
18F
330
1F
100
AcDbEntity
  8
0
  6
Continuous
 62
     7
370
    15
100
AcDbCircle
 10
184.5100469043
 20
149.803564728
 30
0.0
 40
3.375000000000005
100
AcDbArc
 50
279.5940682269
 51
0.0
  0
LINE
  5
190
330
1F
100
AcDbEntity
  8
0
  6
Continuous
 62
     7
370
    15
100
AcDbLine
 10
187.8850469043
 20
153.678564728
 30
0.0
 11
187.8850469043
 21
149.803564728
 31
0.0
  0
ARC
  5
191
330
1F
100
AcDbEntity
  8
0
  6
Continuous
 62
     7
370
    15
100
AcDbCircle
 10
189.0100469043
 20
153.678564728
 30
0.0
 40
1.125000000000028
100
AcDbArc
 50
90.0
 51
180.0
  0
LINE
  5
192
330
1F
100
AcDbEntity
  8
0
  6
Continuous
 62
     7
370
    15
100
AcDbLine
 10
269.2600469043
 20
154.803564728
 30
0.0
 11
189.0100469043
 21
154.803564728
 31
0.0
  0
LINE
  5
193
330
1F
100
AcDbEntity
  8
0
  6
Continuous
 62
     7
370
    15
100
AcDbLine
 10
189.0100469043
 20
153.7610219114
 30
0.0
 11
189.0100469043
 21
153.9609919564
 31
0.0
  0
SPLINE
  5
194
330
1F
100
AcDbEntity
  8
0
  6
Continuous
 62
     7
370
    15
100
AcDbSpline
210
0.0
220
0.0
230
1.0
 70
     8
 71
     3
 72
    12
 73
     8
 74
     0
 42
0.000000001
 43
0.00000001
 40
0.0
 40
0.0
 40
0.0
 40
0.0
 40
0.1682237677890771
 40
0.3311333096357883
 40
0.5007629597434232
 40
0.7495866968778505
 40
1.0
 40
1.0
 40
1.0
 40
1.0
 10
189.0100469043152
 20
153.7610219113799
 30
0.0
 10
189.0027800826467
 20
153.7605388778711
 30
0.0
 10
188.9884759998097
 20
153.7595880699885
 30
0.0
 10
188.9682735206082
 20
153.7509174593998
 30
0.0
 10
188.9485367454584
 20
153.7354188952548
 30
0.0
 10
188.9308426872613
 20
153.711173810332
 30
0.0
 10
188.9286760046828
 20
153.6894574702874
 30
0.0
 10
188.9275892140452
 20
153.6785647279549
 30
0.0
  0
LINE
  5
195
330
1F
100
AcDbEntity
  8
0
  6
Continuous
 62
     7
370
    15
100
AcDbLine
 10
188.7276196748
 20
153.678564728
 30
0.0
 11
188.927589214
 21
153.678564728
 31
0.0
  0
LINE
  5
196
330
1F
100
AcDbEntity
  8
0
  6
Continuous
 62
     7
370
    15
100
AcDbLine
 10
269.2600469043
 20
123.3461070377
 30
0.0
 11
269.2600469043
 21
123.1461374995
 31
0.0
  0
SPLINE
  5
197
330
1F
100
AcDbEntity
  8
0
  6
Continuous
 62
     7
370
    15
100
AcDbSpline
210
0.0
220
0.0
230
1.0
 70
     8
 71
     3
 72
    12
 73
     8
 74
     0
 42
0.000000001
 43
0.00000001
 40
0.0
 40
0.0
 40
0.0
 40
0.0
 40
0.1682237677890771
 40
0.3311333096357883
 40
0.5007629597434232
 40
0.7495866968778505
 40
1.0
 40
1.0
 40
1.0
 40
1.0
 10
269.2600469043152
 20
123.3461075445299
 30
0.0
 10
269.2673137259837
 20
123.3465905780388
 30
0.0
 10
269.2816178088207
 20
123.3475413859213
 30
0.0
 10
269.3018202880222
 20
123.3562119965101
 30
0.0
 10
269.321557063172
 20
123.371710560655
 30
0.0
 10
269.3392511213692
 20
123.3959556455778
 30
0.0
 10
269.3414178039476
 20
123.4176719856225
 30
0.0
 10
269.3425045945852
 20
123.4285647279549
 30
0.0
  0
LINE
  5
198
330
1F
100
AcDbEntity
  8
0
  6
Continuous
 62
     7
370
    15
100
AcDbLine
 10
269.5424741339
 20
123.428564728
 30
0.0
 11
269.3425045946
 21
123.428564728
 31
0.0
  0
LINE
  5
199
330
1F
100
AcDbEntity
  8
0
  6
Continuous
 62
     7
370
    15
100
AcDbLine
 10
188.927589214
 20
123.428564728
 30
0.0
 11
188.7276196759
 21
123.428564728
 31
0.0
  0
SPLINE
  5
19A
330
1F
100
AcDbEntity
  8
0
  6
Continuous
 62
     7
370
    15
100
AcDbSpline
210
0.0
220
0.0
230
1.0
 70
     8
 71
     3
 72
    12
 73
     8
 74
     0
 42
0.000000001
 43
0.00000001
 40
0.0
 40
0.0
 40
0.0
 40
0.0
 40
0.1682237677880339
 40
0.3311333096347795
 40
0.5007629597432114
 40
0.7495866968766792
 40
1.0
 40
1.0
 40
1.0
 40
1.0
 10
188.9275897208902
 20
123.4285647279549
 30
0.0
 10
188.928072754399
 20
123.4212979062865
 30
0.0
 10
188.9290235622816
 20
123.4069938234495
 30
0.0
 10
188.9376941728704
 20
123.386791344248
 30
0.0
 10
188.9531927370152
 20
123.3670545690982
 30
0.0
 10
188.977437821938
 20
123.3493605109009
 30
0.0
 10
188.9991541619827
 20
123.3471938283225
 30
0.0
 10
189.0100469043152
 20
123.3461070376849
 30
0.0
  0
LINE
  5
19B
330
1F
100
AcDbEntity
  8
0
  6
Continuous
 62
     7
370
    15
100
AcDbLine
 10
189.0100469043
 20
123.1461374995
 30
0.0
 11
189.0100469043
 21
123.3461070377
 31
0.0
  0
LINE
  5
19C
330
1F
100
AcDbEntity
  8
0
  6
Continuous
 62
     7
370
    15
100
AcDbLine
 10
269.3425045947
 20
153.678564728
 30
0.0
 11
269.5424741327
 21
153.678564728
 31
0.0
  0
SPLINE
  5
19D
330
1F
100
AcDbEntity
  8
0
  6
Continuous
 62
     7
370
    15
100
AcDbSpline
210
0.0
220
0.0
230
1.0
 70
     8
 71
     3
 72
    12
 73
     8
 74
     0
 42
0.000000001
 43
0.00000001
 40
0.0
 40
0.0
 40
0.0
 40
0.0
 40
0.1682239741371792
 40
0.3311334845304426
 40
0.5007629656916097
 40
0.7495864833803655
 40
1.0
 40
1.0
 40
1.0
 40
1.0
 10
269.3425040877402
 20
153.6785647279549
 30
0.0
 10
269.3420210552043
 20
153.6858315443784
 30
0.0
 10
269.3410702499012
 20
153.7001356069004
 30
0.0
 10
269.3323996406893
 20
153.7203380424941
 30
0.0
 10
269.3169010722107
 20
153.7400747318295
 30
0.0
 10
269.2926559556699
 20
153.7577686497621
 30
0.0
 10
269.270939642556
 20
153.759935190799
 30
0.0
 10
269.2600469043152
 20
153.7610219113799
 30
0.0
  0
LINE
  5
19E
330
1F
100
AcDbEntity
  8
0
  6
Continuous
 62
     7
370
    15
100
AcDbLine
 10
269.2600469043
 20
153.9609919564
 30
0.0
 11
269.2600469043
 21
153.7610219114
 31
0.0
  0
LINE
  5
19F
330
1F
100
AcDbEntity
  8
0
  6
Continuous
 62
     7
370
    15
100
AcDbLine
 10
185.2129756994
 20
131.4621475617
 30
0.0
 11
185.2463038884
 21
131.6593197866
 31
0.0
  0
SPLINE
  5
1A0
330
1F
100
AcDbEntity
  8
0
  6
Continuous
 62
     7
370
    15
100
AcDbSpline
210
0.0
220
0.0
230
1.0
 70
     8
 71
     3
 72
    25
 73
    21
 74
     0
 42
0.000000001
 43
0.00000001
 40
0.0
 40
0.0
 40
0.0
 40
0.0
 40
0.0236750017326419
 40
0.0473142627639937
 40
0.070943860033286
 40
0.0945899024514616
 40
0.1182784445532496
 40
0.1801947789389563
 40
0.2421526404198655
 40
0.306096867470169
 40
0.3700822993938898
 40
0.5000047358759552
 40
0.6299271723580849
 40
0.6938714021098288
 40
0.7578568354361445
 40
0.8197731664570233
 40
0.8817310249464978
 40
0.9211647793276839
 40
0.9605474414432704
 40
1.0
 40
1.0
 40
1.0
 40
1.0
 10
185.2463038208502
 20
131.6593193870499
 30
0.0
 10
185.2944411434972
 20
131.6507101011549
 30
0.0
 10
185.3906431188211
 20
131.6335045262769
 30
0.0
 10
185.5337055198763
 20
131.6016613761284
 30
0.0
 10
185.6756382873973
 20
131.5654349198477
 30
0.0
 10
185.8163704703966
 20
131.5243888036879
 30
0.0
 10
186.0308105780848
 20
131.4540983512738
 30
0.0
 10
186.3146236929915
 20
131.3418690220032
 30
0.0
 10
186.6619462539443
 20
131.1680892756094
 30
0.0
 10
186.9963980579244
 20
130.9622153823395
 30
0.0
 10
187.4234249146668
 20
130.6430137999774
 30
0.0
 10
187.9028356445845
 20
130.1709946018729
 30
0.0
 10
188.2883029545424
 20
129.6196891909036
 30
0.0
 10
188.5318807739588
 20
129.1454427013474
 30
0.0
 10
188.6791176532153
 20
128.7814408166942
 30
0.0
 10
188.7925926038921
 20
128.4099298142361
 30
0.0
 10
188.8627920936908
 20
128.0795454245253
 30
0.0
 10
188.9027073849118
 20
127.7914525764982
 30
0.0
 10
188.9237111085441
 20
127.5478987656904
 30
0.0
 10
188.9262957483019
 20
127.3850575329868
 30
0.0
 10
188.9275892139702
 20
127.3035647279449
 30
0.0
  0
LINE
  5
1A1
330
1F
100
AcDbEntity
  8
0
  6
Continuous
 62
     7
370
    15
100
AcDbLine
 10
188.7276196759
 20
127.3035647269
 30
0.0
 11
188.927589214
 21
127.3035647269
 31
0.0
  0
LINE
  5
1A2
330
1F
100
AcDbEntity
  8
0
  6
Continuous
 62
     7
370
    15
100
AcDbLine
 10
273.0571181092
 20
145.6449818942
 30
0.0
 11
273.0237899202
 21
145.4478096693
 31
0.0
  0
SPLINE
  5
1A3
330
1F
100
AcDbEntity
  8
0
  6
Continuous
 62
     7
370
    15
100
AcDbSpline
210
0.0
220
0.0
230
1.0
 70
     8
 71
     3
 72
    25
 73
    21
 74
     0
 42
0.000000001
 43
0.00000001
 40
0.0
 40
0.0
 40
0.0
 40
0.0
 40
0.0236750017326419
 40
0.0473142627639937
 40
0.070943860033286
 40
0.0945899024514616
 40
0.1182784445532496
 40
0.1801947789389563
 40
0.2421526404198655
 40
0.306096867470169
 40
0.3700822993938898
 40
0.5000047358759552
 40
0.6299271723580849
 40
0.6938714021098288
 40
0.7578568354361445
 40
0.8197731664570233
 40
0.8817310249464978
 40
0.9211647793276839
 40
0.9605474414432704
 40
1.0
 40
1.0
 40
1.0
 40
1.0
 10
273.0237899877802
 20
145.4478100688599
 30
0.0
 10
272.9756526651331
 20
145.4564193547549
 30
0.0
 10
272.8794506898092
 20
145.4736249296329
 30
0.0
 10
272.7363882887541
 20
145.5054680797814
 30
0.0
 10
272.594455521233
 20
145.5416945360622
 30
0.0
 10
272.4537233382338
 20
145.5827406522219
 30
0.0
 10
272.2392832305456
 20
145.653031104636
 30
0.0
 10
271.9554701156389
 20
145.7652604339066
 30
0.0
 10
271.6081475546861
 20
145.9390401803004
 30
0.0
 10
271.2736957507059
 20
146.1449140735704
 30
0.0
 10
270.8466688939635
 20
146.4641156559324
 30
0.0
 10
270.3672581640458
 20
146.9361348540369
 30
0.0
 10
269.981790854088
 20
147.4874402650062
 30
0.0
 10
269.7382130346715
 20
147.9616867545624
 30
0.0
 10
269.590976155415
 20
148.3256886392156
 30
0.0
 10
269.4775012047382
 20
148.6971996416737
 30
0.0
 10
269.4073017149395
 20
149.0275840313845
 30
0.0
 10
269.3673864237186
 20
149.3156768794116
 30
0.0
 10
269.3463827000863
 20
149.5592306902194
 30
0.0
 10
269.3437980603285
 20
149.722071922923
 30
0.0
 10
269.3425045946602
 20
149.8035647279649
 30
0.0
  0
LINE
  5
1A4
330
1F
100
AcDbEntity
  8
0
  6
Continuous
 62
     7
370
    15
100
AcDbLine
 10
269.5424741327
 20
149.803564729
 30
0.0
 11
269.3425045947
 21
149.803564729
 31
0.0
  0
LINE
  5
1A5
330
1F
100
AcDbEntity
  8
0
  6
Continuous
 62
     7
370
    15
100
AcDbLine
 10
188.7276196766
 20
149.803564728
 30
0.0
 11
188.9275888147
 21
149.803564728
 31
0.0
  0
SPLINE
  5
1A6
330
1F
100
AcDbEntity
  8
0
  6
Continuous
 62
     7
370
    15
100
AcDbSpline
210
0.0
220
0.0
230
1.0
 70
     8
 71
     3
 72
    25
 73
    21
 74
     0
 42
0.000000001
 43
0.00000001
 40
0.0
 40
0.0
 40
0.0
 40
0.0
 40
0.0236750002498594
 40
0.0473142599888634
 40
0.0709438561514034
 40
0.0945898976429659
 40
0.1182784389922353
 40
0.1801947722210019
 40
0.2421526335758367
 40
0.3060968614284399
 40
0.3700822948931068
 40
0.5000047358753336
 40
0.6299271768575646
 40
0.6938714081485164
 40
0.75785684227875
 40
0.8197731731849921
 40
0.8817310305058893
 40
0.9211647835459288
 40
0.9605474438168354
 40
1.0
 40
1.0
 40
1.0
 40
1.0
 10
188.9275884153152
 20
149.8035647279549
 30
0.0
 10
188.9271224320653
 20
149.7546658064191
 30
0.0
 10
188.9261911690282
 20
149.6569417826682
 30
0.0
 10
188.9186371333354
 20
149.5105731590402
 30
0.0
 10
188.9065728274377
 20
149.3645878168984
 30
0.0
 10
188.889556175582
 20
149.2189829892365
 30
0.0
 10
188.8559888738615
 20
148.9958271061248
 30
0.0
 10
188.7926314506076
 20
148.6972786950504
 30
0.0
 10
188.6791694076349
 20
148.3258507121819
 30
0.0
 10
188.5319169843539
 20
147.961764434223
 30
0.0
 10
188.2883511311726
 20
147.4875099497783
 30
0.0
 10
187.9028357300107
 20
146.9361346361342
 30
0.0
 10
187.4234858370073
 20
146.4641743910372
 30
0.0
 10
186.996468811259
 20
146.1449622343463
 30
0.0
 10
186.6620976061897
 20
145.9391176504546
 30
0.0
 10
186.31469532344
 20
145.765311254199
 30
0.0
 10
186.0006318484971
 20
145.641029481074
 30
0.0
 10
185.7232210279175
 20
145.5536569299822
 30
0.0
 10
185.4865743619206
 20
145.4923546192165
 30
0.0
 10
185.3264415191457
 20
145.4626658849992
 30
0.0
 10
185.2463041102502
 20
145.4478083567599
 30
0.0
  0
LINE
  5
1A7
330
1F
100
AcDbEntity
  8
0
  6
Continuous
 62
     7
370
    15
100
AcDbLine
 10
185.2463038894
 20
145.4478096635
 30
0.0
 11
185.2129756997
 21
145.6449818926
 31
0.0
  0
LINE
  5
1A8
330
1F
100
AcDbEntity
  8
0
  6
Continuous
 62
     7
370
    15
100
AcDbLine
 10
269.542474132
 20
127.303564728
 30
0.0
 11
269.342504994
 21
127.303564728
 31
0.0
  0
SPLINE
  5
1A9
330
1F
100
AcDbEntity
  8
0
  6
Continuous
 62
     7
370
    15
100
AcDbSpline
210
0.0
220
0.0
230
1.0
 70
     8
 71
     3
 72
    25
 73
    21
 74
     0
 42
0.000000001
 43
0.00000001
 40
0.0
 40
0.0
 40
0.0
 40
0.0
 40
0.0236750002498594
 40
0.0473142599888634
 40
0.0709438561514034
 40
0.0945898976429659
 40
0.1182784389922353
 40
0.1801947722210019
 40
0.2421526335758367
 40
0.3060968614284399
 40
0.3700822948931068
 40
0.5000047358753336
 40
0.6299271768575646
 40
0.6938714081485164
 40
0.75785684227875
 40
0.8197731731849921
 40
0.8817310305058893
 40
0.9211647835459288
 40
0.9605474438168354
 40
1.0
 40
1.0
 40
1.0
 40
1.0
 10
269.3425053933152
 20
127.3035647279549
 30
0.0
 10
269.3429713765651
 20
127.3524636494907
 30
0.0
 10
269.3439026396021
 20
127.4501876732416
 30
0.0
 10
269.351456675295
 20
127.5965562968696
 30
0.0
 10
269.3635209811927
 20
127.7425416390114
 30
0.0
 10
269.3805376330484
 20
127.8881464666733
 30
0.0
 10
269.4141049347689
 20
128.111302349785
 30
0.0
 10
269.4774623580228
 20
128.4098507608595
 30
0.0
 10
269.5909244009954
 20
128.7812787437279
 30
0.0
 10
269.7381768242765
 20
129.1453650216868
 30
0.0
 10
269.9817426774577
 20
129.6196195061315
 30
0.0
 10
270.3672580786197
 20
130.1709948197756
 30
0.0
 10
270.8466079716231
 20
130.6429550648726
 30
0.0
 10
271.2736249973714
 20
130.9621672215635
 30
0.0
 10
271.6079962024407
 20
131.1680118054552
 30
0.0
 10
271.9553984851904
 20
131.3418182017108
 30
0.0
 10
272.2694619601333
 20
131.4660999748358
 30
0.0
 10
272.5468727807129
 20
131.5534725259276
 30
0.0
 10
272.7835194467098
 20
131.6147748366933
 30
0.0
 10
272.9436522894846
 20
131.6444635709106
 30
0.0
 10
273.0237896983802
 20
131.6593210991499
 30
0.0
  0
LINE
  5
1AA
330
1F
100
AcDbEntity
  8
0
  6
Continuous
 62
     7
370
    15
100
AcDbLine
 10
273.0237899193
 20
131.6593197924
 30
0.0
 11
273.0571181089
 21
131.4621475633
 31
0.0
  0
LINE
  5
1AB
330
1F
100
AcDbEntity
  8
0
  6
Continuous
 62
     7
370
    15
100
AcDbLine
 10
185.177589677
 20
131.7406245653
 30
0.0
 11
184.9776196766
 21
131.7406245653
 31
0.0
  0
SPLINE
  5
1AC
330
1F
100
AcDbEntity
  8
0
  6
Continuous
 62
     7
370
    15
100
AcDbSpline
210
0.0
220
0.0
230
1.0
 70
     8
 71
     3
 72
    12
 73
     8
 74
     0
 42
0.000000001
 43
0.00000001
 40
0.0
 40
0.0
 40
0.0
 40
0.0
 40
0.1677611277052638
 40
0.3314709822010598
 40
0.5006113053144003
 40
0.7495297385132043
 40
0.9999999999999999
 40
0.9999999999999999
 40
0.9999999999999999
 40
0.9999999999999999
 10
185.1775901399252
 20
131.7406245652799
 30
0.0
 10
185.1779862598281
 20
131.7341539269447
 30
0.0
 10
185.1787689337113
 20
131.721368910095
 30
0.0
 10
185.1857055931878
 20
131.7030794016971
 30
0.0
 10
185.1982265840053
 20
131.6844671323588
 30
0.0
 10
185.2180842128889
 20
131.6667820193337
 30
0.0
 10
185.2368778180973
 20
131.661812079101
 30
0.0
 10
185.2463038208502
 20
131.6593193870499
 30
0.0
  0
LINE
  5
1AD
330
1F
100
AcDbEntity
  8
0
  6
Continuous
 62
     7
370
    15
100
AcDbLine
 10
273.0925041316
 20
145.3665048906
 30
0.0
 11
273.292474132
 21
145.3665048906
 31
0.0
  0
SPLINE
  5
1AE
330
1F
100
AcDbEntity
  8
0
  6
Continuous
 62
     7
370
    15
100
AcDbSpline
210
0.0
220
0.0
230
1.0
 70
     8
 71
     3
 72
    12
 73
     8
 74
     0
 42
0.000000001
 43
0.00000001
 40
0.0
 40
0.0
 40
0.0
 40
0.0
 40
0.1677611277052638
 40
0.3314709822010598
 40
0.5006113053144003
 40
0.7495297385132043
 40
0.9999999999999999
 40
0.9999999999999999
 40
0.9999999999999999
 40
0.9999999999999999
 10
273.0925036687052
 20
145.3665048906299
 30
0.0
 10
273.0921075488023
 20
145.3729755289651
 30
0.0
 10
273.0913248749191
 20
145.3857605458148
 30
0.0
 10
273.0843882154426
 20
145.4040500542127
 30
0.0
 10
273.0718672246251
 20
145.4226623235511
 30
0.0
 10
273.0520095957415
 20
145.4403474365761
 30
0.0
 10
273.0332159905331
 20
145.4453173768088
 30
0.0
 10
273.0237899877802
 20
145.4478100688599
 30
0.0
  0
LINE
  5
1AF
330
1F
100
AcDbEntity
  8
0
  6
Continuous
 62
     7
370
    15
100
AcDbLine
 10
188.927589214
 20
153.678564728
 30
0.0
 11
188.927589214
 21
149.803564728
 31
0.0
  0
LINE
  5
1B0
330
1F
100
AcDbEntity
  8
0
  6
Continuous
 62
     7
370
    15
100
AcDbLine
 10
269.3425045946
 20
123.428564728
 30
0.0
 11
269.3425045946
 21
127.303564728
 31
0.0
  0
LINE
  5
1B1
330
1F
100
AcDbEntity
  8
0
  6
Continuous
 62
     7
370
    15
100
AcDbLine
 10
184.9776196766
 20
145.3665048906
 30
0.0
 11
185.177589214
 21
145.3665048906
 31
0.0
  0
LINE
  5
1B2
330
1F
100
AcDbEntity
  8
0
  6
Continuous
 62
     7
370
    15
100
AcDbLine
 10
185.177589214
 20
145.3665048906
 30
0.0
 11
185.177589677
 21
131.7406245653
 31
0.0
  0
SPLINE
  5
1B3
330
1F
100
AcDbEntity
  8
0
  6
Continuous
 62
     7
370
    15
100
AcDbSpline
210
0.0
220
0.0
230
1.0
 70
     8
 71
     3
 72
    12
 73
     8
 74
     0
 42
0.000000001
 43
0.00000001
 40
0.0
 40
0.0
 40
0.0
 40
0.0
 40
0.1677614528453296
 40
0.3314712556269711
 40
0.5006113154708267
 40
0.7495294054423338
 40
0.9999999999999999
 40
0.9999999999999999
 40
0.9999999999999999
 40
0.9999999999999999
 10
185.2463041102502
 20
145.4478083567599
 30
0.0
 10
185.2399900024726
 20
145.4463393393088
 30
0.0
 10
185.2275142805608
 20
145.4434367830256
 30
0.0
 10
185.2106367597954
 20
145.4335488923086
 30
0.0
 10
185.1943717824616
 20
145.4181009768849
 30
0.0
 10
185.180243853879
 20
145.3955735274236
 30
0.0
 10
185.1784759260404
 20
145.3762144974105
 30
0.0
 10
185.1775892140452
 20
145.3665048906299
 30
0.0
  0
SPLINE
  5
1B4
330
1F
100
AcDbEntity
  8
0
  6
Continuous
 62
     7
370
    15
100
AcDbSpline
210
0.0
220
0.0
230
1.0
 70
     8
 71
     3
 72
    12
 73
     8
 74
     0
 42
0.000000001
 43
0.00000001
 40
0.0
 40
0.0
 40
0.0
 40
0.0
 40
0.1677614528453296
 40
0.3314712556269711
 40
0.5006113154708267
 40
0.7495294054423338
 40
0.9999999999999999
 40
0.9999999999999999
 40
0.9999999999999999
 40
0.9999999999999999
 10
273.0237896983802
 20
131.6593210991499
 30
0.0
 10
273.0301038061579
 20
131.660790116601
 30
0.0
 10
273.0425795280696
 20
131.6636926728843
 30
0.0
 10
273.059457048835
 20
131.6735805636013
 30
0.0
 10
273.0757220261688
 20
131.689028479025
 30
0.0
 10
273.0898499547513
 20
131.7115559284862
 30
0.0
 10
273.09161788259
 20
131.7309149584993
 30
0.0
 10
273.0925045945852
 20
131.7406245652799
 30
0.0
  0
LINE
  5
1B5
330
1F
100
AcDbEntity
  8
0
  6
Continuous
 62
     7
370
    15
100
AcDbLine
 10
273.292474132
 20
131.7406245653
 30
0.0
 11
273.0925045946
 21
131.7406245653
 31
0.0
  0
LINE
  5
1B6
330
1F
100
AcDbEntity
  8
0
  6
Continuous
 62
     7
370
    15
100
AcDbLine
 10
273.0925045946
 20
131.7406245653
 30
0.0
 11
273.0925041316
 21
145.3665048906
 31
0.0
  0
LINE
  5
1B7
330
1F
100
AcDbEntity
  8
0
  6
Continuous
 62
     7
370
    15
100
AcDbLine
 10
188.927589214
 20
127.3035647269
 30
0.0
 11
188.927589214
 21
123.428564728
 31
0.0
  0
LINE
  5
1B8
330
1F
100
AcDbEntity
  8
0
  6
Continuous
 62
     7
370
    15
100
AcDbLine
 10
269.3425045947
 20
149.803564729
 30
0.0
 11
269.3425045947
 21
153.678564728
 31
0.0
  0
LINE
  5
1B9
330
1F
100
AcDbEntity
  8
0
  6
Continuous
 62
     7
370
    15
100
AcDbLine
 10
189.0100469043
 20
123.3461070377
 30
0.0
 11
269.2600469043
 21
123.3461070377
 31
0.0
  0
LINE
  5
1BA
330
1F
100
AcDbEntity
  8
0
  6
Continuous
 62
     7
370
    15
100
AcDbLine
 10
269.2600469043
 20
153.7610219114
 30
0.0
 11
189.0100469043
 21
153.7610219114
 31
0.0
  0
ENDSEC
  0
SECTION
  2
OBJECTS
  0
DICTIONARY
  5
C
330
0
100
AcDbDictionary
281
     1
  3
ACAD_GROUP
350
D
  3
ACAD_LAYOUT
350
1A
  3
ACAD_MLINESTYLE
350
17
  3
ACAD_PLOTSETTINGS
350
19
  3
ACAD_PLOTSTYLENAME
350
E
  3
ACAD_SCALELIST
350
47
  0
DICTIONARY
  5
D
102
{ACAD_REACTORS
330
C
102
}
330
C
100
AcDbDictionary
281
     1
  0
DICTIONARY
  5
1A
102
{ACAD_REACTORS
330
C
102
}
330
C
100
AcDbDictionary
281
     1
  3
Layout1
350
1E
  3
Layout2
350
26
  3
Model
350
22
  0
DICTIONARY
  5
17
102
{ACAD_REACTORS
330
C
102
}
330
C
100
AcDbDictionary
281
     1
  3
Standard
350
18
  0
DICTIONARY
  5
19
102
{ACAD_REACTORS
330
C
102
}
330
C
100
AcDbDictionary
281
     1
  0
ACDBDICTIONARYWDFLT
  5
E
102
{ACAD_REACTORS
330
C
102
}
330
C
100
AcDbDictionary
281
     1
  3
Normal
350
F
100
AcDbDictionaryWithDefault
340
F
  0
DICTIONARY
  5
47
102
{ACAD_REACTORS
330
C
102
}
330
C
100
AcDbDictionary
281
     1
  3
A0
350
48
  3
A1
350
49
  3
A2
350
4A
  3
A3
350
4B
  3
A4
350
4C
  3
A5
350
4D
  3
A6
350
4E
  3
A7
350
4F
  3
A8
350
50
  3
A9
350
51
  3
B0
350
52
  3
B1
350
53
  3
B2
350
54
  3
B3
350
55
  3
B4
350
56
  3
B5
350
57
  3
B6
350
58
  3
B7
350
59
  3
B8
350
5A
  3
B9
350
5B
  3
C0
350
5C
  3
C1
350
5D
  3
C2
350
5E
  3
C3
350
5F
  3
C4
350
60
  3
C5
350
61
  3
C6
350
62
  3
C7
350
63
  3
C8
350
64
  3
C9
350
65
  3
D0
350
66
  3
D1
350
67
  3
D2
350
68
  0
LAYOUT
  5
1E
102
{ACAD_REACTORS
330
1A
102
}
330
1A
100
AcDbPlotSettings
  1

  2
none_device
  4

  6

 40
0.0
 41
0.0
 42
0.0
 43
0.0
 44
0.0
 45
0.0
 46
0.0
 47
0.0
 48
0.0
 49
0.0
140
0.0
141
0.0
142
1.0
143
1.0
 70
   688
 72
     1
 73
     0
 74
     5
  7

 75
    16
147
1.0
148
0.0
149
0.0
100
AcDbLayout
  1
Layout1
 70
     1
 71
     1
 10
0.0
 20
0.0
 11
420.0
 21
297.0
 12
0.0
 22
0.0
 32
0.0
 14
1.0000000000E+20
 24
1.0000000000E+20
 34
1.0000000000E+20
 15
-1.0000000000E+20
 25
-1.0000000000E+20
 35
-1.0000000000E+20
146
0.0
 13
0.0
 23
0.0
 33
0.0
 16
1.0
 26
0.0
 36
0.0
 17
0.0
 27
1.0
 37
0.0
 76
     0
330
1B
  0
LAYOUT
  5
26
102
{ACAD_REACTORS
330
1A
102
}
330
1A
100
AcDbPlotSettings
  1

  2
none_device
  4

  6

 40
0.0
 41
0.0
 42
0.0
 43
0.0
 44
0.0
 45
0.0
 46
0.0
 47
0.0
 48
0.0
 49
0.0
140
0.0
141
0.0
142
1.0
143
1.0
 70
   688
 72
     1
 73
     0
 74
     5
  7

 75
    16
147
1.0
148
0.0
149
0.0
100
AcDbLayout
  1
Layout2
 70
     1
 71
     2
 10
0.0
 20
0.0
 11
0.0
 21
0.0
 12
0.0
 22
0.0
 32
0.0
 14
0.0
 24
0.0
 34
0.0
 15
0.0
 25
0.0
 35
0.0
146
0.0
 13
0.0
 23
0.0
 33
0.0
 16
1.0
 26
0.0
 36
0.0
 17
0.0
 27
1.0
 37
0.0
 76
     0
330
23
  0
LAYOUT
  5
22
102
{ACAD_REACTORS
330
1A
102
}
330
1A
100
AcDbPlotSettings
  1

  2
none_device
  4
Letter_(8.50_x_11.00_Inches)
  6

 40
6.35
 41
6.35
 42
6.35000508
 43
6.35000508
 44
215.9
 45
279.4
 46
0.0
 47
0.0
 48
0.0
 49
0.0
140
0.0
141
0.0
142
1.0
143
1.0
 70
  1712
 72
     1
 73
     0
 74
     0
  7

 75
     0
147
1.0
148
0.0
149
0.0
100
AcDbLayout
  1
Model
 70
     1
 71
     0
 10
0.0
 20
0.0
 11
420.0
 21
297.0
 12
0.0
 22
0.0
 32
0.0
 14
0.0
 24
0.0
 34
0.0
 15
420.0
 25
297.0
 35
0.0
146
0.0
 13
0.0
 23
0.0
 33
0.0
 16
1.0
 26
0.0
 36
0.0
 17
0.0
 27
1.0
 37
0.0
 76
     0
330
1F
331
29
  0
MLINESTYLE
  5
18
102
{ACAD_REACTORS
330
17
102
}
330
17
100
AcDbMlineStyle
  2
Standard
 70
     0
  3

 62
   256
 51
90.0
 52
90.0
 71
     2
 49
0.5
 62
   256
  6
BYLAYER
 49
-0.5
 62
   256
  6
BYLAYER
  0
ACDBPLACEHOLDER
  5
F
102
{ACAD_REACTORS
330
E
102
}
330
E
  0
SCALE
  5
48
102
{ACAD_REACTORS
330
47
102
}
330
47
100
AcDbScale
 70
     0
300
1:1
140
1.0
141
1.0
290
     1
  0
SCALE
  5
49
102
{ACAD_REACTORS
330
47
102
}
330
47
100
AcDbScale
 70
     0
300
1:2
140
1.0
141
2.0
290
     0
  0
SCALE
  5
4A
102
{ACAD_REACTORS
330
47
102
}
330
47
100
AcDbScale
 70
     0
300
1:4
140
1.0
141
4.0
290
     0
  0
SCALE
  5
4B
102
{ACAD_REACTORS
330
47
102
}
330
47
100
AcDbScale
 70
     0
300
1:5
140
1.0
141
5.0
290
     0
  0
SCALE
  5
4C
102
{ACAD_REACTORS
330
47
102
}
330
47
100
AcDbScale
 70
     0
300
1:8
140
1.0
141
8.0
290
     0
  0
SCALE
  5
4D
102
{ACAD_REACTORS
330
47
102
}
330
47
100
AcDbScale
 70
     0
300
1:10
140
1.0
141
10.0
290
     0
  0
SCALE
  5
4E
102
{ACAD_REACTORS
330
47
102
}
330
47
100
AcDbScale
 70
     0
300
1:16
140
1.0
141
16.0
290
     0
  0
SCALE
  5
4F
102
{ACAD_REACTORS
330
47
102
}
330
47
100
AcDbScale
 70
     0
300
1:20
140
1.0
141
20.0
290
     0
  0
SCALE
  5
50
102
{ACAD_REACTORS
330
47
102
}
330
47
100
AcDbScale
 70
     0
300
1:30
140
1.0
141
30.0
290
     0
  0
SCALE
  5
51
102
{ACAD_REACTORS
330
47
102
}
330
47
100
AcDbScale
 70
     0
300
1:40
140
1.0
141
40.0
290
     0
  0
SCALE
  5
52
102
{ACAD_REACTORS
330
47
102
}
330
47
100
AcDbScale
 70
     0
300
1:50
140
1.0
141
50.0
290
     0
  0
SCALE
  5
53
102
{ACAD_REACTORS
330
47
102
}
330
47
100
AcDbScale
 70
     0
300
1:100
140
1.0
141
100.0
290
     0
  0
SCALE
  5
54
102
{ACAD_REACTORS
330
47
102
}
330
47
100
AcDbScale
 70
     0
300
2:1
140
2.0
141
1.0
290
     0
  0
SCALE
  5
55
102
{ACAD_REACTORS
330
47
102
}
330
47
100
AcDbScale
 70
     0
300
4:1
140
4.0
141
1.0
290
     0
  0
SCALE
  5
56
102
{ACAD_REACTORS
330
47
102
}
330
47
100
AcDbScale
 70
     0
300
8:1
140
8.0
141
1.0
290
     0
  0
SCALE
  5
57
102
{ACAD_REACTORS
330
47
102
}
330
47
100
AcDbScale
 70
     0
300
10:1
140
10.0
141
1.0
290
     0
  0
SCALE
  5
58
102
{ACAD_REACTORS
330
47
102
}
330
47
100
AcDbScale
 70
     0
300
100:1
140
100.0
141
1.0
290
     0
  0
SCALE
  5
59
102
{ACAD_REACTORS
330
47
102
}
330
47
100
AcDbScale
 70
     0
300
1/128" = 1'-0"
140
0.0078125
141
12.0
290
     0
  0
SCALE
  5
5A
102
{ACAD_REACTORS
330
47
102
}
330
47
100
AcDbScale
 70
     0
300
1/64" = 1'-0"
140
0.015625
141
12.0
290
     0
  0
SCALE
  5
5B
102
{ACAD_REACTORS
330
47
102
}
330
47
100
AcDbScale
 70
     0
300
1/32" = 1'-0"
140
0.03125
141
12.0
290
     0
  0
SCALE
  5
5C
102
{ACAD_REACTORS
330
47
102
}
330
47
100
AcDbScale
 70
     0
300
1/16" = 1'-0"
140
0.0625
141
12.0
290
     0
  0
SCALE
  5
5D
102
{ACAD_REACTORS
330
47
102
}
330
47
100
AcDbScale
 70
     0
300
3/32" = 1'-0"
140
0.09375
141
12.0
290
     0
  0
SCALE
  5
5E
102
{ACAD_REACTORS
330
47
102
}
330
47
100
AcDbScale
 70
     0
300
1/8" = 1'-0"
140
0.125
141
12.0
290
     0
  0
SCALE
  5
5F
102
{ACAD_REACTORS
330
47
102
}
330
47
100
AcDbScale
 70
     0
300
3/16" = 1'-0"
140
0.1875
141
12.0
290
     0
  0
SCALE
  5
60
102
{ACAD_REACTORS
330
47
102
}
330
47
100
AcDbScale
 70
     0
300
1/4" = 1'-0"
140
0.25
141
12.0
290
     0
  0
SCALE
  5
61
102
{ACAD_REACTORS
330
47
102
}
330
47
100
AcDbScale
 70
     0
300
3/8" = 1'-0"
140
0.375
141
12.0
290
     0
  0
SCALE
  5
62
102
{ACAD_REACTORS
330
47
102
}
330
47
100
AcDbScale
 70
     0
300
1/2" = 1'-0"
140
0.5
141
12.0
290
     0
  0
SCALE
  5
63
102
{ACAD_REACTORS
330
47
102
}
330
47
100
AcDbScale
 70
     0
300
3/4" = 1'-0"
140
0.75
141
12.0
290
     0
  0
SCALE
  5
64
102
{ACAD_REACTORS
330
47
102
}
330
47
100
AcDbScale
 70
     0
300
1" = 1'-0"
140
1.0
141
12.0
290
     0
  0
SCALE
  5
65
102
{ACAD_REACTORS
330
47
102
}
330
47
100
AcDbScale
 70
     0
300
1-1/2" = 1'-0"
140
1.5
141
12.0
290
     0
  0
SCALE
  5
66
102
{ACAD_REACTORS
330
47
102
}
330
47
100
AcDbScale
 70
     0
300
3" = 1'-0"
140
3.0
141
12.0
290
     0
  0
SCALE
  5
67
102
{ACAD_REACTORS
330
47
102
}
330
47
100
AcDbScale
 70
     0
300
6" = 1'-0"
140
6.0
141
12.0
290
     0
  0
SCALE
  5
68
102
{ACAD_REACTORS
330
47
102
}
330
47
100
AcDbScale
 70
     0
300
1'-0" = 1'-0"
140
12.0
141
12.0
290
     0
  0
ENDSEC
  0
EOF
