  0
SECTION
  2
HEADER
  9
$ACADVER
  1
AC1015
  9
$ACADMAINTVER
 70
     6
  9
$DWGCODEPAGE
  3
ANSI_1252
  9
$INSBASE
 10
0.0
 20
0.0
 30
0.0
  9
$EXTMIN
 10
0.0
 20
0.0
 30
0.0
  9
$EXTMAX
 10
420.0
 20
297.0
 30
0.0
  9
$LIMMIN
 10
0.0
 20
0.0
  9
$LIMMAX
 10
420.0
 20
297.0
  9
$ORTHOMODE
 70
     0
  9
$REGENMODE
 70
     1
  9
$FILLMODE
 70
     1
  9
$QTEXTMODE
 70
     0
  9
$MIRRTEXT
 70
     1
  9
$LTSCALE
 40
1.0
  9
$ATTMODE
 70
     1
  9
$TEXTSIZE
 40
3.5
  9
$TRACEWID
 40
1.0
  9
$TEXTSTYLE
  7
Standard
  9
$CLAYER
  8
0
  9
$CELTYPE
  6
ByLayer
  9
$CECOLOR
 62
   256
  9
$CELTSCALE
 40
1.0
  9
$DISPSILH
 70
     0
  9
$DIMSCALE
 40
1.0
  9
$DIMASZ
 40
6.0
  9
$DIMEXO
 40
1.0
  9
$DIMDLI
 40
3.75
  9
$DIMRND
 40
0.0
  9
$DIMDLE
 40
0.0
  9
$DIMEXE
 40
1.0
  9
$DIMTP
 40
0.0
  9
$DIMTM
 40
0.0
  9
$DIMTXT
 40
3.5
  9
$DIMCEN
 40
2.5
  9
$DIMTSZ
 40
0.0
  9
$DIMTOL
 70
     0
  9
$DIMLIM
 70
     0
  9
$DIMTIH
 70
     1
  9
$DIMTOH
 70
     1
  9
$DIMSE1
 70
     0
  9
$DIMSE2
 70
     0
  9
$DIMTAD
 70
     1
  9
$DIMZIN
 70
     0
  9
$DIMBLK
  1

  9
$DIMASO
 70
     1
  9
$DIMSHO
 70
     1
  9
$DIMPOST
  1

  9
$DIMAPOST
  1

  9
$DIMALT
 70
     0
  9
$DIMALTD
 70
     3
  9
$DIMALTF
 40
0.0393700787
  9
$DIMLFAC
 40
2.0
  9
$DIMTOFL
 70
     1
  9
$DIMTVP
 40
0.0
  9
$DIMTIX
 70
     0
  9
$DIMSOXD
 70
     0
  9
$DIMSAH
 70
     0
  9
$DIMBLK1
  1

  9
$DIMBLK2
  1

  9
$DIMSTYLE
  2
ISO-25
  9
$DIMCLRD
 70
     0
  9
$DIMCLRE
 70
     0
  9
$DIMCLRT
 70
     0
  9
$DIMTFAC
 40
1.0
  9
$DIMGAP
 40
1.524
  9
$DIMJUST
 70
     0
  9
$DIMSD1
 70
     0
  9
$DIMSD2
 70
     0
  9
$DIMTOLJ
 70
     0
  9
$DIMTZIN
 70
     0
  9
$DIMALTZ
 70
     0
  9
$DIMALTTZ
 70
     0
  9
$DIMUPT
 70
     0
  9
$DIMDEC
 70
     2
  9
$DIMTDEC
 70
     2
  9
$DIMALTU
 70
     2
  9
$DIMALTTD
 70
     3
  9
$DIMTXSTY
  7
Standard
  9
$DIMAUNIT
 70
     0
  9
$DIMADEC
 70
     2
  9
$DIMALTRND
 40
0.0
  9
$DIMAZIN
 70
     0
  9
$DIMDSEP
 70
    44
  9
$DIMATFIT
 70
     3
  9
$DIMFRAC
 70
     0
  9
$DIMLDRBLK
  1

  9
$DIMLUNIT
 70
     2
  9
$DIMLWD
 70
    -2
  9
$DIMLWE
 70
    -2
  9
$DIMTMOVE
 70
     0
  9
$LUNITS
 70
     2
  9
$LUPREC
 70
     2
  9
$SKETCHINC
 40
1.0
  9
$FILLETRAD
 40
10.0
  9
$AUNITS
 70
     0
  9
$AUPREC
 70
     2
  9
$MENU
  1
.
  9
$ELEVATION
 40
0.0
  9
$PELEVATION
 40
0.0
  9
$THICKNESS
 40
0.0
  9
$LIMCHECK
 70
     0
  9
$CHAMFERA
 40
0.0
  9
$CHAMFERB
 40
0.0
  9
$CHAMFERC
 40
0.0
  9
$CHAMFERD
 40
0.0
  9
$SKPOLY
 70
     0
  9
$TDCREATE
 40
2456937.454765209
  9
$TDUCREATE
 40
2456937.329765209
  9
$TDUPDATE
 40
2456937.454766077
  9
$TDUUPDATE
 40
2456937.329766077
  9
$TDINDWG
 40
0.0000000116
  9
$TDUSRTIMER
 40
0.0000000116
  9
$USRTIMER
 70
     1
  9
$ANGBASE
 50
0.0
  9
$ANGDIR
 70
     0
  9
$PDMODE
 70
     0
  9
$PDSIZE
 40
-1.0
  9
$PLINEWID
 40
0.0
  9
$SPLFRAME
 70
     0
  9
$SPLINETYPE
 70
     6
  9
$SPLINESEGS
 70
     8
  9
$HANDSEED
  5
1E5
  9
$SURFTAB1
 70
     6
  9
$SURFTAB2
 70
     6
  9
$SURFTYPE
 70
     6
  9
$SURFU
 70
     6
  9
$SURFV
 70
     6
  9
$UCSBASE
  2

  9
$UCSNAME
  2

  9
$UCSORG
 10
0.0
 20
0.0
 30
0.0
  9
$UCSXDIR
 10
1.0
 20
0.0
 30
0.0
  9
$UCSYDIR
 10
0.0
 20
1.0
 30
0.0
  9
$UCSORTHOREF
  2

  9
$UCSORTHOVIEW
 70
     0
  9
$UCSORGTOP
 10
0.0
 20
0.0
 30
0.0
  9
$UCSORGBOTTOM
 10
0.0
 20
0.0
 30
0.0
  9
$UCSORGLEFT
 10
0.0
 20
0.0
 30
0.0
  9
$UCSORGRIGHT
 10
0.0
 20
0.0
 30
0.0
  9
$UCSORGFRONT
 10
0.0
 20
0.0
 30
0.0
  9
$UCSORGBACK
 10
0.0
 20
0.0
 30
0.0
  9
$PUCSBASE
  2

  9
$PUCSNAME
  2

  9
$PUCSORG
 10
0.0
 20
0.0
 30
0.0
  9
$PUCSXDIR
 10
1.0
 20
0.0
 30
0.0
  9
$PUCSYDIR
 10
0.0
 20
1.0
 30
0.0
  9
$PUCSORTHOREF
  2

  9
$PUCSORTHOVIEW
 70
     0
  9
$PUCSORGTOP
 10
0.0
 20
0.0
 30
0.0
  9
$PUCSORGBOTTOM
 10
0.0
 20
0.0
 30
0.0
  9
$PUCSORGLEFT
 10
0.0
 20
0.0
 30
0.0
  9
$PUCSORGRIGHT
 10
0.0
 20
0.0
 30
0.0
  9
$PUCSORGFRONT
 10
0.0
 20
0.0
 30
0.0
  9
$PUCSORGBACK
 10
0.0
 20
0.0
 30
0.0
  9
$USERI1
 70
     0
  9
$USERI2
 70
     0
  9
$USERI3
 70
     0
  9
$USERI4
 70
     0
  9
$USERI5
 70
     0
  9
$USERR1
 40
0.0
  9
$USERR2
 40
0.0
  9
$USERR3
 40
0.0
  9
$USERR4
 40
0.0
  9
$USERR5
 40
0.0
  9
$WORLDVIEW
 70
     1
  9
$SHADEDGE
 70
     3
  9
$SHADEDIF
 70
    70
  9
$TILEMODE
 70
     1
  9
$MAXACTVP
 70
    64
  9
$PINSBASE
 10
0.0
 20
0.0
 30
0.0
  9
$PLIMCHECK
 70
     0
  9
$PEXTMIN
 10
1.0000000000E+20
 20
1.0000000000E+20
 30
1.0000000000E+20
  9
$PEXTMAX
 10
-1.0000000000E+20
 20
-1.0000000000E+20
 30
-1.0000000000E+20
  9
$PLIMMIN
 10
0.0
 20
0.0
  9
$PLIMMAX
 10
420.0
 20
297.0
  9
$UNITMODE
 70
     0
  9
$VISRETAIN
 70
     1
  9
$PLINEGEN
 70
     0
  9
$PSLTSCALE
 70
     1
  9
$TREEDEPTH
 70
  3020
  9
$CMLSTYLE
  2
Standard
  9
$CMLJUST
 70
     0
  9
$CMLSCALE
 40
20.0
  9
$PROXYGRAPHICS
 70
     1
  9
$MEASUREMENT
 70
     1
  9
$CELWEIGHT
370
    -1
  9
$ENDCAPS
280
     0
  9
$JOINSTYLE
280
     0
  9
$LWDISPLAY
290
     1
  9
$INSUNITS
 70
     4
  9
$HYPERLINKBASE
  1

  9
$STYLESHEET
  1

  9
$XEDIT
290
     1
  9
$CEPSNTYPE
380
     0
  9
$PSTYLEMODE
290
     1
  9
$FINGERPRINTGUID
  2
{236FE5BC-98F3-418C-A4AB-5C0558B3BAFB}
  9
$VERSIONGUID
  2
{FAEB1C32-E019-11D5-929B-00C0DF256EC4}
  9
$EXTNAMES
290
     1
  9
$PSVPSCALE
 40
0.0
  9
$OLESTARTUP
290
     0
  0
ENDSEC
  0
SECTION
  2
CLASSES
  0
CLASS
  1
ACDBDICTIONARYWDFLT
  2
AcDbDictionaryWithDefault
  3
ObjectDBX Classes
 90
        0
280
     0
281
     0
  0
CLASS
  1
VISUALSTYLE
  2
AcDbVisualStyle
  3
ObjectDBX Classes
 90
     4095
280
     0
281
     0
  0
CLASS
  1
MATERIAL
  2
AcDbMaterial
  3
ObjectDBX Classes
 90
     1153
280
     0
281
     0
  0
CLASS
  1
SCALE
  2
AcDbScale
  3
ObjectDBX Classes
 90
     1153
280
     0
281
     0
  0
CLASS
  1
SUN
  2
AcDbSun
  3
SCENEOE
 90
     1153
280
     0
281
     0
  0
CLASS
  1
ACDBPLACEHOLDER
  2
AcDbPlaceHolder
  3
ObjectDBX Classes
 90
        0
280
     0
281
     0
  0
CLASS
  1
LAYOUT
  2
AcDbLayout
  3
ObjectDBX Classes
 90
        0
280
     0
281
     0
  0
ENDSEC
  0
SECTION
  2
TABLES
  0
TABLE
  2
VPORT
  5
8
330
0
100
AcDbSymbolTable
 70
     1
  0
VPORT
  5
29
330
8
100
AcDbSymbolTableRecord
100
AcDbViewportTableRecord
  2
*Active
 70
     0
 10
0.0
 20
0.0
 11
1.0
 21
1.0
 12
210.0
 22
148.5
 13
0.0
 23
0.0
 14
10.0
 24
10.0
 15
10.0
 25
10.0
 16
0.0
 26
0.0
 36
1.0
 17
0.0
 27
0.0
 37
0.0
 40
297.0
 41
1.4141414141
 42
50.0
 43
0.0
 44
0.0
 50
0.0
 51
0.0
 71
     0
 72
  2000
 73
     1
 74
     3
 75
     0
 76
     0
 77
     0
 78
     0
281
     0
 65
     1
110
0.0
120
0.0
130
0.0
111
1.0
121
0.0
131
0.0
112
0.0
122
1.0
132
0.0
 79
     0
146
0.0
  0
ENDTAB
  0
TABLE
  2
LTYPE
  5
5
330
0
100
AcDbSymbolTable
 70
     6
  0
LTYPE
  5
14
330
5
100
AcDbSymbolTableRecord
100
AcDbLinetypeTableRecord
  2
ByBlock
 70
     0
  3

 72
    65
 73
     0
 40
0.0
  0
LTYPE
  5
15
330
5
100
AcDbSymbolTableRecord
100
AcDbLinetypeTableRecord
  2
ByLayer
 70
     0
  3

 72
    65
 73
     0
 40
0.0
  0
LTYPE
  5
16
330
5
100
AcDbSymbolTableRecord
100
AcDbLinetypeTableRecord
  2
Continuous
 70
     0
  3
Solid line
 72
    65
 73
     0
 40
0.0
  0
LTYPE
  5
6A
330
5
100
AcDbSymbolTableRecord
100
AcDbLinetypeTableRecord
  2
HIDDEN
 70
     0
  3
Hidden __ __ __ __ __ __ __ __ __ __ __ __ __ __
 72
    65
 73
     2
 40
1.905
 49
1.27
 74
     0
 49
-0.635
 74
     0
  0
LTYPE
  5
6B
330
5
100
AcDbSymbolTableRecord
100
AcDbLinetypeTableRecord
  2
PHANTOM
 70
     0
  3
Phantom ______  __  __  ______  __  __  ______
 72
    65
 73
     6
 40
12.7
 49
6.35
 74
     0
 49
-1.27
 74
     0
 49
1.27
 74
     0
 49
-1.27
 74
     0
 49
1.27
 74
     0
 49
-1.27
 74
     0
  0
LTYPE
  5
6C
330
5
100
AcDbSymbolTableRecord
100
AcDbLinetypeTableRecord
  2
CENTER
 70
     0
  3
Center ____ _ ____ _ ____ _ ____ _ ____ _ ____
 72
    65
 73
     4
 40
10.16
 49
6.35
 74
     0
 49
-1.27
 74
     0
 49
1.27
 74
     0
 49
-1.27
 74
     0
  0
LTYPE
  5
6D
330
5
100
AcDbSymbolTableRecord
100
AcDbLinetypeTableRecord
  2
CENTERX2
 70
     0
  3
Center (2x) ________  __  ________  __  _____
 72
    65
 73
     4
 40
20.32
 49
12.7
 74
     0
 49
-2.54
 74
     0
 49
2.54
 74
     0
 49
-2.54
 74
     0
  0
LTYPE
  5
6E
330
5
100
AcDbSymbolTableRecord
100
AcDbLinetypeTableRecord
  2
DOT2
 70
     0
  3
Dot (.5x) ........................................
 72
    65
 73
     2
 40
0.635
 49
0.0
 74
     0
 49
-0.635
 74
     0
  0
ENDTAB
  0
TABLE
  2
LAYER
  5
2
330
0
100
AcDbSymbolTable
 70
     1
  0
LAYER
  5
10
330
2
100
AcDbSymbolTableRecord
100
AcDbLayerTableRecord
  2
0
 70
     0
 62
     7
  6
Continuous
370
    -3
390
F
  0
ENDTAB
  0
TABLE
  2
STYLE
  5
3
330
0
100
AcDbSymbolTable
 70
     1
  0
STYLE
  5
11
330
3
100
AcDbSymbolTableRecord
100
AcDbTextStyleTableRecord
  2
Standard
 70
     0
 40
0.0
 41
1.0
 50
0.0
 71
     0
 42
3.5
  3
txt
  4

  0
ENDTAB
  0
TABLE
  2
VIEW
  5
6
330
0
100
AcDbSymbolTable
 70
     0
  0
ENDTAB
  0
TABLE
  2
UCS
  5
7
330
0
100
AcDbSymbolTable
 70
     0
  0
ENDTAB
  0
TABLE
  2
APPID
  5
9
330
0
100
AcDbSymbolTable
 70
     1
  0
APPID
  5
12
330
9
100
AcDbSymbolTableRecord
100
AcDbRegAppTableRecord
  2
ACAD
 70
     0
  0
ENDTAB
  0
TABLE
  2
DIMSTYLE
  5
A
330
0
100
AcDbSymbolTable
 70
     1
100
AcDbDimStyleTable
  0
DIMSTYLE
105
27
330
A
100
AcDbSymbolTableRecord
100
AcDbDimStyleTableRecord
  2
ISO-25
 70
     0
 41
2.5
 42
0.625
 43
3.75
 44
1.25
 73
     0
 74
     0
 77
     1
 78
     8
140
2.5
141
2.5
143
0.0393700787
147
0.625
171
     3
172
     1
178
     0
271
     2
272
     2
274
     3
278
    44
283
     0
284
     8
340
11
  0
ENDTAB
  0
TABLE
  2
BLOCK_RECORD
  5
1
330
0
100
AcDbSymbolTable
 70
     1
  0
BLOCK_RECORD
  5
1F
330
1
100
AcDbSymbolTableRecord
100
AcDbBlockTableRecord
  2
*Model_Space
340
22
  0
BLOCK_RECORD
  5
1B
330
1
100
AcDbSymbolTableRecord
100
AcDbBlockTableRecord
  2
*Paper_Space
340
1E
  0
BLOCK_RECORD
  5
23
330
1
100
AcDbSymbolTableRecord
100
AcDbBlockTableRecord
  2
*Paper_Space0
340
26
  0
ENDTAB
  0
ENDSEC
  0
SECTION
  2
BLOCKS
  0
BLOCK
  5
20
330
1F
100
AcDbEntity
  8
0
100
AcDbBlockBegin
  2
*Model_Space
 70
     0
 10
0.0
 20
0.0
 30
0.0
  3
*Model_Space
  1
*Model_Space
  0
ENDBLK
  5
21
330
1F
100
AcDbEntity
  8
0
100
AcDbBlockEnd
  0
BLOCK
  5
1C
330
1B
100
AcDbEntity
 67
     1
  8
0
100
AcDbBlockBegin
  2
*Paper_Space
 70
     0
 10
0.0
 20
0.0
 30
0.0
  3
*Paper_Space
  1
*Paper_Space
  0
ENDBLK
  5
1D
330
1B
100
AcDbEntity
 67
     1
  8
0
100
AcDbBlockEnd
  0
BLOCK
  5
24
330
23
100
AcDbEntity
  8
0
100
AcDbBlockBegin
  2
*Paper_Space0
 70
     0
 10
0.0
 20
0.0
 30
0.0
  3
*Paper_Space0
  1
*Paper_Space0
  0
ENDBLK
  5
25
330
23
100
AcDbEntity
  8
0
100
AcDbBlockEnd
  0
ENDSEC
  0
SECTION
  2
ENTITIES
  0
LINE
  5
6F
330
1F
100
AcDbEntity
  8
0
  6
Continuous
 62
     7
370
    15
100
AcDbLine
 10
92.1741417841
 20
146.8603697464
 30
0.0
 11
92.2377093942
 21
146.4842986938
 31
0.0
  0
LINE
  5
70
330
1F
100
AcDbEntity
  8
0
  6
Continuous
 62
     7
370
    15
100
AcDbLine
 10
91.2930012055
 20
145.3665048906
 30
0.0
 11
90.9115955453
 21
145.3665048906
 31
0.0
  0
ARC
  5
71
330
1F
100
AcDbEntity
  8
0
  6
Continuous
 62
     7
370
    15
100
AcDbCircle
 10
92.4266510319
 20
145.3665048906
 30
0.0
 40
1.515055486586785
100
AcDbArc
 50
99.5940682269
 51
179.9999999993
  0
ARC
  5
72
330
1F
100
AcDbEntity
  8
0
  6
Continuous
 62
     7
370
    15
100
AcDbCircle
 10
91.6766510319
 20
149.803564728
 30
0.0
 40
2.98494451341378
100
AcDbArc
 50
279.5940682269
 51
0.0000000002
  0
LINE
  5
73
330
1F
100
AcDbEntity
  8
0
  6
Continuous
 62
     7
370
    15
100
AcDbLine
 10
95.0430012055
 20
149.803564728
 30
0.0
 11
94.6615955453
 21
149.803564728
 31
0.0
  0
LINE
  5
74
330
1F
100
AcDbEntity
  8
0
  6
Continuous
 62
     7
370
    15
100
AcDbLine
 10
91.2930012055
 20
131.7406245653
 30
0.0
 11
90.9115955453
 21
131.7406245653
 31
0.0
  0
LINE
  5
75
330
1F
100
AcDbEntity
  8
0
  6
Continuous
 62
     7
370
    15
100
AcDbLine
 10
92.2377093942
 20
130.6228307621
 30
0.0
 11
92.1741417841
 21
130.2467597095
 31
0.0
  0
ARC
  5
76
330
1F
100
AcDbEntity
  8
0
  6
Continuous
 62
     7
370
    15
100
AcDbCircle
 10
92.4266510319
 20
131.7406245653
 30
0.0
 40
1.515055486587005
100
AcDbArc
 50
179.9999999996
 51
260.4059317731
  0
ARC
  5
77
330
1F
100
AcDbEntity
  8
0
  6
Continuous
 62
     7
370
    15
100
AcDbCircle
 10
180.9266510319
 20
149.803564728
 30
0.0
 40
2.984944513414121
100
AcDbArc
 50
179.9999999999
 51
260.4059317731
  0
LINE
  5
78
330
1F
100
AcDbEntity
  8
0
  6
Continuous
 62
     7
370
    15
100
AcDbLine
 10
180.3655926696
 20
146.4842986938
 30
0.0
 11
180.4291602797
 21
146.8603697464
 31
0.0
  0
LINE
  5
79
330
1F
100
AcDbEntity
  8
0
  6
Continuous
 62
     7
370
    15
100
AcDbLine
 10
177.9417065185
 20
149.803564728
 30
0.0
 11
177.5603008583
 21
149.803564728
 31
0.0
  0
LINE
  5
7A
330
1F
100
AcDbEntity
  8
0
  6
Continuous
 62
     7
370
    15
100
AcDbLine
 10
181.3103008583
 20
145.3665048906
 30
0.0
 11
181.6917065185
 21
145.3665048906
 31
0.0
  0
ARC
  5
7B
330
1F
100
AcDbEntity
  8
0
  6
Continuous
 62
     7
370
    15
100
AcDbCircle
 10
180.1766510319
 20
145.3665048906
 30
0.0
 40
1.515055486586419
100
AcDbArc
 50
0.0000000004
 51
80.4059317732
  0
ARC
  5
7C
330
1F
100
AcDbEntity
  8
0
  6
Continuous
 62
     7
370
    15
100
AcDbCircle
 10
91.6766510319
 20
127.303564728
 30
0.0
 40
2.984944513414121
100
AcDbArc
 50
0.0000000001
 51
80.4059317732
  0
LINE
  5
7D
330
1F
100
AcDbEntity
  8
0
  6
Continuous
 62
     7
370
    15
100
AcDbLine
 10
94.6615955453
 20
127.303564728
 30
0.0
 11
95.0430012055
 21
127.303564728
 31
0.0
  0
LINE
  5
7E
330
1F
100
AcDbEntity
  8
0
  6
Continuous
 62
     7
370
    15
100
AcDbLine
 10
180.4291602797
 20
130.2467597095
 30
0.0
 11
180.3655926696
 21
130.6228307621
 31
0.0
  0
LINE
  5
7F
330
1F
100
AcDbEntity
  8
0
  6
Continuous
 62
     7
370
    15
100
AcDbLine
 10
181.3103008583
 20
131.7406245653
 30
0.0
 11
181.6917065185
 21
131.7406245653
 31
0.0
  0
ARC
  5
80
330
1F
100
AcDbEntity
  8
0
  6
Continuous
 62
     7
370
    15
100
AcDbCircle
 10
180.1766510319
 20
131.7406245653
 30
0.0
 40
1.515055486586661
100
AcDbArc
 50
279.5940682269
 51
0.0000000007
  0
ARC
  5
81
330
1F
100
AcDbEntity
  8
0
  6
Continuous
 62
     7
370
    15
100
AcDbCircle
 10
180.9266510319
 20
127.303564728
 30
0.0
 40
2.984944513413751
100
AcDbArc
 50
99.5940682269
 51
179.9999999998
  0
LINE
  5
82
330
1F
100
AcDbEntity
  8
0
  6
Continuous
 62
     7
370
    15
100
AcDbLine
 10
177.5603008583
 20
127.303564728
 30
0.0
 11
177.9417065185
 21
127.303564728
 31
0.0
  0
LINE
  5
83
330
1F
100
AcDbEntity
  8
0
  6
Continuous
 62
     7
370
    15
100
AcDbLine
 10
95.0430012055
 20
123.428564728
 30
0.0
 11
94.6615955453
 21
123.428564728
 31
0.0
  0
LINE
  5
84
330
1F
100
AcDbEntity
  8
0
  6
Continuous
 62
     7
370
    15
100
AcDbLine
 10
94.6615955453
 20
123.428564728
 30
0.0
 11
94.6615955453
 21
127.303564728
 31
0.0
  0
LINE
  5
85
330
1F
100
AcDbEntity
  8
0
  6
Continuous
 62
     7
370
    15
100
AcDbLine
 10
177.5603008583
 20
153.678564728
 30
0.0
 11
177.9417065185
 21
153.678564728
 31
0.0
  0
LINE
  5
86
330
1F
100
AcDbEntity
  8
0
  6
Continuous
 62
     7
370
    15
100
AcDbLine
 10
177.9417065185
 20
153.678564728
 30
0.0
 11
177.9417065185
 21
149.803564728
 31
0.0
  0
LINE
  5
87
330
1F
100
AcDbEntity
  8
0
  6
Continuous
 62
     7
370
    15
100
AcDbLine
 10
176.4266510319
 20
122.2949149016
 30
0.0
 11
176.4266510319
 21
121.9135092414
 31
0.0
  0
LINE
  5
88
330
1F
100
AcDbEntity
  8
0
  6
Continuous
 62
     7
370
    15
100
AcDbLine
 10
177.5603008583
 20
123.428564728
 30
0.0
 11
177.9417065185
 21
123.428564728
 31
0.0
  0
ARC
  5
89
330
1F
100
AcDbEntity
  8
0
  6
Continuous
 62
     7
370
    15
100
AcDbCircle
 10
176.4266510319
 20
123.428564728
 30
0.0
 40
1.51505548658622
100
AcDbArc
 50
270.0
 51
0.0000000007
  0
LINE
  5
8A
330
1F
100
AcDbEntity
  8
0
  6
Continuous
 62
     7
370
    15
100
AcDbLine
 10
96.1766510319
 20
122.2949149016
 30
0.0
 11
96.1766510319
 21
121.9135092414
 31
0.0
  0
ARC
  5
8B
330
1F
100
AcDbEntity
  8
0
  6
Continuous
 62
     7
370
    15
100
AcDbCircle
 10
96.1766510319
 20
123.428564728
 30
0.0
 40
1.515055486586206
100
AcDbArc
 50
179.9999999996
 51
270.0
  0
LINE
  5
8C
330
1F
100
AcDbEntity
  8
0
  6
Continuous
 62
     7
370
    15
100
AcDbLine
 10
177.9417065185
 20
127.303564728
 30
0.0
 11
177.9417065185
 21
123.428564728
 31
0.0
  0
LINE
  5
8D
330
1F
100
AcDbEntity
  8
0
  6
Continuous
 62
     7
370
    15
100
AcDbLine
 10
181.6917065185
 20
145.3665048906
 30
0.0
 11
181.6917065185
 21
131.7406245653
 31
0.0
  0
LINE
  5
8E
330
1F
100
AcDbEntity
  8
0
  6
Continuous
 62
     7
370
    15
100
AcDbLine
 10
176.4266510319
 20
121.9135092414
 30
0.0
 11
96.1766510319
 21
121.9135092414
 31
0.0
  0
LINE
  5
8F
330
1F
100
AcDbEntity
  8
0
  6
Continuous
 62
     7
370
    15
100
AcDbLine
 10
96.3016510319
 20
122.2949149016
 30
0.0
 11
176.3016510319
 21
122.2949149016
 31
0.0
  0
LINE
  5
90
330
1F
100
AcDbEntity
  8
0
  6
Continuous
 62
     7
370
    15
100
AcDbLine
 10
90.9115955453
 20
131.7406245653
 30
0.0
 11
90.9115955453
 21
145.3665048906
 31
0.0
  0
LINE
  5
91
330
1F
100
AcDbEntity
  8
0
  6
Continuous
 62
     7
370
    15
100
AcDbLine
 10
95.0430012055
 20
153.678564728
 30
0.0
 11
94.6615955453
 21
153.678564728
 31
0.0
  0
LINE
  5
92
330
1F
100
AcDbEntity
  8
0
  6
Continuous
 62
     7
370
    15
100
AcDbLine
 10
94.6615955453
 20
149.803564728
 30
0.0
 11
94.6615955453
 21
153.678564728
 31
0.0
  0
LINE
  5
93
330
1F
100
AcDbEntity
  8
0
  6
Continuous
 62
     7
370
    15
100
AcDbLine
 10
176.4266510319
 20
154.8122145544
 30
0.0
 11
176.4266510319
 21
155.1936202145
 31
0.0
  0
ARC
  5
94
330
1F
100
AcDbEntity
  8
0
  6
Continuous
 62
     7
370
    15
100
AcDbCircle
 10
176.4266510319
 20
153.678564728
 30
0.0
 40
1.51505548658622
100
AcDbArc
 50
0.0000000004
 51
90.0
  0
LINE
  5
95
330
1F
100
AcDbEntity
  8
0
  6
Continuous
 62
     7
370
    15
100
AcDbLine
 10
96.1766510319
 20
155.1936202145
 30
0.0
 11
176.4266510319
 21
155.1936202145
 31
0.0
  0
LINE
  5
96
330
1F
100
AcDbEntity
  8
0
  6
Continuous
 62
     7
370
    15
100
AcDbLine
 10
176.3016510319
 20
154.8122145544
 30
0.0
 11
96.3016510319
 21
154.8122145544
 31
0.0
  0
LINE
  5
97
330
1F
100
AcDbEntity
  8
0
  6
Continuous
 62
     7
370
    15
100
AcDbLine
 10
96.1766510319
 20
155.1936202145
 30
0.0
 11
96.1766510319
 21
154.8122145544
 31
0.0
  0
ARC
  5
98
330
1F
100
AcDbEntity
  8
0
  6
Continuous
 62
     7
370
    15
100
AcDbCircle
 10
96.1766510319
 20
153.678564728
 30
0.0
 40
1.515055486586618
100
AcDbArc
 50
90.0
 51
180.0000000007
  0
LINE
  5
99
330
1F
100
AcDbEntity
  8
0
  6
Continuous
 62
     7
370
    15
100
AcDbLine
 10
178.7766510319
 20
153.678564728
 30
0.0
 11
178.7766510319
 21
149.803564728
 31
0.0
  0
ARC
  5
9A
330
1F
100
AcDbEntity
  8
0
  6
Continuous
 62
     7
370
    15
100
AcDbCircle
 10
180.9266510319
 20
149.803564728
 30
0.0
 40
2.150000000000141
100
AcDbArc
 50
180.0
 51
260.4059317731
  0
ARC
  5
9B
330
1F
100
AcDbEntity
  8
0
  6
Continuous
 62
     7
370
    15
100
AcDbCircle
 10
180.1766510319
 20
145.3665048906
 30
0.0
 40
2.350000000000162
100
AcDbArc
 50
0.0
 51
80.4059317732
  0
LINE
  5
9C
330
1F
100
AcDbEntity
  8
0
  6
Continuous
 62
     7
370
    15
100
AcDbLine
 10
182.5266510319
 20
145.3665048906
 30
0.0
 11
182.5266510319
 21
131.7406245653
 31
0.0
  0
ARC
  5
9D
330
1F
100
AcDbEntity
  8
0
  6
Continuous
 62
     7
370
    15
100
AcDbCircle
 10
180.1766510319
 20
131.7406245653
 30
0.0
 40
2.350000000000134
100
AcDbArc
 50
279.5940682268
 51
0.0
  0
ARC
  5
9E
330
1F
100
AcDbEntity
  8
0
  6
Continuous
 62
     7
370
    15
100
AcDbCircle
 10
180.9266510319
 20
127.303564728
 30
0.0
 40
2.150000000000141
100
AcDbArc
 50
99.5940682269
 51
180.0
  0
LINE
  5
9F
330
1F
100
AcDbEntity
  8
0
  6
Continuous
 62
     7
370
    15
100
AcDbLine
 10
178.7766510319
 20
127.303564728
 30
0.0
 11
178.7766510319
 21
123.428564728
 31
0.0
  0
ARC
  5
A0
330
1F
100
AcDbEntity
  8
0
  6
Continuous
 62
     7
370
    15
100
AcDbCircle
 10
176.4266510319
 20
123.428564728
 30
0.0
 40
2.350000000000009
100
AcDbArc
 50
270.0
 51
0.0
  0
LINE
  5
A1
330
1F
100
AcDbEntity
  8
0
  6
Continuous
 62
     7
370
    15
100
AcDbLine
 10
176.4266510319
 20
121.078564728
 30
0.0
 11
96.1766510319
 21
121.078564728
 31
0.0
  0
ARC
  5
A2
330
1F
100
AcDbEntity
  8
0
  6
Continuous
 62
     7
370
    15
100
AcDbCircle
 10
96.1766510319
 20
123.428564728
 30
0.0
 40
2.350000000000009
100
AcDbArc
 50
180.0
 51
270.0
  0
LINE
  5
A3
330
1F
100
AcDbEntity
  8
0
  6
Continuous
 62
     7
370
    15
100
AcDbLine
 10
93.8266510319
 20
123.428564728
 30
0.0
 11
93.8266510319
 21
127.303564728
 31
0.0
  0
ARC
  5
A4
330
1F
100
AcDbEntity
  8
0
  6
Continuous
 62
     7
370
    15
100
AcDbCircle
 10
91.6766510319
 20
127.303564728
 30
0.0
 40
2.150000000000143
100
AcDbArc
 50
0.0
 51
80.4059317731
  0
ARC
  5
A5
330
1F
100
AcDbEntity
  8
0
  6
Continuous
 62
     7
370
    15
100
AcDbCircle
 10
92.4266510319
 20
131.7406245653
 30
0.0
 40
2.350000000000134
100
AcDbArc
 50
180.0
 51
260.4059317732
  0
LINE
  5
A6
330
1F
100
AcDbEntity
  8
0
  6
Continuous
 62
     7
370
    15
100
AcDbLine
 10
90.0766510319
 20
131.7406245653
 30
0.0
 11
90.0766510319
 21
145.3665048906
 31
0.0
  0
ARC
  5
A7
330
1F
100
AcDbEntity
  8
0
  6
Continuous
 62
     7
370
    15
100
AcDbCircle
 10
92.4266510319
 20
145.3665048906
 30
0.0
 40
2.350000000000162
100
AcDbArc
 50
99.5940682268
 51
180.0
  0
ARC
  5
A8
330
1F
100
AcDbEntity
  8
0
  6
Continuous
 62
     7
370
    15
100
AcDbCircle
 10
91.6766510319
 20
149.803564728
 30
0.0
 40
2.150000000000143
100
AcDbArc
 50
279.5940682269
 51
0.0
  0
LINE
  5
A9
330
1F
100
AcDbEntity
  8
0
  6
Continuous
 62
     7
370
    15
100
AcDbLine
 10
93.8266510319
 20
149.803564728
 30
0.0
 11
93.8266510319
 21
153.678564728
 31
0.0
  0
ARC
  5
AA
330
1F
100
AcDbEntity
  8
0
  6
Continuous
 62
     7
370
    15
100
AcDbCircle
 10
96.1766510319
 20
153.678564728
 30
0.0
 40
2.349999999999994
100
AcDbArc
 50
90.0
 51
180.0
  0
LINE
  5
AB
330
1F
100
AcDbEntity
  8
0
  6
Continuous
 62
     7
370
    15
100
AcDbLine
 10
96.1766510319
 20
156.028564728
 30
0.0
 11
176.4266510319
 21
156.028564728
 31
0.0
  0
ARC
  5
AC
330
1F
100
AcDbEntity
  8
0
  6
Continuous
 62
     7
370
    15
100
AcDbCircle
 10
176.4266510319
 20
153.678564728
 30
0.0
 40
2.349999999999994
100
AcDbArc
 50
0.0
 51
90.0
  0
CIRCLE
  5
AD
330
1F
100
AcDbEntity
  8
0
  6
Continuous
 62
     7
370
    15
100
AcDbCircle
 10
91.6766510319
 20
154.303564728
 30
0.0
 40
1.75
  0
CIRCLE
  5
AE
330
1F
100
AcDbEntity
  8
0
  6
Continuous
 62
     7
370
    15
100
AcDbCircle
 10
180.9266510319
 20
154.303564728
 30
0.0
 40
1.75
  0
CIRCLE
  5
AF
330
1F
100
AcDbEntity
  8
0
  6
Continuous
 62
     7
370
    15
100
AcDbCircle
 10
180.9266510319
 20
122.803564728
 30
0.0
 40
1.75
  0
CIRCLE
  5
B0
330
1F
100
AcDbEntity
  8
0
  6
Continuous
 62
     7
370
    15
100
AcDbCircle
 10
91.6766510319
 20
122.803564728
 30
0.0
 40
1.75
  0
CIRCLE
  5
B1
330
1F
100
AcDbEntity
  8
0
  6
Continuous
 62
     7
370
    15
100
AcDbCircle
 10
91.6766510319
 20
149.803564728
 30
0.0
 40
1.875
  0
CIRCLE
  5
B2
330
1F
100
AcDbEntity
  8
0
  6
Continuous
 62
     7
370
    15
100
AcDbCircle
 10
180.9266510319
 20
149.803564728
 30
0.0
 40
1.875
  0
CIRCLE
  5
B3
330
1F
100
AcDbEntity
  8
0
  6
Continuous
 62
     7
370
    15
100
AcDbCircle
 10
180.9266510319
 20
127.303564728
 30
0.0
 40
1.875000000000014
  0
CIRCLE
  5
B4
330
1F
100
AcDbEntity
  8
0
  6
Continuous
 62
     7
370
    15
100
AcDbCircle
 10
91.6766510319
 20
127.303564728
 30
0.0
 40
1.875000000000014
  0
ELLIPSE
  5
B5
330
1F
100
AcDbEntity
  8
0
  6
Continuous
 62
     7
370
    15
100
AcDbEllipse
 10
180.8011940478
 20
154.3031077438
 30
0.0
 11
-2.121966567508736
 21
-2.121966567508736
 31
0.0
210
0.0
220
0.0
230
1.0
 40
0.9996954599
 41
2.356346783439401
 42
3.926838523740199
  0
ELLIPSE
  5
B6
330
1F
100
AcDbEntity
  8
0
  6
Continuous
 62
     7
370
    15
100
AcDbEllipse
 10
180.8011940478
 20
122.8040217121
 30
0.0
 11
-2.121966567508736
 21
2.12196656750875
 31
0.0
210
0.0
220
0.0
230
1.0
 40
0.9996954599
 41
2.356346783439402
 42
3.926838523740205
  0
LINE
  5
B7
330
1F
100
AcDbEntity
  8
0
  6
Continuous
 62
     7
370
    15
100
AcDbLine
 10
88.8016510319
 20
122.8031078134
 30
0.0
 11
88.8016510319
 21
154.3040216425
 31
0.0
  0
ELLIPSE
  5
B8
330
1F
100
AcDbEntity
  8
0
  6
Continuous
 62
     7
370
    15
100
AcDbEllipse
 10
91.802108016
 20
122.8040217121
 30
0.0
 11
2.12196656750875
 21
2.12196656750875
 31
0.0
210
0.0
220
0.0
230
1.0
 40
0.9996954599
 41
2.356346783439398
 42
3.926838523740207
  0
LINE
  5
B9
330
1F
100
AcDbEntity
  8
0
  6
Continuous
 62
     7
370
    15
100
AcDbLine
 10
183.8016510319
 20
154.3040216425
 30
0.0
 11
183.8016510319
 21
122.8031078134
 31
0.0
  0
LINE
  5
BA
330
1F
100
AcDbEntity
  8
0
  6
Continuous
 62
     7
370
    15
100
AcDbLine
 10
180.8021079464
 20
119.803564728
 30
0.0
 11
91.8011941174
 21
119.803564728
 31
0.0
  0
ELLIPSE
  5
BB
330
1F
100
AcDbEntity
  8
0
  6
Continuous
 62
     7
370
    15
100
AcDbEllipse
 10
91.802108016
 20
154.3031077438
 30
0.0
 11
2.12196656750875
 21
-2.121966567508736
 31
0.0
210
0.0
220
0.0
230
1.0
 40
0.9996954599
 41
2.356346783439931
 42
3.926838523740197
  0
LINE
  5
BC
330
1F
100
AcDbEntity
  8
0
  6
Continuous
 62
     7
370
    15
100
AcDbLine
 10
91.8011941174
 20
157.303564728
 30
0.0
 11
180.8021079464
 21
157.303564728
 31
0.0
  0
CIRCLE
  5
BD
330
1F
100
AcDbEntity
  8
0
  6
Continuous
 62
     7
370
    15
100
AcDbCircle
 10
180.9266510319
 20
122.803564728
 30
0.0
 40
1.124999999977035
  0
CIRCLE
  5
BE
330
1F
100
AcDbEntity
  8
0
  6
Continuous
 62
     7
370
    15
100
AcDbCircle
 10
91.6766510319
 20
122.803564728
 30
0.0
 40
1.124999999998181
  0
CIRCLE
  5
BF
330
1F
100
AcDbEntity
  8
0
  6
Continuous
 62
     7
370
    15
100
AcDbCircle
 10
180.9266510319
 20
154.303564728
 30
0.0
 40
1.124999999998181
  0
CIRCLE
  5
C0
330
1F
100
AcDbEntity
  8
0
  6
Continuous
 62
     7
370
    15
100
AcDbCircle
 10
91.6766510319
 20
154.303564728
 30
0.0
 40
1.124999999977035
  0
CIRCLE
  5
C1
330
1F
100
AcDbEntity
  8
0
  6
Continuous
 62
     7
370
    15
100
AcDbCircle
 10
180.9266510319
 20
154.303564728
 30
0.0
 40
0.8249999999882505
  0
CIRCLE
  5
C2
330
1F
100
AcDbEntity
  8
0
  6
Continuous
 62
     7
370
    15
100
AcDbCircle
 10
180.9266510319
 20
122.803564728
 30
0.0
 40
0.8249999999954696
  0
CIRCLE
  5
C3
330
1F
100
AcDbEntity
  8
0
  6
Continuous
 62
     7
370
    15
100
AcDbCircle
 10
91.6766510319
 20
122.803564728
 30
0.0
 40
0.824999999988222
  0
CIRCLE
  5
C4
330
1F
100
AcDbEntity
  8
0
  6
Continuous
 62
     7
370
    15
100
AcDbCircle
 10
91.6766510319
 20
154.303564728
 30
0.0
 40
0.824999999995498
  0
LINE
  5
C5
330
1F
100
AcDbEntity
  8
0
  6
Continuous
 62
     7
370
    15
100
AcDbLine
 10
96.3016510319
 20
122.2949149016
 30
0.0
 11
96.3016510319
 21
154.8122145544
 31
0.0
  0
LINE
  5
C6
330
1F
100
AcDbEntity
  8
0
  6
Continuous
 62
     7
370
    15
100
AcDbLine
 10
96.1766510319
 20
122.2949149016
 30
0.0
 11
96.3016510319
 21
122.2949149016
 31
0.0
  0
ARC
  5
C7
330
1F
100
AcDbEntity
  8
0
  6
Continuous
 62
     7
370
    15
100
AcDbCircle
 10
96.1766510319
 20
123.428564728
 30
0.0
 40
1.133649826395256
100
AcDbArc
 50
180.0
 51
270.0
  0
LINE
  5
C8
330
1F
100
AcDbEntity
  8
0
  6
Continuous
 62
     7
370
    15
100
AcDbLine
 10
95.0430012055
 20
123.428564728
 30
0.0
 11
95.0430012055
 21
127.303564728
 31
0.0
  0
ARC
  5
C9
330
1F
100
AcDbEntity
  8
0
  6
Continuous
 62
     7
370
    15
100
AcDbCircle
 10
91.6766510319
 20
127.303564728
 30
0.0
 40
3.366350173604744
100
AcDbArc
 50
0.0
 51
80.4059317732
  0
ARC
  5
CA
330
1F
100
AcDbEntity
  8
0
  6
Continuous
 62
     7
370
    15
100
AcDbCircle
 10
92.4266510319
 20
131.7406245653
 30
0.0
 40
1.133649826395639
100
AcDbArc
 50
180.0
 51
260.4059317731
  0
LINE
  5
CB
330
1F
100
AcDbEntity
  8
0
  6
Continuous
 62
     7
370
    15
100
AcDbLine
 10
91.2930012055
 20
131.7406245653
 30
0.0
 11
91.2930012055
 21
145.3665048906
 31
0.0
  0
ARC
  5
CC
330
1F
100
AcDbEntity
  8
0
  6
Continuous
 62
     7
370
    15
100
AcDbCircle
 10
92.4266510319
 20
145.3665048906
 30
0.0
 40
1.13364982639568
100
AcDbArc
 50
99.5940682268
 51
180.0
  0
ARC
  5
CD
330
1F
100
AcDbEntity
  8
0
  6
Continuous
 62
     7
370
    15
100
AcDbCircle
 10
91.6766510319
 20
149.803564728
 30
0.0
 40
3.366350173604999
100
AcDbArc
 50
279.5940682269
 51
0.0
  0
LINE
  5
CE
330
1F
100
AcDbEntity
  8
0
  6
Continuous
 62
     7
370
    15
100
AcDbLine
 10
95.0430012055
 20
149.803564728
 30
0.0
 11
95.0430012055
 21
153.678564728
 31
0.0
  0
ARC
  5
CF
330
1F
100
AcDbEntity
  8
0
  6
Continuous
 62
     7
370
    15
100
AcDbCircle
 10
96.1766510319
 20
153.678564728
 30
0.0
 40
1.133649826395242
100
AcDbArc
 50
90.0
 51
180.0
  0
LINE
  5
D0
330
1F
100
AcDbEntity
  8
0
  6
Continuous
 62
     7
370
    15
100
AcDbLine
 10
96.1766510319
 20
154.8122145544
 30
0.0
 11
96.3016510319
 21
154.8122145544
 31
0.0
  0
CIRCLE
  5
D1
330
1F
100
AcDbEntity
  8
0
  6
Continuous
 62
     7
370
    15
100
AcDbCircle
 10
94.0516510319
 20
138.553564728
 30
0.0
 40
1.125000000034532
  0
ARC
  5
D2
330
1F
100
AcDbEntity
  8
0
  6
Continuous
 62
     7
370
    15
100
AcDbCircle
 10
180.9266510319
 20
149.803564728
 30
0.0
 40
3.366350173604729
100
AcDbArc
 50
180.0
 51
260.4059317731
  0
ARC
  5
D3
330
1F
100
AcDbEntity
  8
0
  6
Continuous
 62
     7
370
    15
100
AcDbCircle
 10
180.1766510319
 20
145.3665048906
 30
0.0
 40
1.133649826395683
100
AcDbArc
 50
0.0
 51
80.4059317732
  0
LINE
  5
D4
330
1F
100
AcDbEntity
  8
0
  6
Continuous
 62
     7
370
    15
100
AcDbLine
 10
181.3103008583
 20
145.3665048906
 30
0.0
 11
181.3103008583
 21
131.7406245653
 31
0.0
  0
ARC
  5
D5
330
1F
100
AcDbEntity
  8
0
  6
Continuous
 62
     7
370
    15
100
AcDbCircle
 10
180.1766510319
 20
131.7406245653
 30
0.0
 40
1.133649826395641
100
AcDbArc
 50
279.5940682269
 51
0.0
  0
ARC
  5
D6
330
1F
100
AcDbEntity
  8
0
  6
Continuous
 62
     7
370
    15
100
AcDbCircle
 10
180.9266510319
 20
127.303564728
 30
0.0
 40
3.366350173604985
100
AcDbArc
 50
99.5940682268
 51
180.0
  0
LINE
  5
D7
330
1F
100
AcDbEntity
  8
0
  6
Continuous
 62
     7
370
    15
100
AcDbLine
 10
177.5603008583
 20
127.303564728
 30
0.0
 11
177.5603008583
 21
123.428564728
 31
0.0
  0
ARC
  5
D8
330
1F
100
AcDbEntity
  8
0
  6
Continuous
 62
     7
370
    15
100
AcDbCircle
 10
176.4266510319
 20
123.428564728
 30
0.0
 40
1.133649826395256
100
AcDbArc
 50
270.0
 51
0.0
  0
LINE
  5
D9
330
1F
100
AcDbEntity
  8
0
  6
Continuous
 62
     7
370
    15
100
AcDbLine
 10
176.3016510319
 20
122.2949149016
 30
0.0
 11
176.3016510319
 21
154.8122145544
 31
0.0
  0
LINE
  5
DA
330
1F
100
AcDbEntity
  8
0
  6
Continuous
 62
     7
370
    15
100
AcDbLine
 10
176.4266510319
 20
154.8122145544
 30
0.0
 11
176.3016510319
 21
154.8122145544
 31
0.0
  0
ARC
  5
DB
330
1F
100
AcDbEntity
  8
0
  6
Continuous
 62
     7
370
    15
100
AcDbCircle
 10
176.4266510319
 20
153.678564728
 30
0.0
 40
1.133649826395242
100
AcDbArc
 50
0.0
 51
90.0
  0
LINE
  5
DC
330
1F
100
AcDbEntity
  8
0
  6
Continuous
 62
     7
370
    15
100
AcDbLine
 10
177.5603008583
 20
153.678564728
 30
0.0
 11
177.5603008583
 21
149.803564728
 31
0.0
  0
CIRCLE
  5
DD
330
1F
100
AcDbEntity
  8
0
  6
Continuous
 62
     7
370
    15
100
AcDbCircle
 10
178.5516510319
 20
138.553564728
 30
0.0
 40
1.124999999997499
  0
LINE
  5
DE
330
1F
100
AcDbEntity
  8
0
  6
Continuous
 62
     7
370
    15
100
AcDbLine
 10
176.4266510319
 20
122.2949149016
 30
0.0
 11
176.3016510319
 21
122.2949149016
 31
0.0
  0
CIRCLE
  5
DF
330
1F
100
AcDbEntity
  8
0
  6
Continuous
 62
     7
370
    15
100
AcDbCircle
 10
94.0516510319
 20
138.553564728
 30
0.0
 40
0.8249999999961801
  0
CIRCLE
  5
E0
330
1F
100
AcDbEntity
  8
0
  6
Continuous
 62
     7
370
    15
100
AcDbCircle
 10
178.5516510319
 20
138.553564728
 30
0.0
 40
0.8249999999875683
  0
CIRCLE
  5
E1
330
1F
100
AcDbEntity
  8
0
  6
Continuous
 62
     7
370
    15
100
AcDbCircle
 10
91.6766510319
 20
149.803564728
 30
0.0
 40
1.125
  0
CIRCLE
  5
E2
330
1F
100
AcDbEntity
  8
0
  6
Continuous
 62
     7
370
    15
100
AcDbCircle
 10
180.9266510319
 20
149.803564728
 30
0.0
 40
1.125
  0
CIRCLE
  5
E3
330
1F
100
AcDbEntity
  8
0
  6
Continuous
 62
     7
370
    15
100
AcDbCircle
 10
180.9266510319
 20
127.303564728
 30
0.0
 40
1.125000000000014
  0
CIRCLE
  5
E4
330
1F
100
AcDbEntity
  8
0
  6
Continuous
 62
     7
370
    15
100
AcDbCircle
 10
91.6766510319
 20
127.303564728
 30
0.0
 40
1.125000000000014
  0
SPLINE
  5
E5
330
1F
100
AcDbEntity
  8
0
  6
Continuous
 62
     7
370
    15
100
AcDbSpline
210
0.0
220
0.0
230
1.0
 70
     8
 71
     3
 72
    11
 73
     7
 74
     0
 42
0.000000001
 43
0.00000001
 40
0.0
 40
0.0
 40
0.0
 40
0.0
 40
0.2500273792558675
 40
0.5000052728122728
 40
0.749978956588739
 40
1.0
 40
1.0
 40
1.0
 40
1.0
 10
74.9215228023603
 20
120.9583368959751
 30
0.0
 10
74.92152313464696
 20
120.9914417691218
 30
0.0
 10
74.92152379915454
 20
121.0576449632615
 30
0.0
 10
74.92152479612479
 20
121.5668126692897
 30
0.0
 10
74.92152579308353
 20
122.2937866848624
 30
0.0
 10
74.9215264575187
 20
122.8682834879004
 30
0.0
 10
74.92152678976773
 20
123.1555590976651
 30
0.0
  0
SPLINE
  5
E6
330
1F
100
AcDbEntity
  8
0
  6
Continuous
 62
     7
370
    15
100
AcDbSpline
210
0.0
220
0.0
230
1.0
 70
     8
 71
     3
 72
    11
 73
     7
 74
     0
 42
0.000000001
 43
0.00000001
 40
0.0
 40
0.0
 40
0.0
 40
0.0
 40
0.2499307639301161
 40
0.4998584177571689
 40
0.7498884094742201
 40
1.0
 40
1.0
 40
1.0
 40
1.0
 10
74.9215267898084
 20
153.9720707151465
 30
0.0
 10
74.92148116548752
 20
154.187330893055
 30
0.0
 10
74.9213899174135
 20
154.617848570205
 30
0.0
 10
74.92125220802565
 20
155.2045426220241
 30
0.0
 10
74.9211140120382
 20
155.6967287838573
 30
0.0
 10
74.92102136433307
 20
155.893404936495
 30
0.0
 10
74.9209750329227
 20
155.9917590568104
 30
0.0
  0
SPLINE
  5
E7
330
1F
100
AcDbEntity
  8
0
  6
Continuous
 62
     7
370
    15
100
AcDbSpline
210
0.0
220
0.0
230
1.0
 70
     8
 71
     3
 72
     9
 73
     5
 74
     0
 42
0.000000001
 43
0.00000001
 40
0.0
 40
0.0
 40
0.0
 40
0.0
 40
0.4823032535777733
 40
1.0
 40
1.0
 40
1.0
 40
1.0
 10
74.92152716256021
 20
156.1486882240725
 30
0.0
 10
74.90697738824457
 20
156.2048757502577
 30
0.0
 10
74.87681011442322
 20
156.3213740856273
 30
0.0
 10
74.81367357426429
 20
156.3220147773626
 30
0.0
 10
74.78098799284365
 20
156.3223464613895
 30
0.0
  0
SPLINE
  5
E8
330
1F
100
AcDbEntity
  8
0
  6
Continuous
 62
     7
370
    15
100
AcDbSpline
210
0.0
220
0.0
230
1.0
 70
     8
 71
     3
 72
    11
 73
     7
 74
     0
 42
0.000000001
 43
0.00000001
 40
0.0
 40
0.0
 40
0.0
 40
0.0
 40
0.2554167571436848
 40
0.514863207868097
 40
0.7663743582833187
 40
1.0
 40
1.0
 40
1.0
 40
1.0
 10
74.87021418127922
 20
156.2869296891631
 30
0.0
 10
74.82520907880166
 20
156.376963384219
 30
0.0
 10
74.73448883126913
 20
156.5584512300875
 30
0.0
 10
74.50212276563678
 20
156.7605215543011
 30
0.0
 10
74.23210785880975
 20
156.8908700645017
 30
0.0
 10
74.03925222359648
 20
156.9083022955268
 30
0.0
 10
73.94637940449451
 20
156.9166970745373
 30
0.0
  0
LINE
  5
E9
330
1F
100
AcDbEntity
  8
0
  6
Continuous
 62
     7
370
    15
100
AcDbLine
 10
74.8702141813
 20
155.9461094124
 30
0.0
 11
74.9110060535
 21
155.977166165
 31
0.0
  0
LINE
  5
EA
330
1F
100
AcDbEntity
  8
0
  6
Continuous
 62
     7
370
    15
100
AcDbLine
 10
75.1873233232
 20
152.178564728
 30
0.0
 11
74.9373233232
 21
152.178564728
 31
0.0
  0
LINE
  5
EB
330
1F
100
AcDbEntity
  8
0
  6
Continuous
 62
     7
370
    15
100
AcDbLine
 10
74.9373233232
 20
147.428564728
 30
0.0
 11
75.1873233232
 21
147.428564728
 31
0.0
  0
LINE
  5
EC
330
1F
100
AcDbEntity
  8
0
  6
Continuous
 62
     7
370
    15
100
AcDbLine
 10
75.1873233232
 20
129.678564728
 30
0.0
 11
74.9373233232
 21
129.678564728
 31
0.0
  0
LINE
  5
ED
330
1F
100
AcDbEntity
  8
0
  6
Continuous
 62
     7
370
    15
100
AcDbLine
 10
74.9373233232
 20
124.928564728
 30
0.0
 11
75.1873233232
 21
124.928564728
 31
0.0
  0
SPLINE
  5
EE
330
1F
100
AcDbEntity
  8
0
  6
Continuous
 62
     7
370
    15
100
AcDbSpline
210
0.0
220
0.0
230
1.0
 70
     8
 71
     3
 72
    10
 73
     6
 74
     0
 42
0.000000001
 43
0.00000001
 40
0.0
 40
0.0
 40
0.0
 40
0.0
 40
0.3596347082997701
 40
0.7192012936605564
 40
1.0
 40
1.0
 40
1.0
 40
1.0
 10
74.92152678976773
 20
153.9515703582453
 30
0.0
 10
74.92152645751948
 20
154.2367266439353
 30
0.0
 10
74.92152579308592
 20
154.8069852002722
 30
0.0
 10
74.92152486891186
 20
155.5103359244846
 30
0.0
 10
74.92152427714048
 20
155.7649663081501
 30
0.0
 10
74.9215240176501
 20
155.8766211452481
 30
0.0
  0
SPLINE
  5
EF
330
1F
100
AcDbEntity
  8
0
  6
Continuous
 62
     7
370
    15
100
AcDbSpline
210
0.0
220
0.0
230
1.0
 70
     8
 71
     3
 72
     9
 73
     5
 74
     0
 42
0.000000001
 43
0.00000001
 40
0.0
 40
0.0
 40
0.0
 40
0.0
 40
0.1174611673091201
 40
1.0
 40
1.0
 40
1.0
 40
1.0
 10
74.92152393196363
 20
155.9176337297365
 30
0.0
 10
74.9215238877285
 20
155.9396126969887
 30
0.0
 10
74.92152351113467
 20
156.1267295778758
 30
0.0
 10
74.92152313463399
 20
156.1384493797156
 30
0.0
 10
74.92152280235753
 20
156.1487925599507
 30
0.0
  0
LINE
  5
F0
330
1F
100
AcDbEntity
  8
0
  6
Continuous
 62
     7
370
    15
100
AcDbLine
 10
54.9373233232
 20
154.3040216425
 30
0.0
 11
54.9373233232
 21
122.8031078134
 31
0.0
  0
LINE
  5
F1
330
1F
100
AcDbEntity
  8
0
  6
Continuous
 62
     7
370
    15
100
AcDbLine
 10
73.9547757296
 20
153.9720707738
 30
0.0
 11
54.9373233232
 21
154.3040216425
 31
0.0
  0
LINE
  5
F2
330
1F
100
AcDbEntity
  8
0
  6
Continuous
 62
     7
370
    15
100
AcDbLine
 10
73.9547757296
 20
153.972070776
 30
0.0
 11
73.9547757296
 21
123.1350586836
 31
0.0
  0
LINE
  5
F3
330
1F
100
AcDbEntity
  8
0
  6
Continuous
 62
     7
370
    15
100
AcDbLine
 10
54.9373233232
 20
122.8031078134
 30
0.0
 11
73.9547757296
 21
123.1350586836
 31
0.0
  0
LINE
  5
F4
330
1F
100
AcDbEntity
  8
0
  6
Continuous
 62
     7
370
    15
100
AcDbLine
 10
54.9373233232
 20
122.8031078134
 30
0.0
 11
54.9373233232
 21
119.803564728
 31
0.0
  0
SPLINE
  5
F5
330
1F
100
AcDbEntity
  8
0
  6
Continuous
 62
     7
370
    15
100
AcDbSpline
210
0.0
220
0.0
230
1.0
 70
     8
 71
     3
 72
    47
 73
    43
 74
     0
 42
0.000000001
 43
0.00000001
 40
0.0
 40
0.0
 40
0.0
 40
0.0
 40
0.0249874028094898
 40
0.0499876492912355
 40
0.0749952830030924
 40
0.1000049810541176
 40
0.1250117950517008
 40
0.1500131967234704
 40
0.1750103809608807
 40
0.2000046382923602
 40
0.224997068088339
 40
0.2499887459293727
 40
0.2749808910608878
 40
0.2999747259362935
 40
0.3249703960388239
 40
0.3499674734395895
 40
0.3749653549909376
 40
0.3999634444579618
 40
0.424961334646051
 40
0.4499590137410137
 40
0.4749568626166156
 40
0.4999550391901736
 40
0.5249534681144619
 40
0.5499520186232579
 40
0.5749506827704158
 40
0.599949739918441
 40
0.624949486796174
 40
0.6499497310069617
 40
0.6749499725025663
 40
0.6999495910595189
 40
0.7249480284811873
 40
0.7499449830891376
 40
0.7749410594096662
 40
0.7999375805380784
 40
0.8249356926922455
 40
0.84993646209436
 40
0.8749410425632335
 40
0.8999508404535728
 40
0.9249661036401354
 40
0.9499828513551777
 40
0.9749959519119494
 40
1.0
 40
1.0
 40
1.0
 40
1.0
 10
73.95477517841157
 20
123.135058689043
 30
0.0
 10
73.9550000232333
 20
123.0958162272843
 30
0.0
 10
73.95544982844834
 20
123.0173111329103
 30
0.0
 10
73.95608100395908
 20
122.8997138333346
 30
0.0
 10
73.95668058754201
 20
122.7824426475005
 30
0.0
 10
73.95724540712382
 20
122.6657025530415
 30
0.0
 10
73.95777630598324
 20
122.5496960121674
 30
0.0
 10
73.95827304875631
 20
122.4346162987314
 30
0.0
 10
73.95873562648356
 20
122.3206373419791
 30
0.0
 10
73.95916400757824
 20
122.2079266021652
 30
0.0
 10
73.95955817990301
 20
122.0966506364729
 30
0.0
 10
73.95991812810995
 20
121.9869760847415
 30
0.0
 10
73.96024383758191
 20
121.8790700332027
 30
0.0
 10
73.96053528762783
 20
121.7731022406629
 30
0.0
 10
73.96079247306442
 20
121.6692275772522
 30
0.0
 10
73.96101538613303
 20
121.5676020117411
 30
0.0
 10
73.96120401903003
 20
121.4683818071317
 30
0.0
 10
73.9613583648152
 20
121.3717235105506
 30
0.0
 10
73.9614784174947
 20
121.2777827826237
 30
0.0
 10
73.96156417150499
 20
121.1867189040889
 30
0.0
 10
73.96161562201954
 20
121.0986649914939
 30
0.0
 10
73.9616327677395
 20
121.0137464857946
 30
0.0
 10
73.96161560832248
 20
120.9320901701056
 30
0.0
 10
73.96156414433692
 20
120.8538228125952
 30
0.0
 10
73.96147837712006
 20
120.7790700414229
 30
0.0
 10
73.96135831001376
 20
120.7079629546976
 30
0.0
 10
73.96120394978621
 20
120.6406084427822
 30
0.0
 10
73.96101530261886
 20
120.5770947674317
 30
0.0
 10
73.96079237572826
 20
120.5175143084317
 30
0.0
 10
73.96053517700422
 20
120.4619586826278
 30
0.0
 10
73.96024371576426
 20
120.410518894193
 30
0.0
 10
73.95991799778517
 20
120.3632892788838
 30
0.0
 10
73.95955803518672
 20
120.3203487791074
 30
0.0
 10
73.95916384920687
 20
120.2817458825183
 30
0.0
 10
73.95873545533948
 20
120.2475331247383
 30
0.0
 10
73.95827286523966
 20
120.2177626055243
 30
0.0
 10
73.95777611089315
 20
120.1924836139752
 30
0.0
 10
73.95724516345041
 20
120.1717579614424
 30
0.0
 10
73.95668031890506
 20
120.1556031731454
 30
0.0
 10
73.95608071913907
 20
120.1441311498469
 30
0.0
 10
73.95544952051225
 20
120.1369272310337
 30
0.0
 10
73.954999754208
 20
120.1360173236852
 30
0.0
 10
73.95477491175689
 20
120.1355624523518
 30
0.0
  0
LINE
  5
F6
330
1F
100
AcDbEntity
  8
0
  6
Continuous
 62
     7
370
    15
100
AcDbLine
 10
54.9373233232
 20
119.803564728
 30
0.0
 11
73.9547757296
 21
120.1355155945
 31
0.0
  0
LINE
  5
F7
330
1F
100
AcDbEntity
  8
0
  6
Continuous
 62
     7
370
    15
100
AcDbLine
 10
54.9373233232
 20
157.303564728
 30
0.0
 11
54.9373233232
 21
154.3040216425
 31
0.0
  0
LINE
  5
F8
330
1F
100
AcDbEntity
  8
0
  6
Continuous
 62
     7
370
    15
100
AcDbLine
 10
54.9373233232
 20
157.303564728
 30
0.0
 11
73.9547757296
 21
156.9716138614
 31
0.0
  0
LINE
  5
F9
330
1F
100
AcDbEntity
  8
0
  6
Continuous
 62
     7
370
    15
100
AcDbLine
 10
73.9547757297
 20
156.9716138614
 30
0.0
 11
73.9577910014
 21
156.9129336567
 31
0.0
  0
LINE
  5
FA
330
1F
100
AcDbEntity
  8
0
  6
Continuous
 62
     7
370
    15
100
AcDbLine
 10
74.9040014694
 20
123.1350586836
 30
0.0
 11
74.9373233232
 21
123.1350586836
 31
0.0
  0
SPLINE
  5
FB
330
1F
100
AcDbEntity
  8
0
  6
Continuous
 62
     7
370
    15
100
AcDbSpline
210
0.0
220
0.0
230
1.0
 70
     8
 71
     3
 72
    11
 73
     7
 74
     0
 42
0.000000001
 43
0.00000001
 40
0.0
 40
0.0
 40
0.0
 40
0.0
 40
0.2822984946675342
 40
0.5645969893350704
 40
0.8468954840026033
 40
1.0
 40
1.0
 40
1.0
 40
1.0
 10
73.95477572962785
 20
120.1355155944791
 30
0.0
 10
74.08429893847293
 20
120.1523945890207
 30
0.0
 10
74.34334535616308
 20
120.186152578104
 30
0.0
 10
74.66424592314178
 20
120.4193065700486
 30
0.0
 10
74.86667430294956
 20
120.6939131586723
 30
0.0
 10
74.89373228432763
 20
120.8923104883364
 30
0.0
 10
74.90324691569506
 20
120.962074652546
 30
0.0
  0
SPLINE
  5
FC
330
1F
100
AcDbEntity
  8
0
  6
Continuous
 62
     7
370
    15
100
AcDbSpline
210
0.0
220
0.0
230
1.0
 70
     8
 71
     3
 72
    26
 73
    22
 74
     0
 42
0.000000001
 43
0.00000001
 40
0.0
 40
0.0
 40
0.0
 40
0.0
 40
0.1249999999999993
 40
0.1249999999999993
 40
0.2499999999999987
 40
0.2499999999999987
 40
0.374999999999998
 40
0.374999999999998
 40
0.4374999999999977
 40
0.4374999999999977
 40
0.4999999999999974
 40
0.4999999999999974
 40
0.6249999999999981
 40
0.6249999999999981
 40
0.7499999999999988
 40
0.7499999999999988
 40
0.8749999999999994
 40
0.8749999999999994
 40
0.9374999999999998
 40
0.9374999999999998
 40
1.0
 40
1.0
 40
1.0
 40
1.0
 10
74.93732332291381
 20
129.1088579542069
 30
0.0
 10
74.93732023003821
 20
128.9934186223554
 30
0.0
 10
74.91093665992656
 20
128.8661576555997
 30
0.0
 10
74.83187223034902
 20
128.5902722045346
 30
0.0
 10
74.7801594146574
 20
128.4465132782405
 30
0.0
 10
74.67183873463902
 20
128.1441628593469
 30
0.0
 10
74.61422672562902
 20
127.9845202714472
 30
0.0
 10
74.54661138841925
 20
127.7367988632077
 30
0.0
 10
74.52723376342377
 20
127.6525215381125
 30
0.0
 10
74.49991093698176
 20
127.479126484458
 30
0.0
 10
74.49229684019438
 20
127.3904617821645
 30
0.0
 10
74.49261245699508
 20
127.1241359511975
 30
0.0
 10
74.52402926612285
 20
126.9527220675714
 30
0.0
 10
74.61512977118326
 20
126.6196463035735
 30
0.0
 10
74.6717495451242
 20
126.4632171636306
 30
0.0
 10
74.77986581236381
 20
126.1614340850349
 30
0.0
 10
74.832457119972
 20
126.0148857156708
 30
0.0
 10
74.89104511413208
 20
125.8103460344845
 30
0.0
 10
74.90732647717486
 20
125.7444865395496
 30
0.0
 10
74.93048194111219
 20
125.6173341293841
 30
0.0
 10
74.9373217794235
 20
125.5558811543384
 30
0.0
 10
74.93732332291381
 20
125.4982715017035
 30
0.0
  0
LINE
  5
FD
330
1F
100
AcDbEntity
  8
0
  6
Continuous
 62
     7
370
    15
100
AcDbLine
 10
74.9373233232
 20
123.13505868
 30
0.0
 11
74.9373233232
 21
125.4982982939
 31
0.0
  0
LINE
  5
FE
330
1F
100
AcDbEntity
  8
0
  6
Continuous
 62
     7
370
    15
100
AcDbLine
 10
74.9373233232
 20
153.972070776
 30
0.0
 11
74.9032390396
 21
153.972070776
 31
0.0
  0
LINE
  5
FF
330
1F
100
AcDbEntity
  8
0
  6
Continuous
 62
     7
370
    15
100
AcDbLine
 10
74.9373233232
 20
151.608831162
 30
0.0
 11
74.9373233232
 21
153.972070776
 31
0.0
  0
SPLINE
  5
100
330
1F
100
AcDbEntity
  8
0
  6
Continuous
 62
     7
370
    15
100
AcDbSpline
210
0.0
220
0.0
230
1.0
 70
     8
 71
     3
 72
    26
 73
    22
 74
     0
 42
0.000000001
 43
0.00000001
 40
0.0
 40
0.0
 40
0.0
 40
0.0
 40
0.1249999999999993
 40
0.1249999999999993
 40
0.2499999999999987
 40
0.2499999999999987
 40
0.374999999999998
 40
0.374999999999998
 40
0.4374999999999977
 40
0.4374999999999977
 40
0.4999999999999974
 40
0.4999999999999974
 40
0.6249999999999981
 40
0.6249999999999981
 40
0.7499999999999988
 40
0.7499999999999988
 40
0.8749999999999994
 40
0.8749999999999994
 40
0.9374999999999998
 40
0.9374999999999998
 40
1.0
 40
1.0
 40
1.0
 40
1.0
 10
74.93732332291381
 20
147.9982715017035
 30
0.0
 10
74.93732023003821
 20
148.113710833555
 30
0.0
 10
74.91093665992656
 20
148.2409718003108
 30
0.0
 10
74.83187223034902
 20
148.5168572513758
 30
0.0
 10
74.7801594146574
 20
148.66061617767
 30
0.0
 10
74.67183873463902
 20
148.9629665965635
 30
0.0
 10
74.61422672562902
 20
149.1226091844632
 30
0.0
 10
74.54661138841925
 20
149.3703305927028
 30
0.0
 10
74.52723376342377
 20
149.454607917798
 30
0.0
 10
74.49991093698176
 20
149.6280029714524
 30
0.0
 10
74.49229684019438
 20
149.7166676737459
 30
0.0
 10
74.49261245699508
 20
149.9829935047129
 30
0.0
 10
74.52402926612285
 20
150.1544073883391
 30
0.0
 10
74.61512977118326
 20
150.4874831523369
 30
0.0
 10
74.6717495451242
 20
150.6439122922799
 30
0.0
 10
74.77986581236381
 20
150.9456953708755
 30
0.0
 10
74.832457119972
 20
151.0922437402397
 30
0.0
 10
74.89104511413208
 20
151.2967834214259
 30
0.0
 10
74.90732647717486
 20
151.3626429163609
 30
0.0
 10
74.93048194111219
 20
151.4897953265263
 30
0.0
 10
74.9373217794235
 20
151.5512483015721
 30
0.0
 10
74.93732332291381
 20
151.6088579542069
 30
0.0
  0
LINE
  5
101
330
1F
100
AcDbEntity
  8
0
  6
Continuous
 62
     7
370
    15
100
AcDbLine
 10
74.9373233232
 20
129.108831162
 30
0.0
 11
74.9373233232
 21
147.9982982939
 31
0.0
  0
LINE
  5
102
330
1F
100
AcDbEntity
  8
0
  6
Continuous
 62
     7
370
    15
100
AcDbLine
 10
74.9019103935
 20
156.151851415
 30
0.0
 11
74.9373233232
 21
155.9717661663
 31
0.0
  0
LINE
  5
103
330
1F
100
AcDbEntity
  8
0
  6
Continuous
 62
     7
370
    15
100
AcDbLine
 10
74.9373233232
 20
155.8763667674
 30
0.0
 11
74.9373233232
 21
155.9717661663
 31
0.0
  0
LINE
  5
104
330
1F
100
AcDbEntity
  8
0
  6
Continuous
 62
     7
370
    15
100
AcDbLine
 10
75.1873233232
 20
147.428564728
 30
0.0
 11
75.1873233232
 21
152.178564728
 31
0.0
  0
LINE
  5
105
330
1F
100
AcDbEntity
  8
0
  6
Continuous
 62
     7
370
    15
100
AcDbLine
 10
75.1873233232
 20
124.928564728
 30
0.0
 11
75.1873233232
 21
129.678564728
 31
0.0
  0
LINE
  5
106
330
1F
100
AcDbEntity
  8
0
  6
Continuous
 62
     7
370
    15
100
AcDbLine
 10
54.1873233232
 20
145.3665048906
 30
0.0
 11
54.1873233232
 21
131.7406245653
 31
0.0
  0
LINE
  5
107
330
1F
100
AcDbEntity
  8
0
  6
Continuous
 62
     7
370
    15
100
AcDbLine
 10
54.9373233232
 20
145.3665048906
 30
0.0
 11
54.1873233232
 21
145.3665048906
 31
0.0
  0
LINE
  5
108
330
1F
100
AcDbEntity
  8
0
  6
Continuous
 62
     7
370
    15
100
AcDbLine
 10
54.9373233232
 20
131.7406245653
 30
0.0
 11
54.1873233232
 21
131.7406245653
 31
0.0
  0
LINE
  5
109
330
1F
100
AcDbEntity
  8
0
  6
Continuous
 62
     7
370
    15
100
AcDbLine
 10
54.9373233232
 20
147.683636139
 30
0.0
 11
54.1873233232
 21
147.683636139
 31
0.0
  0
LINE
  5
10A
330
1F
100
AcDbEntity
  8
0
  6
Continuous
 62
     7
370
    15
100
AcDbLine
 10
54.1873233232
 20
147.683636139
 30
0.0
 11
54.1873233232
 21
145.3665048906
 31
0.0
  0
LINE
  5
10B
330
1F
100
AcDbEntity
  8
0
  6
Continuous
 62
     7
370
    15
100
AcDbLine
 10
54.1873233232
 20
129.4234933169
 30
0.0
 11
54.9373233232
 21
129.4234933169
 31
0.0
  0
LINE
  5
10C
330
1F
100
AcDbEntity
  8
0
  6
Continuous
 62
     7
370
    15
100
AcDbLine
 10
54.1873233232
 20
131.7406245653
 30
0.0
 11
54.1873233232
 21
129.4234933169
 31
0.0
  0
LINE
  5
10D
330
1F
100
AcDbEntity
  8
0
  6
Continuous
 62
     7
370
    15
100
AcDbLine
 10
54.1873233232
 20
149.803564728
 30
0.0
 11
54.9373233232
 21
149.803564728
 31
0.0
  0
LINE
  5
10E
330
1F
100
AcDbEntity
  8
0
  6
Continuous
 62
     7
370
    15
100
AcDbLine
 10
54.1873233232
 20
147.683636139
 30
0.0
 11
54.1873233232
 21
149.803564728
 31
0.0
  0
LINE
  5
10F
330
1F
100
AcDbEntity
  8
0
  6
Continuous
 62
     7
370
    15
100
AcDbLine
 10
54.9373233232
 20
127.303564728
 30
0.0
 11
54.1873233232
 21
127.303564728
 31
0.0
  0
LINE
  5
110
330
1F
100
AcDbEntity
  8
0
  6
Continuous
 62
     7
370
    15
100
AcDbLine
 10
54.1873233232
 20
127.303564728
 30
0.0
 11
54.1873233232
 21
129.4234933169
 31
0.0
  0
LINE
  5
111
330
1F
100
AcDbEntity
  8
0
  6
Continuous
 62
     7
370
    15
100
AcDbLine
 10
54.9373233232
 20
123.428564728
 30
0.0
 11
54.1873233232
 21
123.428564728
 31
0.0
  0
LINE
  5
112
330
1F
100
AcDbEntity
  8
0
  6
Continuous
 62
     7
370
    15
100
AcDbLine
 10
54.1873233232
 20
127.303564728
 30
0.0
 11
54.1873233232
 21
123.428564728
 31
0.0
  0
LINE
  5
113
330
1F
100
AcDbEntity
  8
0
  6
Continuous
 62
     7
370
    15
100
AcDbLine
 10
54.9373233232
 20
153.678564728
 30
0.0
 11
54.1873233232
 21
153.678564728
 31
0.0
  0
LINE
  5
114
330
1F
100
AcDbEntity
  8
0
  6
Continuous
 62
     7
370
    15
100
AcDbLine
 10
54.1873233232
 20
153.678564728
 30
0.0
 11
54.1873233232
 21
149.803564728
 31
0.0
  0
LINE
  5
115
330
1F
100
AcDbEntity
  8
0
  6
Continuous
 62
     7
370
    15
100
AcDbLine
 10
54.1873233232
 20
156.028564728
 30
0.0
 11
54.9373233232
 21
156.028564728
 31
0.0
  0
LINE
  5
116
330
1F
100
AcDbEntity
  8
0
  6
Continuous
 62
     7
370
    15
100
AcDbLine
 10
54.1873233232
 20
156.028564728
 30
0.0
 11
54.1873233232
 21
153.678564728
 31
0.0
  0
LINE
  5
117
330
1F
100
AcDbEntity
  8
0
  6
Continuous
 62
     7
370
    15
100
AcDbLine
 10
54.9373233232
 20
121.078564728
 30
0.0
 11
54.1873233232
 21
121.078564728
 31
0.0
  0
LINE
  5
118
330
1F
100
AcDbEntity
  8
0
  6
Continuous
 62
     7
370
    15
100
AcDbLine
 10
54.1873233232
 20
123.428564728
 30
0.0
 11
54.1873233232
 21
121.078564728
 31
0.0
  0
SPLINE
  5
119
330
1F
100
AcDbEntity
  8
0
  6
Continuous
 62
     8
370
    15
100
AcDbSpline
210
0.0
220
0.0
230
1.0
 70
     8
 71
     3
 72
    15
 73
    11
 74
     0
 42
0.000000001
 43
0.00000001
 40
0.0
 40
0.0
 40
0.0
 40
0.0
 40
0.0091096437267176
 40
0.1534519793028146
 40
0.2938859332998313
 40
0.4304117339346855
 40
0.5670000295899713
 40
0.707460695112189
 40
0.8517939780468171
 40
1.0
 40
1.0
 40
1.0
 40
1.0
 10
73.95779100136947
 20
156.9129336567091
 30
0.0
 10
73.95785725834173
 20
156.9117203478777
 30
0.0
 10
73.95897335726328
 20
156.8912821565199
 30
0.0
 10
73.96037204816564
 20
156.7424217983331
 30
0.0
 10
73.96175323088858
 20
156.4726812379316
 30
0.0
 10
73.96212621093309
 20
156.1050027635206
 30
0.0
 10
73.96174220590801
 20
155.664525410649
 30
0.0
 10
73.96041492557598
 20
155.1522027170142
 30
0.0
 10
73.95813232634069
 20
154.5798071105778
 30
0.0
 10
73.95590442644169
 20
154.1764295710358
 30
0.0
 10
73.95477572962788
 20
153.9720707738352
 30
0.0
  0
SPLINE
  5
11A
330
1F
100
AcDbEntity
  8
0
  6
Continuous
 62
     8
370
    15
100
AcDbSpline
210
0.0
220
0.0
230
1.0
 70
    24
 71
     3
 72
    11
 73
     7
 74
     0
 42
0.000000001
 43
0.00000001
 40
0.0
 40
0.0
 40
0.0
 40
0.0
 40
0.2814932153301725
 40
0.5629864306603488
 40
0.8444796459905185
 40
1.0
 40
1.0
 40
1.0
 40
1.0
 10
73.95477572962785
 20
123.1350586835852
 30
0.0
 10
74.08429255153828
 20
123.1350586835852
 30
0.0
 10
74.34332619535914
 20
123.1350586835852
 30
0.0
 10
74.66432256635761
 20
123.1350586835852
 30
0.0
 10
74.86724807263148
 20
123.1350586835852
 30
0.0
 10
74.89435493094395
 20
123.1350586835852
 30
0.0
 10
74.9040014693963
 20
123.1350586835852
 30
0.0
  0
SPLINE
  5
11B
330
1F
100
AcDbEntity
  8
0
  6
Continuous
 62
     8
370
    15
100
AcDbSpline
210
0.0
220
0.0
230
1.0
 70
    24
 71
     3
 72
    11
 73
     7
 74
     0
 42
0.000000001
 43
0.00000001
 40
0.0
 40
0.0
 40
0.0
 40
0.0
 40
0.1530792263495943
 40
0.4353861508997263
 40
0.7176930754498652
 40
1.0
 40
1.0
 40
1.0
 40
1.0
 10
74.90323903958956
 20
153.9720707759602
 30
0.0
 10
74.8937257905401
 20
153.9720707759602
 30
0.0
 10
74.86666831850445
 20
153.9720707759602
 30
0.0
 10
74.66424511731816
 20
153.9720707759602
 30
0.0
 10
74.343345557619
 20
153.9720707759602
 30
0.0
 10
74.0842990056249
 20
153.9720707759602
 30
0.0
 10
73.95477572962785
 20
153.9720707759602
 30
0.0
  0
SPLINE
  5
11C
330
1F
100
AcDbEntity
  8
0
  6
Continuous
 62
     7
370
    15
100
AcDbSpline
210
0.0
220
0.0
230
1.0
 70
     8
 71
     3
 72
    11
 73
     7
 74
     0
 42
0.000000001
 43
0.00000001
 40
0.0
 40
0.0
 40
0.0
 40
0.0
 40
0.2500273792581172
 40
0.5000052728152684
 40
0.7499789565909885
 40
1.0
 40
1.0
 40
1.0
 40
1.0
 10
89.95642319986297
 20
168.673467816786
 30
0.0
 10
89.98952807301457
 20
168.6734674844985
 30
0.0
 10
90.05573126716392
 20
168.6734668199894
 30
0.0
 10
90.56489897321023
 20
168.6734658230168
 30
0.0
 10
91.29187298879683
 20
168.6734648260557
 30
0.0
 10
91.86636979183912
 20
168.673464161619
 30
0.0
 10
92.15364540160512
 20
168.6734638293692
 30
0.0
  0
SPLINE
  5
11D
330
1F
100
AcDbEntity
  8
0
  6
Continuous
 62
     7
370
    15
100
AcDbSpline
210
0.0
220
0.0
230
1.0
 70
     8
 71
     3
 72
    11
 73
     7
 74
     0
 42
0.000000001
 43
0.00000001
 40
0.0
 40
0.0
 40
0.0
 40
0.0
 40
0.2499307639301135
 40
0.4998584177571645
 40
0.7498884094742186
 40
1.0
 40
1.0
 40
1.0
 40
1.0
 10
180.4701570190865
 20
168.6734638293285
 30
0.0
 10
180.685417196995
 20
168.6735094536494
 30
0.0
 10
181.115934874145
 20
168.6736007017234
 30
0.0
 10
181.7026289259641
 20
168.6737384111113
 30
0.0
 10
182.1948150877973
 20
168.6738766070987
 30
0.0
 10
182.3914912404349
 20
168.6739692548038
 30
0.0
 10
182.4898453607504
 20
168.6740155862142
 30
0.0
  0
SPLINE
  5
11E
330
1F
100
AcDbEntity
  8
0
  6
Continuous
 62
     7
370
    15
100
AcDbSpline
210
0.0
220
0.0
230
1.0
 70
     8
 71
     3
 72
     9
 73
     5
 74
     0
 42
0.000000001
 43
0.00000001
 40
0.0
 40
0.0
 40
0.0
 40
0.0
 40
0.4823032535780835
 40
1.0
 40
1.0
 40
1.0
 40
1.0
 10
182.6467745280187
 20
168.6734634565778
 30
0.0
 10
182.7029620542028
 20
168.6880132308935
 30
0.0
 10
182.8194603895702
 20
168.7181805047151
 30
0.0
 10
182.8201010813036
 20
168.7813170448731
 30
0.0
 10
182.8204327653295
 20
168.8140026262932
 30
0.0
  0
SPLINE
  5
11F
330
1F
100
AcDbEntity
  8
0
  6
Continuous
 62
     7
370
    15
100
AcDbSpline
210
0.0
220
0.0
230
1.0
 70
     8
 71
     3
 72
    11
 73
     7
 74
     0
 42
0.000000001
 43
0.00000001
 40
0.0
 40
0.0
 40
0.0
 40
0.0
 40
0.2554167571436795
 40
0.5148632078680987
 40
0.7663743582833212
 40
1.0
 40
1.0
 40
1.0
 40
1.0
 10
182.7850159931031
 20
168.7247764378577
 30
0.0
 10
182.875049688159
 20
168.7697815403352
 30
0.0
 10
183.0565375340275
 20
168.8605017878677
 30
0.0
 10
183.2586078582411
 20
169.0928678535001
 30
0.0
 10
183.3889563684417
 20
169.3628827603271
 30
0.0
 10
183.4063885994668
 20
169.5557383955404
 30
0.0
 10
183.4147833784773
 20
169.6486112146424
 30
0.0
  0
LINE
  5
120
330
1F
100
AcDbEntity
  8
0
  6
Continuous
 62
     7
370
    15
100
AcDbLine
 10
182.4441957163
 20
168.7247764379
 30
0.0
 11
182.4752524689
 21
168.6839845657
 31
0.0
  0
LINE
  5
121
330
1F
100
AcDbEntity
  8
0
  6
Continuous
 62
     7
370
    15
100
AcDbLine
 10
94.0516510319
 20
168.407667296
 30
0.0
 11
94.0516510319
 21
168.657667296
 31
0.0
  0
LINE
  5
122
330
1F
100
AcDbEntity
  8
0
  6
Continuous
 62
     7
370
    15
100
AcDbLine
 10
89.3016510319
 20
169.1025896863
 30
0.0
 11
89.3016510319
 21
168.407667296
 31
0.0
  0
LINE
  5
123
330
1F
100
AcDbEntity
  8
0
  6
Continuous
 62
     7
370
    15
100
AcDbLine
 10
183.3016510319
 20
168.407667296
 30
0.0
 11
183.3016510319
 21
169.1025896863
 31
0.0
  0
LINE
  5
124
330
1F
100
AcDbEntity
  8
0
  6
Continuous
 62
     7
370
    15
100
AcDbLine
 10
178.5516510319
 20
168.657667296
 30
0.0
 11
178.5516510319
 21
168.407667296
 31
0.0
  0
SPLINE
  5
125
330
1F
100
AcDbEntity
  8
0
  6
Continuous
 62
     7
370
    15
100
AcDbSpline
210
0.0
220
0.0
230
1.0
 70
     8
 71
     3
 72
     9
 73
     5
 74
     0
 42
0.000000001
 43
0.00000001
 40
0.0
 40
0.0
 40
0.0
 40
0.0
 40
0.1174611673292548
 40
1.0
 40
1.0
 40
1.0
 40
1.0
 10
182.4157200336877
 20
168.673466687178
 30
0.0
 10
182.4376990009449
 20
168.6734667314132
 30
0.0
 10
182.6248158818429
 20
168.6734671080077
 30
0.0
 10
182.636535683688
 20
168.673467484509
 30
0.0
 10
182.6468788639275
 20
168.673467816786
 30
0.0
  0
LINE
  5
126
330
1F
100
AcDbEntity
  8
0
  6
Continuous
 62
     7
370
    15
100
AcDbLine
 10
180.8021079464
 20
188.657667296
 30
0.0
 11
91.8011941174
 21
188.657667296
 31
0.0
  0
LINE
  5
127
330
1F
100
AcDbEntity
  8
0
  6
Continuous
 62
     7
370
    15
100
AcDbLine
 10
180.8021079464
 20
188.657667296
 30
0.0
 11
180.4701570778
 21
169.6402148895
 31
0.0
  0
LINE
  5
128
330
1F
100
AcDbEntity
  8
0
  6
Continuous
 62
     7
370
    15
100
AcDbLine
 10
180.4701570799
 20
169.6402148895
 30
0.0
 11
92.1331449875
 21
169.6402148895
 31
0.0
  0
LINE
  5
129
330
1F
100
AcDbEntity
  8
0
  6
Continuous
 62
     7
370
    15
100
AcDbLine
 10
91.8011941174
 20
188.657667296
 30
0.0
 11
92.1331449875
 21
169.6402148895
 31
0.0
  0
LINE
  5
12A
330
1F
100
AcDbEntity
  8
0
  6
Continuous
 62
     7
370
    15
100
AcDbLine
 10
183.8016510319
 20
188.657667296
 30
0.0
 11
180.8021079464
 21
188.657667296
 31
0.0
  0
LINE
  5
12B
330
1F
100
AcDbEntity
  8
0
  6
Continuous
 62
     7
370
    15
100
AcDbLine
 10
183.8016510319
 20
188.657667296
 30
0.0
 11
183.4697001654
 21
169.6402148895
 31
0.0
  0
LINE
  5
12C
330
1F
100
AcDbEntity
  8
0
  6
Continuous
 62
     7
370
    15
100
AcDbLine
 10
183.4697001654
 20
169.6402148895
 30
0.0
 11
183.4110199609
 21
169.6371996178
 31
0.0
  0
LINE
  5
12D
330
1F
100
AcDbEntity
  8
0
  6
Continuous
 62
     7
370
    15
100
AcDbLine
 10
91.8011941174
 20
188.657667296
 30
0.0
 11
88.8016510319
 21
188.657667296
 31
0.0
  0
SPLINE
  5
12E
330
1F
100
AcDbEntity
  8
0
  6
Continuous
 62
     7
370
    15
100
AcDbSpline
210
0.0
220
0.0
230
1.0
 70
     8
 71
     3
 72
    47
 73
    43
 74
     0
 42
0.000000001
 43
0.00000001
 40
0.0
 40
0.0
 40
0.0
 40
0.0
 40
0.024987402847343
 40
0.0499876493650297
 40
0.0749952831108891
 40
0.1000049811939586
 40
0.1250117952216141
 40
0.1500131969215003
 40
0.1750103811850912
 40
0.2000046385408093
 40
0.2249970683590938
 40
0.2499887462205058
 40
0.2749808913704714
 40
0.2999747262624014
 40
0.324970396379514
 40
0.3499674737929137
 40
0.3749653553549415
 40
0.3999634448307028
 40
0.4249613350255814
 40
0.4499590141253949
 40
0.4749568630039147
 40
0.4999550395784459
 40
0.5249534685017634
 40
0.5499520190076465
 40
0.5749506831499535
 40
0.5999497402911905
 40
0.6249494871601939
 40
0.6499497313603069
 40
0.6749499728432847
 40
0.6999495913856664
 40
0.7249480287908102
 40
0.7499449833803031
 40
0.7749410596804434
 40
0.7999375807865455
 40
0.824935692916464
 40
0.8499364622923943
 40
0.8749410427331457
 40
0.8999508405934205
 40
0.924966103747955
 40
0.949982851428994
 40
0.9749959519498208
 40
1.0
 40
1.0
 40
1.0
 40
1.0
 10
92.133144992983
 20
169.6402154407153
 30
0.0
 10
92.0939025311648
 20
169.6399905958941
 30
0.0
 10
92.01539743667489
 20
169.6395407906801
 30
0.0
 10
91.89780013693074
 20
169.6389096151708
 30
0.0
 10
91.78052895093869
 20
169.6383100315893
 30
0.0
 10
91.66378885633314
 20
169.6377452120089
 30
0.0
 10
91.54778231532454
 20
169.6372143131507
 30
0.0
 10
91.43270260176631
 20
169.6367175703788
 30
0.0
 10
91.31872364490445
 20
169.6362549926527
 30
0.0
 10
91.20601290499387
 20
169.6358266115591
 30
0.0
 10
91.09473693921782
 20
169.6354324392354
 30
0.0
 10
90.98506238741585
 20
169.6350724910293
 30
0.0
 10
90.87715633581975
 20
169.6347467815583
 30
0.0
 10
90.77118854323558
 20
169.6344553315132
 30
0.0
 10
90.6673138797933
 20
169.6341981460773
 30
0.0
 10
90.56568831426321
 20
169.6339752330094
 30
0.0
 10
90.46646810964701
 20
169.633786600113
 30
0.0
 10
90.369809813071
 20
169.6336322543283
 30
0.0
 10
90.27586908516069
 20
169.6335122016494
 30
0.0
 10
90.18480520665331
 20
169.6334264476395
 30
0.0
 10
90.09675129409541
 20
169.6333749971253
 30
0.0
 10
90.01183278844252
 20
169.6333578514056
 30
0.0
 10
89.93017647280828
 20
169.6333750108228
 30
0.0
 10
89.85190911536031
 20
169.6334264748085
 30
0.0
 10
89.77715634425724
 20
169.6335122420255
 30
0.0
 10
89.70604925760706
 20
169.6336323091318
 30
0.0
 10
89.63869474577122
 20
169.6337866693593
 30
0.0
 10
89.57518107050349
 20
169.6339753165265
 30
0.0
 10
89.51560061158894
 20
169.6341982434169
 30
0.0
 10
89.46004498587173
 20
169.6344554421408
 30
0.0
 10
89.40860519752376
 20
169.6347469033804
 30
0.0
 10
89.36137558230072
 20
169.6350726213591
 30
0.0
 10
89.3184350826078
 20
169.6354325839571
 30
0.0
 10
89.27983218609856
 20
169.6358267699364
 30
0.0
 10
89.24561942839358
 20
169.6362551638033
 30
0.0
 10
89.21584890924845
 20
169.6367177539024
 30
0.0
 10
89.19056991776112
 20
169.6372145082483
 30
0.0
 10
89.16984426528163
 20
169.6377454556902
 30
0.0
 10
89.1536894770281
 20
169.6383103002347
 30
0.0
 10
89.1422174537618
 20
169.6389098999998
 30
0.0
 10
89.13501353496964
 20
169.6395410986257
 30
0.0
 10
89.13410362762386
 20
169.6399908649292
 30
0.0
 10
89.13364875629182
 20
169.64021570738
 30
0.0
  0
LINE
  5
12F
330
1F
100
AcDbEntity
  8
0
  6
Continuous
 62
     7
370
    15
100
AcDbLine
 10
88.8016510319
 20
188.657667296
 30
0.0
 11
89.1336018984
 21
169.6402148895
 31
0.0
  0
LINE
  5
130
330
1F
100
AcDbEntity
  8
0
  6
Continuous
 62
     7
370
    15
100
AcDbLine
 10
92.1331449875
 20
168.6909891497
 30
0.0
 11
92.1331449875
 21
168.657667296
 31
0.0
  0
SPLINE
  5
131
330
1F
100
AcDbEntity
  8
0
  6
Continuous
 62
     7
370
    15
100
AcDbSpline
210
0.0
220
0.0
230
1.0
 70
     8
 71
     3
 72
    11
 73
     7
 74
     0
 42
0.000000001
 43
0.00000001
 40
0.0
 40
0.0
 40
0.0
 40
0.0
 40
0.2822984946784672
 40
0.5645969893569384
 40
0.8468954840354026
 40
0.9999999999999999
 40
0.9999999999999999
 40
0.9999999999999999
 40
0.9999999999999999
 10
89.13360189841909
 20
169.640214889509
 30
0.0
 10
89.15048089296069
 20
169.5106916806639
 30
0.0
 10
89.18423888204391
 20
169.2516452629735
 30
0.0
 10
89.41739287398897
 20
168.9307446959962
 30
0.0
 10
89.69199946259636
 20
168.7283163161951
 30
0.0
 10
89.89039679224226
 20
168.7012583348177
 30
0.0
 10
89.96016095643405
 20
168.691743703452
 30
0.0
  0
LINE
  5
132
330
1F
100
AcDbEntity
  8
0
  6
Continuous
 62
     7
370
    15
100
AcDbLine
 10
180.4701570799
 20
168.6917515795
 30
0.0
 11
180.4701570799
 21
168.657667296
 31
0.0
  0
LINE
  5
133
330
1F
100
AcDbEntity
  8
0
  6
Continuous
 62
     7
370
    15
100
AcDbLine
 10
92.1331449839
 20
168.657667296
 30
0.0
 11
180.4701570799
 21
168.657667296
 31
0.0
  0
LINE
  5
134
330
1F
100
AcDbEntity
  8
0
  6
Continuous
 62
     7
370
    15
100
AcDbLine
 10
182.6499377189
 20
168.6930802256
 30
0.0
 11
182.4698524702
 21
168.657667296
 31
0.0
  0
LINE
  5
135
330
1F
100
AcDbEntity
  8
0
  6
Continuous
 62
     7
370
    15
100
AcDbLine
 10
182.3744530713
 20
168.657667296
 30
0.0
 11
182.4698524702
 21
168.657667296
 31
0.0
  0
LINE
  5
136
330
1F
100
AcDbEntity
  8
0
  6
Continuous
 62
     7
370
    15
100
AcDbLine
 10
176.4266510319
 20
189.407667296
 30
0.0
 11
96.1766510319
 21
189.407667296
 31
0.0
  0
LINE
  5
137
330
1F
100
AcDbEntity
  8
0
  6
Continuous
 62
     7
370
    15
100
AcDbLine
 10
176.4266510319
 20
188.657667296
 30
0.0
 11
176.4266510319
 21
189.407667296
 31
0.0
  0
LINE
  5
138
330
1F
100
AcDbEntity
  8
0
  6
Continuous
 62
     7
370
    15
100
AcDbLine
 10
96.1766510319
 20
188.657667296
 30
0.0
 11
96.1766510319
 21
189.407667296
 31
0.0
  0
LINE
  5
139
330
1F
100
AcDbEntity
  8
0
  6
Continuous
 62
     7
370
    15
100
AcDbLine
 10
178.7766510319
 20
188.657667296
 30
0.0
 11
178.7766510319
 21
189.407667296
 31
0.0
  0
LINE
  5
13A
330
1F
100
AcDbEntity
  8
0
  6
Continuous
 62
     7
370
    15
100
AcDbLine
 10
178.7766510319
 20
189.407667296
 30
0.0
 11
176.4266510319
 21
189.407667296
 31
0.0
  0
LINE
  5
13B
330
1F
100
AcDbEntity
  8
0
  6
Continuous
 62
     7
370
    15
100
AcDbLine
 10
93.8266510319
 20
188.657667296
 30
0.0
 11
93.8266510319
 21
189.407667296
 31
0.0
  0
LINE
  5
13C
330
1F
100
AcDbEntity
  8
0
  6
Continuous
 62
     7
370
    15
100
AcDbLine
 10
96.1766510319
 20
189.407667296
 30
0.0
 11
93.8266510319
 21
189.407667296
 31
0.0
  0
LINE
  5
13D
330
1F
100
AcDbEntity
  8
0
  6
Continuous
 62
     7
370
    15
100
AcDbLine
 10
89.3016510319
 20
168.407667296
 30
0.0
 11
94.0516510319
 21
168.407667296
 31
0.0
  0
LINE
  5
13E
330
1F
100
AcDbEntity
  8
0
  6
Continuous
 62
     7
370
    15
100
AcDbLine
 10
178.5516510319
 20
168.407667296
 30
0.0
 11
183.3016510319
 21
168.407667296
 31
0.0
  0
LINE
  5
13F
330
1F
100
AcDbEntity
  8
0
  6
Continuous
 62
     7
370
    15
100
AcDbLine
 10
180.5683176986
 20
189.407667296
 30
0.0
 11
180.5683176986
 21
188.657667296
 31
0.0
  0
LINE
  5
140
330
1F
100
AcDbEntity
  8
0
  6
Continuous
 62
     7
370
    15
100
AcDbLine
 10
178.7766510319
 20
189.407667296
 30
0.0
 11
180.5683176986
 21
189.407667296
 31
0.0
  0
LINE
  5
141
330
1F
100
AcDbEntity
  8
0
  6
Continuous
 62
     7
370
    15
100
AcDbLine
 10
92.0349843652
 20
188.657667296
 30
0.0
 11
92.0349843652
 21
189.407667296
 31
0.0
  0
LINE
  5
142
330
1F
100
AcDbEntity
  8
0
  6
Continuous
 62
     7
370
    15
100
AcDbLine
 10
92.0349843652
 20
189.407667296
 30
0.0
 11
93.8266510319
 21
189.407667296
 31
0.0
  0
LINE
  5
143
330
1F
100
AcDbEntity
  8
0
  6
Continuous
 62
     7
370
    15
100
AcDbLine
 10
90.0766510319
 20
188.657667296
 30
0.0
 11
90.0766510319
 21
189.407667296
 31
0.0
  0
LINE
  5
144
330
1F
100
AcDbEntity
  8
0
  6
Continuous
 62
     7
370
    15
100
AcDbLine
 10
92.0349843652
 20
189.407667296
 30
0.0
 11
90.0766510319
 21
189.407667296
 31
0.0
  0
LINE
  5
145
330
1F
100
AcDbEntity
  8
0
  6
Continuous
 62
     7
370
    15
100
AcDbLine
 10
182.5266510319
 20
188.657667296
 30
0.0
 11
182.5266510319
 21
189.407667296
 31
0.0
  0
LINE
  5
146
330
1F
100
AcDbEntity
  8
0
  6
Continuous
 62
     7
370
    15
100
AcDbLine
 10
182.5266510319
 20
189.407667296
 30
0.0
 11
180.5683176986
 21
189.407667296
 31
0.0
  0
SPLINE
  5
147
330
1F
100
AcDbEntity
  8
0
  6
Continuous
 62
     8
370
    15
100
AcDbSpline
210
0.0
220
0.0
230
1.0
 70
     8
 71
     3
 72
    15
 73
    11
 74
     0
 42
0.000000001
 43
0.00000001
 40
0.0
 40
0.0
 40
0.0
 40
0.0
 40
0.0091096430421193
 40
0.1534519788285274
 40
0.2938859330537313
 40
0.4304117339346518
 40
0.5670000295899454
 40
0.7074606951121732
 40
0.8517939780468093
 40
0.9999999999999999
 40
0.9999999999999999
 40
0.9999999999999999
 40
0.9999999999999999
 10
183.4110199608974
 20
169.6371996177982
 30
0.0
 10
183.4098066521659
 20
169.6371333608304
 30
0.0
 10
183.3893684610188
 20
169.6360172619042
 30
0.0
 10
183.2405081029993
 20
169.6346185709914
 30
0.0
 10
182.9707675425107
 20
169.6332373882517
 30
0.0
 10
182.6030890677171
 20
169.6328644082029
 30
0.0
 10
182.1626117145905
 20
169.633248413229
 30
0.0
 10
181.6502890209538
 20
169.6345756935609
 30
0.0
 10
181.0778934145179
 20
169.6368582927962
 30
0.0
 10
180.6745158749758
 20
169.6390861926952
 30
0.0
 10
180.4701570777752
 20
169.640214889509
 30
0.0
  0
SPLINE
  5
148
330
1F
100
AcDbEntity
  8
0
  6
Continuous
 62
     8
370
    15
100
AcDbSpline
210
0.0
220
0.0
230
1.0
 70
    24
 71
     3
 72
    11
 73
     7
 74
     0
 42
0.000000001
 43
0.00000001
 40
0.0
 40
0.0
 40
0.0
 40
0.0
 40
0.2814932153302474
 40
0.5629864306604968
 40
0.8444796459907428
 40
1.0
 40
1.0
 40
1.0
 40
1.0
 10
92.13314498752521
 20
169.640214889509
 30
0.0
 10
92.13314498752521
 20
169.5106980675986
 30
0.0
 10
92.1331449875252
 20
169.2516644237778
 30
0.0
 10
92.13314498752523
 20
168.9306680527793
 30
0.0
 10
92.1331449875252
 20
168.7277425465055
 30
0.0
 10
92.13314498752523
 20
168.700635688193
 30
0.0
 10
92.13314498752521
 20
168.6909891497407
 30
0.0
  0
SPLINE
  5
149
330
1F
100
AcDbEntity
  8
0
  6
Continuous
 62
     8
370
    15
100
AcDbSpline
210
0.0
220
0.0
230
1.0
 70
    24
 71
     3
 72
    11
 73
     7
 74
     0
 42
0.000000001
 43
0.00000001
 40
0.0
 40
0.0
 40
0.0
 40
0.0
 40
0.2823069245501286
 40
0.564613849100259
 40
0.8469207736503862
 40
1.0
 40
1.0
 40
1.0
 40
1.0
 10
180.4701570799002
 20
169.640214889509
 30
0.0
 10
180.4701570799002
 20
169.510691613512
 30
0.0
 10
180.4701570799002
 20
169.2516450615179
 30
0.0
 10
180.4701570799002
 20
168.9307455018187
 30
0.0
 10
180.4701570799002
 20
168.7283223006324
 30
0.0
 10
180.4701570799002
 20
168.7012648285968
 30
0.0
 10
180.4701570799002
 20
168.6917515795473
 30
0.0
  0
SPLINE
  5
14A
330
1F
100
AcDbEntity
  8
0
  6
Continuous
 62
     7
370
    15
100
AcDbSpline
210
0.0
220
0.0
230
1.0
 70
     8
 71
     3
 72
    11
 73
     7
 74
     0
 42
0.000000001
 43
0.00000001
 40
0.0
 40
0.0
 40
0.0
 40
0.0
 40
0.2500273792577816
 40
0.5000052728148245
 40
0.7499789565906488
 40
1.0
 40
1.0
 40
1.0
 40
1.0
 10
182.6468788639198
 20
106.3496466297444
 30
0.0
 10
182.6137739907689
 20
106.3496469620317
 30
0.0
 10
182.547570796621
 20
106.3496476265406
 30
0.0
 10
182.0384030905773
 20
106.3496486235128
 30
0.0
 10
181.3114290749928
 20
106.3496496204736
 30
0.0
 10
180.7369322719511
 20
106.3496502849101
 30
0.0
 10
180.4496566621853
 20
106.3496506171598
 30
0.0
  0
SPLINE
  5
14B
330
1F
100
AcDbEntity
  8
0
  6
Continuous
 62
     7
370
    15
100
AcDbSpline
210
0.0
220
0.0
230
1.0
 70
     8
 71
     3
 72
    11
 73
     7
 74
     0
 42
0.000000001
 43
0.00000001
 40
0.0
 40
0.0
 40
0.0
 40
0.0
 40
0.2499307639301137
 40
0.4998584177571622
 40
0.7498884094742161
 40
1.0
 40
1.0
 40
1.0
 40
1.0
 10
92.133145044704
 20
106.3496506172005
 30
0.0
 10
91.91788486679542
 20
106.3496049928796
 30
0.0
 10
91.48736718964544
 20
106.3495137448056
 30
0.0
 10
90.90067313782635
 20
106.3493760354177
 30
0.0
 10
90.4084869759931
 20
106.3492378394303
 30
0.0
 10
90.2118108233555
 20
106.3491451917251
 30
0.0
 10
90.11345670304006
 20
106.3490988603148
 30
0.0
  0
SPLINE
  5
14C
330
1F
100
AcDbEntity
  8
0
  6
Continuous
 62
     7
370
    15
100
AcDbSpline
210
0.0
220
0.0
230
1.0
 70
     8
 71
     3
 72
     9
 73
     5
 74
     0
 42
0.000000001
 43
0.00000001
 40
0.0
 40
0.0
 40
0.0
 40
0.0
 40
0.4823032535780815
 40
1.0
 40
1.0
 40
1.0
 40
1.0
 10
89.95652753577151
 20
106.3496509899511
 30
0.0
 10
89.90034000958744
 20
106.3351012156354
 30
0.0
 10
89.78384167422018
 20
106.3049339418138
 30
0.0
 10
89.78320098248682
 20
106.2417974016558
 30
0.0
 10
89.782869298461
 20
106.2091118202357
 30
0.0
  0
SPLINE
  5
14D
330
1F
100
AcDbEntity
  8
0
  6
Continuous
 62
     7
370
    15
100
AcDbSpline
210
0.0
220
0.0
230
1.0
 70
     8
 71
     3
 72
    11
 73
     7
 74
     0
 42
0.000000001
 43
0.00000001
 40
0.0
 40
0.0
 40
0.0
 40
0.0
 40
0.2554167571436703
 40
0.5148632078680963
 40
0.7663743582833199
 40
1.0
 40
1.0
 40
1.0
 40
1.0
 10
89.81828607068732
 20
106.2983380086713
 30
0.0
 10
89.72825237563139
 20
106.2533329061937
 30
0.0
 10
89.54676452976292
 20
106.1626126586612
 30
0.0
 10
89.34469420554929
 20
105.9302465930289
 30
0.0
 10
89.21434569534875
 20
105.6602316862018
 30
0.0
 10
89.19691346432364
 20
105.4673760509886
 30
0.0
 10
89.18851868531316
 20
105.3745032318866
 30
0.0
  0
LINE
  5
14E
330
1F
100
AcDbEntity
  8
0
  6
Continuous
 62
     7
370
    15
100
AcDbLine
 10
90.1591063475
 20
106.2983380087
 30
0.0
 11
90.1280495949
 21
106.3391298809
 31
0.0
  0
LINE
  5
14F
330
1F
100
AcDbEntity
  8
0
  6
Continuous
 62
     7
370
    15
100
AcDbLine
 10
178.5516510319
 20
106.6154471506
 30
0.0
 11
178.5516510319
 21
106.3654471506
 31
0.0
  0
LINE
  5
150
330
1F
100
AcDbEntity
  8
0
  6
Continuous
 62
     7
370
    15
100
AcDbLine
 10
183.3016510319
 20
105.9205247603
 30
0.0
 11
183.3016510319
 21
106.6154471506
 31
0.0
  0
LINE
  5
151
330
1F
100
AcDbEntity
  8
0
  6
Continuous
 62
     7
370
    15
100
AcDbLine
 10
89.3016510319
 20
106.6154471506
 30
0.0
 11
89.3016510319
 21
105.9205247603
 31
0.0
  0
LINE
  5
152
330
1F
100
AcDbEntity
  8
0
  6
Continuous
 62
     7
370
    15
100
AcDbLine
 10
94.0516510319
 20
106.3654471506
 30
0.0
 11
94.0516510319
 21
106.6154471506
 31
0.0
  0
SPLINE
  5
153
330
1F
100
AcDbEntity
  8
0
  6
Continuous
 62
     7
370
    15
100
AcDbSpline
210
0.0
220
0.0
230
1.0
 70
     8
 71
     3
 72
     9
 73
     5
 74
     0
 42
0.000000001
 43
0.00000001
 40
0.0
 40
0.0
 40
0.0
 40
0.0
 40
0.117461167333431
 40
1.0
 40
1.0
 40
1.0
 40
1.0
 10
90.18758203010044
 20
106.34964775935
 30
0.0
 10
90.1656030628421
 20
106.3496477151147
 30
0.0
 10
89.97848618194179
 20
106.3496473385202
 30
0.0
 10
89.96676638009565
 20
106.3496469620187
 30
0.0
 10
89.95642319985528
 20
106.3496466297416
 30
0.0
  0
LINE
  5
154
330
1F
100
AcDbEntity
  8
0
  6
Continuous
 62
     7
370
    15
100
AcDbLine
 10
91.8011941174
 20
86.3654471506
 30
0.0
 11
180.8021079464
 21
86.3654471506
 31
0.0
  0
LINE
  5
155
330
1F
100
AcDbEntity
  8
0
  6
Continuous
 62
     7
370
    15
100
AcDbLine
 10
91.8011941174
 20
86.3654471506
 30
0.0
 11
92.1331449839
 21
105.3828995571
 31
0.0
  0
LINE
  5
156
330
1F
100
AcDbEntity
  8
0
  6
Continuous
 62
     7
370
    15
100
AcDbLine
 10
92.1331449839
 20
105.382899557
 30
0.0
 11
180.4701570763
 21
105.382899557
 31
0.0
  0
LINE
  5
157
330
1F
100
AcDbEntity
  8
0
  6
Continuous
 62
     7
370
    15
100
AcDbLine
 10
180.8021079464
 20
86.3654471506
 30
0.0
 11
180.4701570763
 21
105.382899557
 31
0.0
  0
LINE
  5
158
330
1F
100
AcDbEntity
  8
0
  6
Continuous
 62
     7
370
    15
100
AcDbLine
 10
180.8021079464
 20
86.3654471506
 30
0.0
 11
183.8016510319
 21
86.3654471506
 31
0.0
  0
SPLINE
  5
159
330
1F
100
AcDbEntity
  8
0
  6
Continuous
 62
     7
370
    15
100
AcDbSpline
210
0.0
220
0.0
230
1.0
 70
     8
 71
     3
 72
    47
 73
    43
 74
     0
 42
0.000000001
 43
0.00000001
 40
0.0
 40
0.0
 40
0.0
 40
0.0
 40
0.024987402847343
 40
0.0499876493650297
 40
0.0749952831108891
 40
0.1000049811939586
 40
0.1250117952216141
 40
0.1500131969215003
 40
0.1750103811850912
 40
0.2000046385408093
 40
0.2249970683590938
 40
0.2499887462205058
 40
0.2749808913704714
 40
0.2999747262624014
 40
0.324970396379514
 40
0.3499674737929137
 40
0.3749653553549415
 40
0.3999634448307028
 40
0.4249613350255814
 40
0.4499590141253949
 40
0.4749568630039147
 40
0.4999550395784459
 40
0.5249534685017634
 40
0.5499520190076465
 40
0.5749506831499535
 40
0.5999497402911905
 40
0.6249494871601939
 40
0.6499497313603069
 40
0.6749499728432847
 40
0.6999495913856664
 40
0.7249480287908102
 40
0.7499449833803031
 40
0.7749410596804434
 40
0.7999375807865455
 40
0.824935692916464
 40
0.8499364622923943
 40
0.8749410427331457
 40
0.8999508405934205
 40
0.924966103747955
 40
0.949982851428994
 40
0.9749959519498208
 40
1.0
 40
1.0
 40
1.0
 40
1.0
 10
180.4701570708074
 20
105.3828990058136
 30
0.0
 10
180.5093995326256
 20
105.3831238506348
 30
0.0
 10
180.5879046271155
 20
105.3835736558488
 30
0.0
 10
180.7055019268597
 20
105.3842048313581
 30
0.0
 10
180.8227731128517
 20
105.3848044149397
 30
0.0
 10
180.9395132074573
 20
105.3853692345201
 30
0.0
 10
181.0555197484659
 20
105.3859001333783
 30
0.0
 10
181.1705994620241
 20
105.3863968761502
 30
0.0
 10
181.284578418886
 20
105.3868594538763
 30
0.0
 10
181.3972891587966
 20
105.3872878349699
 30
0.0
 10
181.5085651245726
 20
105.3876820072936
 30
0.0
 10
181.6182396763746
 20
105.3880419554996
 30
0.0
 10
181.7261457279707
 20
105.3883676649707
 30
0.0
 10
181.8321135205548
 20
105.3886591150158
 30
0.0
 10
181.9359881839972
 20
105.3889163004517
 30
0.0
 10
182.0376137495272
 20
105.3891392135196
 30
0.0
 10
182.1368339541434
 20
105.389327846416
 30
0.0
 10
182.2334922507195
 20
105.3894821922006
 30
0.0
 10
182.3274329786298
 20
105.3896022448796
 30
0.0
 10
182.4184968571371
 20
105.3896879988895
 30
0.0
 10
182.506550769695
 20
105.3897394494037
 30
0.0
 10
182.5914692753479
 20
105.3897565951234
 30
0.0
 10
182.6731255909822
 20
105.3897394357062
 30
0.0
 10
182.7513929484301
 20
105.3896879717204
 30
0.0
 10
182.8261457195332
 20
105.3896022045035
 30
0.0
 10
182.8972528061834
 20
105.3894821373972
 30
0.0
 10
182.9646073180192
 20
105.3893277771697
 30
0.0
 10
183.0281209932869
 20
105.3891391300025
 30
0.0
 10
183.0877014522015
 20
105.388916203112
 30
0.0
 10
183.1432570779187
 20
105.3886590043882
 30
0.0
 10
183.1946968662667
 20
105.3883675431486
 30
0.0
 10
183.2419264814897
 20
105.3880418251699
 30
0.0
 10
183.2848669811826
 20
105.3876818625719
 30
0.0
 10
183.3234698776919
 20
105.3872876765925
 30
0.0
 10
183.3576826353969
 20
105.3868592827257
 30
0.0
 10
183.387453154542
 20
105.3863966926265
 30
0.0
 10
183.4127321460293
 20
105.3858999382807
 30
0.0
 10
183.4334577985088
 20
105.3853689908388
 30
0.0
 10
183.4496125867624
 20
105.3848041462942
 30
0.0
 10
183.4610846100286
 20
105.3842045465292
 30
0.0
 10
183.4682885288208
 20
105.3835733479033
 30
0.0
 10
183.4691984361666
 20
105.3831235815997
 30
0.0
 10
183.4696533074986
 20
105.382898739149
 30
0.0
  0
LINE
  5
15A
330
1F
100
AcDbEntity
  8
0
  6
Continuous
 62
     7
370
    15
100
AcDbLine
 10
183.4697001654
 20
105.382899557
 30
0.0
 11
183.8016510319
 21
86.3654471506
 31
0.0
  0
LINE
  5
15B
330
1F
100
AcDbEntity
  8
0
  6
Continuous
 62
     7
370
    15
100
AcDbLine
 10
88.8016510319
 20
86.3654471506
 30
0.0
 11
91.8011941174
 21
86.3654471506
 31
0.0
  0
LINE
  5
15C
330
1F
100
AcDbEntity
  8
0
  6
Continuous
 62
     7
370
    15
100
AcDbLine
 10
88.8016510319
 20
86.3654471506
 30
0.0
 11
89.1336018984
 21
105.382899557
 31
0.0
  0
LINE
  5
15D
330
1F
100
AcDbEntity
  8
0
  6
Continuous
 62
     7
370
    15
100
AcDbLine
 10
89.1336018984
 20
105.382899557
 30
0.0
 11
89.1922821029
 21
105.3859148287
 31
0.0
  0
LINE
  5
15E
330
1F
100
AcDbEntity
  8
0
  6
Continuous
 62
     7
370
    15
100
AcDbLine
 10
180.4701570763
 20
106.3321252968
 30
0.0
 11
180.4701570763
 21
106.3654471506
 31
0.0
  0
SPLINE
  5
15F
330
1F
100
AcDbEntity
  8
0
  6
Continuous
 62
     7
370
    15
100
AcDbSpline
210
0.0
220
0.0
230
1.0
 70
     8
 71
     3
 72
    11
 73
     7
 74
     0
 42
0.000000001
 43
0.00000001
 40
0.0
 40
0.0
 40
0.0
 40
0.0
 40
0.1531045159694256
 40
0.4354030106462805
 40
0.7177015053231421
 40
0.9999999999999999
 40
0.9999999999999999
 40
0.9999999999999999
 40
0.9999999999999999
 10
182.6431411073488
 20
106.3313707430784
 30
0.0
 10
182.7129052715431
 20
106.3218561117125
 30
0.0
 10
182.9113026011917
 20
106.294798130335
 30
0.0
 10
183.1859091898015
 20
106.092369750533
 30
0.0
 10
183.4190631817466
 20
105.7714691835554
 30
0.0
 10
183.4528211708297
 20
105.5124227658651
 30
0.0
 10
183.4697001653713
 20
105.3828995570199
 30
0.0
  0
LINE
  5
160
330
1F
100
AcDbEntity
  8
0
  6
Continuous
 62
     7
370
    15
100
AcDbLine
 10
92.1331449839
 20
106.331362867
 30
0.0
 11
92.1331449839
 21
106.3654471506
 31
0.0
  0
LINE
  5
161
330
1F
100
AcDbEntity
  8
0
  6
Continuous
 62
     7
370
    15
100
AcDbLine
 10
180.4701570799
 20
106.3654471506
 30
0.0
 11
92.1331449839
 21
106.3654471506
 31
0.0
  0
LINE
  5
162
330
1F
100
AcDbEntity
  8
0
  6
Continuous
 62
     7
370
    15
100
AcDbLine
 10
89.9533643449
 20
106.3300342209
 30
0.0
 11
90.1334495936
 21
106.3654471506
 31
0.0
  0
LINE
  5
163
330
1F
100
AcDbEntity
  8
0
  6
Continuous
 62
     7
370
    15
100
AcDbLine
 10
90.2288489925
 20
106.3654471506
 30
0.0
 11
90.1334495936
 21
106.3654471506
 31
0.0
  0
LINE
  5
164
330
1F
100
AcDbEntity
  8
0
  6
Continuous
 62
     7
370
    15
100
AcDbLine
 10
96.1766510319
 20
85.6154471506
 30
0.0
 11
176.4266510319
 21
85.6154471506
 31
0.0
  0
LINE
  5
165
330
1F
100
AcDbEntity
  8
0
  6
Continuous
 62
     7
370
    15
100
AcDbLine
 10
96.1766510319
 20
86.3654471506
 30
0.0
 11
96.1766510319
 21
85.6154471506
 31
0.0
  0
LINE
  5
166
330
1F
100
AcDbEntity
  8
0
  6
Continuous
 62
     7
370
    15
100
AcDbLine
 10
176.4266510319
 20
85.6154471506
 30
0.0
 11
176.4266510319
 21
86.3654471506
 31
0.0
  0
LINE
  5
167
330
1F
100
AcDbEntity
  8
0
  6
Continuous
 62
     7
370
    15
100
AcDbLine
 10
93.8266510319
 20
85.6154471506
 30
0.0
 11
96.1766510319
 21
85.6154471506
 31
0.0
  0
LINE
  5
168
330
1F
100
AcDbEntity
  8
0
  6
Continuous
 62
     7
370
    15
100
AcDbLine
 10
93.8266510319
 20
86.3654471506
 30
0.0
 11
93.8266510319
 21
85.6154471506
 31
0.0
  0
LINE
  5
169
330
1F
100
AcDbEntity
  8
0
  6
Continuous
 62
     7
370
    15
100
AcDbLine
 10
176.4266510319
 20
85.6154471506
 30
0.0
 11
178.7766510319
 21
85.6154471506
 31
0.0
  0
LINE
  5
16A
330
1F
100
AcDbEntity
  8
0
  6
Continuous
 62
     7
370
    15
100
AcDbLine
 10
178.7766510319
 20
86.3654471506
 30
0.0
 11
178.7766510319
 21
85.6154471506
 31
0.0
  0
LINE
  5
16B
330
1F
100
AcDbEntity
  8
0
  6
Continuous
 62
     7
370
    15
100
AcDbLine
 10
180.9266510319
 20
106.6154471506
 30
0.0
 11
178.5516510319
 21
106.6154471506
 31
0.0
  0
LINE
  5
16C
330
1F
100
AcDbEntity
  8
0
  6
Continuous
 62
     7
370
    15
100
AcDbLine
 10
183.3016510319
 20
106.6154471506
 30
0.0
 11
180.9266510319
 21
106.6154471506
 31
0.0
  0
LINE
  5
16D
330
1F
100
AcDbEntity
  8
0
  6
Continuous
 62
     7
370
    15
100
AcDbLine
 10
91.6766510319
 20
106.6154471506
 30
0.0
 11
89.3016510319
 21
106.6154471506
 31
0.0
  0
LINE
  5
16E
330
1F
100
AcDbEntity
  8
0
  6
Continuous
 62
     7
370
    15
100
AcDbLine
 10
94.0516510319
 20
106.6154471506
 30
0.0
 11
91.6766510319
 21
106.6154471506
 31
0.0
  0
LINE
  5
16F
330
1F
100
AcDbEntity
  8
0
  6
Continuous
 62
     7
370
    15
100
AcDbLine
 10
92.0349843652
 20
85.6154471506
 30
0.0
 11
92.0349843652
 21
86.3654471506
 31
0.0
  0
LINE
  5
170
330
1F
100
AcDbEntity
  8
0
  6
Continuous
 62
     7
370
    15
100
AcDbLine
 10
93.8266510319
 20
85.6154471506
 30
0.0
 11
92.0349843652
 21
85.6154471506
 31
0.0
  0
LINE
  5
171
330
1F
100
AcDbEntity
  8
0
  6
Continuous
 62
     7
370
    15
100
AcDbLine
 10
180.5683176986
 20
86.3654471506
 30
0.0
 11
180.5683176986
 21
85.6154471506
 31
0.0
  0
LINE
  5
172
330
1F
100
AcDbEntity
  8
0
  6
Continuous
 62
     7
370
    15
100
AcDbLine
 10
180.5683176986
 20
85.6154471506
 30
0.0
 11
178.7766510319
 21
85.6154471506
 31
0.0
  0
LINE
  5
173
330
1F
100
AcDbEntity
  8
0
  6
Continuous
 62
     7
370
    15
100
AcDbLine
 10
90.0766510319
 20
86.3654471506
 30
0.0
 11
90.0766510319
 21
85.6154471506
 31
0.0
  0
LINE
  5
174
330
1F
100
AcDbEntity
  8
0
  6
Continuous
 62
     7
370
    15
100
AcDbLine
 10
90.0766510319
 20
85.6154471506
 30
0.0
 11
92.0349843652
 21
85.6154471506
 31
0.0
  0
LINE
  5
175
330
1F
100
AcDbEntity
  8
0
  6
Continuous
 62
     7
370
    15
100
AcDbLine
 10
182.5266510319
 20
86.3654471506
 30
0.0
 11
182.5266510319
 21
85.6154471506
 31
0.0
  0
LINE
  5
176
330
1F
100
AcDbEntity
  8
0
  6
Continuous
 62
     7
370
    15
100
AcDbLine
 10
180.5683176986
 20
85.6154471506
 30
0.0
 11
182.5266510319
 21
85.6154471506
 31
0.0
  0
SPLINE
  5
177
330
1F
100
AcDbEntity
  8
0
  6
Continuous
 62
     8
370
    15
100
AcDbSpline
210
0.0
220
0.0
230
1.0
 70
     8
 71
     3
 72
    15
 73
    11
 74
     0
 42
0.000000001
 43
0.00000001
 40
0.0
 40
0.0
 40
0.0
 40
0.0
 40
0.009109643046795
 40
0.1534519789072731
 40
0.293885933204542
 40
0.4304117341555221
 40
0.5670000296563491
 40
0.7074606950902976
 40
0.8517939780028103
 40
1.0
 40
1.0
 40
1.0
 40
1.0
 10
89.19228210289305
 20
105.3859148287307
 30
0.0
 10
89.19349541162453
 20
105.3859810856985
 30
0.0
 10
89.21393360277172
 20
105.3870971846247
 30
0.0
 10
89.36279396079125
 20
105.3884958755375
 30
0.0
 10
89.6325345212794
 20
105.3898770582775
 30
0.0
 10
90.00021299587489
 20
105.3902500383252
 30
0.0
 10
90.4406903485259
 20
105.3898660333029
 30
0.0
 10
90.95301304145373
 20
105.3885387529822
 30
0.0
 10
91.52540864739062
 20
105.3862561537599
 30
0.0
 10
91.92878618673875
 20
105.3840282538677
 30
0.0
 10
92.13314498388654
 20
105.3828995570571
 30
0.0
  0
SPLINE
  5
178
330
1F
100
AcDbEntity
  8
0
  6
Continuous
 62
     8
370
    15
100
AcDbSpline
210
0.0
220
0.0
230
1.0
 70
    24
 71
     3
 72
    11
 73
     7
 74
     0
 42
0.000000001
 43
0.00000001
 40
0.0
 40
0.0
 40
0.0
 40
0.0
 40
0.281493215330236
 40
0.5629864306604739
 40
0.8444796459907085
 40
1.0
 40
1.0
 40
1.0
 40
1.0
 10
180.4701570762652
 20
105.3828995570199
 30
0.0
 10
180.4701570762652
 20
105.5124163789304
 30
0.0
 10
180.4701570762652
 20
105.7714500227512
 30
0.0
 10
180.4701570762652
 20
106.0924463937497
 30
0.0
 10
180.4701570762652
 20
106.2953719000235
 30
0.0
 10
180.4701570762652
 20
106.322478758336
 30
0.0
 10
180.4701570762652
 20
106.3321252967883
 30
0.0
  0
SPLINE
  5
179
330
1F
100
AcDbEntity
  8
0
  6
Continuous
 62
     8
370
    15
100
AcDbSpline
210
0.0
220
0.0
230
1.0
 70
    24
 71
     3
 72
    11
 73
     7
 74
     0
 42
0.000000001
 43
0.00000001
 40
0.0
 40
0.0
 40
0.0
 40
0.0
 40
0.2823069245501286
 40
0.564613849100259
 40
0.8469207736503862
 40
1.0
 40
1.0
 40
1.0
 40
1.0
 10
92.13314498389022
 20
105.3828995570199
 30
0.0
 10
92.13314498389022
 20
105.512422833017
 30
0.0
 10
92.13314498389022
 20
105.7714693850111
 30
0.0
 10
92.13314498389022
 20
106.0923689447102
 30
0.0
 10
92.13314498389019
 20
106.2947921458965
 30
0.0
 10
92.13314498389022
 20
106.3218496179322
 30
0.0
 10
92.13314498389022
 20
106.3313628669816
 30
0.0
  0
SPLINE
  5
17A
330
1F
100
AcDbEntity
  8
0
  6
Continuous
 62
     7
370
    15
100
AcDbSpline
210
0.0
220
0.0
230
1.0
 70
     8
 71
     3
 72
    11
 73
     7
 74
     0
 42
0.000000001
 43
0.00000001
 40
0.0
 40
0.0
 40
0.0
 40
0.0
 40
0.2500273792558675
 40
0.5000052728122728
 40
0.749978956588739
 40
1.0
 40
1.0
 40
1.0
 40
1.0
 10
193.5137492426678
 20
156.1487925599353
 30
0.0
 10
193.5137489103812
 20
156.1156876867887
 30
0.0
 10
193.5137482458736
 20
156.049484492649
 30
0.0
 10
193.5137472489033
 20
155.5403167866207
 30
0.0
 10
193.5137462519446
 20
154.813342771048
 30
0.0
 10
193.5137455875095
 20
154.23884596801
 30
0.0
 10
193.5137452552604
 20
153.9515703582453
 30
0.0
  0
SPLINE
  5
17B
330
1F
100
AcDbEntity
  8
0
  6
Continuous
 62
     7
370
    15
100
AcDbSpline
210
0.0
220
0.0
230
1.0
 70
     8
 71
     3
 72
    11
 73
     7
 74
     0
 42
0.000000001
 43
0.00000001
 40
0.0
 40
0.0
 40
0.0
 40
0.0
 40
0.2499307639301161
 40
0.4998584177571689
 40
0.7498884094742201
 40
1.0
 40
1.0
 40
1.0
 40
1.0
 10
193.5137452552198
 20
123.135058740764
 30
0.0
 10
193.5137908795406
 20
122.9197985628554
 30
0.0
 10
193.5138821276146
 20
122.4892808857054
 30
0.0
 10
193.5140198370025
 20
121.9025868338864
 30
0.0
 10
193.5141580329899
 20
121.4104006720531
 30
0.0
 10
193.5142506806951
 20
121.2137245194155
 30
0.0
 10
193.5142970121055
 20
121.1153703991001
 30
0.0
  0
SPLINE
  5
17C
330
1F
100
AcDbEntity
  8
0
  6
Continuous
 62
     7
370
    15
100
AcDbSpline
210
0.0
220
0.0
230
1.0
 70
     8
 71
     3
 72
     9
 73
     5
 74
     0
 42
0.000000001
 43
0.00000001
 40
0.0
 40
0.0
 40
0.0
 40
0.0
 40
0.4823032535777733
 40
1.0
 40
1.0
 40
1.0
 40
1.0
 10
193.513744882468
 20
120.958441231838
 30
0.0
 10
193.5282946567836
 20
120.9022537056528
 30
0.0
 10
193.5584619306049
 20
120.7857553702831
 30
0.0
 10
193.6215984707638
 20
120.7851146785478
 30
0.0
 10
193.6542840521845
 20
120.784782994521
 30
0.0
  0
SPLINE
  5
17D
330
1F
100
AcDbEntity
  8
0
  6
Continuous
 62
     7
370
    15
100
AcDbSpline
210
0.0
220
0.0
230
1.0
 70
     8
 71
     3
 72
    11
 73
     7
 74
     0
 42
0.000000001
 43
0.00000001
 40
0.0
 40
0.0
 40
0.0
 40
0.0
 40
0.2554167571436848
 40
0.514863207868097
 40
0.7663743582833187
 40
1.0
 40
1.0
 40
1.0
 40
1.0
 10
193.5650578637489
 20
120.8201997667474
 30
0.0
 10
193.6100629662265
 20
120.7301660716914
 30
0.0
 10
193.700783213759
 20
120.548678225823
 30
0.0
 10
193.9331492793914
 20
120.3466079016093
 30
0.0
 10
194.2031641862184
 20
120.2162593914088
 30
0.0
 10
194.3960198214317
 20
120.1988271603837
 30
0.0
 10
194.4888926405337
 20
120.1904323813732
 30
0.0
  0
LINE
  5
17E
330
1F
100
AcDbEntity
  8
0
  6
Continuous
 62
     7
370
    15
100
AcDbLine
 10
193.5650578637
 20
121.1610200435
 30
0.0
 11
193.5242659915
 21
121.129963291
 31
0.0
  0
LINE
  5
17F
330
1F
100
AcDbEntity
  8
0
  6
Continuous
 62
     7
370
    15
100
AcDbLine
 10
193.2479487219
 20
147.428564728
 30
0.0
 11
193.4979487219
 21
147.428564728
 31
0.0
  0
LINE
  5
180
330
1F
100
AcDbEntity
  8
0
  6
Continuous
 62
     7
370
    15
100
AcDbLine
 10
193.4979487219
 20
152.178564728
 30
0.0
 11
193.2479487219
 21
152.178564728
 31
0.0
  0
LINE
  5
181
330
1F
100
AcDbEntity
  8
0
  6
Continuous
 62
     7
370
    15
100
AcDbLine
 10
193.2479487219
 20
124.928564728
 30
0.0
 11
193.4979487219
 21
124.928564728
 31
0.0
  0
LINE
  5
182
330
1F
100
AcDbEntity
  8
0
  6
Continuous
 62
     7
370
    15
100
AcDbLine
 10
193.4979487219
 20
129.678564728
 30
0.0
 11
193.2479487219
 21
129.678564728
 31
0.0
  0
SPLINE
  5
183
330
1F
100
AcDbEntity
  8
0
  6
Continuous
 62
     7
370
    15
100
AcDbSpline
210
0.0
220
0.0
230
1.0
 70
     8
 71
     3
 72
    10
 73
     6
 74
     0
 42
0.000000001
 43
0.00000001
 40
0.0
 40
0.0
 40
0.0
 40
0.0
 40
0.3596347082997701
 40
0.7192012936605564
 40
1.0
 40
1.0
 40
1.0
 40
1.0
 10
193.5137452552604
 20
123.1555590976651
 30
0.0
 10
193.5137455875087
 20
122.8704028119752
 30
0.0
 10
193.5137462519422
 20
122.3001442556383
 30
0.0
 10
193.5137471761163
 20
121.5967935314258
 30
0.0
 10
193.5137477678877
 20
121.3421631477604
 30
0.0
 10
193.5137480273781
 20
121.2305083106624
 30
0.0
  0
SPLINE
  5
184
330
1F
100
AcDbEntity
  8
0
  6
Continuous
 62
     7
370
    15
100
AcDbSpline
210
0.0
220
0.0
230
1.0
 70
     8
 71
     3
 72
     9
 73
     5
 74
     0
 42
0.000000001
 43
0.00000001
 40
0.0
 40
0.0
 40
0.0
 40
0.0
 40
0.1174611673091201
 40
1.0
 40
1.0
 40
1.0
 40
1.0
 10
193.5137481130645
 20
121.189495726174
 30
0.0
 10
193.5137481572997
 20
121.1675167589217
 30
0.0
 10
193.5137485338935
 20
120.9803998780347
 30
0.0
 10
193.5137489103942
 20
120.9686800761949
 30
0.0
 10
193.5137492426706
 20
120.9583368959597
 30
0.0
  0
LINE
  5
185
330
1F
100
AcDbEntity
  8
0
  6
Continuous
 62
     7
370
    15
100
AcDbLine
 10
213.4979487219
 20
122.8031078134
 30
0.0
 11
213.4979487219
 21
154.3040216425
 31
0.0
  0
LINE
  5
186
330
1F
100
AcDbEntity
  8
0
  6
Continuous
 62
     7
370
    15
100
AcDbLine
 10
213.4979487219
 20
122.8031078134
 30
0.0
 11
194.4804963154
 21
123.1350586821
 31
0.0
  0
LINE
  5
187
330
1F
100
AcDbEntity
  8
0
  6
Continuous
 62
     7
370
    15
100
AcDbLine
 10
194.4804963154
 20
123.13505868
 30
0.0
 11
194.4804963154
 21
153.9720707723
 31
0.0
  0
LINE
  5
188
330
1F
100
AcDbEntity
  8
0
  6
Continuous
 62
     7
370
    15
100
AcDbLine
 10
213.4979487219
 20
154.3040216425
 30
0.0
 11
194.4804963154
 21
153.9720707723
 31
0.0
  0
LINE
  5
189
330
1F
100
AcDbEntity
  8
0
  6
Continuous
 62
     7
370
    15
100
AcDbLine
 10
213.4979487219
 20
119.803564728
 30
0.0
 11
213.4979487219
 21
122.8031078134
 31
0.0
  0
LINE
  5
18A
330
1F
100
AcDbEntity
  8
0
  6
Continuous
 62
     7
370
    15
100
AcDbLine
 10
213.4979487219
 20
119.803564728
 30
0.0
 11
194.4804963154
 21
120.1355155945
 31
0.0
  0
LINE
  5
18B
330
1F
100
AcDbEntity
  8
0
  6
Continuous
 62
     7
370
    15
100
AcDbLine
 10
194.4804963154
 20
120.1355155945
 30
0.0
 11
194.4774810437
 21
120.1941957989
 31
0.0
  0
LINE
  5
18C
330
1F
100
AcDbEntity
  8
0
  6
Continuous
 62
     7
370
    15
100
AcDbLine
 10
213.4979487219
 20
154.3040216425
 30
0.0
 11
213.4979487219
 21
157.303564728
 31
0.0
  0
SPLINE
  5
18D
330
1F
100
AcDbEntity
  8
0
  6
Continuous
 62
     7
370
    15
100
AcDbSpline
210
0.0
220
0.0
230
1.0
 70
     8
 71
     3
 72
    47
 73
    43
 74
     0
 42
0.000000001
 43
0.00000001
 40
0.0
 40
0.0
 40
0.0
 40
0.0
 40
0.0249874028094898
 40
0.0499876492912355
 40
0.0749952830030924
 40
0.1000049810541176
 40
0.1250117950517008
 40
0.1500131967234704
 40
0.1750103809608807
 40
0.2000046382923602
 40
0.224997068088339
 40
0.2499887459293727
 40
0.2749808910608878
 40
0.2999747259362935
 40
0.3249703960388239
 40
0.3499674734395895
 40
0.3749653549909376
 40
0.3999634444579618
 40
0.424961334646051
 40
0.4499590137410137
 40
0.4749568626166156
 40
0.4999550391901736
 40
0.5249534681144619
 40
0.5499520186232579
 40
0.5749506827704158
 40
0.599949739918441
 40
0.624949486796174
 40
0.6499497310069617
 40
0.6749499725025663
 40
0.6999495910595189
 40
0.7249480284811873
 40
0.7499449830891376
 40
0.7749410594096662
 40
0.7999375805380784
 40
0.8249356926922455
 40
0.84993646209436
 40
0.8749410425632335
 40
0.8999508404535728
 40
0.9249661036401354
 40
0.9499828513551777
 40
0.9749959519119494
 40
1.0
 40
1.0
 40
1.0
 40
1.0
 10
194.4804968666166
 20
153.9720707668675
 30
0.0
 10
194.4802720217949
 20
154.0113132286262
 30
0.0
 10
194.4798222165798
 20
154.0898183230002
 30
0.0
 10
194.4791910410691
 20
154.2074156225758
 30
0.0
 10
194.4785914574861
 20
154.32468680841
 30
0.0
 10
194.4780266379043
 20
154.441426902869
 30
0.0
 10
194.4774957390449
 20
154.557433443743
 30
0.0
 10
194.4769989962718
 20
154.672513157179
 30
0.0
 10
194.4765364185446
 20
154.7864921139314
 30
0.0
 10
194.4761080374499
 20
154.8992028537452
 30
0.0
 10
194.4757138651251
 20
155.0104788194376
 30
0.0
 10
194.4753539169182
 20
155.120153371169
 30
0.0
 10
194.4750282074463
 20
155.2280594227078
 30
0.0
 10
194.4747367574003
 20
155.3340272152476
 30
0.0
 10
194.4744795719637
 20
155.4379018786582
 30
0.0
 10
194.4742566588951
 20
155.5395274441694
 30
0.0
 10
194.4740680259981
 20
155.6387476487788
 30
0.0
 10
194.473913680213
 20
155.7354059453599
 30
0.0
 10
194.4737936275334
 20
155.8293466732868
 30
0.0
 10
194.4737078735232
 20
155.9204105518215
 30
0.0
 10
194.4736564230086
 20
156.0084644644166
 30
0.0
 10
194.4736392772887
 20
156.0933829701158
 30
0.0
 10
194.4736564367057
 20
156.1750392858048
 30
0.0
 10
194.4737079006912
 20
156.2533066433152
 30
0.0
 10
194.4737936679081
 20
156.3280594144875
 30
0.0
 10
194.4739137350144
 20
156.3991665012128
 30
0.0
 10
194.4740680952419
 20
156.4665210131282
 30
0.0
 10
194.4742567424093
 20
156.5300346884788
 30
0.0
 10
194.4744796692999
 20
156.5896151474788
 30
0.0
 10
194.4747368680239
 20
156.6451707732827
 30
0.0
 10
194.4750283292639
 20
156.6966105617175
 30
0.0
 10
194.475354047243
 20
156.7438401770266
 30
0.0
 10
194.4757140098414
 20
156.7867806768031
 30
0.0
 10
194.4761081958213
 20
156.8253835733921
 30
0.0
 10
194.4765365896887
 20
156.8595963311721
 30
0.0
 10
194.4769991797885
 20
156.8893668503862
 30
0.0
 10
194.477495934135
 20
156.9146458419353
 30
0.0
 10
194.4780268815777
 20
156.9353714944681
 30
0.0
 10
194.4785917261231
 20
156.9515262827651
 30
0.0
 10
194.4791913258891
 20
156.9629983060636
 30
0.0
 10
194.4798225245159
 20
156.9702022248768
 30
0.0
 10
194.4802722908202
 20
156.9711121322252
 30
0.0
 10
194.4804971332713
 20
156.9715670035586
 30
0.0
  0
LINE
  5
18E
330
1F
100
AcDbEntity
  8
0
  6
Continuous
 62
     7
370
    15
100
AcDbLine
 10
213.4979487219
 20
157.303564728
 30
0.0
 11
194.4804963154
 21
156.9716138614
 31
0.0
  0
LINE
  5
18F
330
1F
100
AcDbEntity
  8
0
  6
Continuous
 62
     7
370
    15
100
AcDbLine
 10
193.5312705756
 20
153.9720707723
 30
0.0
 11
193.4979487219
 21
153.9720707723
 31
0.0
  0
SPLINE
  5
190
330
1F
100
AcDbEntity
  8
0
  6
Continuous
 62
     7
370
    15
100
AcDbSpline
210
0.0
220
0.0
230
1.0
 70
     8
 71
     3
 72
    11
 73
     7
 74
     0
 42
0.000000001
 43
0.00000001
 40
0.0
 40
0.0
 40
0.0
 40
0.0
 40
0.2822984946675342
 40
0.5645969893350704
 40
0.8468954840026033
 40
1.0
 40
1.0
 40
1.0
 40
1.0
 10
194.4804963154003
 20
156.9716138614314
 30
0.0
 10
194.3509731065552
 20
156.9547348668897
 30
0.0
 10
194.091926688865
 20
156.9209768778065
 30
0.0
 10
193.7710261218864
 20
156.6878228858618
 30
0.0
 10
193.5685977420786
 20
156.4132162972382
 30
0.0
 10
193.5415397607005
 20
156.2148189675741
 30
0.0
 10
193.5320251293331
 20
156.1450548033644
 30
0.0
  0
LINE
  5
191
330
1F
100
AcDbEntity
  8
0
  6
Continuous
 62
     7
370
    15
100
AcDbLine
 10
193.4979487219
 20
125.4982982939
 30
0.0
 11
193.4979487219
 21
123.13505868
 31
0.0
  0
SPLINE
  5
192
330
1F
100
AcDbEntity
  8
0
  6
Continuous
 62
     7
370
    15
100
AcDbSpline
210
0.0
220
0.0
230
1.0
 70
     8
 71
     3
 72
    26
 73
    22
 74
     0
 42
0.000000001
 43
0.00000001
 40
0.0
 40
0.0
 40
0.0
 40
0.0
 40
0.1250000000000006
 40
0.1250000000000006
 40
0.2500000000000011
 40
0.2500000000000011
 40
0.3750000000000017
 40
0.3750000000000017
 40
0.437500000000002
 40
0.437500000000002
 40
0.5000000000000023
 40
0.5000000000000023
 40
0.6250000000000018
 40
0.6250000000000018
 40
0.7500000000000012
 40
0.7500000000000012
 40
0.8750000000000007
 40
0.8750000000000007
 40
0.9375000000000003
 40
0.9375000000000003
 40
1.0
 40
1.0
 40
1.0
 40
1.0
 10
193.4979487221143
 20
129.1088579542069
 30
0.0
 10
193.4979518149899
 20
128.9934186223554
 30
0.0
 10
193.5243353851016
 20
128.8661576555997
 30
0.0
 10
193.6033998146791
 20
128.5902722045346
 30
0.0
 10
193.6551126303708
 20
128.4465132782405
 30
0.0
 10
193.7634333103891
 20
128.1441628593469
 30
0.0
 10
193.8210453193991
 20
127.9845202714472
 30
0.0
 10
193.8886606566089
 20
127.7367988632077
 30
0.0
 10
193.9080382816044
 20
127.6525215381125
 30
0.0
 10
193.9353611080464
 20
127.479126484458
 30
0.0
 10
193.9429752048338
 20
127.3904617821645
 30
0.0
 10
193.9426595880331
 20
127.1241359511975
 30
0.0
 10
193.9112427789053
 20
126.9527220675714
 30
0.0
 10
193.8201422738449
 20
126.6196463035735
 30
0.0
 10
193.763522499904
 20
126.4632171636306
 30
0.0
 10
193.6554062326644
 20
126.1614340850349
 30
0.0
 10
193.6028149250561
 20
126.0148857156708
 30
0.0
 10
193.5442269308961
 20
125.8103460344845
 30
0.0
 10
193.5279455678533
 20
125.7444865395496
 30
0.0
 10
193.504790103916
 20
125.6173341293841
 30
0.0
 10
193.4979502656047
 20
125.5558811543384
 30
0.0
 10
193.4979487221143
 20
125.4982715017035
 30
0.0
  0
LINE
  5
193
330
1F
100
AcDbEntity
  8
0
  6
Continuous
 62
     7
370
    15
100
AcDbLine
 10
193.4979487219
 20
147.9982982939
 30
0.0
 11
193.4979487219
 21
129.108831162
 31
0.0
  0
SPLINE
  5
194
330
1F
100
AcDbEntity
  8
0
  6
Continuous
 62
     7
370
    15
100
AcDbSpline
210
0.0
220
0.0
230
1.0
 70
     8
 71
     3
 72
    26
 73
    22
 74
     0
 42
0.000000001
 43
0.00000001
 40
0.0
 40
0.0
 40
0.0
 40
0.0
 40
0.1250000000000002
 40
0.1250000000000002
 40
0.2500000000000003
 40
0.2500000000000003
 40
0.3750000000000005
 40
0.3750000000000005
 40
0.4375
 40
0.4375
 40
0.4999999999999996
 40
0.4999999999999996
 40
0.6249999999999999
 40
0.6249999999999999
 40
0.7500000000000003
 40
0.7500000000000003
 40
0.8750000000000007
 40
0.8750000000000007
 40
0.9375000000000003
 40
0.9375000000000003
 40
1.0
 40
1.0
 40
1.0
 40
1.0
 10
193.4979487221143
 20
151.6088579542069
 30
0.0
 10
193.4979518149899
 20
151.4934186223554
 30
0.0
 10
193.5243353851016
 20
151.3661576555997
 30
0.0
 10
193.6033998146791
 20
151.0902722045346
 30
0.0
 10
193.6551126303708
 20
150.9465132782405
 30
0.0
 10
193.7634333103891
 20
150.6441628593469
 30
0.0
 10
193.8210453193991
 20
150.4845202714473
 30
0.0
 10
193.8886606566089
 20
150.2367988632077
 30
0.0
 10
193.9080382816044
 20
150.1525215381125
 30
0.0
 10
193.9353611080464
 20
149.979126484458
 30
0.0
 10
193.9429752048338
 20
149.8904617821645
 30
0.0
 10
193.9426595880331
 20
149.6241359511975
 30
0.0
 10
193.9112427789053
 20
149.4527220675714
 30
0.0
 10
193.8201422738449
 20
149.1196463035735
 30
0.0
 10
193.763522499904
 20
148.9632171636306
 30
0.0
 10
193.6554062326644
 20
148.6614340850349
 30
0.0
 10
193.6028149250561
 20
148.5148857156708
 30
0.0
 10
193.5442269308961
 20
148.3103460344845
 30
0.0
 10
193.5279455678533
 20
148.2444865395495
 30
0.0
 10
193.504790103916
 20
148.1173341293841
 30
0.0
 10
193.4979502656046
 20
148.0558811543384
 30
0.0
 10
193.4979487221143
 20
147.9982715017035
 30
0.0
  0
LINE
  5
195
330
1F
100
AcDbEntity
  8
0
  6
Continuous
 62
     7
370
    15
100
AcDbLine
 10
193.4979487219
 20
153.972070776
 30
0.0
 11
193.4979487219
 21
151.608831162
 31
0.0
  0
LINE
  5
196
330
1F
100
AcDbEntity
  8
0
  6
Continuous
 62
     7
370
    15
100
AcDbLine
 10
193.5320330054
 20
123.13505868
 30
0.0
 11
193.4979487219
 21
123.13505868
 31
0.0
  0
LINE
  5
197
330
1F
100
AcDbEntity
  8
0
  6
Continuous
 62
     7
370
    15
100
AcDbLine
 10
193.5333616515
 20
120.9552780409
 30
0.0
 11
193.4979487219
 21
121.1353632896
 31
0.0
  0
LINE
  5
198
330
1F
100
AcDbEntity
  8
0
  6
Continuous
 62
     7
370
    15
100
AcDbLine
 10
193.4979487219
 20
121.2307626885
 30
0.0
 11
193.4979487219
 21
121.1353632896
 31
0.0
  0
LINE
  5
199
330
1F
100
AcDbEntity
  8
0
  6
Continuous
 62
     7
370
    15
100
AcDbLine
 10
193.2479487219
 20
152.178564728
 30
0.0
 11
193.2479487219
 21
147.428564728
 31
0.0
  0
LINE
  5
19A
330
1F
100
AcDbEntity
  8
0
  6
Continuous
 62
     7
370
    15
100
AcDbLine
 10
193.2479487219
 20
129.678564728
 30
0.0
 11
193.2479487219
 21
124.928564728
 31
0.0
  0
LINE
  5
19B
330
1F
100
AcDbEntity
  8
0
  6
Continuous
 62
     7
370
    15
100
AcDbLine
 10
213.4979487219
 20
145.3665048906
 30
0.0
 11
214.2479487219
 21
145.3665048906
 31
0.0
  0
LINE
  5
19C
330
1F
100
AcDbEntity
  8
0
  6
Continuous
 62
     7
370
    15
100
AcDbLine
 10
214.2479487219
 20
147.683636139
 30
0.0
 11
213.4979487219
 21
147.683636139
 31
0.0
  0
LINE
  5
19D
330
1F
100
AcDbEntity
  8
0
  6
Continuous
 62
     7
370
    15
100
AcDbLine
 10
214.2479487219
 20
145.3665048906
 30
0.0
 11
214.2479487219
 21
147.683636139
 31
0.0
  0
LINE
  5
19E
330
1F
100
AcDbEntity
  8
0
  6
Continuous
 62
     7
370
    15
100
AcDbLine
 10
213.4979487219
 20
129.4234933169
 30
0.0
 11
214.2479487219
 21
129.4234933169
 31
0.0
  0
LINE
  5
19F
330
1F
100
AcDbEntity
  8
0
  6
Continuous
 62
     7
370
    15
100
AcDbLine
 10
213.4979487219
 20
131.7406245653
 30
0.0
 11
214.2479487219
 21
131.7406245653
 31
0.0
  0
LINE
  5
1A0
330
1F
100
AcDbEntity
  8
0
  6
Continuous
 62
     7
370
    15
100
AcDbLine
 10
214.2479487219
 20
129.4234933169
 30
0.0
 11
214.2479487219
 21
131.7406245653
 31
0.0
  0
LINE
  5
1A1
330
1F
100
AcDbEntity
  8
0
  6
Continuous
 62
     7
370
    15
100
AcDbLine
 10
214.2479487219
 20
131.7406245653
 30
0.0
 11
214.2479487219
 21
145.3665048906
 31
0.0
  0
LINE
  5
1A2
330
1F
100
AcDbEntity
  8
0
  6
Continuous
 62
     7
370
    15
100
AcDbLine
 10
214.2479487219
 20
127.303564728
 30
0.0
 11
213.4979487219
 21
127.303564728
 31
0.0
  0
LINE
  5
1A3
330
1F
100
AcDbEntity
  8
0
  6
Continuous
 62
     7
370
    15
100
AcDbLine
 10
214.2479487219
 20
129.4234933169
 30
0.0
 11
214.2479487219
 21
127.303564728
 31
0.0
  0
LINE
  5
1A4
330
1F
100
AcDbEntity
  8
0
  6
Continuous
 62
     7
370
    15
100
AcDbLine
 10
213.4979487219
 20
149.803564728
 30
0.0
 11
214.2479487219
 21
149.803564728
 31
0.0
  0
LINE
  5
1A5
330
1F
100
AcDbEntity
  8
0
  6
Continuous
 62
     7
370
    15
100
AcDbLine
 10
214.2479487219
 20
149.803564728
 30
0.0
 11
214.2479487219
 21
147.683636139
 31
0.0
  0
LINE
  5
1A6
330
1F
100
AcDbEntity
  8
0
  6
Continuous
 62
     7
370
    15
100
AcDbLine
 10
213.4979487219
 20
123.428564728
 30
0.0
 11
214.2479487219
 21
123.428564728
 31
0.0
  0
LINE
  5
1A7
330
1F
100
AcDbEntity
  8
0
  6
Continuous
 62
     7
370
    15
100
AcDbLine
 10
214.2479487219
 20
123.428564728
 30
0.0
 11
214.2479487219
 21
127.303564728
 31
0.0
  0
LINE
  5
1A8
330
1F
100
AcDbEntity
  8
0
  6
Continuous
 62
     7
370
    15
100
AcDbLine
 10
213.4979487219
 20
121.078564728
 30
0.0
 11
214.2479487219
 21
121.078564728
 31
0.0
  0
LINE
  5
1A9
330
1F
100
AcDbEntity
  8
0
  6
Continuous
 62
     7
370
    15
100
AcDbLine
 10
214.2479487219
 20
121.078564728
 30
0.0
 11
214.2479487219
 21
123.428564728
 31
0.0
  0
LINE
  5
1AA
330
1F
100
AcDbEntity
  8
0
  6
Continuous
 62
     7
370
    15
100
AcDbLine
 10
213.4979487219
 20
153.678564728
 30
0.0
 11
214.2479487219
 21
153.678564728
 31
0.0
  0
LINE
  5
1AB
330
1F
100
AcDbEntity
  8
0
  6
Continuous
 62
     7
370
    15
100
AcDbLine
 10
214.2479487219
 20
149.803564728
 30
0.0
 11
214.2479487219
 21
153.678564728
 31
0.0
  0
LINE
  5
1AC
330
1F
100
AcDbEntity
  8
0
  6
Continuous
 62
     7
370
    15
100
AcDbLine
 10
213.4979487219
 20
156.028564728
 30
0.0
 11
214.2479487219
 21
156.028564728
 31
0.0
  0
LINE
  5
1AD
330
1F
100
AcDbEntity
  8
0
  6
Continuous
 62
     7
370
    15
100
AcDbLine
 10
214.2479487219
 20
153.678564728
 30
0.0
 11
214.2479487219
 21
156.028564728
 31
0.0
  0
SPLINE
  5
1AE
330
1F
100
AcDbEntity
  8
0
  6
Continuous
 62
     8
370
    15
100
AcDbSpline
210
0.0
220
0.0
230
1.0
 70
     8
 71
     3
 72
    15
 73
    11
 74
     0
 42
0.000000001
 43
0.00000001
 40
0.0
 40
0.0
 40
0.0
 40
0.0
 40
0.0091096429044142
 40
0.1534519786449109
 40
0.2938859329160086
 40
0.4304117339346805
 40
0.5670000295899666
 40
0.7074606951121863
 40
0.8517939780468157
 40
1.0
 40
1.0
 40
1.0
 40
1.0
 10
194.477481043688
 20
120.1941957988987
 30
0.0
 10
194.4774147867215
 20
120.1954091076116
 30
0.0
 10
194.4762986877999
 20
120.2158472987307
 30
0.0
 10
194.474899996887
 20
120.3647076566092
 30
0.0
 10
194.4735188141447
 20
120.6344482170636
 30
0.0
 10
194.4731458340937
 20
121.0021266919874
 30
0.0
 10
194.4735298391204
 20
121.4426040452598
 30
0.0
 10
194.4748571194521
 20
121.9549267388967
 30
0.0
 10
194.4771397186875
 20
122.5273223453325
 30
0.0
 10
194.4793676185865
 20
122.9306998848746
 30
0.0
 10
194.4804963154003
 20
123.1350586820752
 30
0.0
  0
SPLINE
  5
1AF
330
1F
100
AcDbEntity
  8
0
  6
Continuous
 62
     8
370
    15
100
AcDbSpline
210
0.0
220
0.0
230
1.0
 70
    24
 71
     3
 72
    11
 73
     7
 74
     0
 42
0.000000001
 43
0.00000001
 40
0.0
 40
0.0
 40
0.0
 40
0.0
 40
0.2814932153301725
 40
0.5629864306603488
 40
0.8444796459905185
 40
1.0
 40
1.0
 40
1.0
 40
1.0
 10
194.4804963154003
 20
153.9720707723252
 30
0.0
 10
194.3509794934899
 20
153.9720707723252
 30
0.0
 10
194.091945849669
 20
153.9720707723252
 30
0.0
 10
193.7709494786705
 20
153.9720707723252
 30
0.0
 10
193.5680239723967
 20
153.9720707723252
 30
0.0
 10
193.5409171140842
 20
153.9720707723252
 30
0.0
 10
193.5312705756318
 20
153.9720707723252
 30
0.0
  0
SPLINE
  5
1B0
330
1F
100
AcDbEntity
  8
0
  6
Continuous
 62
     8
370
    15
100
AcDbSpline
210
0.0
220
0.0
230
1.0
 70
    24
 71
     3
 72
    11
 73
     7
 74
     0
 42
0.000000001
 43
0.00000001
 40
0.0
 40
0.0
 40
0.0
 40
0.0
 40
0.2823069245501349
 40
0.5646138491002737
 40
0.8469207736504057
 40
1.0
 40
1.0
 40
1.0
 40
1.0
 10
194.4804963154003
 20
123.1350586799502
 30
0.0
 10
194.3509730394032
 20
123.1350586799502
 30
0.0
 10
194.0919264874091
 20
123.1350586799502
 30
0.0
 10
193.77102692771
 20
123.1350586799502
 30
0.0
 10
193.5686037265237
 20
123.1350586799502
 30
0.0
 10
193.5415462544881
 20
123.1350586799502
 30
0.0
 10
193.5320330054386
 20
123.1350586799502
 30
0.0
  0
CIRCLE
  5
1B1
330
1F
100
AcDbEntity
  8
0
  6
Continuous
 62
     7
370
    15
100
AcDbCircle
 10
231.3056566604
 20
149.803564728
 30
0.0
 40
2.375
  0
CIRCLE
  5
1B2
330
1F
100
AcDbEntity
  8
0
  6
Continuous
 62
     7
370
    15
100
AcDbCircle
 10
231.3056566604
 20
149.803564728
 30
0.0
 40
1.125
  0
CIRCLE
  5
1B3
330
1F
100
AcDbEntity
  8
0
  6
Continuous
 62
     7
370
    15
100
AcDbCircle
 10
231.3056566604
 20
127.303564728
 30
0.0
 40
2.375
  0
CIRCLE
  5
1B4
330
1F
100
AcDbEntity
  8
0
  6
Continuous
 62
     7
370
    15
100
AcDbCircle
 10
231.3056566604
 20
127.303564728
 30
0.0
 40
1.125000000000014
  0
CIRCLE
  5
1B5
330
1F
100
AcDbEntity
  8
0
  6
Continuous
 62
     7
370
    15
100
AcDbCircle
 10
320.5556566604
 20
149.803564728
 30
0.0
 40
1.125
  0
CIRCLE
  5
1B6
330
1F
100
AcDbEntity
  8
0
  6
Continuous
 62
     7
370
    15
100
AcDbCircle
 10
320.5556566604
 20
149.803564728
 30
0.0
 40
2.375
  0
CIRCLE
  5
1B7
330
1F
100
AcDbEntity
  8
0
  6
Continuous
 62
     7
370
    15
100
AcDbCircle
 10
320.5556566604
 20
127.303564728
 30
0.0
 40
1.125000000000014
  0
CIRCLE
  5
1B8
330
1F
100
AcDbEntity
  8
0
  6
Continuous
 62
     7
370
    15
100
AcDbCircle
 10
320.5556566604
 20
127.303564728
 30
0.0
 40
2.375
  0
SPLINE
  5
1B9
330
1F
100
AcDbEntity
  8
0
  6
Continuous
 62
     7
370
    15
100
AcDbSpline
210
0.0
220
0.0
230
1.0
 70
     8
 71
     3
 72
    47
 73
    43
 74
     0
 42
0.000000001
 43
0.00000001
 40
0.0
 40
0.0
 40
0.0
 40
0.0
 40
0.024987402847343
 40
0.0499876493650297
 40
0.0749952831108891
 40
0.1000049811939586
 40
0.1250117952216141
 40
0.1500131969215003
 40
0.1750103811850912
 40
0.2000046385408093
 40
0.2249970683590938
 40
0.2499887462205058
 40
0.2749808913704714
 40
0.2999747262624014
 40
0.324970396379514
 40
0.3499674737929137
 40
0.3749653553549415
 40
0.3999634448307028
 40
0.4249613350255814
 40
0.4499590141253949
 40
0.4749568630039147
 40
0.4999550395784459
 40
0.5249534685017634
 40
0.5499520190076465
 40
0.5749506831499535
 40
0.5999497402911905
 40
0.6249494871601939
 40
0.6499497313603069
 40
0.6749499728432847
 40
0.6999495913856664
 40
0.7249480287908102
 40
0.7499449833803031
 40
0.7749410596804434
 40
0.7999375807865455
 40
0.824935692916464
 40
0.8499364622923943
 40
0.8749410427331457
 40
0.8999508405934205
 40
0.924966103747955
 40
0.949982851428994
 40
0.9749959519498208
 40
1.0
 40
1.0
 40
1.0
 40
1.0
 10
231.7621506215001
 20
156.9715822820055
 30
0.0
 10
231.7229081596819
 20
156.9711251258612
 30
0.0
 10
231.644403065192
 20
156.9702105785917
 30
0.0
 10
231.5268057654479
 20
156.963000319577
 30
0.0
 10
231.4095345794559
 20
156.9515287532221
 30
0.0
 10
231.2927944848503
 20
156.9353854051901
 30
0.0
 10
231.1767879438417
 20
156.9146890072547
 30
0.0
 10
231.0617082302835
 20
156.8894267213436
 30
0.0
 10
230.9477292734216
 20
156.8596684862877
 30
0.0
 10
230.835018533511
 20
156.8254666007984
 30
0.0
 10
230.723742567735
 20
156.7868775169151
 30
0.0
 10
230.614068015933
 20
156.7439565113593
 30
0.0
 10
230.5061619643369
 20
156.6967590469236
 30
0.0
 10
230.4001941717527
 20
156.6453427554495
 30
0.0
 10
230.2963195083105
 20
156.5898031841525
 30
0.0
 10
230.1946939427804
 20
156.5302353240323
 30
0.0
 10
230.0954737381642
 20
156.4667345551973
 30
0.0
 10
229.9988154415882
 20
156.3993958648887
 30
0.0
 10
229.9048747136778
 20
156.3283151651974
 30
0.0
 10
229.8138108351705
 20
156.253584740484
 30
0.0
 10
229.7257569226125
 20
156.1753298707412
 30
0.0
 10
229.6408384169596
 20
156.0936817674187
 30
0.0
 10
229.5591821013254
 20
156.0087696473005
 30
0.0
 10
229.4809147438774
 20
155.9207229041705
 30
0.0
 10
229.4061619727744
 20
155.8296717524229
 30
0.0
 10
229.3350548861242
 20
155.7357433519245
 30
0.0
 10
229.2677003742884
 20
155.6390859481579
 30
0.0
 10
229.2041866990207
 20
155.5398605671123
 30
0.0
 10
229.1446062401061
 20
155.43822513015
 30
0.0
 10
229.0890506143889
 20
155.3343382511146
 30
0.0
 10
229.0376108260409
 20
155.2283587140843
 30
0.0
 10
228.9903812108179
 20
155.1204430129689
 30
0.0
 10
228.947440711125
 20
155.0107534873376
 30
0.0
 10
228.9088378146157
 20
154.8994617579507
 30
0.0
 10
228.8746250569107
 20
154.786735392028
 30
0.0
 10
228.8448545377656
 20
154.6727424363742
 30
0.0
 10
228.8195755462783
 20
154.5576508978636
 30
0.0
 10
228.7988498937988
 20
154.44163082834
 30
0.0
 10
228.7826951055452
 20
154.3248640405315
 30
0.0
 10
228.771223082279
 20
154.2075493424915
 30
0.0
 10
228.7640191634868
 20
154.0898908656015
 30
0.0
 10
228.763109256141
 20
154.0113393945609
 30
0.0
 10
228.762654384809
 20
153.9720707674516
 30
0.0
  0
SPLINE
  5
1BA
330
1F
100
AcDbEntity
  8
0
  6
Continuous
 62
     7
370
    15
100
AcDbSpline
210
0.0
220
0.0
230
1.0
 70
    24
 71
     3
 72
    14
 73
    10
 74
     0
 42
0.000000001
 43
0.00000001
 40
0.0
 40
0.0
 40
0.0
 40
0.0
 40
0.25
 40
0.25
 40
0.5
 40
0.5
 40
0.75
 40
0.75
 40
1.0
 40
1.0
 40
1.0
 40
1.0
 10
231.7621506160424
 20
155.9717661662752
 30
0.0
 10
231.7621506160424
 20
156.1012114191303
 30
0.0
 10
231.7621506160424
 20
156.230607959054
 30
0.0
 10
231.7621506160424
 20
156.4702216081946
 30
0.0
 10
231.7621506160424
 20
156.5803485458295
 30
0.0
 10
231.7621506160424
 20
156.7650023153103
 30
0.0
 10
231.7621506160424
 20
156.8394596581159
 30
0.0
 10
231.7621506160424
 20
156.9416550947238
 30
0.0
 10
231.7621506160424
 20
156.9693547302653
 30
0.0
 10
231.7621506160424
 20
156.9716138614314
 30
0.0
  0
SPLINE
  5
1BB
330
1F
100
AcDbEntity
  8
0
  6
Continuous
 62
     7
370
    15
100
AcDbSpline
210
0.0
220
0.0
230
1.0
 70
     8
 71
     3
 72
    14
 73
    10
 74
     0
 42
0.000000001
 43
0.00000001
 40
0.0
 40
0.0
 40
0.0
 40
0.0
 40
0.25
 40
0.25
 40
0.5
 40
0.5
 40
0.75
 40
0.75
 40
1.0
 40
1.0
 40
1.0
 40
1.0
 10
229.7624552220924
 20
153.9720707759602
 30
0.0
 10
229.7625045899308
 20
154.2337826556932
 30
0.0
 10
229.8144989723232
 20
154.4956545211644
 30
0.0
 10
230.0148077256674
 20
154.9792159940722
 30
0.0
 10
230.1630365827964
 20
155.2010411909897
 30
0.0
 10
230.533184677216
 20
155.571203543779
 30
0.0
 10
230.7550134746256
 20
155.7194278671122
 30
0.0
 10
231.238578588319
 20
155.9197038106827
 30
0.0
 10
231.5005456036662
 20
155.9717034328229
 30
0.0
 10
231.7621506124073
 20
155.9717661662752
 30
0.0
  0
SPLINE
  5
1BC
330
1F
100
AcDbEntity
  8
0
  6
Continuous
 62
     7
370
    15
100
AcDbSpline
210
0.0
220
0.0
230
1.0
 70
    24
 71
     3
 72
    14
 73
    10
 74
     0
 42
0.000000001
 43
0.00000001
 40
0.0
 40
0.0
 40
0.0
 40
0.0
 40
0.25
 40
0.25
 40
0.5
 40
0.5
 40
0.75
 40
0.75
 40
1.0
 40
1.0
 40
1.0
 40
1.0
 10
228.7626075269362
 20
153.9720707759602
 30
0.0
 10
228.7648666581023
 20
153.9720707759602
 30
0.0
 10
228.7925662936438
 20
153.9720707759602
 30
0.0
 10
228.8947617302517
 20
153.9720707759602
 30
0.0
 10
228.9692190730573
 20
153.9720707759602
 30
0.0
 10
229.1538728425381
 20
153.9720707759602
 30
0.0
 10
229.263999780173
 20
153.9720707759602
 30
0.0
 10
229.5036134293136
 20
153.9720707759602
 30
0.0
 10
229.6330099692373
 20
153.9720707759602
 30
0.0
 10
229.7624552220924
 20
153.9720707759602
 30
0.0
  0
SPLINE
  5
1BD
330
1F
100
AcDbEntity
  8
0
  6
Continuous
 62
     7
370
    15
100
AcDbSpline
210
0.0
220
0.0
230
1.0
 70
     8
 71
     3
 72
    47
 73
    43
 74
     0
 42
0.000000001
 43
0.00000001
 40
0.0
 40
0.0
 40
0.0
 40
0.0
 40
0.024987402847343
 40
0.0499876493650297
 40
0.0749952831108891
 40
0.1000049811939586
 40
0.1250117952216141
 40
0.1500131969215003
 40
0.1750103811850912
 40
0.2000046385408093
 40
0.2249970683590938
 40
0.2499887462205058
 40
0.2749808913704714
 40
0.2999747262624014
 40
0.324970396379514
 40
0.3499674737929137
 40
0.3749653553549415
 40
0.3999634448307028
 40
0.4249613350255814
 40
0.4499590141253949
 40
0.4749568630039147
 40
0.4999550395784459
 40
0.5249534685017634
 40
0.5499520190076465
 40
0.5749506831499535
 40
0.5999497402911905
 40
0.6249494871601939
 40
0.6499497313603069
 40
0.6749499728432847
 40
0.6999495913856664
 40
0.7249480287908102
 40
0.7499449833803031
 40
0.7749410596804434
 40
0.7999375807865455
 40
0.824935692916464
 40
0.8499364622923943
 40
0.8749410427331457
 40
0.8999508405934205
 40
0.924966103747955
 40
0.949982851428994
 40
0.9749959519498208
 40
1.0
 40
1.0
 40
1.0
 40
1.0
 10
320.0991626993246
 20
120.135547173905
 30
0.0
 10
320.1384051611428
 20
120.1360043300493
 30
0.0
 10
320.2169102556327
 20
120.1369188773187
 30
0.0
 10
320.3345075553768
 20
120.1441291363334
 30
0.0
 10
320.4517787413689
 20
120.1556007026884
 30
0.0
 10
320.5685188359744
 20
120.1717440507203
 30
0.0
 10
320.6845253769831
 20
120.1924404486558
 30
0.0
 10
320.7996050905413
 20
120.2177027345669
 30
0.0
 10
320.9135840474031
 20
120.2474609696228
 30
0.0
 10
321.0262947873137
 20
120.2816628551121
 30
0.0
 10
321.1375707530897
 20
120.3202519389954
 30
0.0
 10
321.2472453048917
 20
120.3631729445512
 30
0.0
 10
321.3551513564879
 20
120.4103704089869
 30
0.0
 10
321.461119149072
 20
120.4617867004609
 30
0.0
 10
321.5649938125143
 20
120.517326271758
 30
0.0
 10
321.6666193780443
 20
120.5768941318781
 30
0.0
 10
321.7658395826606
 20
120.6403949007131
 30
0.0
 10
321.8624978792366
 20
120.7077335910218
 30
0.0
 10
321.9564386071469
 20
120.778814290713
 30
0.0
 10
322.0475024856543
 20
120.8535447154264
 30
0.0
 10
322.1355563982122
 20
120.9317995851692
 30
0.0
 10
322.2204749038651
 20
121.0134476884917
 30
0.0
 10
322.3021312194993
 20
121.09835980861
 30
0.0
 10
322.3803985769473
 20
121.18640655174
 30
0.0
 10
322.4551513480504
 20
121.2774577034876
 30
0.0
 10
322.5262584347005
 20
121.3713861039859
 30
0.0
 10
322.5936129465364
 20
121.4680435077525
 30
0.0
 10
322.6571266218041
 20
121.5672688887981
 30
0.0
 10
322.7167070807187
 20
121.6689043257604
 30
0.0
 10
322.7722627064358
 20
121.7727912047959
 30
0.0
 10
322.8237024947838
 20
121.8787707418261
 30
0.0
 10
322.8709321100068
 20
121.9866864429416
 30
0.0
 10
322.9138726096998
 20
122.0963759685729
 30
0.0
 10
322.9524755062091
 20
122.2076676979598
 30
0.0
 10
322.9866882639139
 20
122.3203940638824
 30
0.0
 10
323.0164587830591
 20
122.4343870195363
 30
0.0
 10
323.0417377745465
 20
122.5494785580469
 30
0.0
 10
323.0624634270259
 20
122.6654986275705
 30
0.0
 10
323.0786182152795
 20
122.7822654153789
 30
0.0
 10
323.0900902385458
 20
122.899580113419
 30
0.0
 10
323.0972941573379
 20
123.017238590309
 30
0.0
 10
323.0982040646837
 20
123.0957900613495
 30
0.0
 10
323.0986589360157
 20
123.1350586884589
 30
0.0
  0
SPLINE
  5
1BE
330
1F
100
AcDbEntity
  8
0
  6
Continuous
 62
     7
370
    15
100
AcDbSpline
210
0.0
220
0.0
230
1.0
 70
    24
 71
     3
 72
    14
 73
    10
 74
     0
 42
0.000000001
 43
0.00000001
 40
0.0
 40
0.0
 40
0.0
 40
0.0
 40
0.25
 40
0.25
 40
0.5
 40
0.5
 40
0.75
 40
0.75
 40
1.0
 40
1.0
 40
1.0
 40
1.0
 10
320.0991627047823
 20
121.1353632896352
 30
0.0
 10
320.0991627047823
 20
121.0059180367802
 30
0.0
 10
320.0991627047823
 20
120.8765214968565
 30
0.0
 10
320.0991627047823
 20
120.6369078477158
 30
0.0
 10
320.0991627047823
 20
120.5267809100809
 30
0.0
 10
320.0991627047824
 20
120.3421271406002
 30
0.0
 10
320.0991627047823
 20
120.2676697977945
 30
0.0
 10
320.0991627047823
 20
120.1654743611867
 30
0.0
 10
320.0991627047823
 20
120.1377747256452
 30
0.0
 10
320.0991627047823
 20
120.1355155944791
 30
0.0
  0
SPLINE
  5
1BF
330
1F
100
AcDbEntity
  8
0
  6
Continuous
 62
     7
370
    15
100
AcDbSpline
210
0.0
220
0.0
230
1.0
 70
     8
 71
     3
 72
    14
 73
    10
 74
     0
 42
0.000000001
 43
0.00000001
 40
0.0
 40
0.0
 40
0.0
 40
0.0
 40
0.25
 40
0.25
 40
0.5
 40
0.5
 40
0.75
 40
0.75
 40
1.0
 40
1.0
 40
1.0
 40
1.0
 10
322.0988580987324
 20
123.1350586799502
 30
0.0
 10
322.0988087308939
 20
122.8733468002173
 30
0.0
 10
322.0468143485016
 20
122.611474934746
 30
0.0
 10
321.8465055951573
 20
122.1279134618382
 30
0.0
 10
321.6982767380284
 20
121.9060882649208
 30
0.0
 10
321.3281286436087
 20
121.5359259121314
 30
0.0
 10
321.1062998461991
 20
121.3877015887983
 30
0.0
 10
320.6227347325057
 20
121.1874256452277
 30
0.0
 10
320.3607677171585
 20
121.1354260230875
 30
0.0
 10
320.0991627084174
 20
121.1353632896352
 30
0.0
  0
SPLINE
  5
1C0
330
1F
100
AcDbEntity
  8
0
  6
Continuous
 62
     7
370
    15
100
AcDbSpline
210
0.0
220
0.0
230
1.0
 70
    24
 71
     3
 72
    14
 73
    10
 74
     0
 42
0.000000001
 43
0.00000001
 40
0.0
 40
0.0
 40
0.0
 40
0.0
 40
0.25
 40
0.25
 40
0.5
 40
0.5
 40
0.75
 40
0.75
 40
1.0
 40
1.0
 40
1.0
 40
1.0
 10
322.0988580987324
 20
123.1350587520157
 30
0.0
 10
322.2156737797527
 20
123.1350587445901
 30
0.0
 10
322.3414944980843
 20
123.1350587365919
 30
0.0
 10
322.5852578946753
 20
123.1350587210964
 30
0.0
 10
322.7024784449035
 20
123.1350587136448
 30
0.0
 10
322.8969996817638
 20
123.1350587012793
 30
0.0
 10
322.9736729201718
 20
123.1350586964051
 30
0.0
 10
323.0733354089757
 20
123.1350586900693
 30
0.0
 10
323.0966203485074
 20
123.1350586885888
 30
0.0
 10
323.0986589360157
 20
123.1350586884589
 30
0.0
  0
SPLINE
  5
1C1
330
1F
100
AcDbEntity
  8
0
  6
Continuous
 62
     7
370
    15
100
AcDbSpline
210
0.0
220
0.0
230
1.0
 70
     8
 71
     3
 72
    47
 73
    43
 74
     0
 42
0.000000001
 43
0.00000001
 40
0.0
 40
0.0
 40
0.0
 40
0.0
 40
0.0249874028094898
 40
0.0499876492912355
 40
0.0749952830030924
 40
0.1000049810541176
 40
0.1250117950517008
 40
0.1500131967234704
 40
0.1750103809608807
 40
0.2000046382923602
 40
0.224997068088339
 40
0.2499887459293727
 40
0.2749808910608878
 40
0.2999747259362935
 40
0.3249703960388239
 40
0.3499674734395895
 40
0.3749653549909376
 40
0.3999634444579618
 40
0.424961334646051
 40
0.4499590137410137
 40
0.4749568626166156
 40
0.4999550391901736
 40
0.5249534681144619
 40
0.5499520186232579
 40
0.5749506827704158
 40
0.599949739918441
 40
0.624949486796174
 40
0.6499497310069617
 40
0.6749499725025663
 40
0.6999495910595189
 40
0.7249480284811873
 40
0.7499449830891376
 40
0.7749410594096662
 40
0.7999375805380784
 40
0.8249356926922455
 40
0.84993646209436
 40
0.8749410425632335
 40
0.8999508404535728
 40
0.9249661036401354
 40
0.9499828513551777
 40
0.9749959519119494
 40
1.0
 40
1.0
 40
1.0
 40
1.0
 10
228.7626391063619
 20
123.135058689043
 30
0.0
 10
228.7630962625049
 20
123.0958162272843
 30
0.0
 10
228.7640108097717
 20
123.0173111329103
 30
0.0
 10
228.7712210687654
 20
122.8997138333346
 30
0.0
 10
228.7826926350882
 20
122.7824426475005
 30
0.0
 10
228.7988359830768
 20
122.6657025530415
 30
0.0
 10
228.8195323809591
 20
122.5496960121674
 30
0.0
 10
228.8447946668084
 20
122.4346162987314
 30
0.0
 10
228.8745529017952
 20
122.3206373419791
 30
0.0
 10
228.9087547872097
 20
122.2079266021652
 30
0.0
 10
228.9473438710131
 20
122.0966506364729
 30
0.0
 10
228.9902648764856
 20
121.9869760847415
 30
0.0
 10
229.0374623408354
 20
121.8790700332027
 30
0.0
 10
229.0888786322223
 20
121.7731022406629
 30
0.0
 10
229.1444182034327
 20
121.6692275772522
 30
0.0
 10
229.2039860634675
 20
121.5676020117411
 30
0.0
 10
229.2674868322196
 20
121.4683818071317
 30
0.0
 10
229.3348255224489
 20
121.3717235105506
 30
0.0
 10
229.4059062220652
 20
121.2777827826237
 30
0.0
 10
229.4806366467091
 20
121.1867189040889
 30
0.0
 10
229.5588915163895
 20
121.0986649914939
 30
0.0
 10
229.6405396196571
 20
121.0137464857946
 30
0.0
 10
229.7254517397291
 20
120.9320901701056
 30
0.0
 10
229.813498482822
 20
120.8538228125952
 30
0.0
 10
229.9045496345422
 20
120.7790700414229
 30
0.0
 10
229.9984780350239
 20
120.7079629546976
 30
0.0
 10
230.0951354387852
 20
120.6406084427822
 30
0.0
 10
230.1943608198376
 20
120.5770947674317
 30
0.0
 10
230.2959962568189
 20
120.5175143084317
 30
0.0
 10
230.3998831358859
 20
120.4619586826278
 30
0.0
 10
230.5058626729605
 20
120.410518894193
 30
0.0
 10
230.6137783741332
 20
120.3632892788838
 30
0.0
 10
230.7234678998351
 20
120.3203487791074
 30
0.0
 10
230.8347596293056
 20
120.2817458825183
 30
0.0
 10
230.947485995325
 20
120.2475331247383
 30
0.0
 10
231.0614789510884
 20
120.2177626055243
 30
0.0
 10
231.1765704897212
 20
120.1924836139752
 30
0.0
 10
231.2925905593794
 20
120.1717579614424
 30
0.0
 10
231.4093573473343
 20
120.1556031731454
 30
0.0
 10
231.5266720455322
 20
120.1441311498469
 30
0.0
 10
231.6443305225907
 20
120.1369272310337
 30
0.0
 10
231.7228819937472
 20
120.1360173236852
 30
0.0
 10
231.762150620916
 20
120.1355624523518
 30
0.0
  0
SPLINE
  5
1C2
330
1F
100
AcDbEntity
  8
0
  6
Continuous
 62
     7
370
    15
100
AcDbSpline
210
0.0
220
0.0
230
1.0
 70
    24
 71
     3
 72
    14
 73
    10
 74
     0
 42
0.000000001
 43
0.00000001
 40
0.0
 40
0.0
 40
0.0
 40
0.0
 40
0.25
 40
0.25
 40
0.5
 40
0.5
 40
0.75
 40
0.75
 40
1.0
 40
1.0
 40
1.0
 40
1.0
 10
229.7624552220924
 20
123.1350586835852
 30
0.0
 10
229.6330099692373
 20
123.1350586835852
 30
0.0
 10
229.5036134293136
 20
123.1350586835852
 30
0.0
 10
229.263999780173
 20
123.1350586835852
 30
0.0
 10
229.153872842538
 20
123.1350586835852
 30
0.0
 10
228.9692190730573
 20
123.1350586835852
 30
0.0
 10
228.8947617302517
 20
123.1350586835852
 30
0.0
 10
228.7925662936438
 20
123.1350586835852
 30
0.0
 10
228.7648666581023
 20
123.1350586835852
 30
0.0
 10
228.7626075269362
 20
123.1350586835852
 30
0.0
  0
SPLINE
  5
1C3
330
1F
100
AcDbEntity
  8
0
  6
Continuous
 62
     7
370
    15
100
AcDbSpline
210
0.0
220
0.0
230
1.0
 70
     8
 71
     3
 72
    14
 73
    10
 74
     0
 42
0.000000001
 43
0.00000001
 40
0.0
 40
0.0
 40
0.0
 40
0.0
 40
0.25
 40
0.25
 40
0.5
 40
0.5
 40
0.75
 40
0.75
 40
1.0
 40
1.0
 40
1.0
 40
1.0
 10
231.7621506124073
 20
121.1353632896352
 30
0.0
 10
231.5004387326744
 20
121.1354126574736
 30
0.0
 10
231.2385668672032
 20
121.187407039866
 30
0.0
 10
230.7550053942953
 20
121.3877157932103
 30
0.0
 10
230.5331801973778
 20
121.5359446503392
 30
0.0
 10
230.1630178445885
 20
121.9060927447589
 30
0.0
 10
230.0147935212554
 20
122.1279215421685
 30
0.0
 10
229.8145175776848
 20
122.6114866558619
 30
0.0
 10
229.7625179555447
 20
122.873453671209
 30
0.0
 10
229.7624552220924
 20
123.1350586799502
 30
0.0
  0
SPLINE
  5
1C4
330
1F
100
AcDbEntity
  8
0
  6
Continuous
 62
     7
370
    15
100
AcDbSpline
210
0.0
220
0.0
230
1.0
 70
    24
 71
     3
 72
    14
 73
    10
 74
     0
 42
0.000000001
 43
0.00000001
 40
0.0
 40
0.0
 40
0.0
 40
0.0
 40
0.25
 40
0.25
 40
0.5
 40
0.5
 40
0.75
 40
0.75
 40
1.0
 40
1.0
 40
1.0
 40
1.0
 10
231.7621506844728
 20
121.1353632896352
 30
0.0
 10
231.7621506770472
 20
121.0185476086149
 30
0.0
 10
231.7621506690491
 20
120.8927268902833
 30
0.0
 10
231.7621506535535
 20
120.6489634936923
 30
0.0
 10
231.762150646102
 20
120.531742943464
 30
0.0
 10
231.7621506337364
 20
120.3372217066037
 30
0.0
 10
231.7621506288623
 20
120.2605484681958
 30
0.0
 10
231.7621506225264
 20
120.1608859793919
 30
0.0
 10
231.7621506210459
 20
120.1376010398602
 30
0.0
 10
231.762150620916
 20
120.1355624523518
 30
0.0
  0
SPLINE
  5
1C5
330
1F
100
AcDbEntity
  8
0
  6
Continuous
 62
     7
370
    15
100
AcDbSpline
210
0.0
220
0.0
230
1.0
 70
     8
 71
     3
 72
    47
 73
    43
 74
     0
 42
0.000000001
 43
0.00000001
 40
0.0
 40
0.0
 40
0.0
 40
0.0
 40
0.0249874028094898
 40
0.0499876492912355
 40
0.0749952830030924
 40
0.1000049810541176
 40
0.1250117950517008
 40
0.1500131967234704
 40
0.1750103809608807
 40
0.2000046382923602
 40
0.224997068088339
 40
0.2499887459293727
 40
0.2749808910608878
 40
0.2999747259362935
 40
0.3249703960388239
 40
0.3499674734395895
 40
0.3749653549909376
 40
0.3999634444579618
 40
0.424961334646051
 40
0.4499590137410137
 40
0.4749568626166156
 40
0.4999550391901736
 40
0.5249534681144619
 40
0.5499520186232579
 40
0.5749506827704158
 40
0.599949739918441
 40
0.624949486796174
 40
0.6499497310069617
 40
0.6749499725025663
 40
0.6999495910595189
 40
0.7249480284811873
 40
0.7499449830891376
 40
0.7749410594096662
 40
0.7999375805380784
 40
0.8249356926922455
 40
0.84993646209436
 40
0.8749410425632335
 40
0.8999508404535728
 40
0.9249661036401354
 40
0.9499828513551777
 40
0.9749959519119494
 40
1.0
 40
1.0
 40
1.0
 40
1.0
 10
323.0986742144628
 20
153.9720707668675
 30
0.0
 10
323.0982170583198
 20
154.0113132286262
 30
0.0
 10
323.097302511053
 20
154.0898183230002
 30
0.0
 10
323.0900922520594
 20
154.2074156225758
 30
0.0
 10
323.0786206857365
 20
154.32468680841
 30
0.0
 10
323.0624773377479
 20
154.441426902869
 30
0.0
 10
323.0417809398656
 20
154.557433443743
 30
0.0
 10
323.0165186540163
 20
154.672513157179
 30
0.0
 10
322.9867604190295
 20
154.7864921139314
 30
0.0
 10
322.952558533615
 20
154.8992028537452
 30
0.0
 10
322.9139694498115
 20
155.0104788194376
 30
0.0
 10
322.8710484443391
 20
155.120153371169
 30
0.0
 10
322.8238509799893
 20
155.2280594227078
 30
0.0
 10
322.7724346886024
 20
155.3340272152476
 30
0.0
 10
322.716895117392
 20
155.4379018786582
 30
0.0
 10
322.6573272573572
 20
155.5395274441694
 30
0.0
 10
322.5938264886051
 20
155.6387476487788
 30
0.0
 10
322.5264877983758
 20
155.7354059453599
 30
0.0
 10
322.4554070987595
 20
155.8293466732868
 30
0.0
 10
322.3806766741156
 20
155.9204105518215
 30
0.0
 10
322.3024218044353
 20
156.0084644644166
 30
0.0
 10
322.2207737011676
 20
156.0933829701158
 30
0.0
 10
322.1358615810956
 20
156.1750392858048
 30
0.0
 10
322.0478148380028
 20
156.2533066433152
 30
0.0
 10
321.9567636862824
 20
156.3280594144875
 30
0.0
 10
321.8628352858008
 20
156.3991665012128
 30
0.0
 10
321.7661778820395
 20
156.4665210131282
 30
0.0
 10
321.6669525009871
 20
156.5300346884788
 30
0.0
 10
321.5653170640059
 20
156.5896151474788
 30
0.0
 10
321.4614301849389
 20
156.6451707732827
 30
0.0
 10
321.3554506478642
 20
156.6966105617175
 30
0.0
 10
321.2475349466915
 20
156.7438401770266
 30
0.0
 10
321.1378454209897
 20
156.7867806768031
 30
0.0
 10
321.0265536915191
 20
156.8253835733921
 30
0.0
 10
320.9138273254997
 20
156.8595963311721
 30
0.0
 10
320.7998343697363
 20
156.8893668503862
 30
0.0
 10
320.6847428311035
 20
156.9146458419353
 30
0.0
 10
320.5687227614453
 20
156.9353714944681
 30
0.0
 10
320.4519559734904
 20
156.9515262827651
 30
0.0
 10
320.3346412752925
 20
156.9629983060636
 30
0.0
 10
320.216982798234
 20
156.9702022248768
 30
0.0
 10
320.1384313270775
 20
156.9711121322252
 30
0.0
 10
320.0991626999087
 20
156.9715670035586
 30
0.0
  0
SPLINE
  5
1C6
330
1F
100
AcDbEntity
  8
0
  6
Continuous
 62
     7
370
    15
100
AcDbSpline
210
0.0
220
0.0
230
1.0
 70
    24
 71
     3
 72
    14
 73
    10
 74
     0
 42
0.000000001
 43
0.00000001
 40
0.0
 40
0.0
 40
0.0
 40
0.0
 40
0.25
 40
0.25
 40
0.5
 40
0.5
 40
0.75
 40
0.75
 40
1.0
 40
1.0
 40
1.0
 40
1.0
 10
322.0988580987324
 20
153.9720707723252
 30
0.0
 10
322.2283033515874
 20
153.9720707723252
 30
0.0
 10
322.3576998915111
 20
153.9720707723252
 30
0.0
 10
322.5973135406517
 20
153.9720707723252
 30
0.0
 10
322.7074404782866
 20
153.9720707723252
 30
0.0
 10
322.8920942477674
 20
153.9720707723252
 30
0.0
 10
322.966551590573
 20
153.9720707723252
 30
0.0
 10
323.0687470271809
 20
153.9720707723252
 30
0.0
 10
323.0964466627224
 20
153.9720707723252
 30
0.0
 10
323.0987057938885
 20
153.9720707723252
 30
0.0
  0
SPLINE
  5
1C7
330
1F
100
AcDbEntity
  8
0
  6
Continuous
 62
     7
370
    15
100
AcDbSpline
210
0.0
220
0.0
230
1.0
 70
     8
 71
     3
 72
    14
 73
    10
 74
     0
 42
0.000000001
 43
0.00000001
 40
0.0
 40
0.0
 40
0.0
 40
0.0
 40
0.25
 40
0.25
 40
0.5
 40
0.5
 40
0.75
 40
0.75
 40
1.0
 40
1.0
 40
1.0
 40
1.0
 10
320.0991627084174
 20
155.9717661662752
 30
0.0
 10
320.3608745881504
 20
155.9717167984369
 30
0.0
 10
320.6227464536216
 20
155.9197224160445
 30
0.0
 10
321.1063079265294
 20
155.7194136627002
 30
0.0
 10
321.3281331234469
 20
155.5711848055712
 30
0.0
 10
321.6982954762362
 20
155.2010367111516
 30
0.0
 10
321.8465197995694
 20
154.979207913742
 30
0.0
 10
322.0467957431399
 20
154.4956428000486
 30
0.0
 10
322.09879536528
 20
154.2336757847014
 30
0.0
 10
322.0988580987324
 20
153.9720707759602
 30
0.0
  0
SPLINE
  5
1C8
330
1F
100
AcDbEntity
  8
0
  6
Continuous
 62
     7
370
    15
100
AcDbSpline
210
0.0
220
0.0
230
1.0
 70
    24
 71
     3
 72
    14
 73
    10
 74
     0
 42
0.000000001
 43
0.00000001
 40
0.0
 40
0.0
 40
0.0
 40
0.0
 40
0.25
 40
0.25
 40
0.5
 40
0.5
 40
0.75
 40
0.75
 40
1.0
 40
1.0
 40
1.0
 40
1.0
 10
320.0991626363519
 20
155.9717661662752
 30
0.0
 10
320.0991626437775
 20
156.0885818472956
 30
0.0
 10
320.0991626517757
 20
156.2144025656272
 30
0.0
 10
320.0991626672712
 20
156.4581659622182
 30
0.0
 10
320.0991626747227
 20
156.5753865124464
 30
0.0
 10
320.0991626870883
 20
156.7699077493067
 30
0.0
 10
320.0991626919625
 20
156.8465809877147
 30
0.0
 10
320.0991626982983
 20
156.9462434765185
 30
0.0
 10
320.0991626997788
 20
156.9695284160503
 30
0.0
 10
320.0991626999087
 20
156.9715670035586
 30
0.0
  0
LINE
  5
1C9
330
1F
100
AcDbEntity
  8
0
  6
Continuous
 62
     7
370
    15
100
AcDbLine
 10
228.7626075269
 20
153.972070776
 30
0.0
 11
228.7626075269
 21
123.1350586836
 31
0.0
  0
LINE
  5
1CA
330
1F
100
AcDbEntity
  8
0
  6
Continuous
 62
     7
370
    15
100
AcDbLine
 10
231.7621506124
 20
155.9717661663
 30
0.0
 11
320.0991627084
 21
155.9717661663
 31
0.0
  0
LINE
  5
1CB
330
1F
100
AcDbEntity
  8
0
  6
Continuous
 62
     7
370
    15
100
AcDbLine
 10
320.0991627084
 20
121.1353632896
 30
0.0
 11
231.7621506124
 21
121.1353632896
 31
0.0
  0
LINE
  5
1CC
330
1F
100
AcDbEntity
  8
0
  6
Continuous
 62
     7
370
    15
100
AcDbLine
 10
320.0991627084
 20
156.9716138614
 30
0.0
 11
231.762150616
 21
156.9716138614
 31
0.0
  0
LINE
  5
1CD
330
1F
100
AcDbEntity
  8
0
  6
Continuous
 62
     7
370
    15
100
AcDbLine
 10
231.7621506124
 20
120.1355155945
 30
0.0
 11
320.0991627048
 21
120.1355155945
 31
0.0
  0
LINE
  5
1CE
330
1F
100
AcDbEntity
  8
0
  6
Continuous
 62
     7
370
    15
100
AcDbLine
 10
323.0987057939
 20
123.13505868
 30
0.0
 11
323.0987057939
 21
153.9720707723
 31
0.0
  0
ELLIPSE
  5
1CF
330
1F
100
AcDbEntity
  8
0
  6
Continuous
 62
     7
370
    15
100
AcDbEllipse
 10
231.4311136445
 20
154.3031077438
 30
0.0
 11
2.121966567508736
 21
-2.121966567508736
 31
0.0
210
0.0
220
0.0
230
1.0
 40
0.9996954599
 41
2.356346783439398
 42
3.926838523740202
  0
LINE
  5
1D0
330
1F
100
AcDbEntity
  8
0
  6
Continuous
 62
     7
370
    15
100
AcDbLine
 10
231.4301997459
 20
157.303564728
 30
0.0
 11
231.762150616
 21
156.9716138614
 31
0.0
  0
LINE
  5
1D1
330
1F
100
AcDbEntity
  8
0
  6
Continuous
 62
     7
370
    15
100
AcDbLine
 10
228.7626075269
 20
153.9720707738
 30
0.0
 11
228.4306566604
 21
154.3040216425
 31
0.0
  0
ELLIPSE
  5
1D2
330
1F
100
AcDbEntity
  8
0
  6
Continuous
 62
     7
370
    15
100
AcDbEllipse
 10
320.4301996763
 20
122.8040217121
 30
0.0
 11
-2.121966567508764
 21
2.12196656750875
 31
0.0
210
0.0
220
0.0
230
1.0
 40
0.9996954599
 41
2.356346783439385
 42
3.926838523740199
  0
LINE
  5
1D3
330
1F
100
AcDbEntity
  8
0
  6
Continuous
 62
     7
370
    15
100
AcDbLine
 10
320.4311135749
 20
119.803564728
 30
0.0
 11
320.0991627048
 21
120.1355155945
 31
0.0
  0
LINE
  5
1D4
330
1F
100
AcDbEntity
  8
0
  6
Continuous
 62
     7
370
    15
100
AcDbLine
 10
323.4306566604
 20
122.8031078134
 30
0.0
 11
323.0987057939
 21
123.1350586821
 31
0.0
  0
ELLIPSE
  5
1D5
330
1F
100
AcDbEntity
  8
0
  6
Continuous
 62
     7
370
    15
100
AcDbEllipse
 10
320.4301996763
 20
154.3031077438
 30
0.0
 11
-2.121966567508764
 21
-2.121966567508736
 31
0.0
210
0.0
220
0.0
230
1.0
 40
0.9996954599
 41
2.356346783439389
 42
3.926838523739676
  0
LINE
  5
1D6
330
1F
100
AcDbEntity
  8
0
  6
Continuous
 62
     7
370
    15
100
AcDbLine
 10
323.4306566604
 20
154.3040216425
 30
0.0
 11
323.0987057939
 21
153.9720707723
 31
0.0
  0
LINE
  5
1D7
330
1F
100
AcDbEntity
  8
0
  6
Continuous
 62
     7
370
    15
100
AcDbLine
 10
320.4311135749
 20
157.303564728
 30
0.0
 11
320.0991627084
 21
156.9716138614
 31
0.0
  0
ELLIPSE
  5
1D8
330
1F
100
AcDbEntity
  8
0
  6
Continuous
 62
     7
370
    15
100
AcDbEllipse
 10
231.4311136445
 20
122.8040217121
 30
0.0
 11
2.121966567508736
 21
2.12196656750875
 31
0.0
210
0.0
220
0.0
230
1.0
 40
0.9996954599
 41
2.356346783439395
 42
3.926838523740189
  0
LINE
  5
1D9
330
1F
100
AcDbEntity
  8
0
  6
Continuous
 62
     7
370
    15
100
AcDbLine
 10
228.4306566604
 20
122.8031078134
 30
0.0
 11
228.7626075269
 21
123.1350586836
 31
0.0
  0
LINE
  5
1DA
330
1F
100
AcDbEntity
  8
0
  6
Continuous
 62
     7
370
    15
100
AcDbLine
 10
231.4301997459
 20
119.803564728
 30
0.0
 11
231.7621506145
 21
120.1355155945
 31
0.0
  0
LINE
  5
1DB
330
1F
100
AcDbEntity
  8
0
  6
Continuous
 62
     7
370
    15
100
AcDbLine
 10
323.4306566604
 20
122.8031078134
 30
0.0
 11
323.4306566604
 21
154.3040216425
 31
0.0
  0
LINE
  5
1DC
330
1F
100
AcDbEntity
  8
0
  6
Continuous
 62
     7
370
    15
100
AcDbLine
 10
228.4306566604
 20
154.3040216425
 30
0.0
 11
228.4306566604
 21
122.8031078134
 31
0.0
  0
LINE
  5
1DD
330
1F
100
AcDbEntity
  8
0
  6
Continuous
 62
     7
370
    15
100
AcDbLine
 10
320.4311135749
 20
157.303564728
 30
0.0
 11
231.4301997459
 21
157.303564728
 31
0.0
  0
LINE
  5
1DE
330
1F
100
AcDbEntity
  8
0
  6
Continuous
 62
     7
370
    15
100
AcDbLine
 10
231.4301997459
 20
119.803564728
 30
0.0
 11
320.4311135749
 21
119.803564728
 31
0.0
  0
LINE
  5
1DF
330
1F
100
AcDbEntity
  8
0
  6
Continuous
 62
     8
370
    15
100
AcDbLine
 10
229.7624552221
 20
123.13505868
 30
0.0
 11
229.7624552221
 21
125.4982519238
 31
0.0
  0
LINE
  5
1E0
330
1F
100
AcDbEntity
  8
0
  6
Continuous
 62
     8
370
    15
100
AcDbLine
 10
229.7624552221
 20
151.6088775321
 30
0.0
 11
229.7624552221
 21
153.972070776
 31
0.0
  0
LINE
  5
1E1
330
1F
100
AcDbEntity
  8
0
  6
Continuous
 62
     8
370
    15
100
AcDbLine
 10
229.7624552221
 20
129.1088775321
 30
0.0
 11
229.7624552221
 21
147.9982519238
 31
0.0
  0
LINE
  5
1E2
330
1F
100
AcDbEntity
  8
0
  6
Continuous
 62
     8
370
    15
100
AcDbLine
 10
322.0988580987
 20
153.972070776
 30
0.0
 11
322.0988580987
 21
151.6088775321
 31
0.0
  0
LINE
  5
1E3
330
1F
100
AcDbEntity
  8
0
  6
Continuous
 62
     8
370
    15
100
AcDbLine
 10
322.0988580987
 20
147.9982519238
 30
0.0
 11
322.0988580987
 21
129.1088775321
 31
0.0
  0
LINE
  5
1E4
330
1F
100
AcDbEntity
  8
0
  6
Continuous
 62
     8
370
    15
100
AcDbLine
 10
322.0988580987
 20
125.4982519238
 30
0.0
 11
322.0988580987
 21
123.13505868
 31
0.0
  0
ENDSEC
  0
SECTION
  2
OBJECTS
  0
DICTIONARY
  5
C
330
0
100
AcDbDictionary
281
     1
  3
ACAD_GROUP
350
D
  3
ACAD_LAYOUT
350
1A
  3
ACAD_MLINESTYLE
350
17
  3
ACAD_PLOTSETTINGS
350
19
  3
ACAD_PLOTSTYLENAME
350
E
  3
ACAD_SCALELIST
350
47
  0
DICTIONARY
  5
D
102
{ACAD_REACTORS
330
C
102
}
330
C
100
AcDbDictionary
281
     1
  0
DICTIONARY
  5
1A
102
{ACAD_REACTORS
330
C
102
}
330
C
100
AcDbDictionary
281
     1
  3
Layout1
350
1E
  3
Layout2
350
26
  3
Model
350
22
  0
DICTIONARY
  5
17
102
{ACAD_REACTORS
330
C
102
}
330
C
100
AcDbDictionary
281
     1
  3
Standard
350
18
  0
DICTIONARY
  5
19
102
{ACAD_REACTORS
330
C
102
}
330
C
100
AcDbDictionary
281
     1
  0
ACDBDICTIONARYWDFLT
  5
E
102
{ACAD_REACTORS
330
C
102
}
330
C
100
AcDbDictionary
281
     1
  3
Normal
350
F
100
AcDbDictionaryWithDefault
340
F
  0
DICTIONARY
  5
47
102
{ACAD_REACTORS
330
C
102
}
330
C
100
AcDbDictionary
281
     1
  3
A0
350
48
  3
A1
350
49
  3
A2
350
4A
  3
A3
350
4B
  3
A4
350
4C
  3
A5
350
4D
  3
A6
350
4E
  3
A7
350
4F
  3
A8
350
50
  3
A9
350
51
  3
B0
350
52
  3
B1
350
53
  3
B2
350
54
  3
B3
350
55
  3
B4
350
56
  3
B5
350
57
  3
B6
350
58
  3
B7
350
59
  3
B8
350
5A
  3
B9
350
5B
  3
C0
350
5C
  3
C1
350
5D
  3
C2
350
5E
  3
C3
350
5F
  3
C4
350
60
  3
C5
350
61
  3
C6
350
62
  3
C7
350
63
  3
C8
350
64
  3
C9
350
65
  3
D0
350
66
  3
D1
350
67
  3
D2
350
68
  0
LAYOUT
  5
1E
102
{ACAD_REACTORS
330
1A
102
}
330
1A
100
AcDbPlotSettings
  1

  2
none_device
  4

  6

 40
0.0
 41
0.0
 42
0.0
 43
0.0
 44
0.0
 45
0.0
 46
0.0
 47
0.0
 48
0.0
 49
0.0
140
0.0
141
0.0
142
1.0
143
1.0
 70
   688
 72
     1
 73
     0
 74
     5
  7

 75
    16
147
1.0
148
0.0
149
0.0
100
AcDbLayout
  1
Layout1
 70
     1
 71
     1
 10
0.0
 20
0.0
 11
420.0
 21
297.0
 12
0.0
 22
0.0
 32
0.0
 14
1.0000000000E+20
 24
1.0000000000E+20
 34
1.0000000000E+20
 15
-1.0000000000E+20
 25
-1.0000000000E+20
 35
-1.0000000000E+20
146
0.0
 13
0.0
 23
0.0
 33
0.0
 16
1.0
 26
0.0
 36
0.0
 17
0.0
 27
1.0
 37
0.0
 76
     0
330
1B
  0
LAYOUT
  5
26
102
{ACAD_REACTORS
330
1A
102
}
330
1A
100
AcDbPlotSettings
  1

  2
none_device
  4

  6

 40
0.0
 41
0.0
 42
0.0
 43
0.0
 44
0.0
 45
0.0
 46
0.0
 47
0.0
 48
0.0
 49
0.0
140
0.0
141
0.0
142
1.0
143
1.0
 70
   688
 72
     1
 73
     0
 74
     5
  7

 75
    16
147
1.0
148
0.0
149
0.0
100
AcDbLayout
  1
Layout2
 70
     1
 71
     2
 10
0.0
 20
0.0
 11
0.0
 21
0.0
 12
0.0
 22
0.0
 32
0.0
 14
0.0
 24
0.0
 34
0.0
 15
0.0
 25
0.0
 35
0.0
146
0.0
 13
0.0
 23
0.0
 33
0.0
 16
1.0
 26
0.0
 36
0.0
 17
0.0
 27
1.0
 37
0.0
 76
     0
330
23
  0
LAYOUT
  5
22
102
{ACAD_REACTORS
330
1A
102
}
330
1A
100
AcDbPlotSettings
  1

  2
none_device
  4
Letter_(8.50_x_11.00_Inches)
  6

 40
6.35
 41
6.35
 42
6.35000508
 43
6.35000508
 44
215.9
 45
279.4
 46
0.0
 47
0.0
 48
0.0
 49
0.0
140
0.0
141
0.0
142
1.0
143
1.0
 70
  1712
 72
     1
 73
     0
 74
     0
  7

 75
     0
147
1.0
148
0.0
149
0.0
100
AcDbLayout
  1
Model
 70
     1
 71
     0
 10
0.0
 20
0.0
 11
420.0
 21
297.0
 12
0.0
 22
0.0
 32
0.0
 14
0.0
 24
0.0
 34
0.0
 15
420.0
 25
297.0
 35
0.0
146
0.0
 13
0.0
 23
0.0
 33
0.0
 16
1.0
 26
0.0
 36
0.0
 17
0.0
 27
1.0
 37
0.0
 76
     0
330
1F
331
29
  0
MLINESTYLE
  5
18
102
{ACAD_REACTORS
330
17
102
}
330
17
100
AcDbMlineStyle
  2
Standard
 70
     0
  3

 62
   256
 51
90.0
 52
90.0
 71
     2
 49
0.5
 62
   256
  6
BYLAYER
 49
-0.5
 62
   256
  6
BYLAYER
  0
ACDBPLACEHOLDER
  5
F
102
{ACAD_REACTORS
330
E
102
}
330
E
  0
SCALE
  5
48
102
{ACAD_REACTORS
330
47
102
}
330
47
100
AcDbScale
 70
     0
300
1:1
140
1.0
141
1.0
290
     1
  0
SCALE
  5
49
102
{ACAD_REACTORS
330
47
102
}
330
47
100
AcDbScale
 70
     0
300
1:2
140
1.0
141
2.0
290
     0
  0
SCALE
  5
4A
102
{ACAD_REACTORS
330
47
102
}
330
47
100
AcDbScale
 70
     0
300
1:4
140
1.0
141
4.0
290
     0
  0
SCALE
  5
4B
102
{ACAD_REACTORS
330
47
102
}
330
47
100
AcDbScale
 70
     0
300
1:5
140
1.0
141
5.0
290
     0
  0
SCALE
  5
4C
102
{ACAD_REACTORS
330
47
102
}
330
47
100
AcDbScale
 70
     0
300
1:8
140
1.0
141
8.0
290
     0
  0
SCALE
  5
4D
102
{ACAD_REACTORS
330
47
102
}
330
47
100
AcDbScale
 70
     0
300
1:10
140
1.0
141
10.0
290
     0
  0
SCALE
  5
4E
102
{ACAD_REACTORS
330
47
102
}
330
47
100
AcDbScale
 70
     0
300
1:16
140
1.0
141
16.0
290
     0
  0
SCALE
  5
4F
102
{ACAD_REACTORS
330
47
102
}
330
47
100
AcDbScale
 70
     0
300
1:20
140
1.0
141
20.0
290
     0
  0
SCALE
  5
50
102
{ACAD_REACTORS
330
47
102
}
330
47
100
AcDbScale
 70
     0
300
1:30
140
1.0
141
30.0
290
     0
  0
SCALE
  5
51
102
{ACAD_REACTORS
330
47
102
}
330
47
100
AcDbScale
 70
     0
300
1:40
140
1.0
141
40.0
290
     0
  0
SCALE
  5
52
102
{ACAD_REACTORS
330
47
102
}
330
47
100
AcDbScale
 70
     0
300
1:50
140
1.0
141
50.0
290
     0
  0
SCALE
  5
53
102
{ACAD_REACTORS
330
47
102
}
330
47
100
AcDbScale
 70
     0
300
1:100
140
1.0
141
100.0
290
     0
  0
SCALE
  5
54
102
{ACAD_REACTORS
330
47
102
}
330
47
100
AcDbScale
 70
     0
300
2:1
140
2.0
141
1.0
290
     0
  0
SCALE
  5
55
102
{ACAD_REACTORS
330
47
102
}
330
47
100
AcDbScale
 70
     0
300
4:1
140
4.0
141
1.0
290
     0
  0
SCALE
  5
56
102
{ACAD_REACTORS
330
47
102
}
330
47
100
AcDbScale
 70
     0
300
8:1
140
8.0
141
1.0
290
     0
  0
SCALE
  5
57
102
{ACAD_REACTORS
330
47
102
}
330
47
100
AcDbScale
 70
     0
300
10:1
140
10.0
141
1.0
290
     0
  0
SCALE
  5
58
102
{ACAD_REACTORS
330
47
102
}
330
47
100
AcDbScale
 70
     0
300
100:1
140
100.0
141
1.0
290
     0
  0
SCALE
  5
59
102
{ACAD_REACTORS
330
47
102
}
330
47
100
AcDbScale
 70
     0
300
1/128" = 1'-0"
140
0.0078125
141
12.0
290
     0
  0
SCALE
  5
5A
102
{ACAD_REACTORS
330
47
102
}
330
47
100
AcDbScale
 70
     0
300
1/64" = 1'-0"
140
0.015625
141
12.0
290
     0
  0
SCALE
  5
5B
102
{ACAD_REACTORS
330
47
102
}
330
47
100
AcDbScale
 70
     0
300
1/32" = 1'-0"
140
0.03125
141
12.0
290
     0
  0
SCALE
  5
5C
102
{ACAD_REACTORS
330
47
102
}
330
47
100
AcDbScale
 70
     0
300
1/16" = 1'-0"
140
0.0625
141
12.0
290
     0
  0
SCALE
  5
5D
102
{ACAD_REACTORS
330
47
102
}
330
47
100
AcDbScale
 70
     0
300
3/32" = 1'-0"
140
0.09375
141
12.0
290
     0
  0
SCALE
  5
5E
102
{ACAD_REACTORS
330
47
102
}
330
47
100
AcDbScale
 70
     0
300
1/8" = 1'-0"
140
0.125
141
12.0
290
     0
  0
SCALE
  5
5F
102
{ACAD_REACTORS
330
47
102
}
330
47
100
AcDbScale
 70
     0
300
3/16" = 1'-0"
140
0.1875
141
12.0
290
     0
  0
SCALE
  5
60
102
{ACAD_REACTORS
330
47
102
}
330
47
100
AcDbScale
 70
     0
300
1/4" = 1'-0"
140
0.25
141
12.0
290
     0
  0
SCALE
  5
61
102
{ACAD_REACTORS
330
47
102
}
330
47
100
AcDbScale
 70
     0
300
3/8" = 1'-0"
140
0.375
141
12.0
290
     0
  0
SCALE
  5
62
102
{ACAD_REACTORS
330
47
102
}
330
47
100
AcDbScale
 70
     0
300
1/2" = 1'-0"
140
0.5
141
12.0
290
     0
  0
SCALE
  5
63
102
{ACAD_REACTORS
330
47
102
}
330
47
100
AcDbScale
 70
     0
300
3/4" = 1'-0"
140
0.75
141
12.0
290
     0
  0
SCALE
  5
64
102
{ACAD_REACTORS
330
47
102
}
330
47
100
AcDbScale
 70
     0
300
1" = 1'-0"
140
1.0
141
12.0
290
     0
  0
SCALE
  5
65
102
{ACAD_REACTORS
330
47
102
}
330
47
100
AcDbScale
 70
     0
300
1-1/2" = 1'-0"
140
1.5
141
12.0
290
     0
  0
SCALE
  5
66
102
{ACAD_REACTORS
330
47
102
}
330
47
100
AcDbScale
 70
     0
300
3" = 1'-0"
140
3.0
141
12.0
290
     0
  0
SCALE
  5
67
102
{ACAD_REACTORS
330
47
102
}
330
47
100
AcDbScale
 70
     0
300
6" = 1'-0"
140
6.0
141
12.0
290
     0
  0
SCALE
  5
68
102
{ACAD_REACTORS
330
47
102
}
330
47
100
AcDbScale
 70
     0
300
1'-0" = 1'-0"
140
12.0
141
12.0
290
     0
  0
ENDSEC
  0
EOF
