  0
SECTION
  2
HEADER
  9
$ACADVER
  1
AC1015
  9
$ACADMAINTVER
 70
     6
  9
$DWGCODEPAGE
  3
ANSI_1252
  9
$INSBASE
 10
0.0
 20
0.0
 30
0.0
  9
$EXTMIN
 10
0.0
 20
0.0
 30
0.0
  9
$EXTMAX
 10
420.0
 20
297.0
 30
0.0
  9
$LIMMIN
 10
0.0
 20
0.0
  9
$LIMMAX
 10
420.0
 20
297.0
  9
$ORTHOMODE
 70
     0
  9
$REGENMODE
 70
     1
  9
$FILLMODE
 70
     1
  9
$QTEXTMODE
 70
     0
  9
$MIRRTEXT
 70
     1
  9
$LTSCALE
 40
1.0
  9
$ATTMODE
 70
     1
  9
$TEXTSIZE
 40
3.5
  9
$TRACEWID
 40
1.0
  9
$TEXTSTYLE
  7
Standard
  9
$CLAYER
  8
0
  9
$CELTYPE
  6
ByLayer
  9
$CECOLOR
 62
   256
  9
$CELTSCALE
 40
1.0
  9
$DISPSILH
 70
     0
  9
$DIMSCALE
 40
1.0
  9
$DIMASZ
 40
6.0
  9
$DIMEXO
 40
1.0
  9
$DIMDLI
 40
3.75
  9
$DIMRND
 40
0.0
  9
$DIMDLE
 40
0.0
  9
$DIMEXE
 40
1.0
  9
$DIMTP
 40
0.0
  9
$DIMTM
 40
0.0
  9
$DIMTXT
 40
3.5
  9
$DIMCEN
 40
2.5
  9
$DIMTSZ
 40
0.0
  9
$DIMTOL
 70
     0
  9
$DIMLIM
 70
     0
  9
$DIMTIH
 70
     1
  9
$DIMTOH
 70
     1
  9
$DIMSE1
 70
     0
  9
$DIMSE2
 70
     0
  9
$DIMTAD
 70
     1
  9
$DIMZIN
 70
     0
  9
$DIMBLK
  1

  9
$DIMASO
 70
     1
  9
$DIMSHO
 70
     1
  9
$DIMPOST
  1

  9
$DIMAPOST
  1

  9
$DIMALT
 70
     0
  9
$DIMALTD
 70
     3
  9
$DIMALTF
 40
0.0393700787
  9
$DIMLFAC
 40
1.0
  9
$DIMTOFL
 70
     1
  9
$DIMTVP
 40
0.0
  9
$DIMTIX
 70
     0
  9
$DIMSOXD
 70
     0
  9
$DIMSAH
 70
     0
  9
$DIMBLK1
  1

  9
$DIMBLK2
  1

  9
$DIMSTYLE
  2
ISO-25
  9
$DIMCLRD
 70
     0
  9
$DIMCLRE
 70
     0
  9
$DIMCLRT
 70
     0
  9
$DIMTFAC
 40
1.0
  9
$DIMGAP
 40
1.524
  9
$DIMJUST
 70
     0
  9
$DIMSD1
 70
     0
  9
$DIMSD2
 70
     0
  9
$DIMTOLJ
 70
     0
  9
$DIMTZIN
 70
     0
  9
$DIMALTZ
 70
     0
  9
$DIMALTTZ
 70
     0
  9
$DIMUPT
 70
     0
  9
$DIMDEC
 70
     2
  9
$DIMTDEC
 70
     2
  9
$DIMALTU
 70
     2
  9
$DIMALTTD
 70
     3
  9
$DIMTXSTY
  7
Standard
  9
$DIMAUNIT
 70
     0
  9
$DIMADEC
 70
     2
  9
$DIMALTRND
 40
0.0
  9
$DIMAZIN
 70
     0
  9
$DIMDSEP
 70
    44
  9
$DIMATFIT
 70
     3
  9
$DIMFRAC
 70
     0
  9
$DIMLDRBLK
  1

  9
$DIMLUNIT
 70
     2
  9
$DIMLWD
 70
    -2
  9
$DIMLWE
 70
    -2
  9
$DIMTMOVE
 70
     0
  9
$LUNITS
 70
     2
  9
$LUPREC
 70
     2
  9
$SKETCHINC
 40
1.0
  9
$FILLETRAD
 40
10.0
  9
$AUNITS
 70
     0
  9
$AUPREC
 70
     2
  9
$MENU
  1
.
  9
$ELEVATION
 40
0.0
  9
$PELEVATION
 40
0.0
  9
$THICKNESS
 40
0.0
  9
$LIMCHECK
 70
     0
  9
$CHAMFERA
 40
0.0
  9
$CHAMFERB
 40
0.0
  9
$CHAMFERC
 40
0.0
  9
$CHAMFERD
 40
0.0
  9
$SKPOLY
 70
     0
  9
$TDCREATE
 40
2456937.431004607
  9
$TDUCREATE
 40
2456937.306004607
  9
$TDUPDATE
 40
2456937.431005336
  9
$TDUUPDATE
 40
2456937.306005336
  9
$TDINDWG
 40
0.0000000116
  9
$TDUSRTIMER
 40
0.0000000116
  9
$USRTIMER
 70
     1
  9
$ANGBASE
 50
0.0
  9
$ANGDIR
 70
     0
  9
$PDMODE
 70
     0
  9
$PDSIZE
 40
-1.0
  9
$PLINEWID
 40
0.0
  9
$SPLFRAME
 70
     0
  9
$SPLINETYPE
 70
     6
  9
$SPLINESEGS
 70
     8
  9
$HANDSEED
  5
1D1
  9
$SURFTAB1
 70
     6
  9
$SURFTAB2
 70
     6
  9
$SURFTYPE
 70
     6
  9
$SURFU
 70
     6
  9
$SURFV
 70
     6
  9
$UCSBASE
  2

  9
$UCSNAME
  2

  9
$UCSORG
 10
0.0
 20
0.0
 30
0.0
  9
$UCSXDIR
 10
1.0
 20
0.0
 30
0.0
  9
$UCSYDIR
 10
0.0
 20
1.0
 30
0.0
  9
$UCSORTHOREF
  2

  9
$UCSORTHOVIEW
 70
     0
  9
$UCSORGTOP
 10
0.0
 20
0.0
 30
0.0
  9
$UCSORGBOTTOM
 10
0.0
 20
0.0
 30
0.0
  9
$UCSORGLEFT
 10
0.0
 20
0.0
 30
0.0
  9
$UCSORGRIGHT
 10
0.0
 20
0.0
 30
0.0
  9
$UCSORGFRONT
 10
0.0
 20
0.0
 30
0.0
  9
$UCSORGBACK
 10
0.0
 20
0.0
 30
0.0
  9
$PUCSBASE
  2

  9
$PUCSNAME
  2

  9
$PUCSORG
 10
0.0
 20
0.0
 30
0.0
  9
$PUCSXDIR
 10
1.0
 20
0.0
 30
0.0
  9
$PUCSYDIR
 10
0.0
 20
1.0
 30
0.0
  9
$PUCSORTHOREF
  2

  9
$PUCSORTHOVIEW
 70
     0
  9
$PUCSORGTOP
 10
0.0
 20
0.0
 30
0.0
  9
$PUCSORGBOTTOM
 10
0.0
 20
0.0
 30
0.0
  9
$PUCSORGLEFT
 10
0.0
 20
0.0
 30
0.0
  9
$PUCSORGRIGHT
 10
0.0
 20
0.0
 30
0.0
  9
$PUCSORGFRONT
 10
0.0
 20
0.0
 30
0.0
  9
$PUCSORGBACK
 10
0.0
 20
0.0
 30
0.0
  9
$USERI1
 70
     0
  9
$USERI2
 70
     0
  9
$USERI3
 70
     0
  9
$USERI4
 70
     0
  9
$USERI5
 70
     0
  9
$USERR1
 40
0.0
  9
$USERR2
 40
0.0
  9
$USERR3
 40
0.0
  9
$USERR4
 40
0.0
  9
$USERR5
 40
0.0
  9
$WORLDVIEW
 70
     1
  9
$SHADEDGE
 70
     3
  9
$SHADEDIF
 70
    70
  9
$TILEMODE
 70
     1
  9
$MAXACTVP
 70
    64
  9
$PINSBASE
 10
0.0
 20
0.0
 30
0.0
  9
$PLIMCHECK
 70
     0
  9
$PEXTMIN
 10
1.0000000000E+20
 20
1.0000000000E+20
 30
1.0000000000E+20
  9
$PEXTMAX
 10
-1.0000000000E+20
 20
-1.0000000000E+20
 30
-1.0000000000E+20
  9
$PLIMMIN
 10
0.0
 20
0.0
  9
$PLIMMAX
 10
420.0
 20
297.0
  9
$UNITMODE
 70
     0
  9
$VISRETAIN
 70
     1
  9
$PLINEGEN
 70
     0
  9
$PSLTSCALE
 70
     1
  9
$TREEDEPTH
 70
  3020
  9
$CMLSTYLE
  2
Standard
  9
$CMLJUST
 70
     0
  9
$CMLSCALE
 40
20.0
  9
$PROXYGRAPHICS
 70
     1
  9
$MEASUREMENT
 70
     1
  9
$CELWEIGHT
370
    -1
  9
$ENDCAPS
280
     0
  9
$JOINSTYLE
280
     0
  9
$LWDISPLAY
290
     1
  9
$INSUNITS
 70
     4
  9
$HYPERLINKBASE
  1

  9
$STYLESHEET
  1

  9
$XEDIT
290
     1
  9
$CEPSNTYPE
380
     0
  9
$PSTYLEMODE
290
     1
  9
$FINGERPRINTGUID
  2
{6DCD284F-65A6-4D26-85EC-62BF0925FA92}
  9
$VERSIONGUID
  2
{FAEB1C32-E019-11D5-929B-00C0DF256EC4}
  9
$EXTNAMES
290
     1
  9
$PSVPSCALE
 40
0.0
  9
$OLESTARTUP
290
     0
  0
ENDSEC
  0
SECTION
  2
CLASSES
  0
CLASS
  1
ACDBDICTIONARYWDFLT
  2
AcDbDictionaryWithDefault
  3
ObjectDBX Classes
 90
        0
280
     0
281
     0
  0
CLASS
  1
VISUALSTYLE
  2
AcDbVisualStyle
  3
ObjectDBX Classes
 90
     4095
280
     0
281
     0
  0
CLASS
  1
MATERIAL
  2
AcDbMaterial
  3
ObjectDBX Classes
 90
     1153
280
     0
281
     0
  0
CLASS
  1
SCALE
  2
AcDbScale
  3
ObjectDBX Classes
 90
     1153
280
     0
281
     0
  0
CLASS
  1
SUN
  2
AcDbSun
  3
SCENEOE
 90
     1153
280
     0
281
     0
  0
CLASS
  1
ACDBPLACEHOLDER
  2
AcDbPlaceHolder
  3
ObjectDBX Classes
 90
        0
280
     0
281
     0
  0
CLASS
  1
LAYOUT
  2
AcDbLayout
  3
ObjectDBX Classes
 90
        0
280
     0
281
     0
  0
ENDSEC
  0
SECTION
  2
TABLES
  0
TABLE
  2
VPORT
  5
8
330
0
100
AcDbSymbolTable
 70
     1
  0
VPORT
  5
29
330
8
100
AcDbSymbolTableRecord
100
AcDbViewportTableRecord
  2
*Active
 70
     0
 10
0.0
 20
0.0
 11
1.0
 21
1.0
 12
210.0
 22
148.5
 13
0.0
 23
0.0
 14
10.0
 24
10.0
 15
10.0
 25
10.0
 16
0.0
 26
0.0
 36
1.0
 17
0.0
 27
0.0
 37
0.0
 40
297.0
 41
1.4141414141
 42
50.0
 43
0.0
 44
0.0
 50
0.0
 51
0.0
 71
     0
 72
  2000
 73
     1
 74
     3
 75
     0
 76
     0
 77
     0
 78
     0
281
     0
 65
     1
110
0.0
120
0.0
130
0.0
111
1.0
121
0.0
131
0.0
112
0.0
122
1.0
132
0.0
 79
     0
146
0.0
  0
ENDTAB
  0
TABLE
  2
LTYPE
  5
5
330
0
100
AcDbSymbolTable
 70
     6
  0
LTYPE
  5
14
330
5
100
AcDbSymbolTableRecord
100
AcDbLinetypeTableRecord
  2
ByBlock
 70
     0
  3

 72
    65
 73
     0
 40
0.0
  0
LTYPE
  5
15
330
5
100
AcDbSymbolTableRecord
100
AcDbLinetypeTableRecord
  2
ByLayer
 70
     0
  3

 72
    65
 73
     0
 40
0.0
  0
LTYPE
  5
16
330
5
100
AcDbSymbolTableRecord
100
AcDbLinetypeTableRecord
  2
Continuous
 70
     0
  3
Solid line
 72
    65
 73
     0
 40
0.0
  0
LTYPE
  5
6A
330
5
100
AcDbSymbolTableRecord
100
AcDbLinetypeTableRecord
  2
HIDDEN
 70
     0
  3
Hidden __ __ __ __ __ __ __ __ __ __ __ __ __ __
 72
    65
 73
     2
 40
1.905
 49
1.27
 74
     0
 49
-0.635
 74
     0
  0
LTYPE
  5
6B
330
5
100
AcDbSymbolTableRecord
100
AcDbLinetypeTableRecord
  2
PHANTOM
 70
     0
  3
Phantom ______  __  __  ______  __  __  ______
 72
    65
 73
     6
 40
12.7
 49
6.35
 74
     0
 49
-1.27
 74
     0
 49
1.27
 74
     0
 49
-1.27
 74
     0
 49
1.27
 74
     0
 49
-1.27
 74
     0
  0
LTYPE
  5
6C
330
5
100
AcDbSymbolTableRecord
100
AcDbLinetypeTableRecord
  2
CENTER
 70
     0
  3
Center ____ _ ____ _ ____ _ ____ _ ____ _ ____
 72
    65
 73
     4
 40
10.16
 49
6.35
 74
     0
 49
-1.27
 74
     0
 49
1.27
 74
     0
 49
-1.27
 74
     0
  0
LTYPE
  5
6D
330
5
100
AcDbSymbolTableRecord
100
AcDbLinetypeTableRecord
  2
CENTERX2
 70
     0
  3
Center (2x) ________  __  ________  __  _____
 72
    65
 73
     4
 40
20.32
 49
12.7
 74
     0
 49
-2.54
 74
     0
 49
2.54
 74
     0
 49
-2.54
 74
     0
  0
LTYPE
  5
6E
330
5
100
AcDbSymbolTableRecord
100
AcDbLinetypeTableRecord
  2
DOT2
 70
     0
  3
Dot (.5x) ........................................
 72
    65
 73
     2
 40
0.635
 49
0.0
 74
     0
 49
-0.635
 74
     0
  0
ENDTAB
  0
TABLE
  2
LAYER
  5
2
330
0
100
AcDbSymbolTable
 70
     1
  0
LAYER
  5
10
330
2
100
AcDbSymbolTableRecord
100
AcDbLayerTableRecord
  2
0
 70
     0
 62
     7
  6
Continuous
370
    -3
390
F
  0
ENDTAB
  0
TABLE
  2
STYLE
  5
3
330
0
100
AcDbSymbolTable
 70
     1
  0
STYLE
  5
11
330
3
100
AcDbSymbolTableRecord
100
AcDbTextStyleTableRecord
  2
Standard
 70
     0
 40
0.0
 41
1.0
 50
0.0
 71
     0
 42
3.5
  3
txt
  4

  0
ENDTAB
  0
TABLE
  2
VIEW
  5
6
330
0
100
AcDbSymbolTable
 70
     0
  0
ENDTAB
  0
TABLE
  2
UCS
  5
7
330
0
100
AcDbSymbolTable
 70
     0
  0
ENDTAB
  0
TABLE
  2
APPID
  5
9
330
0
100
AcDbSymbolTable
 70
     1
  0
APPID
  5
12
330
9
100
AcDbSymbolTableRecord
100
AcDbRegAppTableRecord
  2
ACAD
 70
     0
  0
ENDTAB
  0
TABLE
  2
DIMSTYLE
  5
A
330
0
100
AcDbSymbolTable
 70
     1
100
AcDbDimStyleTable
  0
DIMSTYLE
105
27
330
A
100
AcDbSymbolTableRecord
100
AcDbDimStyleTableRecord
  2
ISO-25
 70
     0
 41
2.5
 42
0.625
 43
3.75
 44
1.25
 73
     0
 74
     0
 77
     1
 78
     8
140
2.5
141
2.5
143
0.0393700787
147
0.625
171
     3
172
     1
178
     0
271
     2
272
     2
274
     3
278
    44
283
     0
284
     8
340
11
  0
ENDTAB
  0
TABLE
  2
BLOCK_RECORD
  5
1
330
0
100
AcDbSymbolTable
 70
     1
  0
BLOCK_RECORD
  5
1F
330
1
100
AcDbSymbolTableRecord
100
AcDbBlockTableRecord
  2
*Model_Space
340
22
  0
BLOCK_RECORD
  5
1B
330
1
100
AcDbSymbolTableRecord
100
AcDbBlockTableRecord
  2
*Paper_Space
340
1E
  0
BLOCK_RECORD
  5
23
330
1
100
AcDbSymbolTableRecord
100
AcDbBlockTableRecord
  2
*Paper_Space0
340
26
  0
ENDTAB
  0
ENDSEC
  0
SECTION
  2
BLOCKS
  0
BLOCK
  5
20
330
1F
100
AcDbEntity
  8
0
100
AcDbBlockBegin
  2
*Model_Space
 70
     0
 10
0.0
 20
0.0
 30
0.0
  3
*Model_Space
  1
*Model_Space
  0
ENDBLK
  5
21
330
1F
100
AcDbEntity
  8
0
100
AcDbBlockEnd
  0
BLOCK
  5
1C
330
1B
100
AcDbEntity
 67
     1
  8
0
100
AcDbBlockBegin
  2
*Paper_Space
 70
     0
 10
0.0
 20
0.0
 30
0.0
  3
*Paper_Space
  1
*Paper_Space
  0
ENDBLK
  5
1D
330
1B
100
AcDbEntity
 67
     1
  8
0
100
AcDbBlockEnd
  0
BLOCK
  5
24
330
23
100
AcDbEntity
  8
0
100
AcDbBlockBegin
  2
*Paper_Space0
 70
     0
 10
0.0
 20
0.0
 30
0.0
  3
*Paper_Space0
  1
*Paper_Space0
  0
ENDBLK
  5
25
330
23
100
AcDbEntity
  8
0
100
AcDbBlockEnd
  0
ENDSEC
  0
SECTION
  2
ENTITIES
  0
SPLINE
  5
6F
330
1F
100
AcDbEntity
  8
0
  6
Continuous
 62
     7
370
    15
100
AcDbSpline
210
0.0
220
0.0
230
1.0
 70
     8
 71
     3
 72
     8
 73
     4
 74
     0
 42
0.000000001
 43
0.00000001
 40
0.0
 40
0.0
 40
0.0
 40
0.0
 40
1.0
 40
1.0
 40
1.0
 40
1.0
 10
79.01654439736569
 20
101.2616455753872
 30
0.0
 10
78.99355313614036
 20
101.4354356979006
 30
0.0
 10
78.98199591167679
 20
101.6107770443828
 30
0.0
 10
78.9819296933951
 20
101.7859546203672
 30
0.0
  0
SPLINE
  5
70
330
1F
100
AcDbEntity
  8
0
  6
Continuous
 62
     7
370
    15
100
AcDbSpline
210
0.0
220
0.0
230
1.0
 70
     8
 71
     3
 72
     8
 73
     4
 74
     0
 42
0.000000001
 43
0.00000001
 40
0.0
 40
0.0
 40
0.0
 40
0.0
 40
1.0
 40
1.0
 40
1.0
 40
1.0
 10
82.98132047402581
 20
97.7865638397365
 30
0.0
 10
82.80576138001022
 20
97.78660305902112
 30
0.0
 10
82.63000920545205
 20
97.79820065623585
 30
0.0
 10
82.45579048947579
 20
97.82127272441718
 30
0.0
  0
SPLINE
  5
71
330
1F
100
AcDbEntity
  8
0
  6
Continuous
 62
     7
370
    15
100
AcDbSpline
210
0.0
220
0.0
230
1.0
 70
     8
 71
     3
 72
    14
 73
    10
 74
     0
 42
0.000000001
 43
0.00000001
 40
0.0
 40
0.0
 40
0.0
 40
0.0
 40
0.25
 40
0.25
 40
0.5
 40
0.5
 40
0.75
 40
0.75
 40
1.0
 40
1.0
 40
1.0
 40
1.0
 10
82.98132047402581
 20
97.78656383973718
 30
0.0
 10
82.98133824981748
 20
97.52767326990782
 30
0.0
 10
82.98135602560913
 20
97.26888012606138
 30
0.0
 10
82.98139157719248
 20
96.7896527279467
 30
0.0
 10
82.98140935298413
 20
96.56939881705806
 30
0.0
 10
82.9814449045675
 20
96.20009125644033
 30
0.0
 10
82.98146268035913
 20
96.05117658493714
 30
0.0
 10
82.98149823194248
 20
95.84678579836644
 30
0.0
 10
82.98151600773416
 20
95.79138659986371
 30
0.0
 10
82.9815337835258
 20
95.78686843599662
 30
0.0
  0
SPLINE
  5
72
330
1F
100
AcDbEntity
  8
0
  6
Continuous
 62
     7
370
    15
100
AcDbSpline
210
0.0
220
0.0
230
1.0
 70
     8
 71
     3
 72
    47
 73
    43
 74
     0
 42
0.000000001
 43
0.00000001
 40
0.0
 40
0.0
 40
0.0
 40
0.0
 40
0.0250008169326103
 40
0.0500107616368322
 40
0.075024478941854
 40
0.100036822647803
 40
0.1250443239173192
 40
0.1500477182790955
 40
0.1750483064798103
 40
0.2000472534890649
 40
0.2250457555834937
 40
0.2500450738217445
 40
0.2750455395368357
 40
0.3000467589381394
 40
0.3250482023019482
 40
0.3500493889978235
 40
0.3750500764038225
 40
0.4000504233113245
 40
0.4250505431940745
 40
0.4500503425128384
 40
0.475049691869365
 40
0.5000486048076186
 40
0.52504735296
 40
0.5500461108024248
 40
0.5750448118662461
 40
0.6000433197223123
 40
0.625041606618089
 40
0.6500398709185955
 40
0.6750381180413154
 40
0.7000359823812246
 40
0.7250329413743039
 40
0.7500284974899376
 40
0.7750224237642832
 40
0.8000155522601637
 40
0.8250091620246185
 40
0.8500044152943386
 40
0.8750025106292685
 40
0.9000048107555242
 40
0.9250105853538384
 40
0.9500152300277082
 40
0.9750134915413626
 40
1.0
 40
1.0
 40
1.0
 40
1.0
 10
76.98227101956151
 20
101.785954626696
 30
0.0
 10
76.98317892498319
 20
101.707425471977
 30
0.0
 10
76.9849950673018
 20
101.5503384916283
 30
0.0
 10
76.9994133900634
 20
101.3150456028346
 30
0.0
 10
77.02237219078778
 20
101.0804403249784
 30
0.0
 10
77.05470033151794
 20
100.8469294493609
 30
0.0
 10
77.09615790774032
 20
100.6149050292791
 30
0.0
 10
77.14670578121543
 20
100.3847255536147
 30
0.0
 10
77.20623401296795
 20
100.1567318186643
 30
0.0
 10
77.27465328181555
 20
99.93126222878276
 30
0.0
 10
77.35186715245717
 20
99.7086547106042
 30
0.0
 10
77.437786124749
 20
99.48925456290166
 30
0.0
 10
77.5322595756536
 20
99.27339075343181
 30
0.0
 10
77.63512186457139
 20
99.06138855477991
 30
0.0
 10
77.74621130571647
 20
98.85357645607515
 30
0.0
 10
77.86536315385617
 20
98.65028110157509
 30
0.0
 10
77.99242140733203
 20
98.45183474090985
 30
0.0
 10
78.12718994603344
 20
98.25854604454949
 30
0.0
 10
78.26943408348907
 20
98.07069435302013
 30
0.0
 10
78.41892865338154
 20
97.88856369880621
 30
0.0
 10
78.57544554183396
 20
97.71243600783758
 30
0.0
 10
78.73876024676049
 20
97.54259651165184
 30
0.0
 10
78.90863502903545
 20
97.37932138416464
 30
0.0
 10
79.08478458186893
 20
97.22283806292565
 30
0.0
 10
79.26693062585564
 20
97.07337858802282
 30
0.0
 10
79.45479348987827
 20
96.93117395556841
 30
0.0
 10
79.64809338163381
 20
96.7964546376792
 30
0.0
 10
79.84655047031329
 20
96.66945654513471
 30
0.0
 10
80.04984064932144
 20
96.55035185826229
 30
0.0
 10
80.25763792594007
 20
96.43930656514046
 30
0.0
 10
80.46961726384201
 20
96.33648896762608
 30
0.0
 10
80.68545281915414
 20
96.2420646540099
 30
0.0
 10
80.90482428814703
 20
96.15620748631758
 30
0.0
 10
81.12739505604758
 20
96.07904263836028
 30
0.0
 10
81.35282419297388
 20
96.01066379104671
 30
0.0
 10
81.5807756742035
 20
95.9511724879373
 30
0.0
 10
81.81091234668925
 20
95.90066098341143
 30
0.0
 10
82.04289104439236
 20
95.85925217471957
 30
0.0
 10
82.27634054945536
 20
95.8269602297916
 30
0.0
 10
82.51086112335722
 20
95.804019116521
 30
0.0
 10
82.74604416545218
 20
95.78960954118917
 30
0.0
 10
82.90304955110814
 20
95.78779748531028
 30
0.0
 10
82.98153378538429
 20
95.78689167040763
 30
0.0
  0
SPLINE
  5
73
330
1F
100
AcDbEntity
  8
0
  6
Continuous
 62
     7
370
    15
100
AcDbSpline
210
0.0
220
0.0
230
1.0
 70
    24
 71
     3
 72
    14
 73
    10
 74
     0
 42
0.000000001
 43
0.00000001
 40
0.0
 40
0.0
 40
0.0
 40
0.0
 40
0.25
 40
0.25
 40
0.5
 40
0.5
 40
0.75
 40
0.75
 40
1.0
 40
1.0
 40
1.0
 40
1.0
 10
76.98223428965524
 20
101.7859546228972
 30
0.0
 10
76.98675245352236
 20
101.7859546228972
 30
0.0
 10
77.04215165202507
 20
101.7859546228972
 30
0.0
 10
77.24654243859574
 20
101.7859546228972
 30
0.0
 10
77.39545711009896
 20
101.7859546228972
 30
0.0
 10
77.76476467071666
 20
101.7859546228972
 30
0.0
 10
77.98501858160532
 20
101.7859546228972
 30
0.0
 10
78.46424597971999
 20
101.7859546228972
 30
0.0
 10
78.72303912356642
 20
101.7859546228972
 30
0.0
 10
78.98192969339578
 20
101.7859546228972
 30
0.0
  0
SPLINE
  5
74
330
1F
100
AcDbEntity
  8
0
  6
Continuous
 62
     7
370
    15
100
AcDbSpline
210
0.0
220
0.0
230
1.0
 70
     8
 71
     3
 72
    20
 73
    16
 74
     0
 42
0.000000001
 43
0.00000001
 40
0.0
 40
0.0
 40
0.0
 40
0.0
 40
0.2499999999999987
 40
0.2499999999999987
 40
0.3749999999999989
 40
0.3749999999999989
 40
0.4999999999999991
 40
0.4999999999999991
 40
0.6249999999999992
 40
0.6249999999999992
 40
0.7499999999999994
 40
0.7499999999999994
 40
0.8749999999999998
 40
0.8749999999999998
 40
1.0
 40
1.0
 40
1.0
 40
1.0
 10
82.45579074790552
 20
97.82127595616019
 30
0.0
 10
82.01205177954532
 20
97.85676000418651
 30
0.0
 10
81.58548819420506
 20
97.96871794470574
 30
0.0
 10
80.98080897761679
 20
98.24798861036645
 30
0.0
 10
80.79019283530798
 20
98.35757112085167
 30
0.0
 10
80.43010445464849
 20
98.60860060756823
 30
0.0
 10
80.25942306600678
 20
98.75129838139709
 30
0.0
 10
79.94618236887821
 20
99.06459958103882
 30
0.0
 10
79.80524215669914
 20
99.2331105001329
 30
0.0
 10
79.55390653939214
 20
99.59323617208221
 30
0.0
 10
79.44267293339034
 20
99.78683450905831
 30
0.0
 10
79.2573523343591
 20
100.1882610143791
 30
0.0
 10
79.18330222927577
 20
100.3949399612663
 30
0.0
 10
79.07175174997948
 20
100.8200143189014
 30
0.0
 10
79.03421396817426
 20
101.039770319626
 30
0.0
 10
79.0165443973613
 20
101.2616455753868
 30
0.0
  0
SPLINE
  5
75
330
1F
100
AcDbEntity
  8
0
  6
Continuous
 62
     7
370
    15
100
AcDbSpline
210
0.0
220
0.0
230
1.0
 70
     8
 71
     3
 72
    14
 73
    10
 74
     0
 42
0.000000001
 43
0.00000001
 40
0.0
 40
0.0
 40
0.0
 40
0.0
 40
0.25
 40
0.25
 40
0.5
 40
0.5
 40
0.75
 40
0.75
 40
1.0
 40
1.0
 40
1.0
 40
1.0
 10
180.5280979124658
 20
168.3321228394372
 30
0.0
 10
180.5280801366741
 20
168.5910134092665
 30
0.0
 10
180.5280623608825
 20
168.849806553113
 30
0.0
 10
180.5280268092991
 20
169.3290339512277
 30
0.0
 10
180.5280090335075
 20
169.5492878621163
 30
0.0
 10
180.5279734819241
 20
169.9185954227341
 30
0.0
 10
180.5279557061325
 20
170.0675100942372
 30
0.0
 10
180.5279201545491
 20
170.2719008808079
 30
0.0
 10
180.5279023787575
 20
170.3273000793106
 30
0.0
 10
180.5278846029658
 20
170.3318182431778
 30
0.0
  0
SPLINE
  5
76
330
1F
100
AcDbEntity
  8
0
  6
Continuous
 62
     7
370
    15
100
AcDbSpline
210
0.0
220
0.0
230
1.0
 70
     8
 71
     3
 72
    47
 73
    43
 74
     0
 42
0.000000001
 43
0.00000001
 40
0.0
 40
0.0
 40
0.0
 40
0.0
 40
0.025000816932583
 40
0.0500107616367748
 40
0.0750244789417703
 40
0.1000368226476958
 40
0.1250443239171867
 40
0.1500477182789399
 40
0.1750483064796349
 40
0.2000472534888688
 40
0.2250457555832803
 40
0.2500450738215146
 40
0.2750455395365911
 40
0.30004675893788
 40
0.3250482023016764
 40
0.3500493889975416
 40
0.3750500764035323
 40
0.4000504233110263
 40
0.4250505431937714
 40
0.4500503425125308
 40
0.475049691869056
 40
0.5000486048073083
 40
0.5250473529596906
 40
0.5500461108021187
 40
0.5750448118659424
 40
0.6000433197220136
 40
0.6250416066177983
 40
0.650039870918311
 40
0.6750381180410421
 40
0.7000359823809634
 40
0.7250329413740534
 40
0.7500284974897018
 40
0.7750224237640629
 40
0.800015552259964
 40
0.8250091620244406
 40
0.8500044152941815
 40
0.8750025106291327
 40
0.9000048107554122
 40
0.9250105853537507
 40
0.950015230027647
 40
0.9750134915413339
 40
1.0
 40
1.0
 40
1.0
 40
1.0
 10
186.5271473669301
 20
164.3327320524783
 30
0.0
 10
186.5262394615085
 20
164.4112612071973
 30
0.0
 10
186.5244233191899
 20
164.5683481875458
 30
0.0
 10
186.5100049964282
 20
164.8036410763393
 30
0.0
 10
186.4870461957039
 20
165.0382463541952
 30
0.0
 10
186.4547180549738
 20
165.2717572298125
 30
0.0
 10
186.4132604787516
 20
165.5037816498941
 30
0.0
 10
186.3627126052765
 20
165.7339611255583
 30
0.0
 10
186.3031843735241
 20
165.9619548605085
 30
0.0
 10
186.2347651046766
 20
166.1874244503898
 30
0.0
 10
186.1575512340351
 20
166.4100319685683
 30
0.0
 10
186.0716322617434
 20
166.6294321162707
 30
0.0
 10
185.977158810839
 20
166.8452959257405
 30
0.0
 10
185.8742965219213
 20
167.0572981243922
 30
0.0
 10
185.7632070807765
 20
167.2651102230971
 30
0.0
 10
185.6440552326368
 20
167.4684055775971
 30
0.0
 10
185.516996979161
 20
167.6668519382622
 30
0.0
 10
185.3822284404598
 20
167.8601406346226
 30
0.0
 10
185.2399843030043
 20
168.047992326152
 30
0.0
 10
185.0904897331119
 20
168.230122980366
 30
0.0
 10
184.9339728446596
 20
168.4062506713346
 30
0.0
 10
184.7706581397332
 20
168.5760901675205
 30
0.0
 10
184.6007833574583
 20
168.7393652950077
 30
0.0
 10
184.4246338046249
 20
168.8958486162468
 30
0.0
 10
184.2424877606382
 20
169.0453080911498
 30
0.0
 10
184.0546248966156
 20
169.1875127236043
 30
0.0
 10
183.8613250048601
 20
169.3222320414936
 30
0.0
 10
183.6628679161806
 20
169.4492301340383
 30
0.0
 10
183.4595777371724
 20
169.5683348209108
 30
0.0
 10
183.2517804605537
 20
169.6793801140328
 30
0.0
 10
183.0398011226518
 20
169.7821977115474
 30
0.0
 10
182.8239655673395
 20
169.8766220251636
 30
0.0
 10
182.6045940983465
 20
169.9624791928561
 30
0.0
 10
182.3820233304458
 20
170.0396440408135
 30
0.0
 10
182.1565941935193
 20
170.1080228881272
 30
0.0
 10
181.9286427122896
 20
170.1675141912367
 30
0.0
 10
181.6985060398036
 20
170.2180256957627
 30
0.0
 10
181.4665273421003
 20
170.2594345044546
 30
0.0
 10
181.2330778370371
 20
170.2917264493827
 30
0.0
 10
180.998557263135
 20
170.3146675626534
 30
0.0
 10
180.7633742210397
 20
170.3290771379852
 30
0.0
 10
180.6063688353836
 20
170.3308891938641
 30
0.0
 10
180.5278846011073
 20
170.3317950087667
 30
0.0
  0
SPLINE
  5
77
330
1F
100
AcDbEntity
  8
0
  6
Continuous
 62
     7
370
    15
100
AcDbSpline
210
0.0
220
0.0
230
1.0
 70
    24
 71
     3
 72
    14
 73
    10
 74
     0
 42
0.000000001
 43
0.00000001
 40
0.0
 40
0.0
 40
0.0
 40
0.0
 40
0.25
 40
0.25
 40
0.5
 40
0.5
 40
0.75
 40
0.75
 40
1.0
 40
1.0
 40
1.0
 40
1.0
 10
186.5271840968364
 20
164.3327320562772
 30
0.0
 10
186.5226659329693
 20
164.3327320562772
 30
0.0
 10
186.4672667344665
 20
164.3327320562772
 30
0.0
 10
186.2628759478959
 20
164.3327320562772
 30
0.0
 10
186.1139612763926
 20
164.3327320562772
 30
0.0
 10
185.7446537157749
 20
164.3327320562772
 30
0.0
 10
185.5243998048863
 20
164.3327320562772
 30
0.0
 10
185.0451724067716
 20
164.3327320562772
 30
0.0
 10
184.7863792629252
 20
164.3327320562772
 30
0.0
 10
184.5274886930958
 20
164.3327320562772
 30
0.0
  0
SPLINE
  5
78
330
1F
100
AcDbEntity
  8
0
  6
Continuous
 62
     7
370
    15
100
AcDbSpline
210
0.0
220
0.0
230
1.0
 70
     8
 71
     3
 72
     8
 73
     4
 74
     0
 42
0.000000001
 43
0.00000001
 40
0.0
 40
0.0
 40
0.0
 40
0.0
 40
1.0
 40
1.0
 40
1.0
 40
1.0
 10
184.4928206516458
 20
164.8578634151072
 30
0.0
 10
184.5158657884233
 20
164.6838016513726
 30
0.0
 10
184.5274407230854
 20
164.5081835024239
 30
0.0
 10
184.5274886930965
 20
164.3327320588072
 30
0.0
  0
SPLINE
  5
79
330
1F
100
AcDbEntity
  8
0
  6
Continuous
 62
     7
370
    15
100
AcDbSpline
210
0.0
220
0.0
230
1.0
 70
     8
 71
     3
 72
     8
 73
     4
 74
     0
 42
0.000000001
 43
0.00000001
 40
0.0
 40
0.0
 40
0.0
 40
0.0
 40
1.0
 40
1.0
 40
1.0
 40
1.0
 10
180.5280979124658
 20
168.3321228394379
 30
0.0
 10
180.7036570064814
 20
168.3320836201532
 30
0.0
 10
180.8794091810396
 20
168.3204860229385
 30
0.0
 10
181.0536278970158
 20
168.2974139547572
 30
0.0
  0
SPLINE
  5
7A
330
1F
100
AcDbEntity
  8
0
  6
Continuous
 62
     7
370
    15
100
AcDbSpline
210
0.0
220
0.0
230
1.0
 70
     8
 71
     3
 72
    20
 73
    16
 74
     0
 42
0.000000001
 43
0.00000001
 40
0.0
 40
0.0
 40
0.0
 40
0.0
 40
0.25
 40
0.25
 40
0.375
 40
0.375
 40
0.5
 40
0.5
 40
0.625
 40
0.625
 40
0.75
 40
0.75
 40
0.875
 40
0.875
 40
1.0
 40
1.0
 40
1.0
 40
1.0
 10
181.0536276385861
 20
168.2974107230142
 30
0.0
 10
181.4972980974176
 20
168.2619321534235
 30
0.0
 10
181.9237920902075
 20
168.1500056896457
 30
0.0
 10
182.5283983831723
 20
167.8708089351449
 30
0.0
 10
182.7189932962039
 20
167.7612557012499
 30
0.0
 10
183.0790458218119
 20
167.5102947193982
 30
0.0
 10
183.249709795974
 20
167.367639562312
 30
0.0
 10
183.5629411655147
 20
167.0544162587844
 30
0.0
 10
183.7038808124306
 20
166.8859473878381
 30
0.0
 10
183.9552251481482
 20
166.5259132618524
 30
0.0
 10
184.0664674591138
 20
166.3323678201486
 30
0.0
 10
184.2518289348667
 20
165.9310255669928
 30
0.0
 10
184.3259040653435
 20
165.7243902166362
 30
0.0
 10
184.4375169279318
 20
165.2994070054671
 30
0.0
 10
184.4750929038135
 20
165.0796995568103
 30
0.0
 10
184.4928084889325
 20
164.8578624438108
 30
0.0
  0
SPLINE
  5
7B
330
1F
100
AcDbEntity
  8
0
  6
Continuous
 62
     7
370
    15
100
AcDbSpline
210
0.0
220
0.0
230
1.0
 70
     8
 71
     3
 72
     8
 73
     4
 74
     0
 42
0.000000001
 43
0.00000001
 40
0.0
 40
0.0
 40
0.0
 40
0.0
 40
1.0
 40
1.0
 40
1.0
 40
1.0
 10
181.0537132446958
 20
97.82128280272717
 30
0.0
 10
180.8794924639278
 20
97.79819942039467
 30
0.0
 10
180.7037113936803
 20
97.78660749703556
 30
0.0
 10
180.5280979124658
 20
97.7865638397365
 30
0.0
  0
SPLINE
  5
7C
330
1F
100
AcDbEntity
  8
0
  6
Continuous
 62
     7
370
    15
100
AcDbSpline
210
0.0
220
0.0
230
1.0
 70
     8
 71
     3
 72
     8
 73
     4
 74
     0
 42
0.000000001
 43
0.00000001
 40
0.0
 40
0.0
 40
0.0
 40
0.0
 40
1.0
 40
1.0
 40
1.0
 40
1.0
 10
184.5274886930965
 20
101.7859546203672
 30
0.0
 10
184.5274454577684
 20
101.6105183774779
 30
0.0
 10
184.5158600154733
 20
101.4348898578596
 30
0.0
 10
184.4928162016858
 20
101.2607919700472
 30
0.0
  0
SPLINE
  5
7D
330
1F
100
AcDbEntity
  8
0
  6
Continuous
 62
     7
370
    15
100
AcDbSpline
210
0.0
220
0.0
230
1.0
 70
     8
 71
     3
 72
    14
 73
    10
 74
     0
 42
0.000000001
 43
0.00000001
 40
0.0
 40
0.0
 40
0.0
 40
0.0
 40
0.25
 40
0.25
 40
0.5
 40
0.5
 40
0.75
 40
0.75
 40
1.0
 40
1.0
 40
1.0
 40
1.0
 10
184.5274886930958
 20
101.7859546203672
 30
0.0
 10
184.7863792629252
 20
101.7859723961589
 30
0.0
 10
185.0451724067716
 20
101.7859901719505
 30
0.0
 10
185.5243998048863
 20
101.7860257235338
 30
0.0
 10
185.7446537157749
 20
101.7860434993255
 30
0.0
 10
186.1139612763926
 20
101.7860790509089
 30
0.0
 10
186.2628759478959
 20
101.7860968267005
 30
0.0
 10
186.4672667344665
 20
101.7861323782839
 30
0.0
 10
186.5226659329693
 20
101.7861501540755
 30
0.0
 10
186.5271840968364
 20
101.7861679298672
 30
0.0
  0
SPLINE
  5
7E
330
1F
100
AcDbEntity
  8
0
  6
Continuous
 62
     7
370
    15
100
AcDbSpline
210
0.0
220
0.0
230
1.0
 70
     8
 71
     3
 72
    47
 73
    43
 74
     0
 42
0.000000001
 43
0.00000001
 40
0.0
 40
0.0
 40
0.0
 40
0.0
 40
0.0250008169326137
 40
0.0500107616368355
 40
0.0750244789418575
 40
0.1000368226478066
 40
0.1250443239173243
 40
0.1500477182791094
 40
0.1750483064798445
 40
0.2000472534891347
 40
0.2250457555836248
 40
0.2500450738219623
 40
0.2750455395371553
 40
0.3000467589385578
 40
0.3250482023024478
 40
0.3500493889983693
 40
0.3750500764043644
 40
0.4000504233118208
 40
0.4250505431944958
 40
0.4500503425131681
 40
0.4750496918696099
 40
0.500048604807792
 40
0.5250473529601245
 40
0.55004611080252
 40
0.5750448118663245
 40
0.6000433197223812
 40
0.6250416066181557
 40
0.6500398709186568
 40
0.6750381180413751
 40
0.700035982381278
 40
0.7250329413743525
 40
0.7500284974899813
 40
0.7750224237643251
 40
0.8000155522602002
 40
0.8250091620246515
 40
0.8500044152943675
 40
0.8750025106292925
 40
0.9000048107555416
 40
0.9250105853538496
 40
0.9500152300277134
 40
0.9750134915413631
 40
1.0
 40
1.0
 40
1.0
 40
1.0
 10
180.528097906137
 20
95.78690516590288
 30
0.0
 10
180.606627060856
 20
95.78781307132455
 30
0.0
 10
180.7637140412048
 20
95.78962921364317
 30
0.0
 10
180.9990069299986
 20
95.80404753640481
 30
0.0
 10
181.2336122078547
 20
95.8270063371292
 30
0.0
 10
181.4671230834722
 20
95.85933447785939
 30
0.0
 10
181.6991475035541
 20
95.90079205408172
 30
0.0
 10
181.9293269792186
 20
95.95133992755689
 30
0.0
 10
182.1573207141693
 20
96.01086815930942
 30
0.0
 10
182.3827903040512
 20
96.07928742815703
 30
0.0
 10
182.6053978222303
 20
96.15650129879874
 30
0.0
 10
182.8247979699338
 20
96.24242027109051
 30
0.0
 10
183.0406617794046
 20
96.33689372199508
 30
0.0
 10
183.2526639780576
 20
96.43975601091287
 30
0.0
 10
183.4604760767632
 20
96.55084545205789
 30
0.0
 10
183.6637714312637
 20
96.66999730019756
 30
0.0
 10
183.862217791929
 20
96.79705555367349
 30
0.0
 10
184.0555064882889
 20
96.93182409237494
 30
0.0
 10
184.2433581798174
 20
97.07406822983062
 30
0.0
 10
184.4254888340303
 20
97.22356279972314
 30
0.0
 10
184.6016165249978
 20
97.38007968817564
 30
0.0
 10
184.7714560211827
 20
97.54339439310212
 30
0.0
 10
184.9347311486693
 20
97.71326917537715
 30
0.0
 10
185.0912144699078
 20
97.88941872821061
 30
0.0
 10
185.2406739448105
 20
98.0715647721973
 30
0.0
 10
185.3828785772647
 20
98.25942763621995
 30
0.0
 10
185.5175978951539
 20
98.45272752797545
 30
0.0
 10
185.6445959876984
 20
98.6511846166549
 30
0.0
 10
185.7637006745708
 20
98.8544747956631
 30
0.0
 10
185.8747459676927
 20
99.06227207228166
 30
0.0
 10
185.977563565207
 20
99.27425141018357
 30
0.0
 10
186.0719878788231
 20
99.49008696549575
 30
0.0
 10
186.1578450465155
 20
99.70945843448855
 30
0.0
 10
186.2350098944727
 20
99.93202920238913
 30
0.0
 10
186.3033887417863
 20
100.1574583393154
 30
0.0
 10
186.3628800448957
 20
100.385409820545
 30
0.0
 10
186.4133915494216
 20
100.6155464930307
 30
0.0
 10
186.4548003581134
 20
100.8475251907339
 30
0.0
 10
186.4870923030414
 20
101.0809746957968
 30
0.0
 10
186.510033416312
 20
101.3154952696986
 30
0.0
 10
186.5244429916439
 20
101.5506783117936
 30
0.0
 10
186.5262550475227
 20
101.7076836974495
 30
0.0
 10
186.5271608624253
 20
101.7861679317257
 30
0.0
  0
SPLINE
  5
7F
330
1F
100
AcDbEntity
  8
0
  6
Continuous
 62
     7
370
    15
100
AcDbSpline
210
0.0
220
0.0
230
1.0
 70
    24
 71
     3
 72
    14
 73
    10
 74
     0
 42
0.000000001
 43
0.00000001
 40
0.0
 40
0.0
 40
0.0
 40
0.0
 40
0.25
 40
0.25
 40
0.5
 40
0.5
 40
0.75
 40
0.75
 40
1.0
 40
1.0
 40
1.0
 40
1.0
 10
180.5280979099358
 20
95.78686843599662
 30
0.0
 10
180.5280979099358
 20
95.79138659986371
 30
0.0
 10
180.5280979099358
 20
95.84678579836645
 30
0.0
 10
180.5280979099358
 20
96.05117658493714
 30
0.0
 10
180.5280979099358
 20
96.20009125644033
 30
0.0
 10
180.5280979099358
 20
96.56939881705806
 30
0.0
 10
180.5280979099358
 20
96.7896527279467
 30
0.0
 10
180.5280979099358
 20
97.26888012606136
 30
0.0
 10
180.5280979099358
 20
97.52767326990782
 30
0.0
 10
180.5280979099358
 20
97.78656383973718
 30
0.0
  0
SPLINE
  5
80
330
1F
100
AcDbEntity
  8
0
  6
Continuous
 62
     7
370
    15
100
AcDbSpline
210
0.0
220
0.0
230
1.0
 70
     8
 71
     3
 72
    20
 73
    16
 74
     0
 42
0.000000001
 43
0.00000001
 40
0.0
 40
0.0
 40
0.0
 40
0.0
 40
0.2499999999999986
 40
0.2499999999999986
 40
0.3749999999999988
 40
0.3749999999999988
 40
0.4999999999999991
 40
0.4999999999999991
 40
0.6249999999999994
 40
0.6249999999999994
 40
0.7499999999999996
 40
0.7499999999999996
 40
0.8749999999999998
 40
0.8749999999999998
 40
1.0
 40
1.0
 40
1.0
 40
1.0
 10
184.4928059773501
 20
101.2607927866342
 30
0.0
 10
184.457371852649
 20
100.8171286021845
 30
0.0
 10
184.3454918484908
 20
100.390633514565
 30
0.0
 10
184.0663651311814
 20
99.78601014139402
 30
0.0
 10
183.9568348275641
 20
99.59540747353805
 30
0.0
 10
183.7059190443036
 20
99.23533536220586
 30
0.0
 10
183.5632867576905
 20
99.06465983264872
 30
0.0
 10
183.2501053841208
 20
98.75139896943685
 30
0.0
 10
183.0816563772038
 20
98.61044282459072
 30
0.0
 10
182.7216600357676
 20
98.35906181644283
 30
0.0
 10
182.5281330833259
 20
98.24779921989665
 30
0.0
 10
182.1268210826424
 20
98.06239242292561
 30
0.0
 10
181.9201992369937
 20
97.98829339116608
 30
0.0
 10
181.4952400027541
 20
97.87662981606097
 30
0.0
 10
181.2755431755979
 20
97.83902677648723
 30
0.0
 10
181.0537132446956
 20
97.82128280272902
 30
0.0
  0
SPLINE
  5
81
330
1F
100
AcDbEntity
  8
0
  6
Continuous
 62
     7
370
    15
100
AcDbSpline
210
0.0
220
0.0
230
1.0
 70
     8
 71
     3
 72
    14
 73
    10
 74
     0
 42
0.000000001
 43
0.00000001
 40
0.0
 40
0.0
 40
0.0
 40
0.0
 40
0.25
 40
0.25
 40
0.5
 40
0.5
 40
0.75
 40
0.75
 40
1.0
 40
1.0
 40
1.0
 40
1.0
 10
78.98192969339578
 20
164.3327320588072
 30
0.0
 10
78.72303912356644
 20
164.3327142830155
 30
0.0
 10
78.46424597971999
 20
164.3326965072239
 30
0.0
 10
77.98501858160533
 20
164.3326609556405
 30
0.0
 10
77.76476467071666
 20
164.3326431798488
 30
0.0
 10
77.39545711009896
 20
164.3326076282655
 30
0.0
 10
77.24654243859574
 20
164.3325898524738
 30
0.0
 10
77.04215165202507
 20
164.3325543008905
 30
0.0
 10
76.98675245352233
 20
164.3325365250988
 30
0.0
 10
76.98223428965524
 20
164.3325187493072
 30
0.0
  0
SPLINE
  5
82
330
1F
100
AcDbEntity
  8
0
  6
Continuous
 62
     7
370
    15
100
AcDbSpline
210
0.0
220
0.0
230
1.0
 70
     8
 71
     3
 72
    47
 73
    43
 74
     0
 42
0.000000001
 43
0.00000001
 40
0.0
 40
0.0
 40
0.0
 40
0.0
 40
0.0250008169326162
 40
0.0500107616368406
 40
0.0750244789418652
 40
0.1000368226478168
 40
0.1250443239173356
 40
0.1500477182791153
 40
0.175048306479833
 40
0.2000472534890871
 40
0.2250457555835192
 40
0.2500450738217722
 40
0.2750455395368632
 40
0.3000467589381681
 40
0.3250482023019782
 40
0.350049388997854
 40
0.3750500764038523
 40
0.4000504233113559
 40
0.4250505431941063
 40
0.4500503425128694
 40
0.4750496918693974
 40
0.5000486048076499
 40
0.5250473529600305
 40
0.5500461108024548
 40
0.575044811866276
 40
0.6000433197223397
 40
0.6250416066181176
 40
0.6500398709186211
 40
0.6750381180413422
 40
0.7000359823812475
 40
0.7250329413743245
 40
0.7500284974899559
 40
0.7750224237643022
 40
0.80001555226018
 40
0.8250091620246337
 40
0.8500044152943523
 40
0.8750025106292798
 40
0.9000048107555314
 40
0.925010585353842
 40
0.9500152300277083
 40
0.9750134915413605
 40
1.0
 40
1.0
 40
1.0
 40
1.0
 10
82.98132048035461
 20
170.3317815132715
 30
0.0
 10
82.90279132563558
 20
170.3308736078498
 30
0.0
 10
82.74570434528685
 20
170.3290574655312
 30
0.0
 10
82.51041145649305
 20
170.3146391427696
 30
0.0
 10
82.27580617863693
 20
170.2916803420452
 30
0.0
 10
82.04229530301937
 20
170.259352201315
 30
0.0
 10
81.81027088293753
 20
170.2178946250926
 30
0.0
 10
81.5800914072731
 20
170.1673467516175
 30
0.0
 10
81.35209767232269
 20
170.107818519865
 30
0.0
 10
81.12662808244117
 20
170.0393992510174
 30
0.0
 10
80.90402056426258
 20
169.9621853803757
 30
0.0
 10
80.68462041656008
 20
169.8762664080839
 30
0.0
 10
80.46875660709016
 20
169.7817929571793
 30
0.0
 10
80.25675440843827
 20
169.6789306682615
 30
0.0
 10
80.0489423097335
 20
169.5678412271164
 30
0.0
 10
79.8456469552334
 20
169.4486893789767
 30
0.0
 10
79.64720059456823
 20
169.3216311255007
 30
0.0
 10
79.45391189820783
 20
169.1868625867994
 30
0.0
 10
79.26606020667849
 20
169.0446184493437
 30
0.0
 10
79.08392955246454
 20
168.8951238794513
 30
0.0
 10
78.90780186149597
 20
168.7386069909988
 30
0.0
 10
78.7379623653102
 20
168.5752922860723
 30
0.0
 10
78.57468723782304
 20
168.4054175037973
 30
0.0
 10
78.4182039165841
 20
168.2292679509638
 30
0.0
 10
78.26874444168122
 20
168.0471219069771
 30
0.0
 10
78.1265398092269
 20
167.8592590429544
 30
0.0
 10
77.99182049133768
 20
167.6659591511989
 30
0.0
 10
77.86482239879317
 20
167.4675020625195
 30
0.0
 10
77.74571771192082
 20
167.2642118835113
 30
0.0
 10
77.63467241879896
 20
167.0564146068927
 30
0.0
 10
77.5318548212846
 20
166.8444352689908
 30
0.0
 10
77.4374305076685
 20
166.6285997136786
 30
0.0
 10
77.35157333997608
 20
166.4092282446858
 30
0.0
 10
77.27440849201889
 20
166.1866574767852
 30
0.0
 10
77.20602964470527
 20
165.961228339859
 30
0.0
 10
77.1465383415959
 20
165.7332768586294
 30
0.0
 10
77.09602683707007
 20
165.5031401861436
 30
0.0
 10
77.0546180283782
 20
165.2711614884405
 30
0.0
 10
77.0223260834502
 20
165.0377119833776
 30
0.0
 10
76.99938497017958
 20
164.8031914094757
 30
0.0
 10
76.98497539484774
 20
164.5680083673808
 30
0.0
 10
76.98316333896891
 20
164.4110029817248
 30
0.0
 10
76.98225752406628
 20
164.3325187474487
 30
0.0
  0
SPLINE
  5
83
330
1F
100
AcDbEntity
  8
0
  6
Continuous
 62
     7
370
    15
100
AcDbSpline
210
0.0
220
0.0
230
1.0
 70
    24
 71
     3
 72
    14
 73
    10
 74
     0
 42
0.000000001
 43
0.00000001
 40
0.0
 40
0.0
 40
0.0
 40
0.0
 40
0.25
 40
0.25
 40
0.5
 40
0.5
 40
0.75
 40
0.75
 40
1.0
 40
1.0
 40
1.0
 40
1.0
 10
82.98132047655582
 20
170.3318182431778
 30
0.0
 10
82.98132047655581
 20
170.3273000793106
 30
0.0
 10
82.98132047655581
 20
170.2719008808079
 30
0.0
 10
82.98132047655582
 20
170.0675100942372
 30
0.0
 10
82.98132047655582
 20
169.9185954227341
 30
0.0
 10
82.98132047655582
 20
169.5492878621163
 30
0.0
 10
82.98132047655582
 20
169.3290339512277
 30
0.0
 10
82.98132047655582
 20
168.849806553113
 30
0.0
 10
82.98132047655582
 20
168.5910134092665
 30
0.0
 10
82.98132047655582
 20
168.3321228394372
 30
0.0
  0
SPLINE
  5
84
330
1F
100
AcDbEntity
  8
0
  6
Continuous
 62
     7
370
    15
100
AcDbSpline
210
0.0
220
0.0
230
1.0
 70
     8
 71
     3
 72
     8
 73
     4
 74
     0
 42
0.000000001
 43
0.00000001
 40
0.0
 40
0.0
 40
0.0
 40
0.0
 40
1.0
 40
1.0
 40
1.0
 40
1.0
 10
82.45575946803582
 20
168.2974121904572
 30
0.0
 10
82.6299625134442
 20
168.3204904126953
 30
0.0
 10
82.80572529515615
 20
168.3320795556133
 30
0.0
 10
82.98132047402582
 20
168.3321228394379
 30
0.0
  0
SPLINE
  5
85
330
1F
100
AcDbEntity
  8
0
  6
Continuous
 62
     7
370
    15
100
AcDbSpline
210
0.0
220
0.0
230
1.0
 70
     8
 71
     3
 72
     8
 73
     4
 74
     0
 42
0.000000001
 43
0.00000001
 40
0.0
 40
0.0
 40
0.0
 40
0.0
 40
1.0
 40
1.0
 40
1.0
 40
1.0
 10
78.9819296933951
 20
164.3327320588072
 30
0.0
 10
78.98197292872317
 20
164.5081683016964
 30
0.0
 10
78.99355837101835
 20
164.6837968213148
 30
0.0
 10
79.0166021848058
 20
164.8578947091272
 30
0.0
  0
SPLINE
  5
86
330
1F
100
AcDbEntity
  8
0
  6
Continuous
 62
     7
370
    15
100
AcDbSpline
210
0.0
220
0.0
230
1.0
 70
     8
 71
     3
 72
    20
 73
    16
 74
     0
 42
0.000000001
 43
0.00000001
 40
0.0
 40
0.0
 40
0.0
 40
0.0
 40
0.2500000000000027
 40
0.2500000000000027
 40
0.3750000000000022
 40
0.3750000000000022
 40
0.5000000000000018
 40
0.5000000000000018
 40
0.6250000000000013
 40
0.6250000000000013
 40
0.7500000000000009
 40
0.7500000000000009
 40
0.8750000000000004
 40
0.8750000000000004
 40
1.0
 40
1.0
 40
1.0
 40
1.0
 10
79.01661240914147
 20
164.8578938925402
 30
0.0
 10
79.05204689786551
 20
165.3015626348536
 30
0.0
 10
79.16392899551496
 20
165.728062352658
 30
0.0
 10
79.44306062918272
 20
166.3326905780381
 30
0.0
 10
79.55259288024023
 20
166.5232946585313
 30
0.0
 10
79.80351322040444
 20
166.8833691559419
 30
0.0
 10
79.94614834220238
 20
167.0540458449111
 30
0.0
 10
80.25933489769793
 20
167.3673073295988
 30
0.0
 10
80.42778670182172
 20
167.5082635125705
 30
0.0
 10
80.78778913324687
 20
167.7596439419208
 30
0.0
 10
80.98131960556307
 20
167.8709059607077
 30
0.0
 10
81.38263721144983
 20
168.0563100394679
 30
0.0
 10
81.58926195753425
 20
168.1304074070339
 30
0.0
 10
82.01422725565783
 20
168.2420668335714
 30
0.0
 10
82.23392731426313
 20
168.2796673333957
 30
0.0
 10
82.45575978342919
 20
168.2974082467778
 30
0.0
  0
LINE
  5
87
330
1F
100
AcDbEntity
  8
0
  6
Continuous
 62
     7
370
    15
100
AcDbLine
 10
82.981320474
 20
97.7865638397
 30
0.0
 11
180.5280979125
 21
97.7865638397
 31
0.0
  0
LINE
  5
88
330
1F
100
AcDbEntity
  8
0
  6
Continuous
 62
     7
370
    15
100
AcDbLine
 10
78.9819296934
 20
164.3327320588
 30
0.0
 11
78.9819296934
 21
101.7859546204
 31
0.0
  0
LINE
  5
89
330
1F
100
AcDbEntity
  8
0
  6
Continuous
 62
     7
370
    15
100
AcDbLine
 10
180.5280979125
 20
168.3321228394
 30
0.0
 11
82.981320474
 21
168.3321228394
 31
0.0
  0
LINE
  5
8A
330
1F
100
AcDbEntity
  8
0
  6
Continuous
 62
     7
370
    15
100
AcDbLine
 10
184.5274886931
 20
101.7859546204
 30
0.0
 11
184.5274886931
 21
164.3327320588
 31
0.0
  0
ARC
  5
8B
330
1F
100
AcDbEntity
  8
0
  6
Continuous
 62
     7
370
    15
100
AcDbCircle
 10
180.7547091932
 20
164.5593433396
 30
0.0
 40
3.749999999999991
100
AcDbArc
 50
85.4280121449
 51
4.5658669213
  0
ARC
  5
8C
330
1F
100
AcDbEntity
  8
0
  6
Continuous
 62
     7
370
    15
100
AcDbCircle
 10
180.7547091932
 20
101.5593433396
 30
0.0
 40
3.750000000000003
100
AcDbArc
 50
355.4336510476
 51
274.5732999966
  0
ARC
  5
8D
330
1F
100
AcDbEntity
  8
0
  6
Continuous
 62
     7
370
    15
100
AcDbCircle
 10
82.7547091932
 20
164.5593433396
 30
0.0
 40
3.75
100
AcDbArc
 50
175.4336510476
 51
94.5724624678
  0
ARC
  5
8E
330
1F
100
AcDbEntity
  8
0
  6
Continuous
 62
     7
370
    15
100
AcDbCircle
 10
82.7547091932
 20
101.5593433396
 30
0.0
 40
3.749999999999999
100
AcDbArc
 50
265.4280121449
 51
184.5532779287
  0
LINE
  5
8F
330
1F
100
AcDbEntity
  8
0
  6
Continuous
 62
     7
370
    15
100
AcDbLine
 10
180.527884603
 20
170.3318182432
 30
0.0
 11
82.9813204766
 21
170.3318182432
 31
0.0
  0
LINE
  5
90
330
1F
100
AcDbEntity
  8
0
  6
Continuous
 62
     7
370
    15
100
AcDbLine
 10
82.9815337835
 20
95.786868436
 30
0.0
 11
180.5280979099
 21
95.786868436
 31
0.0
  0
LINE
  5
91
330
1F
100
AcDbEntity
  8
0
  6
Continuous
 62
     7
370
    15
100
AcDbLine
 10
76.9822342897
 20
164.3325187426
 30
0.0
 11
76.9822342897
 21
101.7859546229
 31
0.0
  0
LINE
  5
92
330
1F
100
AcDbEntity
  8
0
  6
Continuous
 62
     7
370
    15
100
AcDbLine
 10
186.5271840968
 20
101.7861679366
 30
0.0
 11
186.5271840968
 21
164.3327320563
 31
0.0
  0
ELLIPSE
  5
93
330
1F
100
AcDbEntity
  8
0
  6
Continuous
 62
     7
370
    15
100
AcDbEllipse
 10
82.7556231615
 20
164.5584293713
 30
0.0
 11
-4.2439331350175
 21
4.243933135017471
 31
0.0
210
0.0
220
0.0
230
1.0
 40
0.9996954599
 41
5.497939437029284
 42
7.06843117732991
  0
LINE
  5
94
330
1F
100
AcDbEntity
  8
0
  6
Continuous
 62
     7
370
    15
100
AcDbLine
 10
82.7537953642
 20
170.5593433396
 30
0.0
 11
82.9813204766
 21
170.3318182297
 31
0.0
  0
LINE
  5
95
330
1F
100
AcDbEntity
  8
0
  6
Continuous
 62
     7
370
    15
100
AcDbLine
 10
76.9822342964
 20
164.3325187426
 30
0.0
 11
76.7547091932
 21
164.5602571686
 31
0.0
  0
ELLIPSE
  5
96
330
1F
100
AcDbEntity
  8
0
  6
Continuous
 62
     7
370
    15
100
AcDbEllipse
 10
180.753795225
 20
101.5602573078
 30
0.0
 11
4.243933135017471
 21
-4.243933135017485
 31
0.0
210
0.0
220
0.0
230
1.0
 40
0.9996954599
 41
5.497939437029284
 42
7.068431177329913
  0
LINE
  5
97
330
1F
100
AcDbEntity
  8
0
  6
Continuous
 62
     7
370
    15
100
AcDbLine
 10
180.7556230223
 20
95.5593433396
 30
0.0
 11
180.5280979099
 21
95.7868684494
 31
0.0
  0
LINE
  5
98
330
1F
100
AcDbEntity
  8
0
  6
Continuous
 62
     7
370
    15
100
AcDbLine
 10
186.5271840901
 20
101.7861679366
 30
0.0
 11
186.7547091932
 21
101.5584295105
 31
0.0
  0
ELLIPSE
  5
99
330
1F
100
AcDbEntity
  8
0
  6
Continuous
 62
     7
370
    15
100
AcDbEllipse
 10
82.7556231615
 20
101.5602573078
 30
0.0
 11
-4.2439331350175
 21
-4.243933135017486
 31
0.0
210
0.0
220
0.0
230
1.0
 40
0.9996954599
 41
5.497939437029276
 42
7.068431177329912
  0
LINE
  5
9A
330
1F
100
AcDbEntity
  8
0
  6
Continuous
 62
     7
370
    15
100
AcDbLine
 10
76.7547091932
 20
101.5584295105
 30
0.0
 11
76.9822342964
 21
101.7859546162
 31
0.0
  0
LINE
  5
9B
330
1F
100
AcDbEntity
  8
0
  6
Continuous
 62
     7
370
    15
100
AcDbLine
 10
82.9815337835
 20
95.786868436
 30
0.0
 11
82.7537953642
 21
95.5593433396
 31
0.0
  0
ELLIPSE
  5
9C
330
1F
100
AcDbEntity
  8
0
  6
Continuous
 62
     7
370
    15
100
AcDbEllipse
 10
180.753795225
 20
164.5584293713
 30
0.0
 11
4.243933135017471
 21
4.243933135017471
 31
0.0
210
0.0
220
0.0
230
1.0
 40
0.9996954599
 41
5.497939437029277
 42
7.068431177329909
  0
LINE
  5
9D
330
1F
100
AcDbEntity
  8
0
  6
Continuous
 62
     7
370
    15
100
AcDbLine
 10
186.7547091932
 20
164.5602571686
 30
0.0
 11
186.5271840901
 21
164.332732063
 31
0.0
  0
LINE
  5
9E
330
1F
100
AcDbEntity
  8
0
  6
Continuous
 62
     7
370
    15
100
AcDbLine
 10
180.527884603
 20
170.3318182432
 30
0.0
 11
180.7556230223
 21
170.5593433396
 31
0.0
  0
LINE
  5
9F
330
1F
100
AcDbEntity
  8
0
  6
Continuous
 62
     7
370
    15
100
AcDbLine
 10
180.7556230223
 20
170.5593433396
 30
0.0
 11
82.7537953642
 21
170.5593433396
 31
0.0
  0
LINE
  5
A0
330
1F
100
AcDbEntity
  8
0
  6
Continuous
 62
     7
370
    15
100
AcDbLine
 10
82.7537953642
 20
95.5593433396
 30
0.0
 11
180.7556230223
 21
95.5593433396
 31
0.0
  0
LINE
  5
A1
330
1F
100
AcDbEntity
  8
0
  6
Continuous
 62
     7
370
    15
100
AcDbLine
 10
76.7547091932
 20
164.5602571686
 30
0.0
 11
76.7547091932
 21
101.5584295105
 31
0.0
  0
LINE
  5
A2
330
1F
100
AcDbEntity
  8
0
  6
Continuous
 62
     7
370
    15
100
AcDbLine
 10
186.7547091932
 20
101.5584295105
 30
0.0
 11
186.7547091932
 21
164.5602571686
 31
0.0
  0
CIRCLE
  5
A3
330
1F
100
AcDbEntity
  8
0
  6
Continuous
 62
     7
370
    15
100
AcDbCircle
 10
180.7547091932
 20
164.5593433396
 30
0.0
 40
2.300000000000011
  0
CIRCLE
  5
A4
330
1F
100
AcDbEntity
  8
0
  6
Continuous
 62
     7
370
    15
100
AcDbCircle
 10
82.7547091932
 20
101.5593433396
 30
0.0
 40
2.299999999999997
  0
CIRCLE
  5
A5
330
1F
100
AcDbEntity
  8
0
  6
Continuous
 62
     7
370
    15
100
AcDbCircle
 10
82.7547091932
 20
164.5593433396
 30
0.0
 40
2.300000000000011
  0
CIRCLE
  5
A6
330
1F
100
AcDbEntity
  8
0
  6
Continuous
 62
     7
370
    15
100
AcDbCircle
 10
180.7547091932
 20
101.5593433396
 30
0.0
 40
2.299999999999997
  0
SPLINE
  5
A7
330
1F
100
AcDbEntity
  8
0
  6
Continuous
 62
     7
370
    15
100
AcDbSpline
210
0.0
220
0.0
230
1.0
 70
     8
 71
     3
 72
    11
 73
     7
 74
     0
 42
0.000000001
 43
0.00000001
 40
0.0
 40
0.0
 40
0.0
 40
0.0
 40
0.2498959229964212
 40
0.4998378709843564
 40
0.749873739134175
 40
1.0
 40
1.0
 40
1.0
 40
1.0
 10
22.22380952093242
 20
101.8271111360005
 30
0.0
 10
22.22390089427822
 20
101.3937473675905
 30
0.0
 10
22.22408365779867
 20
100.5269400152876
 30
0.0
 10
22.22435939637376
 20
99.34235845141306
 30
0.0
 10
22.22463617253004
 20
98.3474923787629
 30
0.0
 10
22.22482170913606
 20
97.94950831469104
 30
0.0
 10
22.22491449420479
 20
97.75048031945602
 30
0.0
  0
SPLINE
  5
A8
330
1F
100
AcDbEntity
  8
0
  6
Continuous
 62
     7
370
    15
100
AcDbSpline
210
0.0
220
0.0
230
1.0
 70
     8
 71
     3
 72
     9
 73
     5
 74
     0
 42
0.000000001
 43
0.00000001
 40
0.0
 40
0.0
 40
0.0
 40
0.0
 40
0.4822928860470519
 40
1.0
 40
1.0
 40
1.0
 40
1.0
 10
22.22380910090696
 20
97.4327464397384
 30
0.0
 10
22.25290412786227
 20
97.32055529466587
 30
0.0
 10
22.31323059710336
 20
97.0879349340546
 30
0.0
 10
22.43948241190951
 20
97.08928158824217
 30
0.0
 10
22.50484387458413
 20
97.08997876069515
 30
0.0
  0
SPLINE
  5
A9
330
1F
100
AcDbEntity
  8
0
  6
Continuous
 62
     7
370
    15
100
AcDbSpline
210
0.0
220
0.0
230
1.0
 70
     8
 71
     3
 72
    11
 73
     7
 74
     0
 42
0.000000001
 43
0.00000001
 40
0.0
 40
0.0
 40
0.0
 40
0.0
 40
0.2554155987616106
 40
0.5148621931733891
 40
0.7663739947906687
 40
1.0
 40
1.0
 40
1.0
 40
1.0
 10
22.32641593726377
 20
97.15744820765411
 30
0.0
 10
22.41642217324082
 20
96.97741241566091
 30
0.0
 10
22.59785513300957
 20
96.6144994880059
 30
0.0
 10
23.06259231246338
 20
96.21041746150622
 30
0.0
 10
23.60263661448204
 20
95.94975008771999
 30
0.0
 10
23.98836084087439
 20
95.9148796949224
 30
0.0
 10
24.17411261873308
 20
95.89808728984751
 30
0.0
  0
LINE
  5
AA
330
1F
100
AcDbEntity
  8
0
  6
Continuous
 62
     7
370
    15
100
AcDbLine
 10
22.3264159373
 20
97.8470069655
 30
0.0
 11
22.2421798017
 21
97.7786534803
 31
0.0
  0
LINE
  5
AB
330
1F
100
AcDbEntity
  8
0
  6
Continuous
 62
     7
370
    15
100
AcDbLine
 10
22.2422045033
 20
168.3400750818
 30
0.0
 11
22.326412458
 21
168.2717901879
 31
0.0
  0
SPLINE
  5
AC
330
1F
100
AcDbEntity
  8
0
  6
Continuous
 62
     7
370
    15
100
AcDbSpline
210
0.0
220
0.0
230
1.0
 70
     8
 71
     3
 72
    11
 73
     7
 74
     0
 42
0.000000001
 43
0.00000001
 40
0.0
 40
0.0
 40
0.0
 40
0.0
 40
0.2336260629806488
 40
0.4851379369917999
 40
0.744584540432683
 40
1.0
 40
1.0
 40
1.0
 40
1.0
 10
24.1741126872643
 20
170.2206317985787
 30
0.0
 10
23.98836012193479
 20
170.2038376939211
 30
0.0
 10
23.60263425220443
 20
170.1689637711094
 30
0.0
 10
23.06258803180561
 20
169.9082888779809
 30
0.0
 10
22.59785017186607
 20
169.5041981742641
 30
0.0
 10
22.41641818503842
 20
169.1412795328204
 30
0.0
 10
22.32641245801895
 20
168.9612409588997
 30
0.0
  0
SPLINE
  5
AD
330
1F
100
AcDbEntity
  8
0
  6
Continuous
 62
     7
370
    15
100
AcDbSpline
210
0.0
220
0.0
230
1.0
 70
     8
 71
     3
 72
     9
 73
     5
 74
     0
 42
0.000000001
 43
0.00000001
 40
0.0
 40
0.0
 40
0.0
 40
0.0
 40
0.5177258617610391
 40
1.0
 40
1.0
 40
1.0
 40
1.0
 10
22.50482084011453
 20
169.0287602447811
 30
0.0
 10
22.43946511708198
 20
169.0294472822965
 30
0.0
 10
22.31322896034403
 20
169.0307743118427
 30
0.0
 10
22.25290195815202
 20
168.7981369457721
 30
0.0
 10
22.22380780515732
 20
168.6859419605282
 30
0.0
  0
SPLINE
  5
AE
330
1F
100
AcDbEntity
  8
0
  6
Continuous
 62
     7
370
    15
100
AcDbSpline
210
0.0
220
0.0
230
1.0
 70
     8
 71
     3
 72
    11
 73
     7
 74
     0
 42
0.000000001
 43
0.00000001
 40
0.0
 40
0.0
 40
0.0
 40
0.0
 40
0.2501238072912333
 40
0.5001578939243859
 40
0.750099371750538
 40
1.0
 40
1.0
 40
1.0
 40
1.0
 10
22.22491434053572
 20
168.3682793802206
 30
0.0
 10
22.22482147851651
 20
168.1692659862383
 30
0.0
 10
22.22463578778817
 20
167.7713105853713
 30
0.0
 10
22.22435878363099
 20
166.776481335411
 30
0.0
 10
22.2240828159009
 20
165.5919135940999
 30
0.0
 10
22.22389990616582
 20
164.7250939909343
 30
0.0
 10
22.22380845877242
 20
164.2917196097507
 30
0.0
  0
LINE
  5
AF
330
1F
100
AcDbEntity
  8
0
  6
Continuous
 62
     7
370
    15
100
AcDbLine
 10
22.2248748742
 20
97.8410833696
 30
0.0
 11
22.2249130059
 21
97.7504140483
 31
0.0
  0
SPLINE
  5
B0
330
1F
100
AcDbEntity
  8
0
  6
Continuous
 62
     7
370
    15
100
AcDbSpline
210
0.0
220
0.0
230
1.0
 70
     8
 71
     3
 72
     9
 73
     5
 74
     0
 42
0.000000001
 43
0.00000001
 40
0.0
 40
0.0
 40
0.0
 40
0.0
 40
0.0290627715915682
 40
1.0
 40
1.0
 40
1.0
 40
1.0
 10
22.33140396646371
 20
168.9697817410922
 30
0.0
 10
22.32973637140822
 20
168.9692510294671
 30
0.0
 10
22.27235729280818
 20
168.9509901549507
 30
0.0
 10
22.24772525927542
 20
168.8165110291349
 30
0.0
 10
22.22380910090707
 20
168.6859402394366
 30
0.0
  0
LINE
  5
B1
330
1F
100
AcDbEntity
  8
0
  6
Continuous
 62
     7
370
    15
100
AcDbLine
 10
37.19222471
 20
164.5602571686
 30
0.0
 11
37.19222471
 21
170.5593433396
 31
0.0
  0
LINE
  5
B2
330
1F
100
AcDbEntity
  8
0
  6
Continuous
 62
     7
370
    15
100
AcDbLine
 10
37.19222471
 20
164.5602571686
 30
0.0
 11
24.1573202816
 21
164.332732063
 31
0.0
  0
SPLINE
  5
B3
330
1F
100
AcDbEntity
  8
0
  6
Continuous
 62
     7
370
    15
100
AcDbSpline
210
0.0
220
0.0
230
1.0
 70
     8
 71
     3
 72
     9
 73
     5
 74
     0
 42
0.000000001
 43
0.00000001
 40
0.0
 40
0.0
 40
0.0
 40
0.0
 40
0.0848687420913336
 40
1.0
 40
1.0
 40
1.0
 40
1.0
 10
24.15147509550516
 20
170.2104995356167
 30
0.0
 10
24.15160366853706
 20
170.2200530937439
 30
0.0
 10
24.15311863186437
 20
170.3326217249243
 30
0.0
 10
24.1553127554029
 20
170.3322021789875
 30
0.0
 10
24.15732066643671
 20
170.3318182393866
 30
0.0
  0
LINE
  5
B4
330
1F
100
AcDbEntity
  8
0
  6
Continuous
 62
     7
370
    15
100
AcDbLine
 10
24.1573206664
 20
170.3318182432
 30
0.0
 11
37.19222471
 21
170.5593433396
 31
0.0
  0
LINE
  5
B5
330
1F
100
AcDbEntity
  8
0
  6
Continuous
 62
     7
370
    15
100
AcDbLine
 10
37.19222471
 20
95.5593433396
 30
0.0
 11
37.19222471
 21
101.5584295105
 31
0.0
  0
LINE
  5
B6
330
1F
100
AcDbEntity
  8
0
  6
Continuous
 62
     7
370
    15
100
AcDbLine
 10
37.19222471
 20
95.5593433396
 30
0.0
 11
24.1573198971
 21
95.7868684494
 31
0.0
  0
LINE
  5
B7
330
1F
100
AcDbEntity
  8
0
  6
Continuous
 62
     7
370
    15
100
AcDbLine
 10
24.1573198971
 20
95.7868684494
 30
0.0
 11
24.1512529206
 21
95.9049919342
 31
0.0
  0
LINE
  5
B8
330
1F
100
AcDbEntity
  8
0
  6
Continuous
 62
     7
370
    15
100
AcDbLine
 10
24.1573202817
 20
101.7861679366
 30
0.0
 11
37.19222471
 21
101.5584295105
 31
0.0
  0
LINE
  5
B9
330
1F
100
AcDbEntity
  8
0
  6
Continuous
 62
     7
370
    15
100
AcDbLine
 10
37.19222471
 20
101.5584295105
 30
0.0
 11
37.19222471
 21
164.5602571686
 31
0.0
  0
LINE
  5
BA
330
1F
100
AcDbEntity
  8
0
  6
Continuous
 62
     7
370
    15
100
AcDbLine
 10
24.1573206664
 20
101.7861679366
 30
0.0
 11
24.1573206664
 21
164.3327320563
 31
0.0
  0
SPLINE
  5
BB
330
1F
100
AcDbEntity
  8
0
  6
Continuous
 62
     7
370
    15
100
AcDbSpline
210
0.0
220
0.0
230
1.0
 70
     8
 71
     3
 72
     8
 73
     4
 74
     0
 42
0.000000001
 43
0.00000001
 40
0.0
 40
0.0
 40
0.0
 40
0.0
 40
1.0
 40
1.0
 40
1.0
 40
1.0
 10
22.19222471014197
 20
97.82128280272717
 30
0.0
 10
22.19222470989551
 20
97.79819942039467
 30
0.0
 10
22.19222470989931
 20
97.78660749703556
 30
0.0
 10
22.1922247101534
 20
97.7865638397365
 30
0.0
  0
SPLINE
  5
BC
330
1F
100
AcDbEntity
  8
0
  6
Continuous
 62
     7
370
    15
100
AcDbSpline
210
0.0
220
0.0
230
1.0
 70
     8
 71
     3
 72
    20
 73
    16
 74
     0
 42
0.000000001
 43
0.00000001
 40
0.0
 40
0.0
 40
0.0
 40
0.0
 40
0.2499999999999986
 40
0.2499999999999986
 40
0.3749999999999988
 40
0.3749999999999988
 40
0.4999999999999991
 40
0.4999999999999991
 40
0.6249999999999994
 40
0.6249999999999994
 40
0.7499999999999996
 40
0.7499999999999996
 40
0.8749999999999998
 40
0.8749999999999998
 40
1.0
 40
1.0
 40
1.0
 40
1.0
 10
22.19222471037439
 20
101.2607927866342
 30
0.0
 10
22.19222424117388
 20
100.8171286021845
 30
0.0
 10
22.19260150476841
 20
100.390633514565
 30
0.0
 10
22.1930821512173
 20
99.78601014139402
 30
0.0
 10
22.19322566026393
 20
99.59540747353805
 30
0.0
 10
22.19342828516758
 20
99.23533536220586
 30
0.0
 10
22.1934848295286
 20
99.06465983264872
 30
0.0
 10
22.19348459891119
 20
98.75139896943685
 30
0.0
 10
22.19342969876895
 20
98.61044282459072
 30
0.0
 10
22.19322788020801
 20
98.35906181644283
 30
0.0
 10
22.19308205436482
 20
98.24779921989665
 30
0.0
 10
22.19276344444566
 20
98.06239242292561
 30
0.0
 10
22.19259288700499
 20
97.98829339116608
 30
0.0
 10
22.1923240078836
 20
97.87662981606097
 30
0.0
 10
22.19222455466611
 20
97.83902677648723
 30
0.0
 10
22.19222471014197
 20
97.82128280272902
 30
0.0
  0
LINE
  5
BD
330
1F
100
AcDbEntity
  8
0
  6
Continuous
 62
     7
370
    15
100
AcDbLine
 10
22.19222471
 20
101.7859546204
 30
0.0
 11
22.259278834
 21
101.7859786322
 31
0.0
  0
LINE
  5
BE
330
1F
100
AcDbEntity
  8
0
  6
Continuous
 62
     7
370
    15
100
AcDbLine
 10
22.2630208395
 20
97.4265446186
 30
0.0
 11
22.19222471
 21
97.7865638397
 31
0.0
  0
LINE
  5
BF
330
1F
100
AcDbEntity
  8
0
  6
Continuous
 62
     7
370
    15
100
AcDbLine
 10
22.19222471
 20
168.3321228394
 30
0.0
 11
22.2630287036
 21
168.6921820522
 31
0.0
  0
SPLINE
  5
C0
330
1F
100
AcDbEntity
  8
0
  6
Continuous
 62
     7
370
    15
100
AcDbSpline
210
0.0
220
0.0
230
1.0
 70
    24
 71
     3
 72
    14
 73
    10
 74
     0
 42
0.000000001
 43
0.00000001
 40
0.0
 40
0.0
 40
0.0
 40
0.0
 40
0.25
 40
0.25
 40
0.5
 40
0.5
 40
0.75
 40
0.75
 40
1.0
 40
1.0
 40
1.0
 40
1.0
 10
24.15732066636916
 20
164.3327320562772
 30
0.0
 10
23.89846952508939
 20
164.3327320562772
 30
0.0
 10
23.64060393681581
 20
164.3327320562772
 30
0.0
 10
23.16487111794444
 20
164.3327320562772
 30
0.0
 10
22.94718291564233
 20
164.3327320562772
 30
0.0
 10
22.58426524693925
 20
164.3327320562772
 30
0.0
 10
22.43917235411304
 20
164.3327320562772
 30
0.0
 10
22.24311519540026
 20
164.3327320562772
 30
0.0
 10
22.19222470995848
 20
164.3327320562772
 30
0.0
 10
22.19222470995848
 20
164.3327320562772
 30
0.0
  0
SPLINE
  5
C1
330
1F
100
AcDbEntity
  8
0
  6
Continuous
 62
     7
370
    15
100
AcDbSpline
210
0.0
220
0.0
230
1.0
 70
     8
 71
     3
 72
     8
 73
     4
 74
     0
 42
0.000000001
 43
0.00000001
 40
0.0
 40
0.0
 40
0.0
 40
0.0
 40
1.0
 40
1.0
 40
1.0
 40
1.0
 10
22.19222471035979
 20
164.8578634151072
 30
0.0
 10
22.1922247099078
 20
164.6838016513726
 30
0.0
 10
22.192224709839
 20
164.5081835024239
 30
0.0
 10
22.1922247101534
 20
164.3327320588072
 30
0.0
  0
SPLINE
  5
C2
330
1F
100
AcDbEntity
  8
0
  6
Continuous
 62
     7
370
    15
100
AcDbSpline
210
0.0
220
0.0
230
1.0
 70
     8
 71
     3
 72
    12
 73
     8
 74
     0
 42
0.000000001
 43
0.00000001
 40
0.0
 40
0.0
 40
0.0
 40
0.0
 40
0.1751838497225964
 40
0.4342227676857053
 40
0.6932619434466134
 40
0.952300876620947
 40
1.0
 40
1.0
 40
1.0
 40
1.0
 10
22.19243689386672
 20
168.1971686763059
 30
0.0
 10
22.19257589874477
 20
168.1430192304737
 30
0.0
 10
22.19292044581896
 20
168.0088006807894
 30
0.0
 10
22.19372817324603
 20
167.3337805801847
 30
0.0
 10
22.19314422546177
 20
166.3238092522702
 30
0.0
 10
22.19228175548814
 20
165.4292023688755
 30
0.0
 10
22.19223238757001
 20
164.9347517069017
 30
0.0
 10
22.19222471064057
 20
164.8578624438108
 30
0.0
  0
SPLINE
  5
C3
330
1F
100
AcDbEntity
  8
0
  6
Continuous
 62
     7
370
    15
100
AcDbSpline
210
0.0
220
0.0
230
1.0
 70
     8
 71
     3
 72
     8
 73
     4
 74
     0
 42
0.000000001
 43
0.00000001
 40
0.0
 40
0.0
 40
0.0
 40
0.0
 40
1.0
 40
1.0
 40
1.0
 40
1.0
 10
22.19222471004342
 20
168.3321228394379
 30
0.0
 10
22.19222470993182
 20
168.3320836201532
 30
0.0
 10
22.19222470993211
 20
168.3204860229385
 30
0.0
 10
22.19222471004428
 20
168.2974139547572
 30
0.0
  0
LINE
  5
C4
330
1F
100
AcDbEntity
  8
0
  6
Continuous
 62
     7
370
    15
100
AcDbLine
 10
22.19222471
 20
101.7859546204
 30
0.0
 11
22.19222471
 21
164.3327320588
 31
0.0
  0
LINE
  5
C5
330
1F
100
AcDbEntity
  8
0
  6
Continuous
 62
     7
370
    15
100
AcDbLine
 10
22.19222471
 20
97.9103662416
 30
0.0
 11
22.19222471
 21
101.7859546204
 31
0.0
  0
LINE
  5
C6
330
1F
100
AcDbEntity
  8
0
  6
Continuous
 62
     7
370
    15
100
AcDbLine
 10
22.19222471
 20
165.0572143495
 30
0.0
 11
22.19222471
 21
168.1754577276
 31
0.0
  0
SPLINE
  5
C7
330
1F
100
AcDbEntity
  8
0
  6
Continuous
 62
     7
370
    15
100
AcDbSpline
210
0.0
220
0.0
230
1.0
 70
     8
 71
     3
 72
     8
 73
     4
 74
     0
 42
0.000000001
 43
0.00000001
 40
0.0
 40
0.0
 40
0.0
 40
0.0
 40
1.0
 40
1.0
 40
1.0
 40
1.0
 10
22.19225795667463
 20
168.2717975158671
 30
0.0
 10
22.19223659257049
 20
168.2827088686587
 30
0.0
 10
22.19222465049377
 20
168.291245779043
 30
0.0
 10
22.19222471018229
 20
168.2974082467778
 30
0.0
  0
SPLINE
  5
C8
330
1F
100
AcDbEntity
  8
0
  6
Continuous
 62
     8
370
    15
100
AcDbSpline
210
0.0
220
0.0
230
1.0
 70
     8
 71
     3
 72
    14
 73
    10
 74
     0
 42
0.000000001
 43
0.00000001
 40
0.0
 40
0.0
 40
0.0
 40
0.0
 40
0.148422001184999
 40
0.2929467245537988
 40
0.4335742806308345
 40
0.5703052276638052
 40
0.7096389387237082
 40
0.8510707779848484
 40
1.0
 40
1.0
 40
1.0
 40
1.0
 10
24.15731989707631
 20
164.3327320562772
 30
0.0
 10
24.15506068772807
 20
164.7416513542563
 30
0.0
 10
24.15060159154714
 20
165.5487525117223
 30
0.0
 10
24.14603356126149
 20
166.6941358535386
 30
0.0
 10
24.14339171595142
 20
167.7182388893937
 30
0.0
 10
24.14258455390166
 20
168.6073366432447
 30
0.0
 10
24.14349354327641
 20
169.3378203115814
 30
0.0
 10
24.1462606496196
 20
169.9198878895195
 30
0.0
 10
24.14970728183271
 20
170.1119756938474
 30
0.0
 10
24.15147509550516
 20
170.2104995356167
 30
0.0
  0
SPLINE
  5
C9
330
1F
100
AcDbEntity
  8
0
  6
Continuous
 62
     8
370
    15
100
AcDbSpline
210
0.0
220
0.0
230
1.0
 70
     8
 71
     3
 72
    15
 73
    11
 74
     0
 42
0.000000001
 43
0.00000001
 40
0.0
 40
0.0
 40
0.0
 40
0.0
 40
0.0082757948451455
 40
0.1527884785440994
 40
0.2934044225899112
 40
0.4301238646041922
 40
0.5667169473186396
 40
0.7072272026152522
 40
0.8516548547058892
 40
1.0
 40
1.0
 40
1.0
 40
1.0
 10
24.15125292055998
 20
95.9049919342323
 30
0.0
 10
24.15113273874599
 20
95.90720565936904
 30
0.0
 10
24.14891393114469
 20
95.9480756545642
 30
0.0
 10
24.14612686738974
 20
96.24568267540656
 30
0.0
 10
24.14336195326699
 20
96.78535047435388
 30
0.0
 10
24.1426186271003
 20
97.52104557459573
 30
0.0
 10
24.14338710490065
 20
98.40192463063052
 30
0.0
 10
24.14603813821695
 20
99.42611842706931
 30
0.0
 10
24.15060146576391
 20
100.5706959564569
 30
0.0
 10
24.15506104218744
 20
101.377412472447
 30
0.0
 10
24.15732066643671
 20
101.7861679300739
 30
0.0
  0
SPLINE
  5
CA
330
1F
100
AcDbEntity
  8
0
  6
Continuous
 62
     8
370
    15
100
AcDbSpline
210
0.0
220
0.0
230
1.0
 70
     8
 71
     3
 72
    11
 73
     7
 74
     0
 42
0.000000001
 43
0.00000001
 40
0.0
 40
0.0
 40
0.0
 40
0.0
 40
0.1548647612688057
 40
0.4365765075125357
 40
0.718288253756268
 40
1.0
 40
1.0
 40
1.0
 40
1.0
 10
22.25927883399415
 20
101.7859786322049
 30
0.0
 10
22.27850038325374
 20
101.7859884040507
 30
0.0
 10
22.33268751256564
 20
101.7860159516881
 30
0.0
 10
22.73826795202818
 20
101.7860612751172
 30
0.0
 10
23.38020913647085
 20
101.7861146024922
 30
0.0
 10
23.8982834897364
 20
101.7861501540755
 30
0.0
 10
24.15732066636916
 20
101.7861679298672
 30
0.0
  0
SPLINE
  5
CB
330
1F
100
AcDbEntity
  8
0
  6
Continuous
 62
     7
370
    15
100
AcDbSpline
210
0.0
220
0.0
230
1.0
 70
     8
 71
     3
 72
    11
 73
     7
 74
     0
 42
0.000000001
 43
0.00000001
 40
0.0
 40
0.0
 40
0.0
 40
0.0
 40
0.2498955215044514
 40
0.4998373355293673
 40
0.7498733374283759
 40
1.0
 40
1.0
 40
1.0
 40
1.0
 10
83.02247672602991
 20
205.6463455896627
 30
0.0
 10
82.58911538542681
 20
205.6462539437087
 30
0.0
 10
81.7223124251159
 20
205.6460706348236
 30
0.0
 10
80.53773449683031
 20
205.6457940686555
 30
0.0
 10
79.54286910584747
 20
205.6455164584163
 30
0.0
 10
79.14488357352053
 20
205.6453303595179
 30
0.0
 10
78.9458547374556
 20
205.6452372932024
 30
0.0
  0
SPLINE
  5
CC
330
1F
100
AcDbEntity
  8
0
  6
Continuous
 62
     7
370
    15
100
AcDbSpline
210
0.0
220
0.0
230
1.0
 70
     8
 71
     3
 72
     9
 73
     5
 74
     0
 42
0.000000001
 43
0.00000001
 40
0.0
 40
0.0
 40
0.0
 40
0.0
 40
0.4822928440053886
 40
1.0
 40
1.0
 40
1.0
 40
1.0
 10
78.62814019362655
 20
205.6463460109959
 30
0.0
 10
78.51595043644105
 20
205.6172533072245
 30
0.0
 10
78.28333293323747
 20
205.5569316496816
 30
0.0
 10
78.28467874319192
 20
205.4306858091857
 30
0.0
 10
78.28537547863596
 20
205.3653274341464
 30
0.0
  0
SPLINE
  5
CD
330
1F
100
AcDbEntity
  8
0
  6
Continuous
 62
     7
370
    15
100
AcDbSpline
210
0.0
220
0.0
230
1.0
 70
     8
 71
     3
 72
    11
 73
     7
 74
     0
 42
0.000000001
 43
0.00000001
 40
0.0
 40
0.0
 40
0.0
 40
0.0
 40
0.2554149280669708
 40
0.5148616110132689
 40
0.7663737914567573
 40
1.0
 40
1.0
 40
1.0
 40
1.0
 10
78.35285621777335
 20
205.5437505903347
 30
0.0
 10
78.17281551266178
 20
205.4537467500639
 30
0.0
 10
77.80989213859253
 20
205.2723183482477
 30
0.0
 10
77.40579549672907
 20
204.8075779936558
 30
0.0
 10
77.1451179438945
 20
204.2675247840204
 30
0.0
 10
77.11024619379772
 20
203.8817926675759
 30
0.0
 10
77.09345314062912
 20
203.6960371513684
 30
0.0
  0
LINE
  5
CE
330
1F
100
AcDbEntity
  8
0
  6
Continuous
 62
     7
370
    15
100
AcDbLine
 10
79.0423808389
 20
205.5437505903
 30
0.0
 11
78.9740615027
 21
205.6279679305
 31
0.0
  0
LINE
  5
CF
330
1F
100
AcDbEntity
  8
0
  6
Continuous
 62
     7
370
    15
100
AcDbLine
 10
184.5354498603
 20
205.6279460892
 30
0.0
 11
184.4671577401
 21
205.5437341565
 31
0.0
  0
SPLINE
  5
D0
330
1F
100
AcDbEntity
  8
0
  6
Continuous
 62
     7
370
    15
100
AcDbSpline
210
0.0
220
0.0
230
1.0
 70
     8
 71
     3
 72
    11
 73
     7
 74
     0
 42
0.000000001
 43
0.00000001
 40
0.0
 40
0.0
 40
0.0
 40
0.0
 40
0.2336260199338929
 40
0.4851378137456938
 40
0.7445843984431573
 40
1.0
 40
1.0
 40
1.0
 40
1.0
 10
186.4159976516281
 20
203.6960374750755
 30
0.0
 10
186.3992036842112
 20
203.881789248969
 30
0.0
 10
186.3643300488215
 20
204.2675134483179
 30
0.0
 10
186.1036573107603
 20
204.8075577828954
 30
0.0
 10
185.699569701303
 20
205.2722949706023
 30
0.0
 10
185.3366532714935
 20
205.4537279223516
 30
0.0
 10
185.156615737743
 20
205.5437341565448
 30
0.0
  0
SPLINE
  5
D1
330
1F
100
AcDbEntity
  8
0
  6
Continuous
 62
     7
370
    15
100
AcDbSpline
210
0.0
220
0.0
230
1.0
 70
     8
 71
     3
 72
     9
 73
     5
 74
     0
 42
0.000000001
 43
0.00000001
 40
0.0
 40
0.0
 40
0.0
 40
0.0
 40
0.5177258528368277
 40
1.0
 40
1.0
 40
1.0
 40
1.0
 10
185.2241326330591
 20
205.3653247622236
 30
0.0
 10
185.2248197631744
 20
205.4306811388738
 30
0.0
 10
185.2261469716023
 20
205.556918560266
 30
0.0
 10
184.9935090007851
 20
205.6172465812271
 30
0.0
 10
184.8813137218115
 20
205.6463412260861
 30
0.0
  0
SPLINE
  5
D2
330
1F
100
AcDbEntity
  8
0
  6
Continuous
 62
     7
370
    15
100
AcDbSpline
210
0.0
220
0.0
230
1.0
 70
     8
 71
     3
 72
    11
 73
     7
 74
     0
 42
0.000000001
 43
0.00000001
 40
0.0
 40
0.0
 40
0.0
 40
0.0
 40
0.2501237222208585
 40
0.50015778052955
 40
0.7500992867255312
 40
1.0
 40
1.0
 40
1.0
 40
1.0
 10
184.5636470459573
 20
205.645235394936
 30
0.0
 10
184.3646338301367
 20
205.6453281973926
 30
0.0
 10
183.966678740403
 20
205.6455137690381
 30
0.0
 10
182.9718493465512
 20
205.6457905965508
 30
0.0
 10
181.7872808358626
 20
205.6460663890074
 30
0.0
 10
180.9204603029462
 20
205.646249183243
 30
0.0
 10
180.4870854077918
 20
205.6463405729017
 30
0.0
  0
SPLINE
  5
D3
330
1F
100
AcDbEntity
  8
0
  6
Continuous
 62
     7
370
    15
100
AcDbSpline
210
0.0
220
0.0
230
1.0
 70
     8
 71
     3
 72
     9
 73
     5
 74
     0
 42
0.000000001
 43
0.00000001
 40
0.0
 40
0.0
 40
0.0
 40
0.0
 40
0.9708298314350067
 40
1.0
 40
1.0
 40
1.0
 40
1.0
 10
78.62810466468015
 20
205.6463412260861
 30
0.0
 10
78.49753393397684
 20
205.6224230566755
 30
0.0
 10
78.36303999232457
 20
205.5977862267841
 30
0.0
 10
78.34477173063462
 20
205.5404079226881
 30
0.0
 10
78.34423884236173
 20
205.5387341878857
 30
0.0
  0
LINE
  5
D4
330
1F
100
AcDbEntity
  8
0
  6
Continuous
 62
     7
370
    15
100
AcDbLine
 10
79.0364217326
 20
205.6452734037
 30
0.0
 11
78.9457713405
 21
205.6452353949
 31
0.0
  0
SPLINE
  5
D5
330
1F
100
AcDbEntity
  8
0
  6
Continuous
 62
     7
370
    15
100
AcDbSpline
210
0.0
220
0.0
230
1.0
 70
     8
 71
     3
 72
    11
 73
     7
 74
     0
 42
0.000000001
 43
0.00000001
 40
0.0
 40
0.0
 40
0.0
 40
0.0
 40
0.2554156015568435
 40
0.5148621862543066
 40
0.7663739800661065
 40
1.0
 40
1.0
 40
1.0
 40
1.0
 10
78.35280264874866
 20
205.5437341565448
 30
0.0
 10
78.1727651149981
 20
205.4537279223516
 30
0.0
 10
77.80984868518863
 20
205.2722949706023
 30
0.0
 10
77.40576107573133
 20
204.8075577828954
 30
0.0
 10
77.14508833767016
 20
204.2675134483179
 30
0.0
 10
77.11021470228036
 20
203.881789248969
 30
0.0
 10
77.09342073486347
 20
203.6960374750755
 30
0.0
  0
SPLINE
  5
D6
330
1F
100
AcDbEntity
  8
0
  6
Continuous
 62
     7
370
    15
100
AcDbSpline
210
0.0
220
0.0
230
1.0
 70
     8
 71
     3
 72
     9
 73
     5
 74
     0
 42
0.000000001
 43
0.00000001
 40
0.0
 40
0.0
 40
0.0
 40
0.0
 40
0.0290661395904385
 40
1.0
 40
1.0
 40
1.0
 40
1.0
 10
185.1651411944955
 20
205.5387481823275
 30
0.0
 10
185.1646104225808
 20
205.5404159597734
 30
0.0
 10
185.1463495897976
 20
205.5977946646646
 30
0.0
 10
185.011870493991
 20
205.6224263337549
 30
0.0
 10
184.8813001863551
 20
205.6463420553132
 30
0.0
  0
LINE
  5
D7
330
1F
100
AcDbEntity
  8
0
  6
Continuous
 62
     7
370
    15
100
AcDbLine
 10
76.7547091932
 20
190.6779253839
 30
0.0
 11
82.7537953642
 21
190.6779253839
 31
0.0
  0
LINE
  5
D8
330
1F
100
AcDbEntity
  8
0
  6
Continuous
 62
     7
370
    15
100
AcDbLine
 10
76.7547091932
 20
190.6779253839
 30
0.0
 11
76.9822342964
 21
203.7128298122
 31
0.0
  0
LINE
  5
D9
330
1F
100
AcDbEntity
  8
0
  6
Continuous
 62
     7
370
    15
100
AcDbLine
 10
76.9822343031
 20
203.7128301967
 30
0.0
 11
77.1003577895
 21
203.7188971733
 31
0.0
  0
LINE
  5
DA
330
1F
100
AcDbEntity
  8
0
  6
Continuous
 62
     7
370
    15
100
AcDbLine
 10
82.9815337835
 20
203.7128294274
 30
0.0
 11
82.7537953642
 21
190.6779253839
 31
0.0
  0
LINE
  5
DB
330
1F
100
AcDbEntity
  8
0
  6
Continuous
 62
     7
370
    15
100
AcDbLine
 10
82.7537953642
 20
190.6779253839
 30
0.0
 11
180.7556230223
 21
190.6779253839
 31
0.0
  0
LINE
  5
DC
330
1F
100
AcDbEntity
  8
0
  6
Continuous
 62
     7
370
    15
100
AcDbLine
 10
82.9815337835
 20
203.7128294274
 30
0.0
 11
180.5280979099
 21
203.7128294274
 31
0.0
  0
LINE
  5
DD
330
1F
100
AcDbEntity
  8
0
  6
Continuous
 62
     7
370
    15
100
AcDbLine
 10
180.7556230223
 20
190.6779253839
 30
0.0
 11
180.5280979099
 21
203.7128301967
 31
0.0
  0
LINE
  5
DE
330
1F
100
AcDbEntity
  8
0
  6
Continuous
 62
     7
370
    15
100
AcDbLine
 10
180.7556230223
 20
190.6779253839
 30
0.0
 11
186.7547091932
 21
190.6779253839
 31
0.0
  0
LINE
  5
DF
330
1F
100
AcDbEntity
  8
0
  6
Continuous
 62
     7
370
    15
100
AcDbLine
 10
186.4091475318
 20
203.7188995928
 30
0.0
 11
186.527184093
 21
203.7128294274
 31
0.0
  0
LINE
  5
E0
330
1F
100
AcDbEntity
  8
0
  6
Continuous
 62
     7
370
    15
100
AcDbLine
 10
186.5271840901
 20
203.7128298121
 30
0.0
 11
186.7547091932
 21
190.6779253839
 31
0.0
  0
SPLINE
  5
E1
330
1F
100
AcDbEntity
  8
0
  6
Continuous
 62
     7
370
    15
100
AcDbSpline
210
0.0
220
0.0
230
1.0
 70
     8
 71
     3
 72
     8
 73
     4
 74
     0
 42
0.000000001
 43
0.00000001
 40
0.0
 40
0.0
 40
0.0
 40
0.0
 40
1.0
 40
1.0
 40
1.0
 40
1.0
 10
79.01654439736569
 20
205.6779253815992
 30
0.0
 10
78.99355313614036
 20
205.6779253835386
 30
0.0
 10
78.98199591167679
 20
205.677925384224
 30
0.0
 10
78.9819296933951
 20
205.6779253836552
 30
0.0
  0
SPLINE
  5
E2
330
1F
100
AcDbEntity
  8
0
  6
Continuous
 62
     7
370
    15
100
AcDbSpline
210
0.0
220
0.0
230
1.0
 70
     8
 71
     3
 72
    20
 73
    16
 74
     0
 42
0.000000001
 43
0.00000001
 40
0.0
 40
0.0
 40
0.0
 40
0.0
 40
0.2499999999999987
 40
0.2499999999999987
 40
0.3749999999999989
 40
0.3749999999999989
 40
0.4999999999999991
 40
0.4999999999999991
 40
0.6249999999999992
 40
0.6249999999999992
 40
0.7499999999999994
 40
0.7499999999999994
 40
0.8749999999999998
 40
0.8749999999999998
 40
1.0
 40
1.0
 40
1.0
 40
1.0
 10
82.45579074790552
 20
205.6779253837319
 30
0.0
 10
82.01205177954532
 20
205.677925632725
 30
0.0
 10
81.58548819420506
 20
205.6775481618816
 30
0.0
 10
80.98080897761679
 20
205.6770675022609
 30
0.0
 10
80.79019283530798
 20
205.6769240282895
 30
0.0
 10
80.43010445464849
 20
205.6767215516728
 30
0.0
 10
80.25942306600678
 20
205.6766651312042
 30
0.0
 10
79.94618236887821
 20
205.6766656293517
 30
0.0
 10
79.80524215669914
 20
205.6767206894232
 30
0.0
 10
79.55390653939214
 20
205.6769227931227
 30
0.0
 10
79.44267293339034
 20
205.6770687470453
 30
0.0
 10
79.2573523343591
 20
205.6773874857303
 30
0.0
 10
79.18330222927577
 20
205.6775580386063
 30
0.0
 10
79.07175174997948
 20
205.6778267012888
 30
0.0
 10
79.03421396817426
 20
205.6779259284549
 30
0.0
 10
79.0165443973613
 20
205.6779253815992
 30
0.0
  0
LINE
  5
E3
330
1F
100
AcDbEntity
  8
0
  6
Continuous
 62
     7
370
    15
100
AcDbLine
 10
82.981320474
 20
205.6779253839
 30
0.0
 11
82.9813444839
 21
205.6108766901
 31
0.0
  0
LINE
  5
E4
330
1F
100
AcDbEntity
  8
0
  6
Continuous
 62
     7
370
    15
100
AcDbLine
 10
78.6219385606
 20
205.6071347778
 30
0.0
 11
78.9819296934
 21
205.6779253839
 31
0.0
  0
SPLINE
  5
E5
330
1F
100
AcDbEntity
  8
0
  6
Continuous
 62
     7
370
    15
100
AcDbSpline
210
0.0
220
0.0
230
1.0
 70
     8
 71
     3
 72
     8
 73
     4
 74
     0
 42
0.000000001
 43
0.00000001
 40
0.0
 40
0.0
 40
0.0
 40
0.0
 40
1.0
 40
1.0
 40
1.0
 40
1.0
 10
181.0537132446958
 20
205.6779253836666
 30
0.0
 10
180.8794924639278
 20
205.677925383913
 30
0.0
 10
180.7037113936803
 20
205.6779253839092
 30
0.0
 10
180.5280979124658
 20
205.6779253836552
 30
0.0
  0
SPLINE
  5
E6
330
1F
100
AcDbEntity
  8
0
  6
Continuous
 62
     7
370
    15
100
AcDbSpline
210
0.0
220
0.0
230
1.0
 70
     8
 71
     3
 72
    12
 73
     8
 74
     0
 42
0.000000001
 43
0.00000001
 40
0.0
 40
0.0
 40
0.0
 40
0.0
 40
0.1751285991164139
 40
0.4341924516495494
 40
0.693256563376275
 40
0.9523204318165783
 40
1.0
 40
1.0
 40
1.0
 40
1.0
 10
184.3925166507211
 20
205.6777131045517
 30
0.0
 10
184.3384134979334
 20
205.677574239255
 30
0.0
 10
184.2042767511692
 20
205.6772299536048
 30
0.0
 10
183.5293988759743
 20
205.6764219368219
 30
0.0
 10
182.5195103289898
 20
205.6770055538628
 30
0.0
 10
181.6249683601274
 20
205.6778680250887
 30
0.0
 10
181.1305626502278
 20
205.6779176673723
 30
0.0
 10
181.0537132446956
 20
205.6779253836666
 30
0.0
  0
SPLINE
  5
E7
330
1F
100
AcDbEntity
  8
0
  6
Continuous
 62
     7
370
    15
100
AcDbSpline
210
0.0
220
0.0
230
1.0
 70
     8
 71
     3
 72
     8
 73
     4
 74
     0
 42
0.000000001
 43
0.00000001
 40
0.0
 40
0.0
 40
0.0
 40
0.0
 40
1.0
 40
1.0
 40
1.0
 40
1.0
 10
184.5274886930965
 20
205.6779253837651
 30
0.0
 10
184.5274454577684
 20
205.6779253839136
 30
0.0
 10
184.5158600154733
 20
205.677925383864
 30
0.0
 10
184.4928162016858
 20
205.6779253836165
 30
0.0
  0
LINE
  5
E8
330
1F
100
AcDbEntity
  8
0
  6
Continuous
 62
     7
370
    15
100
AcDbLine
 10
184.5274886931
 20
205.6779253839
 30
0.0
 11
184.8875538532
 21
205.6071202206
 31
0.0
  0
SPLINE
  5
E9
330
1F
100
AcDbEntity
  8
0
  6
Continuous
 62
     7
370
    15
100
AcDbSpline
210
0.0
220
0.0
230
1.0
 70
    24
 71
     3
 72
    14
 73
    10
 74
     0
 42
0.000000001
 43
0.00000001
 40
0.0
 40
0.0
 40
0.0
 40
0.0
 40
0.25
 40
0.25
 40
0.5
 40
0.5
 40
0.75
 40
0.75
 40
1.0
 40
1.0
 40
1.0
 40
1.0
 10
180.5280979099358
 20
203.7128294274394
 30
0.0
 10
180.5280979099358
 20
203.9716805687192
 30
0.0
 10
180.5280979099358
 20
204.2295461569928
 30
0.0
 10
180.5280979099358
 20
204.7052789758641
 30
0.0
 10
180.5280979099358
 20
204.9229671781662
 30
0.0
 10
180.5280979099358
 20
205.2858848468693
 30
0.0
 10
180.5280979099358
 20
205.4309777396955
 30
0.0
 10
180.5280979099358
 20
205.6270348984083
 30
0.0
 10
180.5280979099358
 20
205.6779253838501
 30
0.0
 10
180.5280979099358
 20
205.6779253838501
 30
0.0
  0
LINE
  5
EA
330
1F
100
AcDbEntity
  8
0
  6
Continuous
 62
     7
370
    15
100
AcDbLine
 10
82.981320474
 20
205.6779253839
 30
0.0
 11
180.5280979125
 21
205.6779253839
 31
0.0
  0
LINE
  5
EB
330
1F
100
AcDbEntity
  8
0
  6
Continuous
 62
     7
370
    15
100
AcDbLine
 10
79.1058140871
 20
205.6779253839
 30
0.0
 11
82.981320474
 21
205.6779253839
 31
0.0
  0
LINE
  5
EC
330
1F
100
AcDbEntity
  8
0
  6
Continuous
 62
     7
370
    15
100
AcDbLine
 10
181.2525196973
 20
205.6779253839
 30
0.0
 11
184.3707981295
 21
205.6779253839
 31
0.0
  0
SPLINE
  5
ED
330
1F
100
AcDbEntity
  8
0
  6
Continuous
 62
     8
370
    15
100
AcDbSpline
210
0.0
220
0.0
230
1.0
 70
     8
 71
     3
 72
    15
 73
    11
 74
     0
 42
0.000000001
 43
0.00000001
 40
0.0
 40
0.0
 40
0.0
 40
0.0
 40
0.0082757929009458
 40
0.1527884768832042
 40
0.2934044212046834
 40
0.4301238634869943
 40
0.5667169464692227
 40
0.7072272020412955
 40
0.8516548544150713
 40
1.0
 40
1.0
 40
1.0
 40
1.0
 10
77.10035778954344
 20
203.7188971733335
 30
0.0
 10
77.10257151418057
 20
203.7190173551188
 30
0.0
 10
77.14344150930901
 20
203.7212361626886
 30
0.0
 10
77.44104852945618
 20
203.7240232264162
 30
0.0
 10
77.98071632791212
 20
203.7267881405423
 30
0.0
 10
78.71641142828086
 20
203.7275314667081
 30
0.0
 10
79.59729048428183
 20
203.726762988908
 30
0.0
 10
80.62148428072999
 20
203.7241119555916
 30
0.0
 10
81.766061810115
 20
203.7195486280446
 30
0.0
 10
82.57277832610546
 20
203.7150890516211
 30
0.0
 10
82.98153378373253
 20
203.7128294273718
 30
0.0
  0
SPLINE
  5
EE
330
1F
100
AcDbEntity
  8
0
  6
Continuous
 62
     8
370
    15
100
AcDbSpline
210
0.0
220
0.0
230
1.0
 70
     8
 71
     3
 72
    15
 73
    11
 74
     0
 42
0.000000001
 43
0.00000001
 40
0.0
 40
0.0
 40
0.0
 40
0.0
 40
0.1484104364195563
 40
0.2929239989184267
 40
0.4335407980675881
 40
0.5702610714900969
 40
0.7068549848443649
 40
0.8473660946016205
 40
0.9917946249750862
 40
1.0
 40
1.0
 40
1.0
 40
1.0
 10
180.5280979099358
 20
203.7128301967323
 30
0.0
 10
180.9370305098335
 20
203.7150896013091
 30
0.0
 10
181.7441581980205
 20
203.7195490843467
 30
0.0
 10
182.8893522439202
 20
203.7241143369485
 30
0.0
 10
183.914149768592
 20
203.7267663537052
 30
0.0
 10
184.7949159734534
 20
203.72753144613
 30
0.0
 10
185.5299936001871
 20
203.7267848133404
 30
0.0
 10
186.0689221442061
 20
203.7240206931251
 30
0.0
 10
186.3661423208912
 20
203.7212363310882
 30
0.0
 10
186.4069535783969
 20
203.7190188038386
 30
0.0
 10
186.4091475317797
 20
203.7188995928241
 30
0.0
  0
SPLINE
  5
EF
330
1F
100
AcDbEntity
  8
0
  6
Continuous
 62
     8
370
    15
100
AcDbSpline
210
0.0
220
0.0
230
1.0
 70
     8
 71
     3
 72
    11
 73
     7
 74
     0
 42
0.000000001
 43
0.00000001
 40
0.0
 40
0.0
 40
0.0
 40
0.0
 40
0.154873442805276
 40
0.4365822952035159
 40
0.7182911476017582
 40
1.0
 40
1.0
 40
1.0
 40
1.0
 10
82.98134448391897
 20
205.610876690069
 30
0.0
 10
82.98135425641293
 20
205.5916541932295
 30
0.0
 10
82.98138180469853
 20
205.5374667119048
 30
0.0
 10
82.98142712877579
 20
205.1318826915346
 30
0.0
 10
82.9814804561508
 20
204.4899408198991
 30
0.0
 10
82.98151600773416
 20
203.9718665582593
 30
0.0
 10
82.9815337835258
 20
203.7128294274394
 30
0.0
  0
SPLINE
  5
F0
330
1F
100
AcDbEntity
  8
0
  6
Continuous
 62
     7
370
    15
100
AcDbSpline
210
0.0
220
0.0
230
1.0
 70
     8
 71
     3
 72
    11
 73
     7
 74
     0
 42
0.000000001
 43
0.00000001
 40
0.0
 40
0.0
 40
0.0
 40
0.0
 40
0.2498958379864569
 40
0.4998377576097236
 40
0.7498736540789613
 40
1.0
 40
1.0
 40
1.0
 40
1.0
 10
180.4869414526452
 20
54.97812365579611
 30
0.0
 10
180.9203047070752
 20
54.97821508686667
 30
0.0
 10
181.7871111295834
 20
54.97839796586799
 30
0.0
 10
182.9716919238751
 20
54.97867387968319
 30
0.0
 10
183.9665578523609
 20
54.97895083245212
 30
0.0
 10
184.3645422273827
 20
54.97913648811888
 30
0.0
 10
184.5635704006853
 20
54.97922933273927
 30
0.0
  0
SPLINE
  5
F1
330
1F
100
AcDbEntity
  8
0
  6
Continuous
 62
     7
370
    15
100
AcDbSpline
210
0.0
220
0.0
230
1.0
 70
     8
 71
     3
 72
     9
 73
     5
 74
     0
 42
0.000000001
 43
0.00000001
 40
0.0
 40
0.0
 40
0.0
 40
0.0
 40
0.4822928771444088
 40
1.0
 40
1.0
 40
1.0
 40
1.0
 10
184.8813001863548
 20
54.9781232354934
 30
0.0
 10
184.9934910376133
 20
55.00721777060754
 30
0.0
 10
185.2261107933161
 20
55.06754322116448
 30
0.0
 10
185.2247643178864
 20
55.19379377116588
 30
0.0
 10
185.2240672379657
 20
55.25915458016605
 30
0.0
  0
SPLINE
  5
F2
330
1F
100
AcDbEntity
  8
0
  6
Continuous
 62
     7
370
    15
100
AcDbSpline
210
0.0
220
0.0
230
1.0
 70
     8
 71
     3
 72
    11
 73
     7
 74
     0
 42
0.000000001
 43
0.00000001
 40
0.0
 40
0.0
 40
0.0
 40
0.0
 40
0.2554154567727628
 40
0.5148620699284487
 40
0.7663739517450029
 40
1.0
 40
1.0
 40
1.0
 40
1.0
 10
185.1565954003577
 20
55.08072765501701
 30
0.0
 10
185.3366322325016
 20
55.17073338382028
 30
0.0
 10
185.6995473717501
 20
55.35216537866738
 30
0.0
 10
186.1036324924197
 20
55.81690323035343
 30
0.0
 10
186.3643020211704
 20
56.35694941819234
 30
0.0
 10
186.399172701315
 20
56.74267531496749
 30
0.0
 10
186.4159652435946
 20
56.92842788426237
 30
0.0
  0
LINE
  5
F3
330
1F
100
AcDbEntity
  8
0
  6
Continuous
 62
     7
370
    15
100
AcDbLine
 10
184.4670438696
 20
55.080727655
 30
0.0
 11
184.5353901246
 21
54.9964954986
 31
0.0
  0
LINE
  5
F4
330
1F
100
AcDbEntity
  8
0
  6
Continuous
 62
     7
370
    15
100
AcDbLine
 10
78.9739685262
 20
54.9965192016
 30
0.0
 11
79.0422606464
 21
55.0807311343
 31
0.0
  0
SPLINE
  5
F5
330
1F
100
AcDbEntity
  8
0
  6
Continuous
 62
     7
370
    15
100
AcDbSpline
210
0.0
220
0.0
230
1.0
 70
     8
 71
     3
 72
    11
 73
     7
 74
     0
 42
0.000000001
 43
0.00000001
 40
0.0
 40
0.0
 40
0.0
 40
0.0
 40
0.2336260199338945
 40
0.4851378137456965
 40
0.7445843984431515
 40
0.9999999999999999
 40
0.9999999999999999
 40
0.9999999999999999
 40
0.9999999999999999
 10
77.09342073486346
 20
56.92842781573114
 30
0.0
 10
77.11021470228036
 20
56.74267604183764
 30
0.0
 10
77.14508833767017
 20
56.35695184248873
 30
0.0
 10
77.40576107573135
 20
55.81690750791123
 30
0.0
 10
77.80984868518861
 20
55.35217032020426
 30
0.0
 10
78.1727651149981
 20
55.17073736845508
 30
0.0
 10
78.35280264874866
 20
55.08073113426183
 30
0.0
  0
SPLINE
  5
F6
330
1F
100
AcDbEntity
  8
0
  6
Continuous
 62
     7
370
    15
100
AcDbSpline
210
0.0
220
0.0
230
1.0
 70
     8
 71
     3
 72
     9
 73
     5
 74
     0
 42
0.000000001
 43
0.00000001
 40
0.0
 40
0.0
 40
0.0
 40
0.0
 40
0.5177258528368264
 40
1.0
 40
1.0
 40
1.0
 40
1.0
 10
78.28528575343252
 20
55.259140528583
 30
0.0
 10
78.2845986233173
 20
55.19378415193278
 30
0.0
 10
78.2832714148894
 20
55.06754673054054
 30
0.0
 10
78.51590938570673
 20
55.00721870957949
 30
0.0
 10
78.62810466468045
 20
54.97812406472045
 30
0.0
  0
SPLINE
  5
F7
330
1F
100
AcDbEntity
  8
0
  6
Continuous
 62
     7
370
    15
100
AcDbSpline
210
0.0
220
0.0
230
1.0
 70
     8
 71
     3
 72
    11
 73
     7
 74
     0
 42
0.000000001
 43
0.00000001
 40
0.0
 40
0.0
 40
0.0
 40
0.0
 40
0.2501237222208572
 40
0.5001577805295564
 40
0.7500992867255298
 40
1.0
 40
1.0
 40
1.0
 40
1.0
 10
78.94577134053424
 20
54.97922989587064
 30
0.0
 10
79.14478455635494
 20
54.97913709341404
 30
0.0
 10
79.5427396460886
 20
54.9789515217685
 30
0.0
 10
80.53756903994046
 20
54.97867469425585
 30
0.0
 10
81.72213755062896
 20
54.97839890179916
 30
0.0
 10
82.58895808354535
 20
54.9782161075636
 30
0.0
 10
83.0223329786998
 20
54.97812471790488
 30
0.0
  0
SPLINE
  5
F8
330
1F
100
AcDbEntity
  8
0
  6
Continuous
 62
     7
370
    15
100
AcDbSpline
210
0.0
220
0.0
230
1.0
 70
     8
 71
     3
 72
     9
 73
     5
 74
     0
 42
0.000000001
 43
0.00000001
 40
0.0
 40
0.0
 40
0.0
 40
0.0
 40
0.9708298314348166
 40
1.0
 40
1.0
 40
1.0
 40
1.0
 10
184.8813137218118
 20
54.97812406472057
 30
0.0
 10
185.0118844525151
 20
55.00204223413115
 30
0.0
 10
185.1463783941675
 20
55.02667906402259
 30
0.0
 10
185.1646466558571
 20
55.08405736811861
 30
0.0
 10
185.16517954413
 20
55.08573110292107
 30
0.0
  0
LINE
  5
F9
330
1F
100
AcDbEntity
  8
0
  6
Continuous
 62
     7
370
    15
100
AcDbLine
 10
184.4729966539
 20
54.9791918871
 30
0.0
 11
184.563647046
 21
54.9792298959
 31
0.0
  0
SPLINE
  5
FA
330
1F
100
AcDbEntity
  8
0
  6
Continuous
 62
     7
370
    15
100
AcDbSpline
210
0.0
220
0.0
230
1.0
 70
     8
 71
     3
 72
    11
 73
     7
 74
     0
 42
0.000000001
 43
0.00000001
 40
0.0
 40
0.0
 40
0.0
 40
0.0
 40
0.255415601556843
 40
0.5148621862543054
 40
0.7663739800661066
 40
0.9999999999999999
 40
0.9999999999999999
 40
0.9999999999999999
 40
0.9999999999999999
 10
185.156615737743
 20
55.08073113426183
 30
0.0
 10
185.3366532714935
 20
55.17073736845509
 30
0.0
 10
185.699569701303
 20
55.35217032020427
 30
0.0
 10
186.1036573107603
 20
55.81690750791122
 30
0.0
 10
186.3643300488215
 20
56.35695184248873
 30
0.0
 10
186.3992036842112
 20
56.74267604183764
 30
0.0
 10
186.4159976516281
 20
56.92842781573114
 30
0.0
  0
LINE
  5
FB
330
1F
100
AcDbEntity
  8
0
  6
Continuous
 62
     7
370
    15
100
AcDbLine
 10
186.7547091932
 20
69.946539907
 30
0.0
 11
180.7556230223
 21
69.946539907
 31
0.0
  0
LINE
  5
FC
330
1F
100
AcDbEntity
  8
0
  6
Continuous
 62
     7
370
    15
100
AcDbLine
 10
186.7547091932
 20
69.946539907
 30
0.0
 11
186.5271840901
 21
56.9116354786
 31
0.0
  0
LINE
  5
FD
330
1F
100
AcDbEntity
  8
0
  6
Continuous
 62
     7
370
    15
100
AcDbLine
 10
186.5271840834
 20
56.9116350941
 30
0.0
 11
186.4090606179
 21
56.9055681209
 31
0.0
  0
LINE
  5
FE
330
1F
100
AcDbEntity
  8
0
  6
Continuous
 62
     7
370
    15
100
AcDbLine
 10
180.527884603
 20
56.9116358634
 30
0.0
 11
180.7556230223
 21
69.946539907
 31
0.0
  0
LINE
  5
FF
330
1F
100
AcDbEntity
  8
0
  6
Continuous
 62
     7
370
    15
100
AcDbLine
 10
82.7537953642
 20
69.946539907
 30
0.0
 11
76.7547091932
 21
69.946539907
 31
0.0
  0
LINE
  5
100
330
1F
100
AcDbEntity
  8
0
  6
Continuous
 62
     7
370
    15
100
AcDbLine
 10
82.7537953642
 20
69.946539907
 30
0.0
 11
82.9813204766
 21
56.9116350941
 31
0.0
  0
LINE
  5
101
330
1F
100
AcDbEntity
  8
0
  6
Continuous
 62
     7
370
    15
100
AcDbLine
 10
77.1002708547
 20
56.905565698
 30
0.0
 11
76.9822342934
 21
56.9116358634
 31
0.0
  0
LINE
  5
102
330
1F
100
AcDbEntity
  8
0
  6
Continuous
 62
     7
370
    15
100
AcDbLine
 10
76.9822342964
 20
56.9116354787
 30
0.0
 11
76.7547091932
 21
69.946539907
 31
0.0
  0
LINE
  5
103
330
1F
100
AcDbEntity
  8
0
  6
Continuous
 62
     7
370
    15
100
AcDbLine
 10
180.7556230223
 20
69.946539907
 30
0.0
 11
82.7537953642
 21
69.946539907
 31
0.0
  0
LINE
  5
104
330
1F
100
AcDbEntity
  8
0
  6
Continuous
 62
     7
370
    15
100
AcDbLine
 10
180.527884603
 20
56.9116358634
 30
0.0
 11
82.9813204766
 21
56.9116358634
 31
0.0
  0
LINE
  5
105
330
1F
100
AcDbEntity
  8
0
  6
Continuous
 62
     7
370
    15
100
AcDbLine
 10
180.5280979125
 20
54.946539907
 30
0.0
 11
180.528073901
 21
55.0135928814
 31
0.0
  0
LINE
  5
106
330
1F
100
AcDbEntity
  8
0
  6
Continuous
 62
     7
370
    15
100
AcDbLine
 10
184.8875019676
 20
55.0173348671
 30
0.0
 11
184.5274886931
 21
54.946539907
 31
0.0
  0
SPLINE
  5
107
330
1F
100
AcDbEntity
  8
0
  6
Continuous
 62
     7
370
    15
100
AcDbSpline
210
0.0
220
0.0
230
1.0
 70
     8
 71
     3
 72
     8
 73
     4
 74
     0
 42
0.000000001
 43
0.00000001
 40
0.0
 40
0.0
 40
0.0
 40
0.0
 40
1.0
 40
1.0
 40
1.0
 40
1.0
 10
184.4928206516458
 20
54.94653990735786
 30
0.0
 10
184.5158657884233
 20
54.94653990690586
 30
0.0
 10
184.5274407230854
 20
54.94653990683706
 30
0.0
 10
184.5274886930965
 20
54.94653990715147
 30
0.0
  0
SPLINE
  5
108
330
1F
100
AcDbEntity
  8
0
  6
Continuous
 62
     7
370
    15
100
AcDbSpline
210
0.0
220
0.0
230
1.0
 70
     8
 71
     3
 72
    20
 73
    16
 74
     0
 42
0.000000001
 43
0.00000001
 40
0.0
 40
0.0
 40
0.0
 40
0.0
 40
0.25
 40
0.25
 40
0.375
 40
0.375
 40
0.5
 40
0.5
 40
0.625
 40
0.625
 40
0.75
 40
0.75
 40
0.875
 40
0.875
 40
1.0
 40
1.0
 40
1.0
 40
1.0
 10
181.0536276385861
 20
54.9465399070747
 30
0.0
 10
181.4972980974176
 20
54.94653965812005
 30
0.0
 10
181.9237920902075
 20
54.94691701204412
 30
0.0
 10
182.5283983831723
 20
54.94739762435071
 30
0.0
 10
182.7189932962039
 20
54.9475410984307
 30
0.0
 10
183.0790458218119
 20
54.94774362182
 30
0.0
 10
183.249709795974
 20
54.94780009447696
 30
0.0
 10
183.5629411655147
 20
54.94779972738202
 30
0.0
 10
183.7038808124306
 20
54.94774475276716
 30
0.0
 10
183.9552251481482
 20
54.94754281419149
 30
0.0
 10
184.0664674591138
 20
54.94739694235027
 30
0.0
 10
184.2518289348667
 20
54.94707829222253
 30
0.0
 10
184.3259040653435
 20
54.94690774617838
 30
0.0
 10
184.4375169279318
 20
54.94663896686023
 30
0.0
 10
184.4750929038135
 20
54.94653960695227
 30
0.0
 10
184.4928084889325
 20
54.94653990763863
 30
0.0
  0
LINE
  5
109
330
1F
100
AcDbEntity
  8
0
  6
Continuous
 62
     7
370
    15
100
AcDbLine
 10
78.9819296934
 20
54.946539907
 30
0.0
 11
78.6218645332
 21
55.0173450702
 31
0.0
  0
SPLINE
  5
10A
330
1F
100
AcDbEntity
  8
0
  6
Continuous
 62
     7
370
    15
100
AcDbSpline
210
0.0
220
0.0
230
1.0
 70
    24
 71
     3
 72
    14
 73
    10
 74
     0
 42
0.000000001
 43
0.00000001
 40
0.0
 40
0.0
 40
0.0
 40
0.0
 40
0.25
 40
0.25
 40
0.5
 40
0.5
 40
0.75
 40
0.75
 40
1.0
 40
1.0
 40
1.0
 40
1.0
 10
82.98132047655582
 20
56.91163586336722
 30
0.0
 10
82.98132047655581
 20
56.65278472208746
 30
0.0
 10
82.98132047655581
 20
56.39491913381387
 30
0.0
 10
82.98132047655582
 20
55.91918631494251
 30
0.0
 10
82.98132047655582
 20
55.70149811264039
 30
0.0
 10
82.98132047655582
 20
55.33858044393732
 30
0.0
 10
82.98132047655582
 20
55.1934875511111
 30
0.0
 10
82.98132047655582
 20
54.99743039239832
 30
0.0
 10
82.98132047655582
 20
54.94653990695654
 30
0.0
 10
82.98132047655582
 20
54.94653990695654
 30
0.0
  0
SPLINE
  5
10B
330
1F
100
AcDbEntity
  8
0
  6
Continuous
 62
     7
370
    15
100
AcDbSpline
210
0.0
220
0.0
230
1.0
 70
     8
 71
     3
 72
     8
 73
     4
 74
     0
 42
0.000000001
 43
0.00000001
 40
0.0
 40
0.0
 40
0.0
 40
0.0
 40
1.0
 40
1.0
 40
1.0
 40
1.0
 10
82.45575946803582
 20
54.94653990712534
 30
0.0
 10
82.6299625134442
 20
54.94653990689383
 30
0.0
 10
82.80572529515615
 20
54.94653990690253
 30
0.0
 10
82.98132047402582
 20
54.94653990715147
 30
0.0
  0
SPLINE
  5
10C
330
1F
100
AcDbEntity
  8
0
  6
Continuous
 62
     7
370
    15
100
AcDbSpline
210
0.0
220
0.0
230
1.0
 70
     8
 71
     3
 72
    12
 73
     8
 74
     0
 42
0.000000001
 43
0.00000001
 40
0.0
 40
0.0
 40
0.0
 40
0.0
 40
0.1751266249395372
 40
0.4341875571164189
 40
0.6932487484839731
 40
0.9523096965678404
 40
0.9999999999999999
 40
0.9999999999999999
 40
0.9999999999999999
 40
0.9999999999999999
 10
79.11690173577036
 20
54.94675218625493
 30
0.0
 10
79.17100488923295
 20
54.94689105157823
 30
0.0
 10
79.30514163767043
 20
54.94723533729442
 30
0.0
 10
79.98001949566653
 20
54.94804335339933
 30
0.0
 10
80.98990811247455
 20
54.94745973911092
 30
0.0
 10
81.88446771442779
 20
54.94659724323921
 30
0.0
 10
82.37889212573302
 20
54.94654762177817
 30
0.0
 10
82.45575978342919
 20
54.94653990718035
 30
0.0
  0
SPLINE
  5
10D
330
1F
100
AcDbEntity
  8
0
  6
Continuous
 62
     7
370
    15
100
AcDbSpline
210
0.0
220
0.0
230
1.0
 70
     8
 71
     3
 72
     8
 73
     4
 74
     0
 42
0.000000001
 43
0.00000001
 40
0.0
 40
0.0
 40
0.0
 40
0.0
 40
1.0
 40
1.0
 40
1.0
 40
1.0
 10
78.9819296933951
 20
54.94653990704148
 30
0.0
 10
78.98197292872317
 20
54.94653990689302
 30
0.0
 10
78.99355837101835
 20
54.94653990694257
 30
0.0
 10
79.0166021848058
 20
54.94653990719014
 30
0.0
  0
LINE
  5
10E
330
1F
100
AcDbEntity
  8
0
  6
Continuous
 62
     7
370
    15
100
AcDbLine
 10
180.5280979125
 20
54.946539907
 30
0.0
 11
82.981320474
 21
54.946539907
 31
0.0
  0
LINE
  5
10F
330
1F
100
AcDbEntity
  8
0
  6
Continuous
 62
     7
370
    15
100
AcDbLine
 10
184.403651899
 20
54.946539907
 30
0.0
 11
180.5280979125
 21
54.946539907
 31
0.0
  0
LINE
  5
110
330
1F
100
AcDbEntity
  8
0
  6
Continuous
 62
     7
370
    15
100
AcDbLine
 10
82.2568712056
 20
54.946539907
 30
0.0
 11
79.1386148127
 21
54.946539907
 31
0.0
  0
SPLINE
  5
111
330
1F
100
AcDbEntity
  8
0
  6
Continuous
 62
     8
370
    15
100
AcDbSpline
210
0.0
220
0.0
230
1.0
 70
     8
 71
     3
 72
    15
 73
    11
 74
     0
 42
0.000000001
 43
0.00000001
 40
0.0
 40
0.0
 40
0.0
 40
0.0
 40
0.0082759034816991
 40
0.1527907981013762
 40
0.2934087904654622
 40
0.4301304387836916
 40
0.5694546741216667
 40
0.7108768949726578
 40
0.871694926775403
 40
1.0
 40
1.0
 40
1.0
 40
1.0
 10
186.4090606179304
 20
56.90556812086366
 30
0.0
 10
186.4068468977586
 20
56.90544794019365
 30
0.0
 10
186.3659769102612
 20
56.90322914915431
 30
0.0
 10
186.068373946876
 20
56.90044071722619
 30
0.0
 10
185.5286913732138
 20
56.89768178252253
 30
0.0
 10
184.7882027177675
 20
56.89691215613088
 30
0.0
 10
183.8979028928065
 20
56.89778372132328
 30
0.0
 10
182.8226741809713
 20
56.90074645370768
 30
0.0
 10
181.6773187048406
 20
56.90549186260932
 30
0.0
 10
180.8811866420512
 20
56.90974737933889
 30
0.0
 10
180.5278846027591
 20
56.91163586343477
 30
0.0
  0
SPLINE
  5
112
330
1F
100
AcDbEntity
  8
0
  6
Continuous
 62
     8
370
    15
100
AcDbSpline
210
0.0
220
0.0
230
1.0
 70
     8
 71
     3
 72
    15
 73
    11
 74
     0
 42
0.000000001
 43
0.00000001
 40
0.0
 40
0.0
 40
0.0
 40
0.0
 40
0.1484104364457722
 40
0.2929239989315104
 40
0.4335407980281734
 40
0.570261071358794
 40
0.7068549847547997
 40
0.8473660945549883
 40
0.9917946249725832
 40
1.0
 40
1.0
 40
1.0
 40
1.0
 10
82.98132047402304
 20
56.91163509403018
 30
0.0
 10
82.57238787418838
 20
56.90937568945719
 30
0.0
 10
81.76526018623231
 20
56.90491620642773
 30
0.0
 10
80.62006614092645
 20
56.90035095384138
 30
0.0
 10
79.59526861709799
 20
56.89769893709781
 30
0.0
 10
78.71450241280226
 20
56.89693384467757
 30
0.0
 10
77.97942478630408
 20
56.89768047746605
 30
0.0
 10
77.44049624228572
 20
56.90044459768163
 30
0.0
 10
77.14327606560042
 20
56.90322895971837
 30
0.0
 10
77.10246480809468
 20
56.90544648696802
 30
0.0
 10
77.10027085471191
 20
56.90556569798254
 30
0.0
  0
SPLINE
  5
113
330
1F
100
AcDbEntity
  8
0
  6
Continuous
 62
     8
370
    15
100
AcDbSpline
210
0.0
220
0.0
230
1.0
 70
     8
 71
     3
 72
    11
 73
     7
 74
     0
 42
0.000000001
 43
0.00000001
 40
0.0
 40
0.0
 40
0.0
 40
0.0
 40
0.1548665992463691
 40
0.4365777328309113
 40
0.7182888664154558
 40
1.0
 40
1.0
 40
1.0
 40
1.0
 10
180.5280739010398
 20
55.0135928813564
 30
0.0
 10
180.5280641290568
 20
55.03281463122975
 30
0.0
 10
180.5280365812821
 20
55.08700183506572
 30
0.0
 10
180.5279912577158
 20
55.49258303263576
 30
0.0
 10
180.5279379303408
 20
56.13452436256654
 30
0.0
 10
180.5279023787575
 20
56.65259869643366
 30
0.0
 10
180.5278846029658
 20
56.91163586336722
 30
0.0
  0
SPLINE
  5
114
330
1F
100
AcDbEntity
  8
0
  6
Continuous
 62
     7
370
    15
100
AcDbSpline
210
0.0
220
0.0
230
1.0
 70
     8
 71
     3
 72
    11
 73
     7
 74
     0
 42
0.000000001
 43
0.00000001
 40
0.0
 40
0.0
 40
0.0
 40
0.0
 40
0.2498959229964221
 40
0.4998378709843573
 40
0.7498737391341787
 40
1.0
 40
1.0
 40
1.0
 40
1.0
 10
231.0549897285986
 20
164.2915755431739
 30
0.0
 10
231.0548983552528
 20
164.7249393115839
 30
0.0
 10
231.0547155917323
 20
165.5917466638868
 30
0.0
 10
231.0544398531572
 20
166.7763282277613
 30
0.0
 10
231.0541630770009
 20
167.7711943004115
 30
0.0
 10
231.0539775403949
 20
168.1691783644833
 30
0.0
 10
231.0538847553262
 20
168.3682063597184
 30
0.0
  0
SPLINE
  5
115
330
1F
100
AcDbEntity
  8
0
  6
Continuous
 62
     7
370
    15
100
AcDbSpline
210
0.0
220
0.0
230
1.0
 70
     8
 71
     3
 72
     9
 73
     5
 74
     0
 42
0.000000001
 43
0.00000001
 40
0.0
 40
0.0
 40
0.0
 40
0.0
 40
0.4822928860470792
 40
1.0
 40
1.0
 40
1.0
 40
1.0
 10
231.054990148624
 20
168.685940239436
 30
0.0
 10
231.0258951216687
 20
168.7981313845085
 30
0.0
 10
230.9655686524276
 20
169.0307517451198
 30
0.0
 10
230.8393168376215
 20
169.0294050909322
 30
0.0
 10
230.7739553749469
 20
169.0287079184792
 30
0.0
  0
SPLINE
  5
116
330
1F
100
AcDbEntity
  8
0
  6
Continuous
 62
     7
370
    15
100
AcDbSpline
210
0.0
220
0.0
230
1.0
 70
     8
 71
     3
 72
    11
 73
     7
 74
     0
 42
0.000000001
 43
0.00000001
 40
0.0
 40
0.0
 40
0.0
 40
0.0
 40
0.2554155987616085
 40
0.5148621931733894
 40
0.7663739947906688
 40
1.0
 40
1.0
 40
1.0
 40
1.0
 10
230.9523833122672
 20
168.9612384715203
 30
0.0
 10
230.8623770762902
 20
169.1412742635135
 30
0.0
 10
230.6809441165214
 20
169.5041871911685
 30
0.0
 10
230.2162069370676
 20
169.9082692176682
 30
0.0
 10
229.6761626350489
 20
170.1689365914544
 30
0.0
 10
229.2904384086566
 20
170.203806984252
 30
0.0
 10
229.1046866307979
 20
170.2205993893269
 30
0.0
  0
LINE
  5
117
330
1F
100
AcDbEntity
  8
0
  6
Continuous
 62
     7
370
    15
100
AcDbLine
 10
230.9523833123
 20
168.2716797137
 30
0.0
 11
231.0366194478
 21
168.3400331988
 31
0.0
  0
LINE
  5
118
330
1F
100
AcDbEntity
  8
0
  6
Continuous
 62
     7
370
    15
100
AcDbLine
 10
231.0365928893
 20
97.7786448267
 30
0.0
 11
230.9523997461
 21
97.8469028162
 31
0.0
  0
SPLINE
  5
119
330
1F
100
AcDbEntity
  8
0
  6
Continuous
 62
     7
370
    15
100
AcDbSpline
210
0.0
220
0.0
230
1.0
 70
     8
 71
     3
 72
    11
 73
     7
 74
     0
 42
0.000000001
 43
0.00000001
 40
0.0
 40
0.0
 40
0.0
 40
0.0
 40
0.2336262232729387
 40
0.4851383959113075
 40
0.7445850691410132
 40
1.0
 40
1.0
 40
1.0
 40
1.0
 10
229.1046863070908
 20
95.89805487832781
 30
0.0
 10
229.2904418193322
 20
95.91484949400828
 30
0.0
 10
229.676173908727
 20
95.94972448705069
 30
0.0
 10
230.2162271509263
 20
96.21040740464635
 30
0.0
 10
230.6809675137727
 20
96.61450962989097
 30
0.0
 10
230.86239590757
 20
96.97743650630663
 30
0.0
 10
230.9523997460571
 20
97.15747895326798
 30
0.0
  0
SPLINE
  5
11A
330
1F
100
AcDbEntity
  8
0
  6
Continuous
 62
     7
370
    15
100
AcDbSpline
210
0.0
220
0.0
230
1.0
 70
     8
 71
     3
 72
     9
 73
     5
 74
     0
 42
0.000000001
 43
0.00000001
 40
0.0
 40
0.0
 40
0.0
 40
0.0
 40
0.5177258949804118
 40
1.0
 40
1.0
 40
1.0
 40
1.0
 10
230.7739951331243
 20
97.0899507661688
 30
0.0
 10
230.8393484224081
 20
97.08926407338268
 30
0.0
 10
230.9655798702019
 20
97.0879377097745
 30
0.0
 10
231.0259030790634
 20
97.32057282395093
 30
0.0
 10
231.054995400629
 20
97.43276671543649
 30
0.0
  0
SPLINE
  5
11B
330
1F
100
AcDbEntity
  8
0
  6
Continuous
 62
     7
370
    15
100
AcDbSpline
210
0.0
220
0.0
230
1.0
 70
     8
 71
     3
 72
    11
 73
     7
 74
     0
 42
0.000000001
 43
0.00000001
 40
0.0
 40
0.0
 40
0.0
 40
0.0
 40
0.2501241239982285
 40
0.5001583160799449
 40
0.7500996882885563
 40
1.0
 40
1.0
 40
1.0
 40
1.0
 10
231.0538862436587
 20
97.75041404831947
 30
0.0
 10
231.0539793274137
 20
97.94942810541434
 30
0.0
 10
231.0541654614556
 20
98.34738466426873
 30
0.0
 10
231.054443123202
 20
99.34221337774123
 30
0.0
 10
231.0547197434088
 20
100.526778253812
 30
0.0
 10
231.0549030830971
 20
101.3935943949434
 30
0.0
 10
231.0549947454109
 20
101.8269668623342
 30
0.0
  0
SPLINE
  5
11C
330
1F
100
AcDbEntity
  8
0
  6
Continuous
 62
     7
370
    15
100
AcDbSpline
210
0.0
220
0.0
230
1.0
 70
     8
 71
     3
 72
     9
 73
     5
 74
     0
 42
0.000000001
 43
0.00000001
 40
0.0
 40
0.0
 40
0.0
 40
0.0
 40
0.9708264627037765
 40
1.0
 40
1.0
 40
1.0
 40
1.0
 10
231.0549914443735
 20
168.6859419605288
 30
0.0
 10
231.0310737118213
 20
168.8165122092488
 30
0.0
 10
231.006437246427
 20
168.9510061211228
 30
0.0
 10
230.9490593159699
 20
168.9692743411669
 30
0.0
 10
230.9473853987757
 20
168.9698072897657
 30
0.0
  0
LINE
  5
11D
330
1F
100
AcDbEntity
  8
0
  6
Continuous
 62
     7
370
    15
100
AcDbLine
 10
231.0539229438
 20
168.2776249802
 30
0.0
 11
231.053884909
 21
168.3682793802
 31
0.0
  0
SPLINE
  5
11E
330
1F
100
AcDbEntity
  8
0
  6
Continuous
 62
     7
370
    15
100
AcDbSpline
210
0.0
220
0.0
230
1.0
 70
     8
 71
     3
 72
    11
 73
     7
 74
     0
 42
0.000000001
 43
0.00000001
 40
0.0
 40
0.0
 40
0.0
 40
0.0
 40
0.2554154595673149
 40
0.5148620630081984
 40
0.766373937019351
 40
0.9999999999999999
 40
0.9999999999999999
 40
0.9999999999999999
 40
0.9999999999999999
 10
230.952386791512
 20
168.9612409588997
 30
0.0
 10
230.8623810644926
 20
169.1412795328204
 30
0.0
 10
230.6809490776649
 20
169.5041981742641
 30
0.0
 10
230.2162112177254
 20
169.9082888779809
 30
0.0
 10
229.6761649973265
 20
170.1689637711095
 30
0.0
 10
229.2904391275962
 20
170.2038376939211
 30
0.0
 10
229.1046865622667
 20
170.2206317985787
 30
0.0
  0
LINE
  5
11F
330
1F
100
AcDbEntity
  8
0
  6
Continuous
 62
     7
370
    15
100
AcDbLine
 10
216.0865745396
 20
101.5584295105
 30
0.0
 11
216.0865745396
 21
95.5593433396
 31
0.0
  0
LINE
  5
120
330
1F
100
AcDbEntity
  8
0
  6
Continuous
 62
     7
370
    15
100
AcDbLine
 10
216.0865745396
 20
101.5584295105
 30
0.0
 11
229.1214789679
 21
101.7859546162
 31
0.0
  0
LINE
  5
121
330
1F
100
AcDbEntity
  8
0
  6
Continuous
 62
     7
370
    15
100
AcDbLine
 10
229.1275487486
 20
95.9049050027
 30
0.0
 11
229.1214785831
 21
95.7868684398
 31
0.0
  0
LINE
  5
122
330
1F
100
AcDbEntity
  8
0
  6
Continuous
 62
     7
370
    15
100
AcDbLine
 10
229.1214785832
 20
95.786868436
 30
0.0
 11
216.0865745396
 21
95.5593433396
 31
0.0
  0
LINE
  5
123
330
1F
100
AcDbEntity
  8
0
  6
Continuous
 62
     7
370
    15
100
AcDbLine
 10
216.0865745396
 20
170.5593433396
 30
0.0
 11
216.0865745396
 21
164.5602571686
 31
0.0
  0
LINE
  5
124
330
1F
100
AcDbEntity
  8
0
  6
Continuous
 62
     7
370
    15
100
AcDbLine
 10
216.0865745396
 20
170.5593433396
 30
0.0
 11
229.1214793525
 21
170.3318182297
 31
0.0
  0
LINE
  5
125
330
1F
100
AcDbEntity
  8
0
  6
Continuous
 62
     7
370
    15
100
AcDbLine
 10
229.1214793525
 20
170.3318182297
 30
0.0
 11
229.127546329
 21
170.2136947447
 31
0.0
  0
LINE
  5
126
330
1F
100
AcDbEntity
  8
0
  6
Continuous
 62
     7
370
    15
100
AcDbLine
 10
229.1214789678
 20
164.3325187426
 30
0.0
 11
216.0865745396
 21
164.5602571686
 31
0.0
  0
LINE
  5
127
330
1F
100
AcDbEntity
  8
0
  6
Continuous
 62
     7
370
    15
100
AcDbLine
 10
216.0865745396
 20
164.5602571686
 30
0.0
 11
216.0865745396
 21
101.5584295105
 31
0.0
  0
LINE
  5
128
330
1F
100
AcDbEntity
  8
0
  6
Continuous
 62
     7
370
    15
100
AcDbLine
 10
229.1214785832
 20
164.3325187426
 30
0.0
 11
229.1214785832
 21
101.7859546229
 31
0.0
  0
LINE
  5
129
330
1F
100
AcDbEntity
  8
0
  6
Continuous
 62
     7
370
    15
100
AcDbLine
 10
231.0865745396
 20
164.3327320588
 30
0.0
 11
231.0195204155
 21
164.332708047
 31
0.0
  0
LINE
  5
12A
330
1F
100
AcDbEntity
  8
0
  6
Continuous
 62
     7
370
    15
100
AcDbLine
 10
231.0157784101
 20
168.6921420605
 30
0.0
 11
231.0865745396
 21
168.3321228394
 31
0.0
  0
SPLINE
  5
12B
330
1F
100
AcDbEntity
  8
0
  6
Continuous
 62
     7
370
    15
100
AcDbSpline
210
0.0
220
0.0
230
1.0
 70
     8
 71
     3
 72
     8
 73
     4
 74
     0
 42
0.000000001
 43
0.00000001
 40
0.0
 40
0.0
 40
0.0
 40
0.0
 40
1.0
 40
1.0
 40
1.0
 40
1.0
 10
231.0865745394037
 20
168.2974121904572
 30
0.0
 10
231.0865745396352
 20
168.3204904126953
 30
0.0
 10
231.0865745396265
 20
168.3320795556133
 30
0.0
 10
231.0865745393776
 20
168.3321228394379
 30
0.0
  0
SPLINE
  5
12C
330
1F
100
AcDbEntity
  8
0
  6
Continuous
 62
     7
370
    15
100
AcDbSpline
210
0.0
220
0.0
230
1.0
 70
     8
 71
     3
 72
    20
 73
    16
 74
     0
 42
0.000000001
 43
0.00000001
 40
0.0
 40
0.0
 40
0.0
 40
0.0
 40
0.2500000000000027
 40
0.2500000000000027
 40
0.3750000000000022
 40
0.3750000000000022
 40
0.5000000000000018
 40
0.5000000000000018
 40
0.6250000000000013
 40
0.6250000000000013
 40
0.7500000000000009
 40
0.7500000000000009
 40
0.8750000000000004
 40
0.8750000000000004
 40
1.0
 40
1.0
 40
1.0
 40
1.0
 10
231.0865745391566
 20
164.8578938925402
 30
0.0
 10
231.0865750083619
 20
165.3015626348536
 30
0.0
 10
231.0861977369887
 20
165.728062352658
 30
0.0
 10
231.0857170873873
 20
166.3326905780381
 30
0.0
 10
231.0855735783465
 20
166.5232946585313
 30
0.0
 10
231.0853709565497
 20
166.8833691559419
 30
0.0
 10
231.085314415658
 20
167.0540458449111
 30
0.0
 10
231.0853146549932
 20
167.3673073295988
 30
0.0
 10
231.0853695608183
 20
167.5082635125705
 30
0.0
 10
231.0855713903673
 20
167.7596439419208
 30
0.0
 10
231.0857172216734
 20
167.8709059607077
 30
0.0
 10
231.086035837495
 20
168.0563100394679
 30
0.0
 10
231.086206395398
 20
168.1304074070339
 30
0.0
 10
231.0864752667816
 20
168.2420668335714
 30
0.0
 10
231.0865747111839
 20
168.2796673333957
 30
0.0
 10
231.0865745393487
 20
168.2974082467778
 30
0.0
  0
SPLINE
  5
12D
330
1F
100
AcDbEntity
  8
0
  6
Continuous
 62
     7
370
    15
100
AcDbSpline
210
0.0
220
0.0
230
1.0
 70
     8
 71
     3
 72
     8
 73
     4
 74
     0
 42
0.000000001
 43
0.00000001
 40
0.0
 40
0.0
 40
0.0
 40
0.0
 40
1.0
 40
1.0
 40
1.0
 40
1.0
 10
231.0865745373216
 20
101.2616455753872
 30
0.0
 10
231.086574539261
 20
101.4354356979006
 30
0.0
 10
231.0865745399464
 20
101.6107770443828
 30
0.0
 10
231.0865745393776
 20
101.7859546203672
 30
0.0
  0
SPLINE
  5
12E
330
1F
100
AcDbEntity
  8
0
  6
Continuous
 62
     7
370
    15
100
AcDbSpline
210
0.0
220
0.0
230
1.0
 70
     8
 71
     3
 72
    12
 73
     8
 74
     0
 42
0.000000001
 43
0.00000001
 40
0.0
 40
0.0
 40
0.0
 40
0.0
 40
0.1751460522290346
 40
0.4341436395924561
 40
0.6931414847125439
 40
0.952139087284762
 40
0.9999999999999999
 40
0.9999999999999999
 40
0.9999999999999999
 40
0.9999999999999999
 10
231.0863623307455
 20
97.92152977522211
 30
0.0
 10
231.086223333005
 20
97.97567668129028
 30
0.0
 10
231.0858787920679
 20
98.1098934368148
 30
0.0
 10
231.0850710847068
 20
98.78490655701613
 30
0.0
 10
231.0856549915914
 20
99.79487806062735
 30
0.0
 10
231.0865178319679
 20
100.6897502007207
 30
0.0
 10
231.0865668862888
 20
101.1844819569088
 30
0.0
 10
231.0865745373216
 20
101.2616455753868
 30
0.0
  0
SPLINE
  5
12F
330
1F
100
AcDbEntity
  8
0
  6
Continuous
 62
     7
370
    15
100
AcDbSpline
210
0.0
220
0.0
230
1.0
 70
     8
 71
     3
 72
     8
 73
     4
 74
     0
 42
0.000000001
 43
0.00000001
 40
0.0
 40
0.0
 40
0.0
 40
0.0
 40
1.0
 40
1.0
 40
1.0
 40
1.0
 10
231.0865745394875
 20
97.7865638397365
 30
0.0
 10
231.0865745395992
 20
97.78660305902112
 30
0.0
 10
231.0865745395988
 20
97.79820065623585
 30
0.0
 10
231.0865745394867
 20
97.82127272441718
 30
0.0
  0
LINE
  5
130
330
1F
100
AcDbEntity
  8
0
  6
Continuous
 62
     7
370
    15
100
AcDbLine
 10
231.0865745396
 20
97.7865638397
 30
0.0
 11
231.0157749006
 21
97.426526772
 31
0.0
  0
SPLINE
  5
131
330
1F
100
AcDbEntity
  8
0
  6
Continuous
 62
     7
370
    15
100
AcDbSpline
210
0.0
220
0.0
230
1.0
 70
    24
 71
     3
 72
    14
 73
    10
 74
     0
 42
0.000000001
 43
0.00000001
 40
0.0
 40
0.0
 40
0.0
 40
0.0
 40
0.25
 40
0.25
 40
0.5
 40
0.5
 40
0.75
 40
0.75
 40
1.0
 40
1.0
 40
1.0
 40
1.0
 10
229.1214785831618
 20
101.7859546228972
 30
0.0
 10
229.3803297244416
 20
101.7859546228972
 30
0.0
 10
229.6381953127152
 20
101.7859546228972
 30
0.0
 10
230.1139281315865
 20
101.7859546228972
 30
0.0
 10
230.3316163338887
 20
101.7859546228972
 30
0.0
 10
230.6945340025917
 20
101.7859546228972
 30
0.0
 10
230.8396268954179
 20
101.7859546228972
 30
0.0
 10
231.0356840541307
 20
101.7859546228972
 30
0.0
 10
231.0865745395725
 20
101.7859546228972
 30
0.0
 10
231.0865745395725
 20
101.7859546228972
 30
0.0
  0
LINE
  5
132
330
1F
100
AcDbEntity
  8
0
  6
Continuous
 62
     7
370
    15
100
AcDbLine
 10
231.0865745396
 20
164.3327320588
 30
0.0
 11
231.0865745396
 21
101.7859546204
 31
0.0
  0
LINE
  5
133
330
1F
100
AcDbEntity
  8
0
  6
Continuous
 62
     7
370
    15
100
AcDbLine
 10
231.0865745396
 20
101.0610592159
 30
0.0
 11
231.0865745396
 21
97.9431471681
 31
0.0
  0
LINE
  5
134
330
1F
100
AcDbEntity
  8
0
  6
Continuous
 62
     7
370
    15
100
AcDbLine
 10
231.0865745396
 20
168.2083297714
 30
0.0
 11
231.0865745396
 21
164.3327320588
 31
0.0
  0
SPLINE
  5
135
330
1F
100
AcDbEntity
  8
0
  6
Continuous
 62
     7
370
    15
100
AcDbSpline
210
0.0
220
0.0
230
1.0
 70
     8
 71
     3
 72
     8
 73
     4
 74
     0
 42
0.000000001
 43
0.00000001
 40
0.0
 40
0.0
 40
0.0
 40
0.0
 40
1.0
 40
1.0
 40
1.0
 40
1.0
 10
231.0865412928563
 20
97.84688916330725
 30
0.0
 10
231.0865626519058
 20
97.83598039213626
 30
0.0
 10
231.0865745933827
 20
97.82744493852941
 30
0.0
 10
231.086574539389
 20
97.82128280272902
 30
0.0
  0
SPLINE
  5
136
330
1F
100
AcDbEntity
  8
0
  6
Continuous
 62
     8
370
    15
100
AcDbSpline
210
0.0
220
0.0
230
1.0
 70
     8
 71
     3
 72
    15
 73
    11
 74
     0
 42
0.000000001
 43
0.00000001
 40
0.0
 40
0.0
 40
0.0
 40
0.0
 40
0.1484104367122535
 40
0.2929239994961372
 40
0.4335407989226286
 40
0.5702610726147838
 40
0.7068549862384481
 40
0.8473660962728252
 40
0.9917946269311373
 40
1.0
 40
1.0
 40
1.0
 40
1.0
 10
229.1214793524547
 20
101.7859546228972
 30
0.0
 10
229.1237387570315
 20
101.3770220229993
 30
0.0
 10
229.1281982400691
 20
100.569894334812
 30
0.0
 10
229.1327634926709
 20
99.42470028891486
 30
0.0
 10
229.1354155094277
 20
98.39990276423362
 30
0.0
 10
229.1361806018522
 20
97.51913655940633
 30
0.0
 10
229.1354339690635
 20
96.78405893254491
 30
0.0
 10
229.1326698488448
 20
96.2451303890204
 30
0.0
 10
229.1298854868355
 20
95.9479102130336
 30
0.0
 10
229.1276679596176
 20
95.90709895559463
 30
0.0
 10
229.1275487486319
 20
95.90490500271446
 30
0.0
  0
SPLINE
  5
137
330
1F
100
AcDbEntity
  8
0
  6
Continuous
 62
     8
370
    15
100
AcDbSpline
210
0.0
220
0.0
230
1.0
 70
     8
 71
     3
 72
    15
 73
    11
 74
     0
 42
0.000000001
 43
0.00000001
 40
0.0
 40
0.0
 40
0.0
 40
0.0
 40
0.008275795131553
 40
0.1527884787732198
 40
0.2934044227235691
 40
0.4301238646041889
 40
0.5667169473186385
 40
0.7072272026152521
 40
0.8516548547058891
 40
1.0
 40
1.0
 40
1.0
 40
1.0
 10
229.1275463289914
 20
170.2136947447285
 30
0.0
 10
229.1276665108093
 20
170.2114810195096
 30
0.0
 10
229.1298853184106
 20
170.1706110241493
 30
0.0
 10
229.1326723821583
 20
169.8730040030946
 30
0.0
 10
229.1354372962675
 20
169.3333362041831
 30
0.0
 10
229.1361806224297
 20
168.5976411042986
 30
0.0
 10
229.1354121446305
 20
167.7167620485426
 30
0.0
 10
229.132761111314
 20
166.6925682521054
 30
0.0
 10
229.1281977837671
 20
165.5479907227174
 30
0.0
 10
229.1237382073436
 20
164.7412742067274
 30
0.0
 10
229.1214785830942
 20
164.3325187491005
 30
0.0
  0
SPLINE
  5
138
330
1F
100
AcDbEntity
  8
0
  6
Continuous
 62
     8
370
    15
100
AcDbSpline
210
0.0
220
0.0
230
1.0
 70
     8
 71
     3
 72
    11
 73
     7
 74
     0
 42
0.000000001
 43
0.00000001
 40
0.0
 40
0.0
 40
0.0
 40
0.0
 40
0.1548647612688057
 40
0.4365765075125357
 40
0.718288253756268
 40
1.0
 40
1.0
 40
1.0
 40
1.0
 10
231.0195204155368
 20
164.3327080469695
 30
0.0
 10
231.0002988662772
 20
164.3326982751237
 30
0.0
 10
230.9461117369653
 20
164.3326707274863
 30
0.0
 10
230.5405312975028
 20
164.3326254040572
 30
0.0
 10
229.8985901130601
 20
164.3325720766822
 30
0.0
 10
229.3805157597946
 20
164.3325365250988
 30
0.0
 10
229.1214785831618
 20
164.3325187493072
 30
0.0
  0
ARC
  5
139
330
1F
100
AcDbEntity
  8
0
  6
Continuous
 62
     7
370
    15
100
AcDbCircle
 10
283.7674296435
 20
155.5593433396
 30
0.0
 40
8.25000000000109
100
AcDbArc
 50
277.9835561455
 51
0.0
  0
LINE
  5
13A
330
1F
100
AcDbEntity
  8
0
  6
Continuous
 62
     7
370
    15
100
AcDbLine
 10
292.2025751866
 20
155.5593433396
 30
0.0
 11
292.0174296435
 21
155.5593433396
 31
0.0
  0
ARC
  5
13B
330
1F
100
AcDbEntity
  8
0
  6
Continuous
 62
     7
370
    15
100
AcDbCircle
 10
283.7674296435
 20
155.5593433396
 30
0.0
 40
8.435145543036624
100
AcDbArc
 50
277.9835561455
 51
0.0
  0
LINE
  5
13C
330
1F
100
AcDbEntity
  8
0
  6
Continuous
 62
     7
370
    15
100
AcDbLine
 10
284.9132629769
 20
147.3893025825
 30
0.0
 11
284.9389776356
 21
147.2059514755
 31
0.0
  0
LINE
  5
13D
330
1F
100
AcDbEntity
  8
0
  6
Continuous
 62
     7
370
    15
100
AcDbLine
 10
284.4525751849
 20
119.4721150746
 30
0.0
 11
284.2674296435
 21
119.4721150746
 31
0.0
  0
ARC
  5
13E
330
1F
100
AcDbEntity
  8
0
  6
Continuous
 62
     7
370
    15
100
AcDbCircle
 10
285.0174296435
 20
119.4721150746
 30
0.0
 40
0.5648544569656792
100
AcDbArc
 50
180.0
 51
262.0164438541
  0
LINE
  5
13F
330
1F
100
AcDbEntity
  8
0
  6
Continuous
 62
     7
370
    15
100
AcDbLine
 10
284.9389776354
 20
118.912735202
 30
0.0
 11
284.9132629769
 21
118.7293840967
 31
0.0
  0
ARC
  5
140
330
1F
100
AcDbEntity
  8
0
  6
Continuous
 62
     7
370
    15
100
AcDbCircle
 10
285.0174296435
 20
119.4721150746
 30
0.0
 40
0.7500000000018897
100
AcDbArc
 50
180.0
 51
262.0164438543
  0
ARC
  5
141
330
1F
100
AcDbEntity
  8
0
  6
Continuous
 62
     7
370
    15
100
AcDbCircle
 10
285.0174296435
 20
146.6465716046
 30
0.0
 40
0.564854456962152
100
AcDbArc
 50
97.9835561458
 51
180.0
  0
LINE
  5
142
330
1F
100
AcDbEntity
  8
0
  6
Continuous
 62
     7
370
    15
100
AcDbLine
 10
284.2674296435
 20
146.6465716046
 30
0.0
 11
284.4525751849
 21
146.6465716046
 31
0.0
  0
ARC
  5
143
330
1F
100
AcDbEntity
  8
0
  6
Continuous
 62
     7
370
    15
100
AcDbCircle
 10
285.0174296435
 20
146.6465716046
 30
0.0
 40
0.7500000000009478
100
AcDbArc
 50
97.9835561457
 51
180.0
  0
ARC
  5
144
330
1F
100
AcDbEntity
  8
0
  6
Continuous
 62
     7
370
    15
100
AcDbCircle
 10
283.7674296435
 20
110.5593433396
 30
0.0
 40
8.250000000000135
100
AcDbArc
 50
0.0
 51
82.0164438545
  0
ARC
  5
145
330
1F
100
AcDbEntity
  8
0
  6
Continuous
 62
     7
370
    15
100
AcDbCircle
 10
283.7674296435
 20
110.5593433396
 30
0.0
 40
8.435145541393808
100
AcDbArc
 50
0.0
 51
82.0164438545
  0
LINE
  5
146
330
1F
100
AcDbEntity
  8
0
  6
Continuous
 62
     7
370
    15
100
AcDbLine
 10
292.0174296435
 20
110.5593433396
 30
0.0
 11
292.2025751849
 21
110.5593433396
 31
0.0
  0
LINE
  5
147
330
1F
100
AcDbEntity
  8
0
  6
Continuous
 62
     7
370
    15
100
AcDbLine
 10
292.0174296435
 20
163.3093433396
 30
0.0
 11
292.2025751849
 21
163.3093433396
 31
0.0
  0
LINE
  5
148
330
1F
100
AcDbEntity
  8
0
  6
Continuous
 62
     7
370
    15
100
AcDbLine
 10
292.2025751849
 20
163.3093433396
 30
0.0
 11
292.2025751849
 21
155.5593433396
 31
0.0
  0
LINE
  5
149
330
1F
100
AcDbEntity
  8
0
  6
Continuous
 62
     7
370
    15
100
AcDbLine
 10
292.0174296435
 20
163.3093433396
 30
0.0
 11
292.0174296435
 21
155.5593433396
 31
0.0
  0
LINE
  5
14A
330
1F
100
AcDbEntity
  8
0
  6
Continuous
 62
     7
370
    15
100
AcDbLine
 10
284.4525751849
 20
146.6465716046
 30
0.0
 11
284.4525751849
 21
119.4721150746
 31
0.0
  0
LINE
  5
14B
330
1F
100
AcDbEntity
  8
0
  6
Continuous
 62
     7
370
    15
100
AcDbLine
 10
284.2674296435
 20
146.6465716046
 30
0.0
 11
284.2674296435
 21
119.4721150746
 31
0.0
  0
LINE
  5
14C
330
1F
100
AcDbEntity
  8
0
  6
Continuous
 62
     7
370
    15
100
AcDbLine
 10
292.2025751849
 20
110.5593433396
 30
0.0
 11
292.2025751849
 21
102.8093433396
 31
0.0
  0
LINE
  5
14D
330
1F
100
AcDbEntity
  8
0
  6
Continuous
 62
     7
370
    15
100
AcDbLine
 10
292.2025751849
 20
102.8093433396
 30
0.0
 11
292.0174296435
 21
102.8093433396
 31
0.0
  0
LINE
  5
14E
330
1F
100
AcDbEntity
  8
0
  6
Continuous
 62
     7
370
    15
100
AcDbLine
 10
292.0174296435
 20
110.5593433396
 30
0.0
 11
292.0174296435
 21
102.8093433396
 31
0.0
  0
LINE
  5
14F
330
1F
100
AcDbEntity
  8
0
  6
Continuous
 62
     7
370
    15
100
AcDbLine
 10
292.7674296435
 20
163.8741977982
 30
0.0
 11
292.7674296435
 21
164.0593433396
 31
0.0
  0
ARC
  5
150
330
1F
100
AcDbEntity
  8
0
  6
Continuous
 62
     7
370
    15
100
AcDbCircle
 10
292.7674296435
 20
163.3093433396
 30
0.0
 40
0.5648544574148104
100
AcDbArc
 50
90.0
 51
180.0
  0
ARC
  5
151
330
1F
100
AcDbEntity
  8
0
  6
Continuous
 62
     7
370
    15
100
AcDbCircle
 10
292.7674296435
 20
163.3093433396
 30
0.0
 40
0.75
100
AcDbArc
 50
90.0
 51
180.0
  0
ARC
  5
152
330
1F
100
AcDbEntity
  8
0
  6
Continuous
 62
     7
370
    15
100
AcDbCircle
 10
292.7674296435
 20
102.8093433396
 30
0.0
 40
0.5648544574148104
100
AcDbArc
 50
180.0
 51
270.0
  0
LINE
  5
153
330
1F
100
AcDbEntity
  8
0
  6
Continuous
 62
     7
370
    15
100
AcDbLine
 10
292.7674296435
 20
102.0593433396
 30
0.0
 11
292.7674296435
 21
102.2444888822
 31
0.0
  0
ARC
  5
154
330
1F
100
AcDbEntity
  8
0
  6
Continuous
 62
     7
370
    15
100
AcDbCircle
 10
292.7674296435
 20
102.8093433396
 30
0.0
 40
0.75
100
AcDbArc
 50
180.0
 51
270.0
  0
LINE
  5
155
330
1F
100
AcDbEntity
  8
0
  6
Continuous
 62
     7
370
    15
100
AcDbLine
 10
372.7674296435
 20
164.0593433396
 30
0.0
 11
372.7674296435
 21
163.8741977982
 31
0.0
  0
LINE
  5
156
330
1F
100
AcDbEntity
  8
0
  6
Continuous
 62
     7
370
    15
100
AcDbLine
 10
372.7674296435
 20
163.8741977982
 30
0.0
 11
292.7674296435
 21
163.8741977982
 31
0.0
  0
LINE
  5
157
330
1F
100
AcDbEntity
  8
0
  6
Continuous
 62
     7
370
    15
100
AcDbLine
 10
372.7674296435
 20
164.0593433396
 30
0.0
 11
292.7674296435
 21
164.0593433396
 31
0.0
  0
LINE
  5
158
330
1F
100
AcDbEntity
  8
0
  6
Continuous
 62
     7
370
    15
100
AcDbLine
 10
292.7674296435
 20
102.2444888822
 30
0.0
 11
372.7674296435
 21
102.2444888822
 31
0.0
  0
LINE
  5
159
330
1F
100
AcDbEntity
  8
0
  6
Continuous
 62
     7
370
    15
100
AcDbLine
 10
372.7674296435
 20
102.2444888822
 30
0.0
 11
372.7674296435
 21
102.0593433396
 31
0.0
  0
LINE
  5
15A
330
1F
100
AcDbEntity
  8
0
  6
Continuous
 62
     7
370
    15
100
AcDbLine
 10
292.7674296435
 20
102.0593433396
 30
0.0
 11
372.7674296435
 21
102.0593433396
 31
0.0
  0
ARC
  5
15B
330
1F
100
AcDbEntity
  8
0
  6
Continuous
 62
     7
370
    15
100
AcDbCircle
 10
381.7674296435
 20
155.5593433396
 30
0.0
 40
8.250000000000389
100
AcDbArc
 50
180.0
 51
262.0164438545
  0
LINE
  5
15C
330
1F
100
AcDbEntity
  8
0
  6
Continuous
 62
     7
370
    15
100
AcDbLine
 10
380.5958816517
 20
147.2059514772
 30
0.0
 11
380.6215963102
 21
147.3893025825
 31
0.0
  0
ARC
  5
15D
330
1F
100
AcDbEntity
  8
0
  6
Continuous
 62
     7
370
    15
100
AcDbCircle
 10
381.7674296435
 20
155.5593433396
 30
0.0
 40
8.435145541393808
100
AcDbArc
 50
180.0
 51
262.0164438545
  0
LINE
  5
15E
330
1F
100
AcDbEntity
  8
0
  6
Continuous
 62
     7
370
    15
100
AcDbLine
 10
373.5174296435
 20
155.5593433396
 30
0.0
 11
373.3322841021
 21
155.5593433396
 31
0.0
  0
LINE
  5
15F
330
1F
100
AcDbEntity
  8
0
  6
Continuous
 62
     7
370
    15
100
AcDbLine
 10
373.3322841021
 20
155.5593433396
 30
0.0
 11
373.3322841021
 21
163.3093433396
 31
0.0
  0
LINE
  5
160
330
1F
100
AcDbEntity
  8
0
  6
Continuous
 62
     7
370
    15
100
AcDbLine
 10
373.3322841021
 20
163.3093433396
 30
0.0
 11
373.5174296435
 21
163.3093433396
 31
0.0
  0
LINE
  5
161
330
1F
100
AcDbEntity
  8
0
  6
Continuous
 62
     7
370
    15
100
AcDbLine
 10
373.5174296435
 20
155.5593433396
 30
0.0
 11
373.5174296435
 21
163.3093433396
 31
0.0
  0
ARC
  5
162
330
1F
100
AcDbEntity
  8
0
  6
Continuous
 62
     7
370
    15
100
AcDbCircle
 10
372.7674296435
 20
102.8093433396
 30
0.0
 40
0.5648544574148673
100
AcDbArc
 50
270.0
 51
0.0
  0
LINE
  5
163
330
1F
100
AcDbEntity
  8
0
  6
Continuous
 62
     7
370
    15
100
AcDbLine
 10
373.5174296435
 20
102.8093433396
 30
0.0
 11
373.3322841021
 21
102.8093433396
 31
0.0
  0
ARC
  5
164
330
1F
100
AcDbEntity
  8
0
  6
Continuous
 62
     7
370
    15
100
AcDbCircle
 10
372.7674296435
 20
102.8093433396
 30
0.0
 40
0.75
100
AcDbArc
 50
270.0
 51
0.0
  0
ARC
  5
165
330
1F
100
AcDbEntity
  8
0
  6
Continuous
 62
     7
370
    15
100
AcDbCircle
 10
372.7674296435
 20
163.3093433396
 30
0.0
 40
0.5648544574148673
100
AcDbArc
 50
0.0
 51
90.0
  0
ARC
  5
166
330
1F
100
AcDbEntity
  8
0
  6
Continuous
 62
     7
370
    15
100
AcDbCircle
 10
372.7674296435
 20
163.3093433396
 30
0.0
 40
0.75
100
AcDbArc
 50
0.0
 51
90.0
  0
ARC
  5
167
330
1F
100
AcDbEntity
  8
0
  6
Continuous
 62
     7
370
    15
100
AcDbCircle
 10
381.7674296435
 20
110.5593433396
 30
0.0
 40
8.250000000000478
100
AcDbArc
 50
97.9835561455
 51
180.0
  0
LINE
  5
168
330
1F
100
AcDbEntity
  8
0
  6
Continuous
 62
     7
370
    15
100
AcDbLine
 10
373.3322841005
 20
110.5593433396
 30
0.0
 11
373.5174296435
 21
110.5593433396
 31
0.0
  0
ARC
  5
169
330
1F
100
AcDbEntity
  8
0
  6
Continuous
 62
     7
370
    15
100
AcDbCircle
 10
381.7674296435
 20
110.5593433396
 30
0.0
 40
8.435145543036615
100
AcDbArc
 50
97.9835561455
 51
180.0
  0
LINE
  5
16A
330
1F
100
AcDbEntity
  8
0
  6
Continuous
 62
     7
370
    15
100
AcDbLine
 10
380.6215963102
 20
118.7293840967
 30
0.0
 11
380.5958816514
 21
118.9127352036
 31
0.0
  0
LINE
  5
16B
330
1F
100
AcDbEntity
  8
0
  6
Continuous
 62
     7
370
    15
100
AcDbLine
 10
373.3322841021
 20
102.8093433396
 30
0.0
 11
373.3322841021
 21
110.5593433396
 31
0.0
  0
LINE
  5
16C
330
1F
100
AcDbEntity
  8
0
  6
Continuous
 62
     7
370
    15
100
AcDbLine
 10
373.5174296435
 20
102.8093433396
 30
0.0
 11
373.5174296435
 21
110.5593433396
 31
0.0
  0
LINE
  5
16D
330
1F
100
AcDbEntity
  8
0
  6
Continuous
 62
     7
370
    15
100
AcDbLine
 10
381.0822841021
 20
146.6465716046
 30
0.0
 11
381.2674296435
 21
146.6465716046
 31
0.0
  0
ARC
  5
16E
330
1F
100
AcDbEntity
  8
0
  6
Continuous
 62
     7
370
    15
100
AcDbCircle
 10
380.5174296435
 20
146.6465716046
 30
0.0
 40
0.5648544569651788
100
AcDbArc
 50
0.0
 51
82.0164438541
  0
ARC
  5
16F
330
1F
100
AcDbEntity
  8
0
  6
Continuous
 62
     7
370
    15
100
AcDbCircle
 10
380.5174296435
 20
146.6465716046
 30
0.0
 40
0.7500000000016503
100
AcDbArc
 50
0.0
 51
82.0164438543
  0
ARC
  5
170
330
1F
100
AcDbEntity
  8
0
  6
Continuous
 62
     7
370
    15
100
AcDbCircle
 10
380.5174296435
 20
119.4721150746
 30
0.0
 40
0.5648544569633832
100
AcDbArc
 50
277.9835561458
 51
0.0
  0
LINE
  5
171
330
1F
100
AcDbEntity
  8
0
  6
Continuous
 62
     7
370
    15
100
AcDbLine
 10
381.2674296435
 20
119.4721150746
 30
0.0
 11
381.0822841021
 21
119.4721150746
 31
0.0
  0
ARC
  5
172
330
1F
100
AcDbEntity
  8
0
  6
Continuous
 62
     7
370
    15
100
AcDbCircle
 10
380.5174296435
 20
119.4721150746
 30
0.0
 40
0.7500000000015468
100
AcDbArc
 50
277.9835561457
 51
0.0
  0
LINE
  5
173
330
1F
100
AcDbEntity
  8
0
  6
Continuous
 62
     7
370
    15
100
AcDbLine
 10
381.0822841021
 20
119.4721150746
 30
0.0
 11
381.0822841021
 21
146.6465716046
 31
0.0
  0
LINE
  5
174
330
1F
100
AcDbEntity
  8
0
  6
Continuous
 62
     7
370
    15
100
AcDbLine
 10
381.2674296435
 20
119.4721150746
 30
0.0
 11
381.2674296435
 21
146.6465716046
 31
0.0
  0
ARC
  5
175
330
1F
100
AcDbEntity
  8
0
  6
Continuous
 62
     7
370
    15
100
AcDbCircle
 10
372.7674296435
 20
163.3093433396
 30
0.0
 40
2.25
100
AcDbArc
 50
0.0
 51
90.0
  0
LINE
  5
176
330
1F
100
AcDbEntity
  8
0
  6
Continuous
 62
     7
370
    15
100
AcDbLine
 10
375.0174296435
 20
155.5593433396
 30
0.0
 11
375.0174296435
 21
163.3093433396
 31
0.0
  0
ARC
  5
177
330
1F
100
AcDbEntity
  8
0
  6
Continuous
 62
     7
370
    15
100
AcDbCircle
 10
381.7674296435
 20
155.5593433396
 30
0.0
 40
6.750000000000989
100
AcDbArc
 50
180.0
 51
262.0164438544
  0
ARC
  5
178
330
1F
100
AcDbEntity
  8
0
  6
Continuous
 62
     7
370
    15
100
AcDbCircle
 10
380.5174296435
 20
146.6465716046
 30
0.0
 40
2.25000000000105
100
AcDbArc
 50
0.0
 51
82.0164438545
  0
LINE
  5
179
330
1F
100
AcDbEntity
  8
0
  6
Continuous
 62
     7
370
    15
100
AcDbLine
 10
382.7674296435
 20
119.4721150746
 30
0.0
 11
382.7674296435
 21
146.6465716046
 31
0.0
  0
ARC
  5
17A
330
1F
100
AcDbEntity
  8
0
  6
Continuous
 62
     7
370
    15
100
AcDbCircle
 10
380.5174296435
 20
119.4721150746
 30
0.0
 40
2.25000000000203
100
AcDbArc
 50
277.9835561456
 51
0.0
  0
ARC
  5
17B
330
1F
100
AcDbEntity
  8
0
  6
Continuous
 62
     7
370
    15
100
AcDbCircle
 10
381.7674296435
 20
110.5593433396
 30
0.0
 40
6.75
100
AcDbArc
 50
97.9835561456
 51
180.0
  0
LINE
  5
17C
330
1F
100
AcDbEntity
  8
0
  6
Continuous
 62
     7
370
    15
100
AcDbLine
 10
375.0174296435
 20
102.8093433396
 30
0.0
 11
375.0174296435
 21
110.5593433396
 31
0.0
  0
ARC
  5
17D
330
1F
100
AcDbEntity
  8
0
  6
Continuous
 62
     7
370
    15
100
AcDbCircle
 10
372.7674296435
 20
102.8093433396
 30
0.0
 40
2.25
100
AcDbArc
 50
270.0
 51
0.0
  0
LINE
  5
17E
330
1F
100
AcDbEntity
  8
0
  6
Continuous
 62
     7
370
    15
100
AcDbLine
 10
292.7674296435
 20
100.5593433396
 30
0.0
 11
372.7674296435
 21
100.5593433396
 31
0.0
  0
ARC
  5
17F
330
1F
100
AcDbEntity
  8
0
  6
Continuous
 62
     7
370
    15
100
AcDbCircle
 10
292.7674296435
 20
102.8093433396
 30
0.0
 40
2.25
100
AcDbArc
 50
180.0
 51
270.0
  0
LINE
  5
180
330
1F
100
AcDbEntity
  8
0
  6
Continuous
 62
     7
370
    15
100
AcDbLine
 10
290.5174296435
 20
110.5593433396
 30
0.0
 11
290.5174296435
 21
102.8093433396
 31
0.0
  0
ARC
  5
181
330
1F
100
AcDbEntity
  8
0
  6
Continuous
 62
     7
370
    15
100
AcDbCircle
 10
283.7674296435
 20
110.5593433396
 30
0.0
 40
6.750000000001003
100
AcDbArc
 50
0.0
 51
82.0164438544
  0
ARC
  5
182
330
1F
100
AcDbEntity
  8
0
  6
Continuous
 62
     7
370
    15
100
AcDbCircle
 10
285.0174296435
 20
119.4721150746
 30
0.0
 40
2.250000000001021
100
AcDbArc
 50
180.0
 51
262.0164438545
  0
LINE
  5
183
330
1F
100
AcDbEntity
  8
0
  6
Continuous
 62
     7
370
    15
100
AcDbLine
 10
282.7674296435
 20
146.6465716046
 30
0.0
 11
282.7674296435
 21
119.4721150746
 31
0.0
  0
ARC
  5
184
330
1F
100
AcDbEntity
  8
0
  6
Continuous
 62
     7
370
    15
100
AcDbCircle
 10
285.0174296435
 20
146.6465716046
 30
0.0
 40
2.250000000002059
100
AcDbArc
 50
97.9835561455
 51
180.0
  0
ARC
  5
185
330
1F
100
AcDbEntity
  8
0
  6
Continuous
 62
     7
370
    15
100
AcDbCircle
 10
283.7674296435
 20
155.5593433396
 30
0.0
 40
6.75
100
AcDbArc
 50
277.9835561456
 51
0.0
  0
LINE
  5
186
330
1F
100
AcDbEntity
  8
0
  6
Continuous
 62
     7
370
    15
100
AcDbLine
 10
290.5174296435
 20
163.3093433396
 30
0.0
 11
290.5174296435
 21
155.5593433396
 31
0.0
  0
ARC
  5
187
330
1F
100
AcDbEntity
  8
0
  6
Continuous
 62
     7
370
    15
100
AcDbCircle
 10
292.7674296435
 20
163.3093433396
 30
0.0
 40
2.25
100
AcDbArc
 50
90.0
 51
180.0
  0
LINE
  5
188
330
1F
100
AcDbEntity
  8
0
  6
Continuous
 62
     7
370
    15
100
AcDbLine
 10
372.7674296435
 20
165.5593433396
 30
0.0
 11
292.7674296435
 21
165.5593433396
 31
0.0
  0
LINE
  5
189
330
1F
100
AcDbEntity
  8
0
  6
Continuous
 62
     7
370
    15
100
AcDbLine
 10
378.5174296435
 20
155.5593433396
 30
0.0
 11
378.5174296435
 21
163.3093433396
 31
0.0
  0
ARC
  5
18A
330
1F
100
AcDbEntity
  8
0
  6
Continuous
 62
     7
370
    15
100
AcDbCircle
 10
372.7674296435
 20
163.3093433396
 30
0.0
 40
5.75
100
AcDbArc
 50
0.0
 51
90.0
  0
LINE
  5
18B
330
1F
100
AcDbEntity
  8
0
  6
Continuous
 62
     7
370
    15
100
AcDbLine
 10
372.7674296435
 20
169.0593433396
 30
0.0
 11
292.7674296435
 21
169.0593433396
 31
0.0
  0
ARC
  5
18C
330
1F
100
AcDbEntity
  8
0
  6
Continuous
 62
     7
370
    15
100
AcDbCircle
 10
292.7674296435
 20
163.3093433396
 30
0.0
 40
5.75
100
AcDbArc
 50
90.0
 51
180.0
  0
LINE
  5
18D
330
1F
100
AcDbEntity
  8
0
  6
Continuous
 62
     7
370
    15
100
AcDbLine
 10
287.0174296435
 20
163.3093433396
 30
0.0
 11
287.0174296435
 21
155.5593433396
 31
0.0
  0
ARC
  5
18E
330
1F
100
AcDbEntity
  8
0
  6
Continuous
 62
     7
370
    15
100
AcDbCircle
 10
283.7674296435
 20
155.5593433396
 30
0.0
 40
3.250000000001013
100
AcDbArc
 50
277.9835561456
 51
0.0
  0
ARC
  5
18F
330
1F
100
AcDbEntity
  8
0
  6
Continuous
 62
     7
370
    15
100
AcDbCircle
 10
285.0174296435
 20
146.6465716046
 30
0.0
 40
5.750000000001026
100
AcDbArc
 50
97.9835561455
 51
180.0
  0
LINE
  5
190
330
1F
100
AcDbEntity
  8
0
  6
Continuous
 62
     7
370
    15
100
AcDbLine
 10
279.2674296435
 20
146.6465716046
 30
0.0
 11
279.2674296435
 21
119.4721150746
 31
0.0
  0
ARC
  5
191
330
1F
100
AcDbEntity
  8
0
  6
Continuous
 62
     7
370
    15
100
AcDbCircle
 10
285.0174296435
 20
119.4721150746
 30
0.0
 40
5.750000000001012
100
AcDbArc
 50
180.0
 51
262.0164438545
  0
ARC
  5
192
330
1F
100
AcDbEntity
  8
0
  6
Continuous
 62
     7
370
    15
100
AcDbCircle
 10
283.7674296435
 20
110.5593433396
 30
0.0
 40
3.250000000001013
100
AcDbArc
 50
0.0
 51
82.0164438544
  0
LINE
  5
193
330
1F
100
AcDbEntity
  8
0
  6
Continuous
 62
     7
370
    15
100
AcDbLine
 10
287.0174296435
 20
110.5593433396
 30
0.0
 11
287.0174296435
 21
102.8093433396
 31
0.0
  0
ARC
  5
194
330
1F
100
AcDbEntity
  8
0
  6
Continuous
 62
     7
370
    15
100
AcDbCircle
 10
292.7674296435
 20
102.8093433396
 30
0.0
 40
5.75
100
AcDbArc
 50
180.0
 51
270.0
  0
LINE
  5
195
330
1F
100
AcDbEntity
  8
0
  6
Continuous
 62
     7
370
    15
100
AcDbLine
 10
292.7674296435
 20
97.0593433396
 30
0.0
 11
372.7674296435
 21
97.0593433396
 31
0.0
  0
ARC
  5
196
330
1F
100
AcDbEntity
  8
0
  6
Continuous
 62
     7
370
    15
100
AcDbCircle
 10
372.7674296435
 20
102.8093433396
 30
0.0
 40
5.75
100
AcDbArc
 50
270.0
 51
0.0
  0
LINE
  5
197
330
1F
100
AcDbEntity
  8
0
  6
Continuous
 62
     7
370
    15
100
AcDbLine
 10
378.5174296435
 20
102.8093433396
 30
0.0
 11
378.5174296435
 21
110.5593433396
 31
0.0
  0
ARC
  5
198
330
1F
100
AcDbEntity
  8
0
  6
Continuous
 62
     7
370
    15
100
AcDbCircle
 10
381.7674296435
 20
110.5593433396
 30
0.0
 40
3.250000000001013
100
AcDbArc
 50
97.9835561456
 51
180.0
  0
ARC
  5
199
330
1F
100
AcDbEntity
  8
0
  6
Continuous
 62
     7
370
    15
100
AcDbCircle
 10
380.5174296435
 20
119.4721150746
 30
0.0
 40
5.750000000001012
100
AcDbArc
 50
277.9835561455
 51
0.0
  0
LINE
  5
19A
330
1F
100
AcDbEntity
  8
0
  6
Continuous
 62
     7
370
    15
100
AcDbLine
 10
386.2674296435
 20
119.4721150746
 30
0.0
 11
386.2674296435
 21
146.6465716046
 31
0.0
  0
ARC
  5
19B
330
1F
100
AcDbEntity
  8
0
  6
Continuous
 62
     7
370
    15
100
AcDbCircle
 10
380.5174296435
 20
146.6465716046
 30
0.0
 40
5.750000000001026
100
AcDbArc
 50
0.0
 51
82.0164438545
  0
ARC
  5
19C
330
1F
100
AcDbEntity
  8
0
  6
Continuous
 62
     7
370
    15
100
AcDbCircle
 10
381.7674296435
 20
155.5593433396
 30
0.0
 40
3.250000000001013
100
AcDbArc
 50
180.0
 51
262.0164438544
  0
CIRCLE
  5
19D
330
1F
100
AcDbEntity
  8
0
  6
Continuous
 62
     7
370
    15
100
AcDbCircle
 10
381.7674296435
 20
101.5593433396
 30
0.0
 40
2.299999999999997
  0
CIRCLE
  5
19E
330
1F
100
AcDbEntity
  8
0
  6
Continuous
 62
     7
370
    15
100
AcDbCircle
 10
283.7674296435
 20
101.5593433396
 30
0.0
 40
2.299999999999997
  0
CIRCLE
  5
19F
330
1F
100
AcDbEntity
  8
0
  6
Continuous
 62
     7
370
    15
100
AcDbCircle
 10
283.7674296435
 20
164.5593433396
 30
0.0
 40
2.300000000000011
  0
CIRCLE
  5
1A0
330
1F
100
AcDbEntity
  8
0
  6
Continuous
 62
     7
370
    15
100
AcDbCircle
 10
381.7674296435
 20
164.5593433396
 30
0.0
 40
2.300000000000011
  0
LINE
  5
1A1
330
1F
100
AcDbEntity
  8
0
  6
Continuous
 62
     7
370
    15
100
AcDbLine
 10
387.7674296435
 20
164.5602571686
 30
0.0
 11
387.7674296435
 21
101.5584295105
 31
0.0
  0
ELLIPSE
  5
1A2
330
1F
100
AcDbEntity
  8
0
  6
Continuous
 62
     7
370
    15
100
AcDbEllipse
 10
381.7665156753
 20
101.5602573078
 30
0.0
 11
4.243933135017529
 21
-4.243933135017486
 31
0.0
210
0.0
220
0.0
230
1.0
 40
0.9996954599
 41
5.497939437029272
 42
7.068431177329908
  0
ELLIPSE
  5
1A3
330
1F
100
AcDbEntity
  8
0
  6
Continuous
 62
     7
370
    15
100
AcDbEllipse
 10
381.7665156753
 20
164.5584293713
 30
0.0
 11
4.243933135017528
 21
4.243933135017471
 31
0.0
210
0.0
220
0.0
230
1.0
 40
0.9996954599
 41
5.49793943702928
 42
7.068431177329901
  0
LINE
  5
1A4
330
1F
100
AcDbEntity
  8
0
  6
Continuous
 62
     7
370
    15
100
AcDbLine
 10
381.7683434726
 20
95.5593433396
 30
0.0
 11
283.7665158145
 21
95.5593433396
 31
0.0
  0
LINE
  5
1A5
330
1F
100
AcDbEntity
  8
0
  6
Continuous
 62
     7
370
    15
100
AcDbLine
 10
283.7665158145
 20
170.5593433396
 30
0.0
 11
381.7683434726
 21
170.5593433396
 31
0.0
  0
LINE
  5
1A6
330
1F
100
AcDbEntity
  8
0
  6
Continuous
 62
     7
370
    15
100
AcDbLine
 10
277.7674296435
 20
101.5584295105
 30
0.0
 11
277.7674296435
 21
164.5602571686
 31
0.0
  0
ELLIPSE
  5
1A7
330
1F
100
AcDbEntity
  8
0
  6
Continuous
 62
     7
370
    15
100
AcDbEllipse
 10
283.7683436118
 20
164.5584293713
 30
0.0
 11
-4.243933135017528
 21
4.243933135017471
 31
0.0
210
0.0
220
0.0
230
1.0
 40
0.9996954599
 41
5.497939437029272
 42
7.068431177329905
  0
ELLIPSE
  5
1A8
330
1F
100
AcDbEntity
  8
0
  6
Continuous
 62
     7
370
    15
100
AcDbEllipse
 10
283.7683436118
 20
101.5602573078
 30
0.0
 11
-4.243933135017529
 21
-4.243933135017486
 31
0.0
210
0.0
220
0.0
230
1.0
 40
0.9996954599
 41
5.497939437029279
 42
7.068431177329909
  0
LINE
  5
1A9
330
1F
100
AcDbEntity
  8
0
  6
Continuous
 62
     7
370
    15
100
AcDbLine
 10
284.9389776354
 20
118.912735202
 30
0.0
 11
284.9945247036
 21
119.3087978733
 31
0.0
  0
SPLINE
  5
1AA
330
1F
100
AcDbEntity
  8
0
  6
Continuous
 62
     7
370
    15
100
AcDbSpline
210
0.0
220
0.0
230
1.0
 70
     8
 71
     3
 72
    25
 73
    21
 74
     0
 42
0.000000001
 43
0.00000001
 40
0.0
 40
0.0
 40
0.0
 40
0.0
 40
0.023621307041017
 40
0.0472054713081009
 40
0.0707794373413351
 40
0.0943701846250449
 40
0.1180046351746164
 40
0.1798938493929306
 40
0.2418250600073794
 40
0.3058286571990623
 40
0.3698739921752264
 40
0.5000048959047265
 40
0.6301357996342264
 40
0.6941393911010334
 40
0.7581847222227724
 40
0.8200739400821766
 40
0.8820051539079659
 40
0.9213484776742943
 40
0.960638421063018
 40
1.0
 40
1.0
 40
1.0
 40
1.0
 10
284.9945246775471
 20
119.3087976879072
 30
0.0
 10
285.0929542996262
 20
119.2940186781702
 30
0.0
 10
285.2896587704182
 20
119.2644838976057
 30
0.0
 10
285.5824892735848
 20
119.2076171615816
 30
0.0
 10
285.873219643741
 20
119.1416121001596
 30
0.0
 10
286.1617285015752
 20
119.065561320076
 30
0.0
 10
286.6021494861128
 20
118.9335200400969
 30
0.0
 10
287.1861385811288
 20
118.7188768600683
 30
0.0
 10
287.902571761893
 20
118.3804530344445
 30
0.0
 10
288.5938458271702
 20
117.974564884696
 30
0.0
 10
289.4783294664472
 20
117.3391733884359
 30
0.0
 10
290.473383383921
 20
116.3904302640223
 30
0.0
 10
291.2746296916629
 20
115.2733940194552
 30
0.0
 10
291.7810387463691
 20
114.3092488983563
 30
0.0
 10
292.0869524892055
 20
113.5684764984852
 30
0.0
 10
292.322622285373
 20
112.8118130640446
 30
0.0
 10
292.4682463375798
 20
112.1389260110583
 30
0.0
 10
292.5509818275319
 20
111.5522819518282
 30
0.0
 10
292.5944835099863
 20
111.0566323791803
 30
0.0
 10
292.599835720375
 20
110.7252069731754
 30
0.0
 10
292.6025142629572
 20
110.5593433395872
 30
0.0
  0
LINE
  5
1AB
330
1F
100
AcDbEntity
  8
0
  6
Continuous
 62
     7
370
    15
100
AcDbLine
 10
292.2025751861
 20
110.5593433391
 30
0.0
 11
292.602514263
 21
110.5593433391
 31
0.0
  0
LINE
  5
1AC
330
1F
100
AcDbEntity
  8
0
  6
Continuous
 62
     7
370
    15
100
AcDbLine
 10
380.5958816517
 20
147.2059514772
 30
0.0
 11
380.5403345835
 21
146.8098888058
 31
0.0
  0
SPLINE
  5
1AD
330
1F
100
AcDbEntity
  8
0
  6
Continuous
 62
     7
370
    15
100
AcDbSpline
210
0.0
220
0.0
230
1.0
 70
     8
 71
     3
 72
    25
 73
    21
 74
     0
 42
0.000000001
 43
0.00000001
 40
0.0
 40
0.0
 40
0.0
 40
0.0
 40
0.0236213070414736
 40
0.0472054713087862
 40
0.0707794373420218
 40
0.0943701846255069
 40
0.1180046351746296
 40
0.1798938493934955
 40
0.2418250600073862
 40
0.3058286571982656
 40
0.3698739921752275
 40
0.500004895904722
 40
0.630135799634217
 40
0.694139391102041
 40
0.7581847222227756
 40
0.8200739400834454
 40
0.882005153907958
 40
0.921348477674183
 40
0.9606384210629091
 40
0.9999999999999999
 40
0.9999999999999999
 40
0.9999999999999999
 40
0.9999999999999999
 10
380.5403346094972
 20
146.8098889912672
 30
0.0
 10
380.4419049874163
 20
146.8246680010046
 30
0.0
 10
380.2452005166217
 20
146.8542027815696
 30
0.0
 10
379.9523700134525
 20
146.9110695175944
 30
0.0
 10
379.6616396432966
 20
146.9770745790167
 30
0.0
 10
379.3731307854654
 20
147.0531253591001
 30
0.0
 10
378.9327098009293
 20
147.1851666390811
 30
0.0
 10
378.3487207059163
 20
147.3998098191106
 30
0.0
 10
377.6322875251552
 20
147.7382336447318
 30
0.0
 10
376.9410134598816
 20
148.1441217944806
 30
0.0
 10
376.0565298206046
 20
148.7795132907391
 30
0.0
 10
375.0614759031296
 20
149.7282564151554
 30
0.0
 10
374.2602295953886
 20
150.8452926597265
 30
0.0
 10
373.7538205406792
 20
151.8094377808231
 30
0.0
 10
373.4479067978448
 20
152.5502101807003
 30
0.0
 10
373.2122370016822
 20
153.3068736151372
 30
0.0
 10
373.0666129494733
 20
153.979760668122
 30
0.0
 10
372.9838774595224
 20
154.566404727346
 30
0.0
 10
372.940375777068
 20
155.0620542999935
 30
0.0
 10
372.9350235666793
 20
155.3934797059987
 30
0.0
 10
372.9323450240972
 20
155.5593433395872
 30
0.0
  0
LINE
  5
1AE
330
1F
100
AcDbEntity
  8
0
  6
Continuous
 62
     7
370
    15
100
AcDbLine
 10
373.3322841009
 20
155.5593433401
 30
0.0
 11
372.9323450241
 21
155.5593433401
 31
0.0
  0
LINE
  5
1AF
330
1F
100
AcDbEntity
  8
0
  6
Continuous
 62
     7
370
    15
100
AcDbLine
 10
292.2025751866
 20
155.5593433396
 30
0.0
 11
292.6025140806
 21
155.5593433396
 31
0.0
  0
SPLINE
  5
1B0
330
1F
100
AcDbEntity
  8
0
  6
Continuous
 62
     7
370
    15
100
AcDbSpline
210
0.0
220
0.0
230
1.0
 70
     8
 71
     3
 72
    25
 73
    21
 74
     0
 42
0.000000001
 43
0.00000001
 40
0.0
 40
0.0
 40
0.0
 40
0.0
 40
0.0236213062997513
 40
0.0472054699203746
 40
0.0707794353996703
 40
0.0943701822193617
 40
0.1180046323919289
 40
0.1798938460226561
 40
0.2418250565719733
 40
0.3058286541616302
 40
0.3698739899114125
 40
0.5000048959042301
 40
0.6301358018970539
 40
0.6941393941399313
 40
0.7581847256571982
 40
0.8200739434510179
 40
0.8820051566896744
 40
0.9213484797790903
 40
0.960638422244592
 40
1.0
 40
1.0
 40
1.0
 40
1.0
 10
292.6025138982872
 20
155.5593433395872
 30
0.0
 10
292.6015489080029
 20
155.4598150597522
 30
0.0
 10
292.599620444807
 20
155.2609150006124
 30
0.0
 10
292.5839757662997
 20
154.9630244594055
 30
0.0
 10
292.5589896463273
 20
154.6659444836041
 30
0.0
 10
292.5237466278753
 20
154.3696692492668
 30
0.0
 10
292.4541546779146
 20
153.9151777611306
 30
0.0
 10
292.3227014239343
 20
153.3070371351155
 30
0.0
 10
292.0870622239721
 20
152.5505443082816
 30
0.0
 10
291.781118245732
 20
151.8095967007777
 30
0.0
 10
291.2747299396135
 20
150.8454366217839
 30
0.0
 10
290.4733840085104
 20
149.7282568241909
 30
0.0
 10
289.4784583399788
 20
148.7796321786768
 30
0.0
 10
288.5939923458
 20
148.1442221038436
 30
0.0
 10
287.9028875650722
 20
147.7383881477064
 30
0.0
 10
287.1862896627484
 20
147.399910240611
 30
0.0
 10
286.5401498231349
 20
147.162240968026
 30
0.0
 10
285.9706825836546
 20
146.9988289428966
 30
0.0
 10
285.4858787694357
 20
146.8869086036142
 30
0.0
 10
285.158408914357
 20
146.8355769212497
 30
0.0
 10
284.9945248581172
 20
146.8098877037872
 30
0.0
  0
LINE
  5
1B1
330
1F
100
AcDbEntity
  8
0
  6
Continuous
 62
     7
370
    15
100
AcDbLine
 10
284.9945247042
 20
146.809888801
 30
0.0
 11
284.9389776356
 21
147.2059514755
 31
0.0
  0
LINE
  5
1B2
330
1F
100
AcDbEntity
  8
0
  6
Continuous
 62
     7
370
    15
100
AcDbLine
 10
373.3322841005
 20
110.5593433396
 30
0.0
 11
372.9323452064
 21
110.5593433396
 31
0.0
  0
SPLINE
  5
1B3
330
1F
100
AcDbEntity
  8
0
  6
Continuous
 62
     7
370
    15
100
AcDbSpline
210
0.0
220
0.0
230
1.0
 70
     8
 71
     3
 72
    25
 73
    21
 74
     0
 42
0.000000001
 43
0.00000001
 40
0.0
 40
0.0
 40
0.0
 40
0.0
 40
0.0236213062997513
 40
0.0472054699203746
 40
0.0707794353996703
 40
0.0943701822193617
 40
0.1180046323919289
 40
0.1798938460226561
 40
0.2418250565719733
 40
0.3058286541616302
 40
0.3698739899114125
 40
0.5000048959042301
 40
0.6301358018970539
 40
0.6941393941399313
 40
0.7581847256571982
 40
0.8200739434510179
 40
0.8820051566896744
 40
0.9213484797790903
 40
0.960638422244592
 40
1.0
 40
1.0
 40
1.0
 40
1.0
 10
372.9323453887672
 20
110.5593433395872
 30
0.0
 10
372.9333103790515
 20
110.6588716194222
 30
0.0
 10
372.9352388422474
 20
110.8577716785619
 30
0.0
 10
372.9508835207547
 20
111.1556622197689
 30
0.0
 10
372.975869640727
 20
111.4527421955703
 30
0.0
 10
373.011112659179
 20
111.7490174299076
 30
0.0
 10
373.0807046091398
 20
112.2035089180437
 30
0.0
 10
373.2121578631201
 20
112.8116495440589
 30
0.0
 10
373.4477970630822
 20
113.5681423708928
 30
0.0
 10
373.7537410413224
 20
114.3090899783966
 30
0.0
 10
374.2601293474409
 20
115.2732500573905
 30
0.0
 10
375.061475278544
 20
116.3904298549835
 30
0.0
 10
376.0564009470755
 20
117.3390545004976
 30
0.0
 10
376.9408669412544
 20
117.9744645753307
 30
0.0
 10
377.6319717219822
 20
118.3802985314679
 30
0.0
 10
378.348569624306
 20
118.7187764385634
 30
0.0
 10
378.9947094639195
 20
118.9564457111484
 30
0.0
 10
379.5641767033997
 20
119.1198577362778
 30
0.0
 10
380.0489805176187
 20
119.2317780755601
 30
0.0
 10
380.3764503726974
 20
119.2831097579247
 30
0.0
 10
380.5403344289372
 20
119.3087989753872
 30
0.0
  0
LINE
  5
1B4
330
1F
100
AcDbEntity
  8
0
  6
Continuous
 62
     7
370
    15
100
AcDbLine
 10
380.5403345828
 20
119.3087978782
 30
0.0
 11
380.5958816514
 21
118.9127352036
 31
0.0
  0
LINE
  5
1B5
330
1F
100
AcDbEntity
  8
0
  6
Continuous
 62
     7
370
    15
100
AcDbLine
 10
284.8525147256
 20
119.4721150746
 30
0.0
 11
284.4525751866
 21
119.4721150746
 31
0.0
  0
SPLINE
  5
1B6
330
1F
100
AcDbEntity
  8
0
  6
Continuous
 62
     7
370
    15
100
AcDbSpline
210
0.0
220
0.0
230
1.0
 70
     8
 71
     3
 72
    12
 73
     8
 74
     0
 42
0.000000001
 43
0.00000001
 40
0.0
 40
0.0
 40
0.0
 40
0.0
 40
0.167834840741889
 40
0.3314180683131271
 40
0.5006356937820549
 40
0.7495385740437752
 40
1.0
 40
1.0
 40
1.0
 40
1.0
 10
284.8525151881772
 20
119.4721150745772
 30
0.0
 10
284.8533359793561
 20
119.4589077836724
 30
0.0
 10
284.8549567693292
 20
119.4328277706074
 30
0.0
 10
284.8693859146199
 20
119.3955951988404
 30
0.0
 10
284.8953913552835
 20
119.3579450991913
 30
0.0
 10
284.9365431079382
 20
119.32248779913
 30
0.0
 10
284.9751573152651
 20
119.3133705434805
 30
0.0
 10
284.9945246775471
 20
119.3087976879072
 30
0.0
  0
LINE
  5
1B7
330
1F
100
AcDbEntity
  8
0
  6
Continuous
 62
     7
370
    15
100
AcDbLine
 10
380.6823445615
 20
146.6465716046
 30
0.0
 11
381.0822841005
 21
146.6465716046
 31
0.0
  0
SPLINE
  5
1B8
330
1F
100
AcDbEntity
  8
0
  6
Continuous
 62
     7
370
    15
100
AcDbSpline
210
0.0
220
0.0
230
1.0
 70
     8
 71
     3
 72
    12
 73
     8
 74
     0
 42
0.000000001
 43
0.00000001
 40
0.0
 40
0.0
 40
0.0
 40
0.0
 40
0.1678348407361292
 40
0.3314180683037615
 40
0.5006356937718754
 40
0.7495385740352408
 40
1.0
 40
1.0
 40
1.0
 40
1.0
 10
380.6823440988772
 20
146.6465716045972
 30
0.0
 10
380.6815233076982
 20
146.6597788955019
 30
0.0
 10
380.6799025177249
 20
146.6858589085671
 30
0.0
 10
380.665473372433
 20
146.7230914803341
 30
0.0
 10
380.6394679317676
 20
146.7607415799836
 30
0.0
 10
380.5983161791097
 20
146.7961988800449
 30
0.0
 10
380.5597019717806
 20
146.805316135694
 30
0.0
 10
380.5403346094972
 20
146.8098889912672
 30
0.0
  0
LINE
  5
1B9
330
1F
100
AcDbEntity
  8
0
  6
Continuous
 62
     7
370
    15
100
AcDbLine
 10
292.2025751848
 20
163.3093433396
 30
0.0
 11
292.602514263
 21
163.3093433396
 31
0.0
  0
LINE
  5
1BA
330
1F
100
AcDbEntity
  8
0
  6
Continuous
 62
     7
370
    15
100
AcDbLine
 10
292.602514263
 20
163.3093433396
 30
0.0
 11
292.602514263
 21
155.5593433396
 31
0.0
  0
LINE
  5
1BB
330
1F
100
AcDbEntity
  8
0
  6
Continuous
 62
     7
370
    15
100
AcDbLine
 10
373.3322841022
 20
102.8093433396
 30
0.0
 11
372.9323450241
 21
102.8093433396
 31
0.0
  0
LINE
  5
1BC
330
1F
100
AcDbEntity
  8
0
  6
Continuous
 62
     7
370
    15
100
AcDbLine
 10
372.9323450241
 20
102.8093433396
 30
0.0
 11
372.9323450241
 21
110.5593433396
 31
0.0
  0
LINE
  5
1BD
330
1F
100
AcDbEntity
  8
0
  6
Continuous
 62
     7
370
    15
100
AcDbLine
 10
292.7674296435
 20
163.4742583845
 30
0.0
 11
292.7674296435
 21
163.874197797
 31
0.0
  0
SPLINE
  5
1BE
330
1F
100
AcDbEntity
  8
0
  6
Continuous
 62
     7
370
    15
100
AcDbSpline
210
0.0
220
0.0
230
1.0
 70
     8
 71
     3
 72
    12
 73
     8
 74
     0
 42
0.000000001
 43
0.00000001
 40
0.0
 40
0.0
 40
0.0
 40
0.0
 40
0.1682238375127866
 40
0.3311333687317862
 40
0.5007629617540631
 40
0.7495866247384625
 40
1.0
 40
1.0
 40
1.0
 40
1.0
 10
292.7674296435272
 20
163.4742580489572
 30
0.0
 10
292.752895973549
 20
163.4732919805905
 30
0.0
 10
292.7242877621859
 20
163.4713903626189
 30
0.0
 10
292.6838827493334
 20
163.4540491063549
 30
0.0
 10
292.6444091750419
 20
163.4230519107567
 30
0.0
 10
292.6090210799377
 20
163.374561618832
 30
0.0
 10
292.6046878014331
 20
163.3311288667345
 30
0.0
 10
292.6025142629871
 20
163.3093433395872
 30
0.0
  0
LINE
  5
1BF
330
1F
100
AcDbEntity
  8
0
  6
Continuous
 62
     7
370
    15
100
AcDbLine
 10
372.7674296435
 20
102.6444286302
 30
0.0
 11
372.7674296435
 21
102.2444888822
 31
0.0
  0
SPLINE
  5
1C0
330
1F
100
AcDbEntity
  8
0
  6
Continuous
 62
     7
370
    15
100
AcDbSpline
210
0.0
220
0.0
230
1.0
 70
     8
 71
     3
 72
    12
 73
     8
 74
     0
 42
0.000000001
 43
0.00000001
 40
0.0
 40
0.0
 40
0.0
 40
0.0
 40
0.1682238375127866
 40
0.3311333687317862
 40
0.5007629617540631
 40
0.7495866247384625
 40
1.0
 40
1.0
 40
1.0
 40
1.0
 10
372.7674296435272
 20
102.6444286302172
 30
0.0
 10
372.7819633135053
 20
102.6453946985838
 30
0.0
 10
372.8105715248685
 20
102.6472963165554
 30
0.0
 10
372.8509765377209
 20
102.6646375728195
 30
0.0
 10
372.8904501120125
 20
102.6956347684177
 30
0.0
 10
372.9258382071167
 20
102.7441250603424
 30
0.0
 10
372.9301714856213
 20
102.7875578124399
 30
0.0
 10
372.9323450240672
 20
102.8093433395872
 30
0.0
  0
LINE
  5
1C1
330
1F
100
AcDbEntity
  8
0
  6
Continuous
 62
     7
370
    15
100
AcDbLine
 10
292.602514263
 20
110.5593433391
 30
0.0
 11
292.6025145986
 21
102.8093433396
 31
0.0
  0
LINE
  5
1C2
330
1F
100
AcDbEntity
  8
0
  6
Continuous
 62
     7
370
    15
100
AcDbLine
 10
292.6025145986
 20
102.8093433396
 30
0.0
 11
292.2025751861
 21
102.8093433396
 31
0.0
  0
LINE
  5
1C3
330
1F
100
AcDbEntity
  8
0
  6
Continuous
 62
     7
370
    15
100
AcDbLine
 10
372.9323450241
 20
155.5593433401
 30
0.0
 11
372.9323446885
 21
163.3093433396
 31
0.0
  0
LINE
  5
1C4
330
1F
100
AcDbEntity
  8
0
  6
Continuous
 62
     7
370
    15
100
AcDbLine
 10
372.9323446885
 20
163.3093433396
 30
0.0
 11
373.3322841009
 21
163.3093433396
 31
0.0
  0
SPLINE
  5
1C5
330
1F
100
AcDbEntity
  8
0
  6
Continuous
 62
     7
370
    15
100
AcDbSpline
210
0.0
220
0.0
230
1.0
 70
     8
 71
     3
 72
    12
 73
     8
 74
     0
 42
0.000000001
 43
0.00000001
 40
0.0
 40
0.0
 40
0.0
 40
0.0
 40
0.167834915951921
 40
0.3314181316362089
 40
0.500635696095028
 40
0.7495384968708388
 40
1.0
 40
1.0
 40
1.0
 40
1.0
 10
284.9945248581172
 20
146.8098877037872
 30
0.0
 10
284.9815595750692
 20
146.8072405225896
 30
0.0
 10
284.9559574537256
 20
146.8020132202633
 30
0.0
 10
284.9210898205882
 20
146.7825527320244
 30
0.0
 10
284.8874165564839
 20
146.7515701531514
 30
0.0
 10
284.8580185339906
 20
146.7058925986006
 30
0.0
 10
284.8543528339942
 20
146.666386373822
 30
0.0
 10
284.8525142629872
 20
146.6465716045972
 30
0.0
  0
LINE
  5
1C6
330
1F
100
AcDbEntity
  8
0
  6
Continuous
 62
     7
370
    15
100
AcDbLine
 10
284.4525751866
 20
146.6465716046
 30
0.0
 11
284.852514263
 21
146.6465716046
 31
0.0
  0
LINE
  5
1C7
330
1F
100
AcDbEntity
  8
0
  6
Continuous
 62
     7
370
    15
100
AcDbLine
 10
284.852514263
 20
146.6465716046
 30
0.0
 11
284.8525147256
 21
119.4721150746
 31
0.0
  0
SPLINE
  5
1C8
330
1F
100
AcDbEntity
  8
0
  6
Continuous
 62
     7
370
    15
100
AcDbSpline
210
0.0
220
0.0
230
1.0
 70
     8
 71
     3
 72
    12
 73
     8
 74
     0
 42
0.000000001
 43
0.00000001
 40
0.0
 40
0.0
 40
0.0
 40
0.0
 40
0.167834915951921
 40
0.3314181316362089
 40
0.500635696095028
 40
0.7495384968708388
 40
1.0
 40
1.0
 40
1.0
 40
1.0
 10
380.5403344289372
 20
119.3087989753872
 30
0.0
 10
380.5532997119852
 20
119.3114461565847
 30
0.0
 10
380.5789018333288
 20
119.316673458911
 30
0.0
 10
380.6137694664661
 20
119.33613394715
 30
0.0
 10
380.6474427305705
 20
119.367116526023
 30
0.0
 10
380.6768407530638
 20
119.4127940805738
 30
0.0
 10
380.6805064530602
 20
119.4523003053524
 30
0.0
 10
380.6823450240672
 20
119.4721150745772
 30
0.0
  0
LINE
  5
1C9
330
1F
100
AcDbEntity
  8
0
  6
Continuous
 62
     7
370
    15
100
AcDbLine
 10
381.0822841005
 20
119.4721150746
 30
0.0
 11
380.6823450241
 21
119.4721150746
 31
0.0
  0
LINE
  5
1CA
330
1F
100
AcDbEntity
  8
0
  6
Continuous
 62
     7
370
    15
100
AcDbLine
 10
380.6823450241
 20
119.4721150746
 30
0.0
 11
380.6823445615
 21
146.6465716046
 31
0.0
  0
LINE
  5
1CB
330
1F
100
AcDbEntity
  8
0
  6
Continuous
 62
     7
370
    15
100
AcDbLine
 10
372.7674296435
 20
163.874197797
 30
0.0
 11
372.7674296435
 21
163.4742587201
 31
0.0
  0
LINE
  5
1CC
330
1F
100
AcDbEntity
  8
0
  6
Continuous
 62
     7
370
    15
100
AcDbLine
 10
372.7674296435
 20
163.4742587201
 30
0.0
 11
292.7674296435
 21
163.4742583845
 31
0.0
  0
SPLINE
  5
1CD
330
1F
100
AcDbEntity
  8
0
  6
Continuous
 62
     7
370
    15
100
AcDbSpline
210
0.0
220
0.0
230
1.0
 70
     8
 71
     3
 72
    12
 73
     8
 74
     0
 42
0.000000001
 43
0.00000001
 40
0.0
 40
0.0
 40
0.0
 40
0.0
 40
0.1682238375130288
 40
0.3311333687320487
 40
0.5007629617541303
 40
0.7495866247387782
 40
1.0
 40
1.0
 40
1.0
 40
1.0
 10
372.9323443528972
 20
163.3093433395872
 30
0.0
 10
372.9313782845305
 20
163.3238770095653
 30
0.0
 10
372.929476666559
 20
163.3524852209285
 30
0.0
 10
372.9121354102949
 20
163.392890233781
 30
0.0
 10
372.8811382146966
 20
163.4323638080725
 30
0.0
 10
372.8326479227719
 20
163.4677519031767
 30
0.0
 10
372.7892151706744
 20
163.4720851816812
 30
0.0
 10
372.7674296435272
 20
163.4742587201272
 30
0.0
  0
SPLINE
  5
1CE
330
1F
100
AcDbEntity
  8
0
  6
Continuous
 62
     7
370
    15
100
AcDbSpline
210
0.0
220
0.0
230
1.0
 70
     8
 71
     3
 72
    12
 73
     8
 74
     0
 42
0.000000001
 43
0.00000001
 40
0.0
 40
0.0
 40
0.0
 40
0.0
 40
0.1682239741373561
 40
0.3311334845305838
 40
0.500762965691794
 40
0.7495864833820163
 40
1.0
 40
1.0
 40
1.0
 40
1.0
 10
292.6025149341572
 20
102.8093433395872
 30
0.0
 10
292.6034810012354
 20
102.7948096765545
 30
0.0
 10
292.6053826157913
 20
102.7662014920926
 30
0.0
 10
292.6227238702321
 20
102.7257965369861
 30
0.0
 10
292.6537210715692
 20
102.6863230763309
 30
0.0
 10
292.7022114053628
 20
102.6509351669667
 30
0.0
 10
292.7456441217981
 20
102.6466020758932
 30
0.0
 10
292.7674296435272
 20
102.6444286302172
 30
0.0
  0
LINE
  5
1CF
330
1F
100
AcDbEntity
  8
0
  6
Continuous
 62
     7
370
    15
100
AcDbLine
 10
292.7674296435
 20
102.2444888822
 30
0.0
 11
292.7674296435
 21
102.6444286302
 31
0.0
  0
LINE
  5
1D0
330
1F
100
AcDbEntity
  8
0
  6
Continuous
 62
     7
370
    15
100
AcDbLine
 10
292.7674296435
 20
102.6444286302
 30
0.0
 11
372.7674296435
 21
102.6444286302
 31
0.0
  0
ENDSEC
  0
SECTION
  2
OBJECTS
  0
DICTIONARY
  5
C
330
0
100
AcDbDictionary
281
     1
  3
ACAD_GROUP
350
D
  3
ACAD_LAYOUT
350
1A
  3
ACAD_MLINESTYLE
350
17
  3
ACAD_PLOTSETTINGS
350
19
  3
ACAD_PLOTSTYLENAME
350
E
  3
ACAD_SCALELIST
350
47
  0
DICTIONARY
  5
D
102
{ACAD_REACTORS
330
C
102
}
330
C
100
AcDbDictionary
281
     1
  0
DICTIONARY
  5
1A
102
{ACAD_REACTORS
330
C
102
}
330
C
100
AcDbDictionary
281
     1
  3
Layout1
350
1E
  3
Layout2
350
26
  3
Model
350
22
  0
DICTIONARY
  5
17
102
{ACAD_REACTORS
330
C
102
}
330
C
100
AcDbDictionary
281
     1
  3
Standard
350
18
  0
DICTIONARY
  5
19
102
{ACAD_REACTORS
330
C
102
}
330
C
100
AcDbDictionary
281
     1
  0
ACDBDICTIONARYWDFLT
  5
E
102
{ACAD_REACTORS
330
C
102
}
330
C
100
AcDbDictionary
281
     1
  3
Normal
350
F
100
AcDbDictionaryWithDefault
340
F
  0
DICTIONARY
  5
47
102
{ACAD_REACTORS
330
C
102
}
330
C
100
AcDbDictionary
281
     1
  3
A0
350
48
  3
A1
350
49
  3
A2
350
4A
  3
A3
350
4B
  3
A4
350
4C
  3
A5
350
4D
  3
A6
350
4E
  3
A7
350
4F
  3
A8
350
50
  3
A9
350
51
  3
B0
350
52
  3
B1
350
53
  3
B2
350
54
  3
B3
350
55
  3
B4
350
56
  3
B5
350
57
  3
B6
350
58
  3
B7
350
59
  3
B8
350
5A
  3
B9
350
5B
  3
C0
350
5C
  3
C1
350
5D
  3
C2
350
5E
  3
C3
350
5F
  3
C4
350
60
  3
C5
350
61
  3
C6
350
62
  3
C7
350
63
  3
C8
350
64
  3
C9
350
65
  3
D0
350
66
  3
D1
350
67
  3
D2
350
68
  0
LAYOUT
  5
1E
102
{ACAD_REACTORS
330
1A
102
}
330
1A
100
AcDbPlotSettings
  1

  2
none_device
  4

  6

 40
0.0
 41
0.0
 42
0.0
 43
0.0
 44
0.0
 45
0.0
 46
0.0
 47
0.0
 48
0.0
 49
0.0
140
0.0
141
0.0
142
1.0
143
1.0
 70
   688
 72
     1
 73
     0
 74
     5
  7

 75
    16
147
1.0
148
0.0
149
0.0
100
AcDbLayout
  1
Layout1
 70
     1
 71
     1
 10
0.0
 20
0.0
 11
420.0
 21
297.0
 12
0.0
 22
0.0
 32
0.0
 14
1.0000000000E+20
 24
1.0000000000E+20
 34
1.0000000000E+20
 15
-1.0000000000E+20
 25
-1.0000000000E+20
 35
-1.0000000000E+20
146
0.0
 13
0.0
 23
0.0
 33
0.0
 16
1.0
 26
0.0
 36
0.0
 17
0.0
 27
1.0
 37
0.0
 76
     0
330
1B
  0
LAYOUT
  5
26
102
{ACAD_REACTORS
330
1A
102
}
330
1A
100
AcDbPlotSettings
  1

  2
none_device
  4

  6

 40
0.0
 41
0.0
 42
0.0
 43
0.0
 44
0.0
 45
0.0
 46
0.0
 47
0.0
 48
0.0
 49
0.0
140
0.0
141
0.0
142
1.0
143
1.0
 70
   688
 72
     1
 73
     0
 74
     5
  7

 75
    16
147
1.0
148
0.0
149
0.0
100
AcDbLayout
  1
Layout2
 70
     1
 71
     2
 10
0.0
 20
0.0
 11
0.0
 21
0.0
 12
0.0
 22
0.0
 32
0.0
 14
0.0
 24
0.0
 34
0.0
 15
0.0
 25
0.0
 35
0.0
146
0.0
 13
0.0
 23
0.0
 33
0.0
 16
1.0
 26
0.0
 36
0.0
 17
0.0
 27
1.0
 37
0.0
 76
     0
330
23
  0
LAYOUT
  5
22
102
{ACAD_REACTORS
330
1A
102
}
330
1A
100
AcDbPlotSettings
  1

  2
none_device
  4
Letter_(8.50_x_11.00_Inches)
  6

 40
6.35
 41
6.35
 42
6.35000508
 43
6.35000508
 44
215.9
 45
279.4
 46
0.0
 47
0.0
 48
0.0
 49
0.0
140
0.0
141
0.0
142
1.0
143
1.0
 70
  1712
 72
     1
 73
     0
 74
     0
  7

 75
     0
147
1.0
148
0.0
149
0.0
100
AcDbLayout
  1
Model
 70
     1
 71
     0
 10
0.0
 20
0.0
 11
420.0
 21
297.0
 12
0.0
 22
0.0
 32
0.0
 14
0.0
 24
0.0
 34
0.0
 15
420.0
 25
297.0
 35
0.0
146
0.0
 13
0.0
 23
0.0
 33
0.0
 16
1.0
 26
0.0
 36
0.0
 17
0.0
 27
1.0
 37
0.0
 76
     0
330
1F
331
29
  0
MLINESTYLE
  5
18
102
{ACAD_REACTORS
330
17
102
}
330
17
100
AcDbMlineStyle
  2
Standard
 70
     0
  3

 62
   256
 51
90.0
 52
90.0
 71
     2
 49
0.5
 62
   256
  6
BYLAYER
 49
-0.5
 62
   256
  6
BYLAYER
  0
ACDBPLACEHOLDER
  5
F
102
{ACAD_REACTORS
330
E
102
}
330
E
  0
SCALE
  5
48
102
{ACAD_REACTORS
330
47
102
}
330
47
100
AcDbScale
 70
     0
300
1:1
140
1.0
141
1.0
290
     1
  0
SCALE
  5
49
102
{ACAD_REACTORS
330
47
102
}
330
47
100
AcDbScale
 70
     0
300
1:2
140
1.0
141
2.0
290
     0
  0
SCALE
  5
4A
102
{ACAD_REACTORS
330
47
102
}
330
47
100
AcDbScale
 70
     0
300
1:4
140
1.0
141
4.0
290
     0
  0
SCALE
  5
4B
102
{ACAD_REACTORS
330
47
102
}
330
47
100
AcDbScale
 70
     0
300
1:5
140
1.0
141
5.0
290
     0
  0
SCALE
  5
4C
102
{ACAD_REACTORS
330
47
102
}
330
47
100
AcDbScale
 70
     0
300
1:8
140
1.0
141
8.0
290
     0
  0
SCALE
  5
4D
102
{ACAD_REACTORS
330
47
102
}
330
47
100
AcDbScale
 70
     0
300
1:10
140
1.0
141
10.0
290
     0
  0
SCALE
  5
4E
102
{ACAD_REACTORS
330
47
102
}
330
47
100
AcDbScale
 70
     0
300
1:16
140
1.0
141
16.0
290
     0
  0
SCALE
  5
4F
102
{ACAD_REACTORS
330
47
102
}
330
47
100
AcDbScale
 70
     0
300
1:20
140
1.0
141
20.0
290
     0
  0
SCALE
  5
50
102
{ACAD_REACTORS
330
47
102
}
330
47
100
AcDbScale
 70
     0
300
1:30
140
1.0
141
30.0
290
     0
  0
SCALE
  5
51
102
{ACAD_REACTORS
330
47
102
}
330
47
100
AcDbScale
 70
     0
300
1:40
140
1.0
141
40.0
290
     0
  0
SCALE
  5
52
102
{ACAD_REACTORS
330
47
102
}
330
47
100
AcDbScale
 70
     0
300
1:50
140
1.0
141
50.0
290
     0
  0
SCALE
  5
53
102
{ACAD_REACTORS
330
47
102
}
330
47
100
AcDbScale
 70
     0
300
1:100
140
1.0
141
100.0
290
     0
  0
SCALE
  5
54
102
{ACAD_REACTORS
330
47
102
}
330
47
100
AcDbScale
 70
     0
300
2:1
140
2.0
141
1.0
290
     0
  0
SCALE
  5
55
102
{ACAD_REACTORS
330
47
102
}
330
47
100
AcDbScale
 70
     0
300
4:1
140
4.0
141
1.0
290
     0
  0
SCALE
  5
56
102
{ACAD_REACTORS
330
47
102
}
330
47
100
AcDbScale
 70
     0
300
8:1
140
8.0
141
1.0
290
     0
  0
SCALE
  5
57
102
{ACAD_REACTORS
330
47
102
}
330
47
100
AcDbScale
 70
     0
300
10:1
140
10.0
141
1.0
290
     0
  0
SCALE
  5
58
102
{ACAD_REACTORS
330
47
102
}
330
47
100
AcDbScale
 70
     0
300
100:1
140
100.0
141
1.0
290
     0
  0
SCALE
  5
59
102
{ACAD_REACTORS
330
47
102
}
330
47
100
AcDbScale
 70
     0
300
1/128" = 1'-0"
140
0.0078125
141
12.0
290
     0
  0
SCALE
  5
5A
102
{ACAD_REACTORS
330
47
102
}
330
47
100
AcDbScale
 70
     0
300
1/64" = 1'-0"
140
0.015625
141
12.0
290
     0
  0
SCALE
  5
5B
102
{ACAD_REACTORS
330
47
102
}
330
47
100
AcDbScale
 70
     0
300
1/32" = 1'-0"
140
0.03125
141
12.0
290
     0
  0
SCALE
  5
5C
102
{ACAD_REACTORS
330
47
102
}
330
47
100
AcDbScale
 70
     0
300
1/16" = 1'-0"
140
0.0625
141
12.0
290
     0
  0
SCALE
  5
5D
102
{ACAD_REACTORS
330
47
102
}
330
47
100
AcDbScale
 70
     0
300
3/32" = 1'-0"
140
0.09375
141
12.0
290
     0
  0
SCALE
  5
5E
102
{ACAD_REACTORS
330
47
102
}
330
47
100
AcDbScale
 70
     0
300
1/8" = 1'-0"
140
0.125
141
12.0
290
     0
  0
SCALE
  5
5F
102
{ACAD_REACTORS
330
47
102
}
330
47
100
AcDbScale
 70
     0
300
3/16" = 1'-0"
140
0.1875
141
12.0
290
     0
  0
SCALE
  5
60
102
{ACAD_REACTORS
330
47
102
}
330
47
100
AcDbScale
 70
     0
300
1/4" = 1'-0"
140
0.25
141
12.0
290
     0
  0
SCALE
  5
61
102
{ACAD_REACTORS
330
47
102
}
330
47
100
AcDbScale
 70
     0
300
3/8" = 1'-0"
140
0.375
141
12.0
290
     0
  0
SCALE
  5
62
102
{ACAD_REACTORS
330
47
102
}
330
47
100
AcDbScale
 70
     0
300
1/2" = 1'-0"
140
0.5
141
12.0
290
     0
  0
SCALE
  5
63
102
{ACAD_REACTORS
330
47
102
}
330
47
100
AcDbScale
 70
     0
300
3/4" = 1'-0"
140
0.75
141
12.0
290
     0
  0
SCALE
  5
64
102
{ACAD_REACTORS
330
47
102
}
330
47
100
AcDbScale
 70
     0
300
1" = 1'-0"
140
1.0
141
12.0
290
     0
  0
SCALE
  5
65
102
{ACAD_REACTORS
330
47
102
}
330
47
100
AcDbScale
 70
     0
300
1-1/2" = 1'-0"
140
1.5
141
12.0
290
     0
  0
SCALE
  5
66
102
{ACAD_REACTORS
330
47
102
}
330
47
100
AcDbScale
 70
     0
300
3" = 1'-0"
140
3.0
141
12.0
290
     0
  0
SCALE
  5
67
102
{ACAD_REACTORS
330
47
102
}
330
47
100
AcDbScale
 70
     0
300
6" = 1'-0"
140
6.0
141
12.0
290
     0
  0
SCALE
  5
68
102
{ACAD_REACTORS
330
47
102
}
330
47
100
AcDbScale
 70
     0
300
1'-0" = 1'-0"
140
12.0
141
12.0
290
     0
  0
ENDSEC
  0
EOF
