  0
SECTION
  2
HEADER
  9
$ACADVER
  1
AC1015
  9
$ACADMAINTVER
 70
     6
  9
$DWGCODEPAGE
  3
ANSI_1252
  9
$INSBASE
 10
0.0
 20
0.0
 30
0.0
  9
$EXTMIN
 10
0.0
 20
0.0
 30
0.0
  9
$EXTMAX
 10
420.0
 20
297.0
 30
0.0
  9
$LIMMIN
 10
0.0
 20
0.0
  9
$LIMMAX
 10
420.0
 20
297.0
  9
$ORTHOMODE
 70
     0
  9
$REGENMODE
 70
     1
  9
$FILLMODE
 70
     1
  9
$QTEXTMODE
 70
     0
  9
$MIRRTEXT
 70
     1
  9
$LTSCALE
 40
1.0
  9
$ATTMODE
 70
     1
  9
$TEXTSIZE
 40
3.5
  9
$TRACEWID
 40
1.0
  9
$TEXTSTYLE
  7
Standard
  9
$CLAYER
  8
0
  9
$CELTYPE
  6
ByLayer
  9
$CECOLOR
 62
   256
  9
$CELTSCALE
 40
1.0
  9
$DISPSILH
 70
     0
  9
$DIMSCALE
 40
1.0
  9
$DIMASZ
 40
6.0
  9
$DIMEXO
 40
1.0
  9
$DIMDLI
 40
3.75
  9
$DIMRND
 40
0.0
  9
$DIMDLE
 40
0.0
  9
$DIMEXE
 40
1.0
  9
$DIMTP
 40
0.0
  9
$DIMTM
 40
0.0
  9
$DIMTXT
 40
3.5
  9
$DIMCEN
 40
2.5
  9
$DIMTSZ
 40
0.0
  9
$DIMTOL
 70
     0
  9
$DIMLIM
 70
     0
  9
$DIMTIH
 70
     1
  9
$DIMTOH
 70
     1
  9
$DIMSE1
 70
     0
  9
$DIMSE2
 70
     0
  9
$DIMTAD
 70
     1
  9
$DIMZIN
 70
     0
  9
$DIMBLK
  1

  9
$DIMASO
 70
     1
  9
$DIMSHO
 70
     1
  9
$DIMPOST
  1

  9
$DIMAPOST
  1

  9
$DIMALT
 70
     0
  9
$DIMALTD
 70
     3
  9
$DIMALTF
 40
0.0393700787
  9
$DIMLFAC
 40
1.0
  9
$DIMTOFL
 70
     1
  9
$DIMTVP
 40
0.0
  9
$DIMTIX
 70
     0
  9
$DIMSOXD
 70
     0
  9
$DIMSAH
 70
     0
  9
$DIMBLK1
  1

  9
$DIMBLK2
  1

  9
$DIMSTYLE
  2
ISO-25
  9
$DIMCLRD
 70
     0
  9
$DIMCLRE
 70
     0
  9
$DIMCLRT
 70
     0
  9
$DIMTFAC
 40
1.0
  9
$DIMGAP
 40
1.524
  9
$DIMJUST
 70
     0
  9
$DIMSD1
 70
     0
  9
$DIMSD2
 70
     0
  9
$DIMTOLJ
 70
     0
  9
$DIMTZIN
 70
     0
  9
$DIMALTZ
 70
     0
  9
$DIMALTTZ
 70
     0
  9
$DIMUPT
 70
     0
  9
$DIMDEC
 70
     2
  9
$DIMTDEC
 70
     2
  9
$DIMALTU
 70
     2
  9
$DIMALTTD
 70
     3
  9
$DIMTXSTY
  7
Standard
  9
$DIMAUNIT
 70
     0
  9
$DIMADEC
 70
     2
  9
$DIMALTRND
 40
0.0
  9
$DIMAZIN
 70
     0
  9
$DIMDSEP
 70
    44
  9
$DIMATFIT
 70
     3
  9
$DIMFRAC
 70
     0
  9
$DIMLDRBLK
  1

  9
$DIMLUNIT
 70
     2
  9
$DIMLWD
 70
    -2
  9
$DIMLWE
 70
    -2
  9
$DIMTMOVE
 70
     0
  9
$LUNITS
 70
     2
  9
$LUPREC
 70
     2
  9
$SKETCHINC
 40
1.0
  9
$FILLETRAD
 40
10.0
  9
$AUNITS
 70
     0
  9
$AUPREC
 70
     2
  9
$MENU
  1
.
  9
$ELEVATION
 40
0.0
  9
$PELEVATION
 40
0.0
  9
$THICKNESS
 40
0.0
  9
$LIMCHECK
 70
     0
  9
$CHAMFERA
 40
0.0
  9
$CHAMFERB
 40
0.0
  9
$CHAMFERC
 40
0.0
  9
$CHAMFERD
 40
0.0
  9
$SKPOLY
 70
     0
  9
$TDCREATE
 40
2456937.428553171
  9
$TDUCREATE
 40
2456937.303553171
  9
$TDUPDATE
 40
2456937.428554039
  9
$TDUUPDATE
 40
2456937.303554039
  9
$TDINDWG
 40
0.0000000116
  9
$TDUSRTIMER
 40
0.0000000116
  9
$USRTIMER
 70
     1
  9
$ANGBASE
 50
0.0
  9
$ANGDIR
 70
     0
  9
$PDMODE
 70
     0
  9
$PDSIZE
 40
-1.0
  9
$PLINEWID
 40
0.0
  9
$SPLFRAME
 70
     0
  9
$SPLINETYPE
 70
     6
  9
$SPLINESEGS
 70
     8
  9
$HANDSEED
  5
1E1
  9
$SURFTAB1
 70
     6
  9
$SURFTAB2
 70
     6
  9
$SURFTYPE
 70
     6
  9
$SURFU
 70
     6
  9
$SURFV
 70
     6
  9
$UCSBASE
  2

  9
$UCSNAME
  2

  9
$UCSORG
 10
0.0
 20
0.0
 30
0.0
  9
$UCSXDIR
 10
1.0
 20
0.0
 30
0.0
  9
$UCSYDIR
 10
0.0
 20
1.0
 30
0.0
  9
$UCSORTHOREF
  2

  9
$UCSORTHOVIEW
 70
     0
  9
$UCSORGTOP
 10
0.0
 20
0.0
 30
0.0
  9
$UCSORGBOTTOM
 10
0.0
 20
0.0
 30
0.0
  9
$UCSORGLEFT
 10
0.0
 20
0.0
 30
0.0
  9
$UCSORGRIGHT
 10
0.0
 20
0.0
 30
0.0
  9
$UCSORGFRONT
 10
0.0
 20
0.0
 30
0.0
  9
$UCSORGBACK
 10
0.0
 20
0.0
 30
0.0
  9
$PUCSBASE
  2

  9
$PUCSNAME
  2

  9
$PUCSORG
 10
0.0
 20
0.0
 30
0.0
  9
$PUCSXDIR
 10
1.0
 20
0.0
 30
0.0
  9
$PUCSYDIR
 10
0.0
 20
1.0
 30
0.0
  9
$PUCSORTHOREF
  2

  9
$PUCSORTHOVIEW
 70
     0
  9
$PUCSORGTOP
 10
0.0
 20
0.0
 30
0.0
  9
$PUCSORGBOTTOM
 10
0.0
 20
0.0
 30
0.0
  9
$PUCSORGLEFT
 10
0.0
 20
0.0
 30
0.0
  9
$PUCSORGRIGHT
 10
0.0
 20
0.0
 30
0.0
  9
$PUCSORGFRONT
 10
0.0
 20
0.0
 30
0.0
  9
$PUCSORGBACK
 10
0.0
 20
0.0
 30
0.0
  9
$USERI1
 70
     0
  9
$USERI2
 70
     0
  9
$USERI3
 70
     0
  9
$USERI4
 70
     0
  9
$USERI5
 70
     0
  9
$USERR1
 40
0.0
  9
$USERR2
 40
0.0
  9
$USERR3
 40
0.0
  9
$USERR4
 40
0.0
  9
$USERR5
 40
0.0
  9
$WORLDVIEW
 70
     1
  9
$SHADEDGE
 70
     3
  9
$SHADEDIF
 70
    70
  9
$TILEMODE
 70
     1
  9
$MAXACTVP
 70
    64
  9
$PINSBASE
 10
0.0
 20
0.0
 30
0.0
  9
$PLIMCHECK
 70
     0
  9
$PEXTMIN
 10
1.0000000000E+20
 20
1.0000000000E+20
 30
1.0000000000E+20
  9
$PEXTMAX
 10
-1.0000000000E+20
 20
-1.0000000000E+20
 30
-1.0000000000E+20
  9
$PLIMMIN
 10
0.0
 20
0.0
  9
$PLIMMAX
 10
420.0
 20
297.0
  9
$UNITMODE
 70
     0
  9
$VISRETAIN
 70
     1
  9
$PLINEGEN
 70
     0
  9
$PSLTSCALE
 70
     1
  9
$TREEDEPTH
 70
  3020
  9
$CMLSTYLE
  2
Standard
  9
$CMLJUST
 70
     0
  9
$CMLSCALE
 40
20.0
  9
$PROXYGRAPHICS
 70
     1
  9
$MEASUREMENT
 70
     1
  9
$CELWEIGHT
370
    -1
  9
$ENDCAPS
280
     0
  9
$JOINSTYLE
280
     0
  9
$LWDISPLAY
290
     1
  9
$INSUNITS
 70
     4
  9
$HYPERLINKBASE
  1

  9
$STYLESHEET
  1

  9
$XEDIT
290
     1
  9
$CEPSNTYPE
380
     0
  9
$PSTYLEMODE
290
     1
  9
$FINGERPRINTGUID
  2
{9785B6B3-2C5F-4E07-9070-D1A82CC8CB99}
  9
$VERSIONGUID
  2
{FAEB1C32-E019-11D5-929B-00C0DF256EC4}
  9
$EXTNAMES
290
     1
  9
$PSVPSCALE
 40
0.0
  9
$OLESTARTUP
290
     0
  0
ENDSEC
  0
SECTION
  2
CLASSES
  0
CLASS
  1
ACDBDICTIONARYWDFLT
  2
AcDbDictionaryWithDefault
  3
ObjectDBX Classes
 90
        0
280
     0
281
     0
  0
CLASS
  1
VISUALSTYLE
  2
AcDbVisualStyle
  3
ObjectDBX Classes
 90
     4095
280
     0
281
     0
  0
CLASS
  1
MATERIAL
  2
AcDbMaterial
  3
ObjectDBX Classes
 90
     1153
280
     0
281
     0
  0
CLASS
  1
SCALE
  2
AcDbScale
  3
ObjectDBX Classes
 90
     1153
280
     0
281
     0
  0
CLASS
  1
SUN
  2
AcDbSun
  3
SCENEOE
 90
     1153
280
     0
281
     0
  0
CLASS
  1
ACDBPLACEHOLDER
  2
AcDbPlaceHolder
  3
ObjectDBX Classes
 90
        0
280
     0
281
     0
  0
CLASS
  1
LAYOUT
  2
AcDbLayout
  3
ObjectDBX Classes
 90
        0
280
     0
281
     0
  0
ENDSEC
  0
SECTION
  2
TABLES
  0
TABLE
  2
VPORT
  5
8
330
0
100
AcDbSymbolTable
 70
     1
  0
VPORT
  5
29
330
8
100
AcDbSymbolTableRecord
100
AcDbViewportTableRecord
  2
*Active
 70
     0
 10
0.0
 20
0.0
 11
1.0
 21
1.0
 12
210.0
 22
148.5
 13
0.0
 23
0.0
 14
10.0
 24
10.0
 15
10.0
 25
10.0
 16
0.0
 26
0.0
 36
1.0
 17
0.0
 27
0.0
 37
0.0
 40
297.0
 41
1.4141414141
 42
50.0
 43
0.0
 44
0.0
 50
0.0
 51
0.0
 71
     0
 72
  2000
 73
     1
 74
     3
 75
     0
 76
     0
 77
     0
 78
     0
281
     0
 65
     1
110
0.0
120
0.0
130
0.0
111
1.0
121
0.0
131
0.0
112
0.0
122
1.0
132
0.0
 79
     0
146
0.0
  0
ENDTAB
  0
TABLE
  2
LTYPE
  5
5
330
0
100
AcDbSymbolTable
 70
     6
  0
LTYPE
  5
14
330
5
100
AcDbSymbolTableRecord
100
AcDbLinetypeTableRecord
  2
ByBlock
 70
     0
  3

 72
    65
 73
     0
 40
0.0
  0
LTYPE
  5
15
330
5
100
AcDbSymbolTableRecord
100
AcDbLinetypeTableRecord
  2
ByLayer
 70
     0
  3

 72
    65
 73
     0
 40
0.0
  0
LTYPE
  5
16
330
5
100
AcDbSymbolTableRecord
100
AcDbLinetypeTableRecord
  2
Continuous
 70
     0
  3
Solid line
 72
    65
 73
     0
 40
0.0
  0
LTYPE
  5
6A
330
5
100
AcDbSymbolTableRecord
100
AcDbLinetypeTableRecord
  2
HIDDEN
 70
     0
  3
Hidden __ __ __ __ __ __ __ __ __ __ __ __ __ __
 72
    65
 73
     2
 40
1.905
 49
1.27
 74
     0
 49
-0.635
 74
     0
  0
LTYPE
  5
6B
330
5
100
AcDbSymbolTableRecord
100
AcDbLinetypeTableRecord
  2
PHANTOM
 70
     0
  3
Phantom ______  __  __  ______  __  __  ______
 72
    65
 73
     6
 40
12.7
 49
6.35
 74
     0
 49
-1.27
 74
     0
 49
1.27
 74
     0
 49
-1.27
 74
     0
 49
1.27
 74
     0
 49
-1.27
 74
     0
  0
LTYPE
  5
6C
330
5
100
AcDbSymbolTableRecord
100
AcDbLinetypeTableRecord
  2
CENTER
 70
     0
  3
Center ____ _ ____ _ ____ _ ____ _ ____ _ ____
 72
    65
 73
     4
 40
10.16
 49
6.35
 74
     0
 49
-1.27
 74
     0
 49
1.27
 74
     0
 49
-1.27
 74
     0
  0
LTYPE
  5
6D
330
5
100
AcDbSymbolTableRecord
100
AcDbLinetypeTableRecord
  2
CENTERX2
 70
     0
  3
Center (2x) ________  __  ________  __  _____
 72
    65
 73
     4
 40
20.32
 49
12.7
 74
     0
 49
-2.54
 74
     0
 49
2.54
 74
     0
 49
-2.54
 74
     0
  0
LTYPE
  5
6E
330
5
100
AcDbSymbolTableRecord
100
AcDbLinetypeTableRecord
  2
DOT2
 70
     0
  3
Dot (.5x) ........................................
 72
    65
 73
     2
 40
0.635
 49
0.0
 74
     0
 49
-0.635
 74
     0
  0
ENDTAB
  0
TABLE
  2
LAYER
  5
2
330
0
100
AcDbSymbolTable
 70
     1
  0
LAYER
  5
10
330
2
100
AcDbSymbolTableRecord
100
AcDbLayerTableRecord
  2
0
 70
     0
 62
     7
  6
Continuous
370
    -3
390
F
  0
ENDTAB
  0
TABLE
  2
STYLE
  5
3
330
0
100
AcDbSymbolTable
 70
     1
  0
STYLE
  5
11
330
3
100
AcDbSymbolTableRecord
100
AcDbTextStyleTableRecord
  2
Standard
 70
     0
 40
0.0
 41
1.0
 50
0.0
 71
     0
 42
3.5
  3
txt
  4

  0
ENDTAB
  0
TABLE
  2
VIEW
  5
6
330
0
100
AcDbSymbolTable
 70
     0
  0
ENDTAB
  0
TABLE
  2
UCS
  5
7
330
0
100
AcDbSymbolTable
 70
     0
  0
ENDTAB
  0
TABLE
  2
APPID
  5
9
330
0
100
AcDbSymbolTable
 70
     1
  0
APPID
  5
12
330
9
100
AcDbSymbolTableRecord
100
AcDbRegAppTableRecord
  2
ACAD
 70
     0
  0
ENDTAB
  0
TABLE
  2
DIMSTYLE
  5
A
330
0
100
AcDbSymbolTable
 70
     1
100
AcDbDimStyleTable
  0
DIMSTYLE
105
27
330
A
100
AcDbSymbolTableRecord
100
AcDbDimStyleTableRecord
  2
ISO-25
 70
     0
 41
2.5
 42
0.625
 43
3.75
 44
1.25
 73
     0
 74
     0
 77
     1
 78
     8
140
2.5
141
2.5
143
0.0393700787
147
0.625
171
     3
172
     1
178
     0
271
     2
272
     2
274
     3
278
    44
283
     0
284
     8
340
11
  0
ENDTAB
  0
TABLE
  2
BLOCK_RECORD
  5
1
330
0
100
AcDbSymbolTable
 70
     1
  0
BLOCK_RECORD
  5
1F
330
1
100
AcDbSymbolTableRecord
100
AcDbBlockTableRecord
  2
*Model_Space
340
22
  0
BLOCK_RECORD
  5
1B
330
1
100
AcDbSymbolTableRecord
100
AcDbBlockTableRecord
  2
*Paper_Space
340
1E
  0
BLOCK_RECORD
  5
23
330
1
100
AcDbSymbolTableRecord
100
AcDbBlockTableRecord
  2
*Paper_Space0
340
26
  0
ENDTAB
  0
ENDSEC
  0
SECTION
  2
BLOCKS
  0
BLOCK
  5
20
330
1F
100
AcDbEntity
  8
0
100
AcDbBlockBegin
  2
*Model_Space
 70
     0
 10
0.0
 20
0.0
 30
0.0
  3
*Model_Space
  1
*Model_Space
  0
ENDBLK
  5
21
330
1F
100
AcDbEntity
  8
0
100
AcDbBlockEnd
  0
BLOCK
  5
1C
330
1B
100
AcDbEntity
 67
     1
  8
0
100
AcDbBlockBegin
  2
*Paper_Space
 70
     0
 10
0.0
 20
0.0
 30
0.0
  3
*Paper_Space
  1
*Paper_Space
  0
ENDBLK
  5
1D
330
1B
100
AcDbEntity
 67
     1
  8
0
100
AcDbBlockEnd
  0
BLOCK
  5
24
330
23
100
AcDbEntity
  8
0
100
AcDbBlockBegin
  2
*Paper_Space0
 70
     0
 10
0.0
 20
0.0
 30
0.0
  3
*Paper_Space0
  1
*Paper_Space0
  0
ENDBLK
  5
25
330
23
100
AcDbEntity
  8
0
100
AcDbBlockEnd
  0
ENDSEC
  0
SECTION
  2
ENTITIES
  0
ARC
  5
6F
330
1F
100
AcDbEntity
  8
0
  6
Continuous
 62
     7
370
    15
100
AcDbCircle
 10
186.4383864916
 20
171.094727955
 30
0.0
 40
5.969889026828355
100
AcDbArc
 50
179.9999999999
 51
262.0164438544
  0
LINE
  5
70
330
1F
100
AcDbEntity
  8
0
  6
Continuous
 62
     7
370
    15
100
AcDbLine
 10
185.5032892211
 20
164.4272811378
 30
0.0
 11
185.6092352378
 21
165.1826992684
 31
0.0
  0
LINE
  5
71
330
1F
100
AcDbEntity
  8
0
  6
Continuous
 62
     7
370
    15
100
AcDbLine
 10
180.4684974647
 20
171.094727955
 30
0.0
 11
179.7056861443
 21
171.094727955
 31
0.0
  0
LINE
  5
72
330
1F
100
AcDbEntity
  8
0
  6
Continuous
 62
     7
370
    15
100
AcDbLine
 10
187.4556861443
 20
162.18195622
 30
0.0
 11
188.2184974647
 21
162.18195622
 31
0.0
  0
ARC
  5
73
330
1F
100
AcDbEntity
  8
0
  6
Continuous
 62
     7
370
    15
100
AcDbCircle
 10
185.1883864916
 20
162.18195622
 30
0.0
 40
3.030110973174409
100
AcDbArc
 50
0.0000000002
 51
82.0164438545
  0
ARC
  5
74
330
1F
100
AcDbEntity
  8
0
  6
Continuous
 62
     7
370
    15
100
AcDbCircle
 10
88.4383864916
 20
126.094727955
 30
0.0
 40
5.969889026829419
100
AcDbArc
 50
0.0000000001
 51
82.0164438544
  0
LINE
  5
75
330
1F
100
AcDbEntity
  8
0
  6
Continuous
 62
     7
370
    15
100
AcDbLine
 10
89.373483762
 20
132.7621747722
 30
0.0
 11
89.2675377453
 21
132.0067566416
 31
0.0
  0
LINE
  5
76
330
1F
100
AcDbEntity
  8
0
  6
Continuous
 62
     7
370
    15
100
AcDbLine
 10
94.4082755184
 20
126.094727955
 30
0.0
 11
95.1710868388
 21
126.094727955
 31
0.0
  0
LINE
  5
77
330
1F
100
AcDbEntity
  8
0
  6
Continuous
 62
     7
370
    15
100
AcDbLine
 10
87.4210868388
 20
135.00749969
 30
0.0
 11
86.6582755184
 21
135.00749969
 31
0.0
  0
ARC
  5
78
330
1F
100
AcDbEntity
  8
0
  6
Continuous
 62
     7
370
    15
100
AcDbCircle
 10
89.6883864916
 20
135.00749969
 30
0.0
 40
3.030110973172606
100
AcDbArc
 50
179.9999999998
 51
262.0164438545
  0
ARC
  5
79
330
1F
100
AcDbEntity
  8
0
  6
Continuous
 62
     7
370
    15
100
AcDbCircle
 10
186.4383864916
 20
126.094727955
 30
0.0
 40
5.969889026827587
100
AcDbArc
 50
97.9835561456
 51
179.9999999999
  0
LINE
  5
7A
330
1F
100
AcDbEntity
  8
0
  6
Continuous
 62
     7
370
    15
100
AcDbLine
 10
179.7056861443
 20
126.094727955
 30
0.0
 11
180.4684974647
 21
126.094727955
 31
0.0
  0
LINE
  5
7B
330
1F
100
AcDbEntity
  8
0
  6
Continuous
 62
     7
370
    15
100
AcDbLine
 10
185.6092352378
 20
132.0067566416
 30
0.0
 11
185.5032892211
 21
132.7621747722
 31
0.0
  0
LINE
  5
7C
330
1F
100
AcDbEntity
  8
0
  6
Continuous
 62
     7
370
    15
100
AcDbLine
 10
89.2675377453
 20
165.1826992684
 30
0.0
 11
89.373483762
 21
164.4272811378
 31
0.0
  0
LINE
  5
7D
330
1F
100
AcDbEntity
  8
0
  6
Continuous
 62
     7
370
    15
100
AcDbLine
 10
87.4210868388
 20
162.18195622
 30
0.0
 11
86.6582755184
 21
162.18195622
 31
0.0
  0
ARC
  5
7E
330
1F
100
AcDbEntity
  8
0
  6
Continuous
 62
     7
370
    15
100
AcDbCircle
 10
89.6883864916
 20
162.18195622
 30
0.0
 40
3.030110973175123
100
AcDbArc
 50
97.9835561455
 51
179.9999999996
  0
ARC
  5
7F
330
1F
100
AcDbEntity
  8
0
  6
Continuous
 62
     7
370
    15
100
AcDbCircle
 10
88.4383864916
 20
171.094727955
 30
0.0
 40
5.969889026827559
100
AcDbArc
 50
277.9835561456
 51
0.0000000001
  0
LINE
  5
80
330
1F
100
AcDbEntity
  8
0
  6
Continuous
 62
     7
370
    15
100
AcDbLine
 10
95.1710868388
 20
171.094727955
 30
0.0
 11
94.4082755184
 21
171.094727955
 31
0.0
  0
LINE
  5
81
330
1F
100
AcDbEntity
  8
0
  6
Continuous
 62
     7
370
    15
100
AcDbLine
 10
187.4556861443
 20
135.00749969
 30
0.0
 11
188.2184974647
 21
135.00749969
 31
0.0
  0
ARC
  5
82
330
1F
100
AcDbEntity
  8
0
  6
Continuous
 62
     7
370
    15
100
AcDbCircle
 10
185.1883864916
 20
135.00749969
 30
0.0
 40
3.03011097317484
100
AcDbArc
 50
277.9835561455
 51
0.0000000004
  0
LINE
  5
83
330
1F
100
AcDbEntity
  8
0
  6
Continuous
 62
     7
370
    15
100
AcDbLine
 10
95.1710868388
 20
118.344727955
 30
0.0
 11
94.4082755184
 21
118.344727955
 31
0.0
  0
LINE
  5
84
330
1F
100
AcDbEntity
  8
0
  6
Continuous
 62
     7
370
    15
100
AcDbLine
 10
94.4082755184
 20
118.344727955
 30
0.0
 11
94.4082755184
 21
126.094727955
 31
0.0
  0
LINE
  5
85
330
1F
100
AcDbEntity
  8
0
  6
Continuous
 62
     7
370
    15
100
AcDbLine
 10
179.7056861443
 20
178.844727955
 30
0.0
 11
180.4684974647
 21
178.844727955
 31
0.0
  0
LINE
  5
86
330
1F
100
AcDbEntity
  8
0
  6
Continuous
 62
     7
370
    15
100
AcDbLine
 10
180.4684974647
 20
178.844727955
 30
0.0
 11
180.4684974647
 21
171.094727955
 31
0.0
  0
LINE
  5
87
330
1F
100
AcDbEntity
  8
0
  6
Continuous
 62
     7
370
    15
100
AcDbLine
 10
97.4383864916
 20
116.0774283022
 30
0.0
 11
97.4383864916
 21
115.3146169818
 31
0.0
  0
ARC
  5
88
330
1F
100
AcDbEntity
  8
0
  6
Continuous
 62
     7
370
    15
100
AcDbCircle
 10
97.4383864916
 20
118.344727955
 30
0.0
 40
3.030110973172427
100
AcDbArc
 50
179.9999999998
 51
270.0
  0
LINE
  5
89
330
1F
100
AcDbEntity
  8
0
  6
Continuous
 62
     7
370
    15
100
AcDbLine
 10
188.2184974647
 20
162.18195622
 30
0.0
 11
188.2184974647
 21
135.00749969
 31
0.0
  0
LINE
  5
8A
330
1F
100
AcDbEntity
  8
0
  6
Continuous
 62
     7
370
    15
100
AcDbLine
 10
86.6582755184
 20
135.00749969
 30
0.0
 11
86.6582755184
 21
162.18195622
 31
0.0
  0
LINE
  5
8B
330
1F
100
AcDbEntity
  8
0
  6
Continuous
 62
     7
370
    15
100
AcDbLine
 10
179.7056861443
 20
118.344727955
 30
0.0
 11
180.4684974647
 21
118.344727955
 31
0.0
  0
LINE
  5
8C
330
1F
100
AcDbEntity
  8
0
  6
Continuous
 62
     7
370
    15
100
AcDbLine
 10
180.4684974647
 20
126.094727955
 30
0.0
 11
180.4684974647
 21
118.344727955
 31
0.0
  0
LINE
  5
8D
330
1F
100
AcDbEntity
  8
0
  6
Continuous
 62
     7
370
    15
100
AcDbLine
 10
177.4383864916
 20
116.0774283022
 30
0.0
 11
177.4383864916
 21
115.3146169818
 31
0.0
  0
ARC
  5
8E
330
1F
100
AcDbEntity
  8
0
  6
Continuous
 62
     7
370
    15
100
AcDbCircle
 10
177.4383864916
 20
118.344727955
 30
0.0
 40
3.030110973172427
100
AcDbArc
 50
270.0
 51
0.0000000004
  0
LINE
  5
8F
330
1F
100
AcDbEntity
  8
0
  6
Continuous
 62
     7
370
    15
100
AcDbLine
 10
177.4383864916
 20
115.3146169818
 30
0.0
 11
97.4383864916
 21
115.3146169818
 31
0.0
  0
LINE
  5
90
330
1F
100
AcDbEntity
  8
0
  6
Continuous
 62
     7
370
    15
100
AcDbLine
 10
97.4383864916
 20
116.0774283022
 30
0.0
 11
177.4383864916
 21
116.0774283022
 31
0.0
  0
LINE
  5
91
330
1F
100
AcDbEntity
  8
0
  6
Continuous
 62
     7
370
    15
100
AcDbLine
 10
177.4383864916
 20
181.1120276078
 30
0.0
 11
177.4383864916
 21
181.8748389281
 31
0.0
  0
ARC
  5
92
330
1F
100
AcDbEntity
  8
0
  6
Continuous
 62
     7
370
    15
100
AcDbCircle
 10
177.4383864916
 20
178.844727955
 30
0.0
 40
3.030110973172413
100
AcDbArc
 50
0.0000000002
 51
90.0
  0
LINE
  5
93
330
1F
100
AcDbEntity
  8
0
  6
Continuous
 62
     7
370
    15
100
AcDbLine
 10
95.1710868388
 20
178.844727955
 30
0.0
 11
94.4082755184
 21
178.844727955
 31
0.0
  0
LINE
  5
94
330
1F
100
AcDbEntity
  8
0
  6
Continuous
 62
     7
370
    15
100
AcDbLine
 10
94.4082755184
 20
171.094727955
 30
0.0
 11
94.4082755184
 21
178.844727955
 31
0.0
  0
LINE
  5
95
330
1F
100
AcDbEntity
  8
0
  6
Continuous
 62
     7
370
    15
100
AcDbLine
 10
97.4383864916
 20
181.8748389281
 30
0.0
 11
97.4383864916
 21
181.1120276078
 31
0.0
  0
ARC
  5
96
330
1F
100
AcDbEntity
  8
0
  6
Continuous
 62
     7
370
    15
100
AcDbCircle
 10
97.4383864916
 20
178.844727955
 30
0.0
 40
3.030110973173166
100
AcDbArc
 50
90.0
 51
179.9999999996
  0
LINE
  5
97
330
1F
100
AcDbEntity
  8
0
  6
Continuous
 62
     7
370
    15
100
AcDbLine
 10
97.4383864916
 20
181.8748389281
 30
0.0
 11
177.4383864916
 21
181.8748389281
 31
0.0
  0
LINE
  5
98
330
1F
100
AcDbEntity
  8
0
  6
Continuous
 62
     7
370
    15
100
AcDbLine
 10
177.4383864916
 20
181.1120276078
 30
0.0
 11
97.4383864916
 21
181.1120276078
 31
0.0
  0
LINE
  5
99
330
1F
100
AcDbEntity
  8
0
  6
Continuous
 62
     7
370
    15
100
AcDbLine
 10
182.1383864916
 20
178.844727955
 30
0.0
 11
182.1383864916
 21
171.094727955
 31
0.0
  0
ARC
  5
9A
330
1F
100
AcDbEntity
  8
0
  6
Continuous
 62
     7
370
    15
100
AcDbCircle
 10
186.4383864916
 20
171.094727955
 30
0.0
 40
4.300000000001011
100
AcDbArc
 50
180.0
 51
262.0164438545
  0
ARC
  5
9B
330
1F
100
AcDbEntity
  8
0
  6
Continuous
 62
     7
370
    15
100
AcDbCircle
 10
185.1883864916
 20
162.18195622
 30
0.0
 40
4.700000000001031
100
AcDbArc
 50
0.0
 51
82.0164438544
  0
LINE
  5
9C
330
1F
100
AcDbEntity
  8
0
  6
Continuous
 62
     7
370
    15
100
AcDbLine
 10
189.8883864916
 20
162.18195622
 30
0.0
 11
189.8883864916
 21
135.00749969
 31
0.0
  0
ARC
  5
9D
330
1F
100
AcDbEntity
  8
0
  6
Continuous
 62
     7
370
    15
100
AcDbCircle
 10
185.1883864916
 20
135.00749969
 30
0.0
 40
4.700000000001003
100
AcDbArc
 50
277.9835561456
 51
0.0
  0
ARC
  5
9E
330
1F
100
AcDbEntity
  8
0
  6
Continuous
 62
     7
370
    15
100
AcDbCircle
 10
186.4383864916
 20
126.094727955
 30
0.0
 40
4.300000000001026
100
AcDbArc
 50
97.9835561455
 51
180.0
  0
LINE
  5
9F
330
1F
100
AcDbEntity
  8
0
  6
Continuous
 62
     7
370
    15
100
AcDbLine
 10
182.1383864916
 20
126.094727955
 30
0.0
 11
182.1383864916
 21
118.344727955
 31
0.0
  0
ARC
  5
A0
330
1F
100
AcDbEntity
  8
0
  6
Continuous
 62
     7
370
    15
100
AcDbCircle
 10
177.4383864916
 20
118.344727955
 30
0.0
 40
4.700000000000003
100
AcDbArc
 50
270.0
 51
0.0
  0
LINE
  5
A1
330
1F
100
AcDbEntity
  8
0
  6
Continuous
 62
     7
370
    15
100
AcDbLine
 10
177.4383864916
 20
113.644727955
 30
0.0
 11
97.4383864916
 21
113.644727955
 31
0.0
  0
ARC
  5
A2
330
1F
100
AcDbEntity
  8
0
  6
Continuous
 62
     7
370
    15
100
AcDbCircle
 10
97.4383864916
 20
118.344727955
 30
0.0
 40
4.700000000000003
100
AcDbArc
 50
180.0
 51
270.0
  0
LINE
  5
A3
330
1F
100
AcDbEntity
  8
0
  6
Continuous
 62
     7
370
    15
100
AcDbLine
 10
92.7383864916
 20
118.344727955
 30
0.0
 11
92.7383864916
 21
126.094727955
 31
0.0
  0
ARC
  5
A4
330
1F
100
AcDbEntity
  8
0
  6
Continuous
 62
     7
370
    15
100
AcDbCircle
 10
88.4383864916
 20
126.094727955
 30
0.0
 40
4.300000000001024
100
AcDbArc
 50
0.0
 51
82.0164438545
  0
ARC
  5
A5
330
1F
100
AcDbEntity
  8
0
  6
Continuous
 62
     7
370
    15
100
AcDbCircle
 10
89.6883864916
 20
135.00749969
 30
0.0
 40
4.700000000001001
100
AcDbArc
 50
180.0
 51
262.0164438544
  0
LINE
  5
A6
330
1F
100
AcDbEntity
  8
0
  6
Continuous
 62
     7
370
    15
100
AcDbLine
 10
84.9883864916
 20
135.00749969
 30
0.0
 11
84.9883864916
 21
162.18195622
 31
0.0
  0
ARC
  5
A7
330
1F
100
AcDbEntity
  8
0
  6
Continuous
 62
     7
370
    15
100
AcDbCircle
 10
89.6883864916
 20
162.18195622
 30
0.0
 40
4.700000000001029
100
AcDbArc
 50
97.9835561456
 51
180.0
  0
ARC
  5
A8
330
1F
100
AcDbEntity
  8
0
  6
Continuous
 62
     7
370
    15
100
AcDbCircle
 10
88.4383864916
 20
171.094727955
 30
0.0
 40
4.30000000000101
100
AcDbArc
 50
277.9835561455
 51
0.0
  0
LINE
  5
A9
330
1F
100
AcDbEntity
  8
0
  6
Continuous
 62
     7
370
    15
100
AcDbLine
 10
92.7383864916
 20
171.094727955
 30
0.0
 11
92.7383864916
 21
178.844727955
 31
0.0
  0
ARC
  5
AA
330
1F
100
AcDbEntity
  8
0
  6
Continuous
 62
     7
370
    15
100
AcDbCircle
 10
97.4383864916
 20
178.844727955
 30
0.0
 40
4.700000000000017
100
AcDbArc
 50
90.0
 51
180.0
  0
LINE
  5
AB
330
1F
100
AcDbEntity
  8
0
  6
Continuous
 62
     7
370
    15
100
AcDbLine
 10
97.4383864916
 20
183.544727955
 30
0.0
 11
177.4383864916
 21
183.544727955
 31
0.0
  0
ARC
  5
AC
330
1F
100
AcDbEntity
  8
0
  6
Continuous
 62
     7
370
    15
100
AcDbCircle
 10
177.4383864916
 20
178.844727955
 30
0.0
 40
4.700000000000017
100
AcDbArc
 50
0.0
 51
90.0
  0
CIRCLE
  5
AD
330
1F
100
AcDbEntity
  8
0
  6
Continuous
 62
     7
370
    15
100
AcDbCircle
 10
88.4383864916
 20
180.094727955
 30
0.0
 40
3.5
  0
CIRCLE
  5
AE
330
1F
100
AcDbEntity
  8
0
  6
Continuous
 62
     7
370
    15
100
AcDbCircle
 10
186.4383864916
 20
180.094727955
 30
0.0
 40
3.5
  0
CIRCLE
  5
AF
330
1F
100
AcDbEntity
  8
0
  6
Continuous
 62
     7
370
    15
100
AcDbCircle
 10
186.4383864916
 20
117.094727955
 30
0.0
 40
3.5
  0
CIRCLE
  5
B0
330
1F
100
AcDbEntity
  8
0
  6
Continuous
 62
     7
370
    15
100
AcDbCircle
 10
88.4383864916
 20
117.094727955
 30
0.0
 40
3.5
  0
CIRCLE
  5
B1
330
1F
100
AcDbEntity
  8
0
  6
Continuous
 62
     7
370
    15
100
AcDbCircle
 10
88.4383864916
 20
171.094727955
 30
0.0
 40
3.75
  0
CIRCLE
  5
B2
330
1F
100
AcDbEntity
  8
0
  6
Continuous
 62
     7
370
    15
100
AcDbCircle
 10
186.4383864916
 20
171.094727955
 30
0.0
 40
3.75
  0
CIRCLE
  5
B3
330
1F
100
AcDbEntity
  8
0
  6
Continuous
 62
     7
370
    15
100
AcDbCircle
 10
186.4383864916
 20
126.094727955
 30
0.0
 40
3.75
  0
CIRCLE
  5
B4
330
1F
100
AcDbEntity
  8
0
  6
Continuous
 62
     7
370
    15
100
AcDbCircle
 10
88.4383864916
 20
126.094727955
 30
0.0
 40
3.75
  0
LINE
  5
B5
330
1F
100
AcDbEntity
  8
0
  6
Continuous
 62
     7
370
    15
100
AcDbLine
 10
192.4383864916
 20
180.095641784
 30
0.0
 11
192.4383864916
 21
117.0938141259
 31
0.0
  0
LINE
  5
B6
330
1F
100
AcDbEntity
  8
0
  6
Continuous
 62
     7
370
    15
100
AcDbLine
 10
186.4393003206
 20
111.094727955
 30
0.0
 11
88.4374726625
 21
111.094727955
 31
0.0
  0
ELLIPSE
  5
B7
330
1F
100
AcDbEntity
  8
0
  6
Continuous
 62
     7
370
    15
100
AcDbEllipse
 10
186.4374725233
 20
180.0938139867
 30
0.0
 11
-4.2439331350175
 21
-4.243933135017471
 31
0.0
210
0.0
220
0.0
230
1.0
 40
0.9996954599
 41
2.356346783439812
 42
3.9268385237398
  0
ELLIPSE
  5
B8
330
1F
100
AcDbEntity
  8
0
  6
Continuous
 62
     7
370
    15
100
AcDbEllipse
 10
186.4374725233
 20
117.0956419232
 30
0.0
 11
-4.2439331350175
 21
4.243933135017471
 31
0.0
210
0.0
220
0.0
230
1.0
 40
0.9996954599
 41
2.356346783439796
 42
3.926838523739793
  0
LINE
  5
B9
330
1F
100
AcDbEntity
  8
0
  6
Continuous
 62
     7
370
    15
100
AcDbLine
 10
88.4374726625
 20
186.094727955
 30
0.0
 11
186.4393003206
 21
186.094727955
 31
0.0
  0
ELLIPSE
  5
BA
330
1F
100
AcDbEntity
  8
0
  6
Continuous
 62
     7
370
    15
100
AcDbEllipse
 10
88.4393004598
 20
180.0938139867
 30
0.0
 11
4.2439331350175
 21
-4.243933135017471
 31
0.0
210
0.0
220
0.0
230
1.0
 40
0.9996954599
 41
2.356346783439926
 42
3.926838523739793
  0
LINE
  5
BB
330
1F
100
AcDbEntity
  8
0
  6
Continuous
 62
     7
370
    15
100
AcDbLine
 10
82.4383864916
 20
117.0938141259
 30
0.0
 11
82.4383864916
 21
180.095641784
 31
0.0
  0
ELLIPSE
  5
BC
330
1F
100
AcDbEntity
  8
0
  6
Continuous
 62
     7
370
    15
100
AcDbEllipse
 10
88.4393004598
 20
117.0956419232
 30
0.0
 11
4.2439331350175
 21
4.243933135017471
 31
0.0
210
0.0
220
0.0
230
1.0
 40
0.9996954599
 41
2.356346783439812
 42
3.9268385237398
  0
CIRCLE
  5
BD
330
1F
100
AcDbEntity
  8
0
  6
Continuous
 62
     7
370
    15
100
AcDbCircle
 10
88.4383864916
 20
117.094727955
 30
0.0
 40
2.249999999924967
  0
CIRCLE
  5
BE
330
1F
100
AcDbEntity
  8
0
  6
Continuous
 62
     7
370
    15
100
AcDbCircle
 10
88.4383864916
 20
117.094727955
 30
0.0
 40
1.649999999961892
  0
CIRCLE
  5
BF
330
1F
100
AcDbEntity
  8
0
  6
Continuous
 62
     7
370
    15
100
AcDbCircle
 10
186.4383864916
 20
180.094727955
 30
0.0
 40
2.249999999924938
  0
CIRCLE
  5
C0
330
1F
100
AcDbEntity
  8
0
  6
Continuous
 62
     7
370
    15
100
AcDbCircle
 10
186.4383864916
 20
180.094727955
 30
0.0
 40
1.649999999961864
  0
CIRCLE
  5
C1
330
1F
100
AcDbEntity
  8
0
  6
Continuous
 62
     7
370
    15
100
AcDbCircle
 10
186.4383864916
 20
117.094727955
 30
0.0
 40
2.249999999968622
  0
CIRCLE
  5
C2
330
1F
100
AcDbEntity
  8
0
  6
Continuous
 62
     7
370
    15
100
AcDbCircle
 10
88.4383864916
 20
180.094727955
 30
0.0
 40
2.249999999968622
  0
CIRCLE
  5
C3
330
1F
100
AcDbEntity
  8
0
  6
Continuous
 62
     7
370
    15
100
AcDbCircle
 10
186.4383864916
 20
117.094727955
 30
0.0
 40
1.650000000005576
  0
CIRCLE
  5
C4
330
1F
100
AcDbEntity
  8
0
  6
Continuous
 62
     7
370
    15
100
AcDbCircle
 10
88.4383864916
 20
180.094727955
 30
0.0
 40
1.650000000005548
  0
CIRCLE
  5
C5
330
1F
100
AcDbEntity
  8
0
  6
Continuous
 62
     7
370
    15
100
AcDbCircle
 10
181.9383864916
 20
148.594727955
 30
0.0
 40
2.249999999974534
  0
CIRCLE
  5
C6
330
1F
100
AcDbEntity
  8
0
  6
Continuous
 62
     7
370
    15
100
AcDbCircle
 10
181.9383864916
 20
148.594727955
 30
0.0
 40
1.650000000011431
  0
LINE
  5
C7
330
1F
100
AcDbEntity
  8
0
  6
Continuous
 62
     7
370
    15
100
AcDbLine
 10
179.7056861443
 20
126.094727955
 30
0.0
 11
179.7056861443
 21
118.344727955
 31
0.0
  0
ARC
  5
C8
330
1F
100
AcDbEntity
  8
0
  6
Continuous
 62
     7
370
    15
100
AcDbCircle
 10
177.4383864916
 20
178.844727955
 30
0.0
 40
2.267299652790996
100
AcDbArc
 50
0.0
 51
90.0
  0
ARC
  5
C9
330
1F
100
AcDbEntity
  8
0
  6
Continuous
 62
     7
370
    15
100
AcDbCircle
 10
186.4383864916
 20
171.094727955
 30
0.0
 40
6.732700347210025
100
AcDbArc
 50
180.0
 51
262.0164438544
  0
LINE
  5
CA
330
1F
100
AcDbEntity
  8
0
  6
Continuous
 62
     7
370
    15
100
AcDbLine
 10
179.7056861443
 20
178.844727955
 30
0.0
 11
179.7056861443
 21
171.094727955
 31
0.0
  0
ARC
  5
CB
330
1F
100
AcDbEntity
  8
0
  6
Continuous
 62
     7
370
    15
100
AcDbCircle
 10
185.1883864916
 20
162.18195622
 30
0.0
 40
2.267299652792018
100
AcDbArc
 50
0.0
 51
82.0164438545
  0
LINE
  5
CC
330
1F
100
AcDbEntity
  8
0
  6
Continuous
 62
     7
370
    15
100
AcDbLine
 10
177.4383864916
 20
116.0774283022
 30
0.0
 11
177.4383864916
 21
181.1120276078
 31
0.0
  0
ARC
  5
CD
330
1F
100
AcDbEntity
  8
0
  6
Continuous
 62
     7
370
    15
100
AcDbCircle
 10
177.4383864916
 20
118.344727955
 30
0.0
 40
2.267299652790996
100
AcDbArc
 50
270.0
 51
0.0
  0
ARC
  5
CE
330
1F
100
AcDbEntity
  8
0
  6
Continuous
 62
     7
370
    15
100
AcDbCircle
 10
185.1883864916
 20
135.00749969
 30
0.0
 40
2.267299652792018
100
AcDbArc
 50
277.9835561455
 51
0.0
  0
LINE
  5
CF
330
1F
100
AcDbEntity
  8
0
  6
Continuous
 62
     7
370
    15
100
AcDbLine
 10
187.4556861443
 20
162.18195622
 30
0.0
 11
187.4556861443
 21
135.00749969
 31
0.0
  0
ARC
  5
D0
330
1F
100
AcDbEntity
  8
0
  6
Continuous
 62
     7
370
    15
100
AcDbCircle
 10
186.4383864916
 20
126.094727955
 30
0.0
 40
6.732700347210027
100
AcDbArc
 50
97.9835561456
 51
180.0
  0
CIRCLE
  5
D1
330
1F
100
AcDbEntity
  8
0
  6
Continuous
 62
     7
370
    15
100
AcDbCircle
 10
92.9383864916
 20
148.594727955
 30
0.0
 40
2.24999999997587
  0
ARC
  5
D2
330
1F
100
AcDbEntity
  8
0
  6
Continuous
 62
     7
370
    15
100
AcDbCircle
 10
89.6883864916
 20
162.18195622
 30
0.0
 40
2.267299652792018
100
AcDbArc
 50
97.9835561455
 51
180.0
  0
LINE
  5
D3
330
1F
100
AcDbEntity
  8
0
  6
Continuous
 62
     7
370
    15
100
AcDbLine
 10
97.4383864916
 20
181.1120276078
 30
0.0
 11
97.4383864916
 21
116.0774283022
 31
0.0
  0
LINE
  5
D4
330
1F
100
AcDbEntity
  8
0
  6
Continuous
 62
     7
370
    15
100
AcDbLine
 10
95.1710868388
 20
118.344727955
 30
0.0
 11
95.1710868388
 21
126.094727955
 31
0.0
  0
ARC
  5
D5
330
1F
100
AcDbEntity
  8
0
  6
Continuous
 62
     7
370
    15
100
AcDbCircle
 10
88.4383864916
 20
171.094727955
 30
0.0
 40
6.732700347210021
100
AcDbArc
 50
277.9835561456
 51
0.0
  0
ARC
  5
D6
330
1F
100
AcDbEntity
  8
0
  6
Continuous
 62
     7
370
    15
100
AcDbCircle
 10
97.4383864916
 20
118.344727955
 30
0.0
 40
2.267299652790996
100
AcDbArc
 50
180.0
 51
270.0
  0
LINE
  5
D7
330
1F
100
AcDbEntity
  8
0
  6
Continuous
 62
     7
370
    15
100
AcDbLine
 10
95.1710868388
 20
171.094727955
 30
0.0
 11
95.1710868388
 21
178.844727955
 31
0.0
  0
ARC
  5
D8
330
1F
100
AcDbEntity
  8
0
  6
Continuous
 62
     7
370
    15
100
AcDbCircle
 10
88.4383864916
 20
126.094727955
 30
0.0
 40
6.732700347210007
100
AcDbArc
 50
0.0
 51
82.0164438544
  0
ARC
  5
D9
330
1F
100
AcDbEntity
  8
0
  6
Continuous
 62
     7
370
    15
100
AcDbCircle
 10
97.4383864916
 20
178.844727955
 30
0.0
 40
2.267299652790996
100
AcDbArc
 50
90.0
 51
180.0
  0
ARC
  5
DA
330
1F
100
AcDbEntity
  8
0
  6
Continuous
 62
     7
370
    15
100
AcDbCircle
 10
89.6883864916
 20
135.00749969
 30
0.0
 40
2.267299652792018
100
AcDbArc
 50
180.0
 51
262.0164438545
  0
LINE
  5
DB
330
1F
100
AcDbEntity
  8
0
  6
Continuous
 62
     7
370
    15
100
AcDbLine
 10
87.4210868388
 20
135.00749969
 30
0.0
 11
87.4210868388
 21
162.18195622
 31
0.0
  0
CIRCLE
  5
DC
330
1F
100
AcDbEntity
  8
0
  6
Continuous
 62
     7
370
    15
100
AcDbCircle
 10
92.9383864916
 20
148.594727955
 30
0.0
 40
1.64999999995598
  0
CIRCLE
  5
DD
330
1F
100
AcDbEntity
  8
0
  6
Continuous
 62
     7
370
    15
100
AcDbCircle
 10
88.4383864916
 20
126.094727955
 30
0.0
 40
2.25
  0
CIRCLE
  5
DE
330
1F
100
AcDbEntity
  8
0
  6
Continuous
 62
     7
370
    15
100
AcDbCircle
 10
88.4383864916
 20
171.094727955
 30
0.0
 40
2.25
  0
CIRCLE
  5
DF
330
1F
100
AcDbEntity
  8
0
  6
Continuous
 62
     7
370
    15
100
AcDbCircle
 10
186.4383864916
 20
171.094727955
 30
0.0
 40
2.25
  0
CIRCLE
  5
E0
330
1F
100
AcDbEntity
  8
0
  6
Continuous
 62
     7
370
    15
100
AcDbCircle
 10
186.4383864916
 20
126.094727955
 30
0.0
 40
2.25
  0
SPLINE
  5
E1
330
1F
100
AcDbEntity
  8
0
  6
Continuous
 62
     7
370
    15
100
AcDbSpline
210
0.0
220
0.0
230
1.0
 70
     8
 71
     3
 72
    15
 73
    11
 74
     0
 42
0.000000001
 43
0.00000001
 40
0.0
 40
0.0
 40
0.0
 40
0.0
 40
0.1522682802350277
 40
0.2967204847577282
 40
0.4334050116203836
 40
0.562303474663557
 40
0.6834169477657766
 40
0.7967302252511183
 40
0.9022648405801342
 40
0.9999999999999999
 40
0.9999999999999999
 40
0.9999999999999999
 40
0.9999999999999999
 10
55.97951015713332
 20
113.4041822114538
 30
0.0
 10
55.97951172574587
 20
113.4284844598443
 30
0.0
 10
55.97951478245258
 20
113.4758414990912
 30
0.0
 10
55.97951875152111
 20
113.8371139720086
 30
0.0
 10
55.9795221056839
 20
114.3500238760974
 30
0.0
 10
55.97952481466982
 20
114.9822152378576
 30
0.0
 10
55.97952689215882
 20
115.6791874113243
 30
0.0
 10
55.979528315243
 20
116.3995645319296
 30
0.0
 10
55.9795291589575
 20
117.1088695518303
 30
0.0
 10
55.9795291699942
 20
117.5748312719085
 30
0.0
 10
55.97952917530079
 20
117.7988726624775
 30
0.0
  0
SPLINE
  5
E2
330
1F
100
AcDbEntity
  8
0
  6
Continuous
 62
     7
370
    15
100
AcDbSpline
210
0.0
220
0.0
230
1.0
 70
     8
 71
     3
 72
    11
 73
     7
 74
     0
 42
0.000000001
 43
0.00000001
 40
0.0
 40
0.0
 40
0.0
 40
0.0
 40
0.2499025642575907
 40
0.4998439875364822
 40
0.7498772393425195
 40
1.0
 40
1.0
 40
1.0
 40
1.0
 10
55.97952917536583
 20
179.4317399691759
 30
0.0
 10
55.97943782936083
 20
179.8622246875442
 30
0.0
 10
55.97925512314681
 20
180.7232610632292
 30
0.0
 10
55.9789794620437
 20
181.8967224748519
 30
0.0
 10
55.97870276771164
 20
182.8810992459254
 30
0.0
 10
55.97851728611595
 20
183.2744687740619
 30
0.0
 10
55.97842452872102
 20
183.4711887372019
 30
0.0
  0
SPLINE
  5
E3
330
1F
100
AcDbEntity
  8
0
  6
Continuous
 62
     7
370
    15
100
AcDbSpline
210
0.0
220
0.0
230
1.0
 70
     8
 71
     3
 72
     9
 73
     5
 74
     0
 42
0.000000001
 43
0.00000001
 40
0.0
 40
0.0
 40
0.0
 40
0.0
 40
0.4822878213207226
 40
1.0
 40
1.0
 40
1.0
 40
1.0
 10
55.97952982633658
 20
183.784986202313
 30
0.0
 10
55.95043545017634
 20
183.8973484263827
 30
0.0
 10
55.89010969681067
 20
184.1303259537066
 30
0.0
 10
55.76387291750245
 20
184.1316159965405
 30
0.0
 10
55.69851859945733
 20
184.1322838674266
 30
0.0
  0
SPLINE
  5
E4
330
1F
100
AcDbEntity
  8
0
  6
Continuous
 62
     7
370
    15
100
AcDbSpline
210
0.0
220
0.0
230
1.0
 70
     8
 71
     3
 72
    11
 73
     7
 74
     0
 42
0.000000001
 43
0.00000001
 40
0.0
 40
0.0
 40
0.0
 40
0.0
 40
0.2554163007092453
 40
0.5148627785241909
 40
0.7663741714622413
 40
1.0
 40
1.0
 40
1.0
 40
1.0
 10
55.8769103489178
 20
184.0613867752264
 30
0.0
 10
55.78690152311309
 20
184.2414592561775
 30
0.0
 10
55.60546363517555
 20
184.6044455558804
 30
0.0
 10
55.1407299367965
 20
185.0086053096981
 30
0.0
 10
54.600695277205
 20
185.2693211814555
 30
0.0
 10
54.21497963169899
 20
185.3041968265948
 30
0.0
 10
54.02923190245408
 20
185.3209917685839
 30
0.0
  0
LINE
  5
E5
330
1F
100
AcDbEntity
  8
0
  6
Continuous
 62
     7
370
    15
100
AcDbLine
 10
55.8769103489
 20
183.3799277549
 30
0.0
 11
55.9584954198
 21
183.4419699656
 31
0.0
  0
LINE
  5
E6
330
1F
100
AcDbEntity
  8
0
  6
Continuous
 62
     7
370
    15
100
AcDbLine
 10
56.5111194418
 20
175.844727955
 30
0.0
 11
56.0111194418
 21
175.844727955
 31
0.0
  0
LINE
  5
E7
330
1F
100
AcDbEntity
  8
0
  6
Continuous
 62
     7
370
    15
100
AcDbLine
 10
56.0111194418
 20
166.344727955
 30
0.0
 11
56.5111194418
 21
166.344727955
 31
0.0
  0
LINE
  5
E8
330
1F
100
AcDbEntity
  8
0
  6
Continuous
 62
     7
370
    15
100
AcDbLine
 10
56.5111194418
 20
130.844727955
 30
0.0
 11
56.0111194418
 21
130.844727955
 31
0.0
  0
LINE
  5
E9
330
1F
100
AcDbEntity
  8
0
  6
Continuous
 62
     7
370
    15
100
AcDbLine
 10
56.0111194418
 20
121.344727955
 30
0.0
 11
56.5111194418
 21
121.344727955
 31
0.0
  0
LINE
  5
EA
330
1F
100
AcDbEntity
  8
0
  6
Continuous
 62
     7
370
    15
100
AcDbLine
 10
55.8964448288
 20
113.1751706653
 30
0.0
 11
55.9795298263
 21
113.4044697076
 31
0.0
  0
SPLINE
  5
EB
330
1F
100
AcDbEntity
  8
0
  6
Continuous
 62
     7
370
    15
100
AcDbSpline
210
0.0
220
0.0
230
1.0
 70
     8
 71
     3
 72
    14
 73
    10
 74
     0
 42
0.000000001
 43
0.00000001
 40
0.0
 40
0.0
 40
0.0
 40
0.0
 40
0.1343203344556091
 40
0.2793596929810709
 40
0.4350894981039056
 40
0.6015393438990237
 40
0.7786883327541295
 40
0.966537940532487
 40
1.0
 40
1.0
 40
1.0
 40
1.0
 10
55.97952917530078
 20
179.3905832474661
 30
0.0
 10
55.97952916997057
 20
179.6146130437091
 30
0.0
 10
55.97952915888481
 20
180.0805506498855
 30
0.0
 10
55.97952831557013
 20
180.7900524422787
 30
0.0
 10
55.97952689079293
 20
181.5095972401245
 30
0.0
 10
55.97952482029086
 20
182.2100059857507
 30
0.0
 10
55.97952208266849
 20
182.8281143465227
 30
0.0
 10
55.9795197934891
 20
183.2313650301451
 30
0.0
 10
55.97951830490678
 20
183.3544076841247
 30
0.0
 10
55.97951807983491
 20
183.3730115862855
 30
0.0
  0
SPLINE
  5
EC
330
1F
100
AcDbEntity
  8
0
  6
Continuous
 62
     7
370
    15
100
AcDbSpline
210
0.0
220
0.0
230
1.0
 70
     8
 71
     3
 72
     9
 73
     5
 74
     0
 42
0.000000001
 43
0.00000001
 40
0.0
 40
0.0
 40
0.0
 40
0.0
 40
0.1573232415585616
 40
1.0
 40
1.0
 40
1.0
 40
1.0
 10
55.97951555615202
 20
183.5918459224537
 30
0.0
 10
55.97951529737831
 20
183.6156296725231
 30
0.0
 10
55.97951365252471
 20
183.7668072724364
 30
0.0
 10
55.97951175561114
 20
183.7768287946641
 30
0.0
 10
55.97951015712616
 20
183.7852736985296
 30
0.0
  0
LINE
  5
ED
330
1F
100
AcDbEntity
  8
0
  6
Continuous
 62
     7
370
    15
100
AcDbLine
 10
16.0111194418
 20
117.0938141259
 30
0.0
 11
16.0111194418
 21
111.094727955
 31
0.0
  0
LINE
  5
EE
330
1F
100
AcDbEntity
  8
0
  6
Continuous
 62
     7
370
    15
100
AcDbLine
 10
16.0111194418
 20
117.0938141259
 30
0.0
 11
54.0460235052
 21
117.7579291692
 31
0.0
  0
SPLINE
  5
EF
330
1F
100
AcDbEntity
  8
0
  6
Continuous
 62
     7
370
    15
100
AcDbSpline
210
0.0
220
0.0
230
1.0
 70
     8
 71
     3
 72
    47
 73
    43
 74
     0
 42
0.000000001
 43
0.00000001
 40
0.0
 40
0.0
 40
0.0
 40
0.0
 40
0.0249864999188858
 40
0.0499847530455897
 40
0.0749893896215987
 40
0.0999951565467068
 40
0.1249974495475243
 40
0.1499955383251882
 40
0.174990785569912
 40
0.1999843898056166
 40
0.2249775132334986
 40
0.2499714348664441
 40
0.2749669867545182
 40
0.2999639419435876
 40
0.3249618029129978
 40
0.349960047107725
 40
0.3749583089305674
 40
0.3999565938032698
 40
0.4249551000897681
 40
0.4499538000354424
 40
0.474952557208533
 40
0.4999513051372506
 40
0.5249502182944437
 40
0.5499495683141723
 40
0.5749493687437698
 40
0.5999494901878283
 40
0.6249498391094239
 40
0.64995052898408
 40
0.6749517186014964
 40
0.6999531653326465
 40
0.7249543885384565
 40
0.7499548584855424
 40
0.7749541813727527
 40
0.7999526885328063
 40
0.824951641054382
 40
0.8499522352497023
 40
0.874955636124558
 40
0.89996314446231
 40
0.9249754958094969
 40
0.9499892212343205
 40
0.9749991744006413
 40
1.0
 40
1.0
 40
1.0
 40
1.0
 10
54.04602309969124
 20
117.7579291710603
 30
0.0
 10
54.04647304021464
 20
117.6794449636181
 30
0.0
 10
54.04737313290546
 20
117.5224396311501
 30
0.0
 10
54.04863620881965
 20
117.2872566673027
 30
0.0
 10
54.04983606110478
 20
117.0527361682246
 30
0.0
 10
54.05096635058379
 20
116.8192867330396
 30
0.0
 10
54.05202880143847
 20
116.5873080991177
 30
0.0
 10
54.05302285434519
 20
116.3571714837745
 30
0.0
 10
54.05394854013514
 20
116.1292200530435
 30
0.0
 10
54.05480579723518
 20
115.9037909601783
 30
0.0
 10
54.05559460230283
 20
115.6812202301478
 30
0.0
 10
54.05631491279274
 20
115.4618487930394
 30
0.0
 10
54.0569666931635
 20
115.2460132638316
 30
0.0
 10
54.05754993378557
 20
115.0340339462722
 30
0.0
 10
54.05806461352555
 20
114.8262366842142
 30
0.0
 10
54.05851071393056
 20
114.6229465140073
 30
0.0
 10
54.05888821843763
 20
114.4244894283933
 30
0.0
 10
54.05919710937837
 20
114.2311895341925
 30
0.0
 10
54.05943737175228
 20
114.0433266625092
 30
0.0
 10
54.05960899791634
 20
113.8611806058957
 30
0.0
 10
54.0597119817305
 20
113.6850310357777
 30
0.0
 10
54.05974631888097
 20
113.5151562318763
 30
0.0
 10
54.05971200695907
 20
113.3518415013724
 30
0.0
 10
54.05960904807214
 20
113.1953245839574
 30
0.0
 10
54.05943744694034
 20
113.0458299820609
 30
0.0
 10
54.05919720992704
 20
112.9035858099764
 30
0.0
 10
54.05888834497305
 20
112.7688172344542
 30
0.0
 10
54.05851086429521
 20
112.641758942407
 30
0.0
 10
54.05806478774015
 20
112.5226070546783
 30
0.0
 10
54.05755013235462
 20
112.411517573376
 30
0.0
 10
54.05696691700864
 20
112.3086552442425
 30
0.0
 10
54.05631516304179
 20
112.2141817535963
 30
0.0
 10
54.05559488658361
 20
112.128262742522
 30
0.0
 10
54.054806106706
 20
112.0510488347524
 30
0.0
 10
54.05394887505324
 20
111.9826295310476
 30
0.0
 10
54.05302321452017
 20
111.92310126723
 30
0.0
 10
54.05202919275071
 20
111.8725533650266
 30
0.0
 10
54.05096673207365
 20
111.831095763968
 30
0.0
 10
54.0498364378955
 20
111.798767602927
 30
0.0
 10
54.04863660970874
 20
111.7758087870707
 30
0.0
 10
54.04737354579527
 20
111.7613904542635
 30
0.0
 10
54.04647353641502
 20
111.7595743104923
 30
0.0
 10
54.04602361385617
 20
111.7586664043407
 30
0.0
  0
LINE
  5
F0
330
1F
100
AcDbEntity
  8
0
  6
Continuous
 62
     7
370
    15
100
AcDbLine
 10
16.0111194418
 20
111.094727955
 30
0.0
 11
54.0460242547
 21
111.758629688
 31
0.0
  0
LINE
  5
F1
330
1F
100
AcDbEntity
  8
0
  6
Continuous
 62
     7
370
    15
100
AcDbLine
 10
16.0111194418
 20
180.095641784
 30
0.0
 11
16.0111194418
 21
117.0938141259
 31
0.0
  0
LINE
  5
F2
330
1F
100
AcDbEntity
  8
0
  6
Continuous
 62
     7
370
    15
100
AcDbLine
 10
54.0460242547
 20
179.4317400497
 30
0.0
 11
16.0111194418
 21
180.095641784
 31
0.0
  0
LINE
  5
F3
330
1F
100
AcDbEntity
  8
0
  6
Continuous
 62
     7
370
    15
100
AcDbLine
 10
54.0460242547
 20
179.431740051
 30
0.0
 11
54.0460242547
 21
117.7579291692
 31
0.0
  0
LINE
  5
F4
330
1F
100
AcDbEntity
  8
0
  6
Continuous
 62
     7
370
    15
100
AcDbLine
 10
16.0111194418
 20
186.094727955
 30
0.0
 11
16.0111194418
 21
180.095641784
 31
0.0
  0
LINE
  5
F5
330
1F
100
AcDbEntity
  8
0
  6
Continuous
 62
     7
370
    15
100
AcDbLine
 10
16.0111194418
 20
186.094727955
 30
0.0
 11
54.0460235052
 21
185.430826235
 31
0.0
  0
SPLINE
  5
F6
330
1F
100
AcDbEntity
  8
0
  6
Continuous
 62
     7
370
    15
100
AcDbSpline
210
0.0
220
0.0
230
1.0
 70
     8
 71
     3
 72
     9
 73
     5
 74
     0
 42
0.000000001
 43
0.00000001
 40
0.0
 40
0.0
 40
0.0
 40
0.0
 40
0.5362590421335035
 40
1.0
 40
1.0
 40
1.0
 40
1.0
 10
54.04602350517209
 20
185.4308262312162
 30
0.0
 10
54.04719930519061
 20
185.4258396429134
 30
0.0
 10
54.04939190228669
 20
185.4165408005424
 30
0.0
 10
54.05122809888891
 20
185.3487534685155
 30
0.0
 10
54.05207961846003
 20
185.3173177062301
 30
0.0
  0
LINE
  5
F7
330
1F
100
AcDbEntity
  8
0
  6
Continuous
 62
     7
370
    15
100
AcDbLine
 10
55.943483391
 20
117.7577400793
 30
0.0
 11
56.0111194418
 21
117.757715859
 31
0.0
  0
SPLINE
  5
F8
330
1F
100
AcDbEntity
  8
0
  6
Continuous
 62
     7
370
    15
100
AcDbSpline
210
0.0
220
0.0
230
1.0
 70
     8
 71
     3
 72
    11
 73
     7
 74
     0
 42
0.000000001
 43
0.00000001
 40
0.0
 40
0.0
 40
0.0
 40
0.0
 40
0.2823262787717459
 40
0.5646525575434919
 40
0.8469788363152393
 40
1.0
 40
1.0
 40
1.0
 40
1.0
 10
54.04602425473085
 20
111.7586296880191
 30
0.0
 10
54.30507111512238
 20
111.7923875300528
 30
0.0
 10
54.82316483590548
 20
111.8599032141203
 30
0.0
 10
55.46495932938328
 20
112.3262134037161
 30
0.0
 10
55.86978195648383
 20
112.8753441706926
 30
0.0
 10
55.92389456211335
 20
113.2720461973816
 30
0.0
 10
55.94291471263202
 20
113.4114838047728
 30
0.0
  0
SPLINE
  5
F9
330
1F
100
AcDbEntity
  8
0
  6
Continuous
 62
     7
370
    15
100
AcDbSpline
210
0.0
220
0.0
230
1.0
 70
     8
 71
     3
 72
    24
 73
    20
 74
     0
 42
0.000000001
 43
0.00000001
 40
0.0
 40
0.0
 40
0.0
 40
0.0
 40
0.1249999999999993
 40
0.1249999999999993
 40
0.2499999999999987
 40
0.2499999999999987
 40
0.3124999999999988
 40
0.3124999999999988
 40
0.3749999999999989
 40
0.3749999999999989
 40
0.4999999999999991
 40
0.4999999999999991
 40
0.6249999999999993
 40
0.6249999999999993
 40
0.7499999999999996
 40
0.7499999999999996
 40
0.8749999999999998
 40
0.8749999999999998
 40
1.0
 40
1.0
 40
1.0
 40
1.0
 10
56.01111944164011
 20
129.4756631503106
 30
0.0
 10
56.01111613398658
 20
129.2500124326199
 30
0.0
 10
55.9731389697115
 20
129.0066780398057
 30
0.0
 10
55.86148184148033
 20
128.4837839589788
 30
0.0
 10
55.78861233414338
 20
128.2108287427461
 30
0.0
 10
55.67943891406643
 20
127.7852782290603
 30
0.0
 10
55.64296588632141
 20
127.6404727445287
 30
0.0
 10
55.57418976312176
 20
127.343877810391
 30
0.0
 10
55.54176461621943
 20
127.1912556576105
 30
0.0
 10
55.45980950827933
 20
126.7300385463917
 30
0.0
 10
55.42599787020712
 20
126.4165779582186
 30
0.0
 10
55.42590058817379
 20
125.7743181558724
 30
0.0
 10
55.45967286806763
 20
125.4599140966365
 30
0.0
 10
55.5695966698635
 20
124.8418435345028
 30
0.0
 10
55.64303574902714
 20
124.5460730266655
 30
0.0
 10
55.78865815166004
 20
123.9784502721757
 30
0.0
 10
55.86211354801839
 20
123.7029755129012
 30
0.0
 10
55.97314452341661
 20
123.1824884912866
 30
0.0
 10
56.0111161312834
 20
122.9396278931344
 30
0.0
 10
56.01111944164013
 20
122.713792759633
 30
0.0
  0
LINE
  5
FA
330
1F
100
AcDbEntity
  8
0
  6
Continuous
 62
     7
370
    15
100
AcDbLine
 10
56.0111194418
 20
117.757715859
 30
0.0
 11
56.0111194418
 21
122.7138220762
 31
0.0
  0
LINE
  5
FB
330
1F
100
AcDbEntity
  8
0
  6
Continuous
 62
     7
370
    15
100
AcDbLine
 10
56.0111194418
 20
179.431740051
 30
0.0
 11
55.9429455591
 21
179.431740051
 31
0.0
  0
LINE
  5
FC
330
1F
100
AcDbEntity
  8
0
  6
Continuous
 62
     7
370
    15
100
AcDbLine
 10
56.0111194418
 20
174.4756338337
 30
0.0
 11
56.0111194418
 21
179.431740051
 31
0.0
  0
SPLINE
  5
FD
330
1F
100
AcDbEntity
  8
0
  6
Continuous
 62
     7
370
    15
100
AcDbSpline
210
0.0
220
0.0
230
1.0
 70
     8
 71
     3
 72
    24
 73
    20
 74
     0
 42
0.000000001
 43
0.00000001
 40
0.0
 40
0.0
 40
0.0
 40
0.0
 40
0.1250000000000012
 40
0.1250000000000012
 40
0.2500000000000023
 40
0.2500000000000023
 40
0.3125000000000021
 40
0.3125000000000021
 40
0.3750000000000019
 40
0.3750000000000019
 40
0.5000000000000016
 40
0.5000000000000016
 40
0.6250000000000011
 40
0.6250000000000011
 40
0.7500000000000008
 40
0.7500000000000008
 40
0.8750000000000003
 40
0.8750000000000003
 40
1.0
 40
1.0
 40
1.0
 40
1.0
 10
56.01111944164011
 20
167.7137927596331
 30
0.0
 10
56.01111613398658
 20
167.9394434773237
 30
0.0
 10
55.97313896971151
 20
168.1827778701379
 30
0.0
 10
55.86148184148035
 20
168.7056719509648
 30
0.0
 10
55.78861233414339
 20
168.9786271671974
 30
0.0
 10
55.67943891406642
 20
169.4041776808833
 30
0.0
 10
55.64296588632142
 20
169.5489831654149
 30
0.0
 10
55.57418976312177
 20
169.8455780995526
 30
0.0
 10
55.54176461621943
 20
169.9982002523331
 30
0.0
 10
55.45980950827932
 20
170.4594173635519
 30
0.0
 10
55.42599787020712
 20
170.772877951725
 30
0.0
 10
55.42590058817377
 20
171.4151377540712
 30
0.0
 10
55.45967286806763
 20
171.7295418133071
 30
0.0
 10
55.5695966698635
 20
172.3476123754409
 30
0.0
 10
55.64303574902714
 20
172.6433828832781
 30
0.0
 10
55.78865815166005
 20
173.2110056377679
 30
0.0
 10
55.86211354801839
 20
173.4864803970424
 30
0.0
 10
55.97314452341661
 20
174.006967418657
 30
0.0
 10
56.01111613128339
 20
174.2498280168092
 30
0.0
 10
56.01111944164013
 20
174.4756631503106
 30
0.0
  0
LINE
  5
FE
330
1F
100
AcDbEntity
  8
0
  6
Continuous
 62
     7
370
    15
100
AcDbLine
 10
56.0111194418
 20
129.4756338337
 30
0.0
 11
56.0111194418
 21
167.7138220762
 31
0.0
  0
LINE
  5
FF
330
1F
100
AcDbEntity
  8
0
  6
Continuous
 62
     7
370
    15
100
AcDbLine
 10
55.9402835043
 20
183.7913524908
 30
0.0
 11
56.0111194418
 21
183.4311308316
 31
0.0
  0
LINE
  5
100
330
1F
100
AcDbEntity
  8
0
  6
Continuous
 62
     7
370
    15
100
AcDbLine
 10
56.0111194418
 20
183.3559611972
 30
0.0
 11
56.0111194418
 21
183.4311308316
 31
0.0
  0
LINE
  5
101
330
1F
100
AcDbEntity
  8
0
  6
Continuous
 62
     7
370
    15
100
AcDbLine
 10
56.5111194418
 20
166.344727955
 30
0.0
 11
56.5111194418
 21
175.844727955
 31
0.0
  0
LINE
  5
102
330
1F
100
AcDbEntity
  8
0
  6
Continuous
 62
     7
370
    15
100
AcDbLine
 10
56.5111194418
 20
121.344727955
 30
0.0
 11
56.5111194418
 21
130.844727955
 31
0.0
  0
LINE
  5
103
330
1F
100
AcDbEntity
  8
0
  6
Continuous
 62
     7
370
    15
100
AcDbLine
 10
14.5111194418
 20
162.18195622
 30
0.0
 11
14.5111194418
 21
135.00749969
 31
0.0
  0
LINE
  5
104
330
1F
100
AcDbEntity
  8
0
  6
Continuous
 62
     7
370
    15
100
AcDbLine
 10
16.0111194418
 20
162.18195622
 30
0.0
 11
14.5111194418
 21
162.18195622
 31
0.0
  0
LINE
  5
105
330
1F
100
AcDbEntity
  8
0
  6
Continuous
 62
     7
370
    15
100
AcDbLine
 10
16.0111194418
 20
135.00749969
 30
0.0
 11
14.5111194418
 21
135.00749969
 31
0.0
  0
LINE
  5
106
330
1F
100
AcDbEntity
  8
0
  6
Continuous
 62
     7
370
    15
100
AcDbLine
 10
14.5111194418
 20
166.8364036816
 30
0.0
 11
14.5111194418
 21
162.18195622
 31
0.0
  0
LINE
  5
107
330
1F
100
AcDbEntity
  8
0
  6
Continuous
 62
     7
370
    15
100
AcDbLine
 10
16.0111194418
 20
166.8364036816
 30
0.0
 11
14.5111194418
 21
166.8364036816
 31
0.0
  0
LINE
  5
108
330
1F
100
AcDbEntity
  8
0
  6
Continuous
 62
     7
370
    15
100
AcDbLine
 10
14.5111194418
 20
135.00749969
 30
0.0
 11
14.5111194418
 21
130.3530522284
 31
0.0
  0
LINE
  5
109
330
1F
100
AcDbEntity
  8
0
  6
Continuous
 62
     7
370
    15
100
AcDbLine
 10
14.5111194418
 20
130.3530522284
 30
0.0
 11
16.0111194418
 21
130.3530522284
 31
0.0
  0
LINE
  5
10A
330
1F
100
AcDbEntity
  8
0
  6
Continuous
 62
     7
370
    15
100
AcDbLine
 10
14.5111194418
 20
171.094727955
 30
0.0
 11
16.0111194418
 21
171.094727955
 31
0.0
  0
LINE
  5
10B
330
1F
100
AcDbEntity
  8
0
  6
Continuous
 62
     7
370
    15
100
AcDbLine
 10
14.5111194418
 20
166.8364036816
 30
0.0
 11
14.5111194418
 21
171.094727955
 31
0.0
  0
LINE
  5
10C
330
1F
100
AcDbEntity
  8
0
  6
Continuous
 62
     7
370
    15
100
AcDbLine
 10
16.0111194418
 20
126.094727955
 30
0.0
 11
14.5111194418
 21
126.094727955
 31
0.0
  0
LINE
  5
10D
330
1F
100
AcDbEntity
  8
0
  6
Continuous
 62
     7
370
    15
100
AcDbLine
 10
14.5111194418
 20
126.094727955
 30
0.0
 11
14.5111194418
 21
130.3530522284
 31
0.0
  0
LINE
  5
10E
330
1F
100
AcDbEntity
  8
0
  6
Continuous
 62
     7
370
    15
100
AcDbLine
 10
14.5111194418
 20
183.544727955
 30
0.0
 11
16.0111194418
 21
183.544727955
 31
0.0
  0
LINE
  5
10F
330
1F
100
AcDbEntity
  8
0
  6
Continuous
 62
     7
370
    15
100
AcDbLine
 10
16.0111194418
 20
178.844727955
 30
0.0
 11
14.5111194418
 21
178.844727955
 31
0.0
  0
LINE
  5
110
330
1F
100
AcDbEntity
  8
0
  6
Continuous
 62
     7
370
    15
100
AcDbLine
 10
14.5111194418
 20
183.544727955
 30
0.0
 11
14.5111194418
 21
178.844727955
 31
0.0
  0
LINE
  5
111
330
1F
100
AcDbEntity
  8
0
  6
Continuous
 62
     7
370
    15
100
AcDbLine
 10
16.0111194418
 20
118.344727955
 30
0.0
 11
14.5111194418
 21
118.344727955
 31
0.0
  0
LINE
  5
112
330
1F
100
AcDbEntity
  8
0
  6
Continuous
 62
     7
370
    15
100
AcDbLine
 10
16.0111194418
 20
113.644727955
 30
0.0
 11
14.5111194418
 21
113.644727955
 31
0.0
  0
LINE
  5
113
330
1F
100
AcDbEntity
  8
0
  6
Continuous
 62
     7
370
    15
100
AcDbLine
 10
14.5111194418
 20
118.344727955
 30
0.0
 11
14.5111194418
 21
113.644727955
 31
0.0
  0
LINE
  5
114
330
1F
100
AcDbEntity
  8
0
  6
Continuous
 62
     7
370
    15
100
AcDbLine
 10
14.5111194418
 20
126.094727955
 30
0.0
 11
14.5111194418
 21
118.344727955
 31
0.0
  0
LINE
  5
115
330
1F
100
AcDbEntity
  8
0
  6
Continuous
 62
     7
370
    15
100
AcDbLine
 10
14.5111194418
 20
178.844727955
 30
0.0
 11
14.5111194418
 21
171.094727955
 31
0.0
  0
SPLINE
  5
116
330
1F
100
AcDbEntity
  8
0
  6
Continuous
 62
     8
370
    15
100
AcDbSpline
210
0.0
220
0.0
230
1.0
 70
     8
 71
     3
 72
    15
 73
    11
 74
     0
 42
0.000000001
 43
0.00000001
 40
0.0
 40
0.0
 40
0.0
 40
0.0
 40
0.0091229513119485
 40
0.1534805014917514
 40
0.2939176599100682
 40
0.4304346484767662
 40
0.5669871267983904
 40
0.7074320415362956
 40
0.8517696293309418
 40
1.0
 40
1.0
 40
1.0
 40
1.0
 10
54.05207961846003
 20
185.3173177062301
 30
0.0
 10
54.05220407677108
 20
185.3135629674713
 30
0.0
 10
54.05429790839883
 20
185.2503949017909
 30
0.0
 10
54.05727159686102
 20
184.9809300867607
 30
0.0
 10
54.05996593803267
 20
184.4306806992219
 30
0.0
 10
54.06072798486293
 20
183.6981329298995
 30
0.0
 10
54.05995646631683
 20
182.8165610467654
 30
0.0
 10
54.05730535585941
 20
181.7922435119841
 30
0.0
 10
54.05274075135376
 20
180.6473625205431
 30
0.0
 10
54.04828285853719
 20
179.8405260126768
 30
0.0
 10
54.04602425473085
 20
179.4317400497218
 30
0.0
  0
SPLINE
  5
117
330
1F
100
AcDbEntity
  8
0
  6
Continuous
 62
     8
370
    15
100
AcDbSpline
210
0.0
220
0.0
230
1.0
 70
     8
 71
     3
 72
    11
 73
     7
 74
     0
 42
0.000000001
 43
0.00000001
 40
0.0
 40
0.0
 40
0.0
 40
0.0
 40
0.2820222071949747
 40
0.5640444143899509
 40
0.8460666215849258
 40
1.0
 40
1.0
 40
1.0
 40
1.0
 10
54.04602350523968
 20
117.7579291692018
 30
0.0
 10
54.30506560308154
 20
117.7579113933485
 30
0.0
 10
54.82314979876524
 20
117.7578758416418
 30
0.0
 10
55.46501712814666
 20
117.7578225140818
 30
0.0
 10
55.87021411355841
 20
117.7577772599578
 30
0.0
 10
55.92436354284499
 20
117.7577497816871
 30
0.0
 10
55.94348339097738
 20
117.7577400792697
 30
0.0
  0
SPLINE
  5
118
330
1F
100
AcDbEntity
  8
0
  6
Continuous
 62
     8
370
    15
100
AcDbSpline
210
0.0
220
0.0
230
1.0
 70
    24
 71
     3
 72
    11
 73
     7
 74
     0
 42
0.000000001
 43
0.00000001
 40
0.0
 40
0.0
 40
0.0
 40
0.0
 40
0.1530706920141589
 40
0.4353804613427736
 40
0.7176902306713868
 40
0.9999999999999999
 40
0.9999999999999999
 40
0.9999999999999999
 40
0.9999999999999999
 10
55.94294555908994
 20
179.4317400509818
 30
0.0
 10
55.92391999396876
 20
179.4317400509818
 30
0.0
 10
55.8698053936441
 20
179.4317400509818
 30
0.0
 10
55.46496248622086
 20
179.4317400509818
 30
0.0
 10
54.82316404669606
 20
179.4317400509818
 30
0.0
 10
54.30507085205259
 20
179.4317400509818
 30
0.0
 10
54.04602425473085
 20
179.4317400509818
 30
0.0
  0
SPLINE
  5
119
330
1F
100
AcDbEntity
  8
0
  6
Continuous
 62
     7
370
    15
100
AcDbSpline
210
0.0
220
0.0
230
1.0
 70
     8
 71
     3
 72
    15
 73
    11
 74
     0
 42
0.000000001
 43
0.00000001
 40
0.0
 40
0.0
 40
0.0
 40
0.0
 40
0.1522682802373271
 40
0.2967204847612685
 40
0.4334050116243331
 40
0.5623034746672869
 40
0.6834169477688481
 40
0.7967302252532593
 40
0.9022648405812097
 40
1.0
 40
1.0
 40
1.0
 40
1.0
 10
84.74784074790911
 20
198.0355555089313
 30
0.0
 10
84.77214299631056
 20
198.0355539403169
 30
0.0
 10
84.81950003557849
 20
198.0355508836066
 30
0.0
 10
85.1807725085276
 20
198.0355469145333
 30
0.0
 10
85.69368241264274
 20
198.0355435603665
 30
0.0
 10
86.32587377442199
 20
198.0355408513772
 30
0.0
 10
87.02284594790075
 20
198.0355387738857
 30
0.0
 10
87.74322306851239
 20
198.0355373507996
 30
0.0
 10
88.45252808841535
 20
198.035536507084
 30
0.0
 10
88.91848980849386
 20
198.0355364960471
 30
0.0
 10
89.14253119906296
 20
198.0355364907405
 30
0.0
  0
SPLINE
  5
11A
330
1F
100
AcDbEntity
  8
0
  6
Continuous
 62
     7
370
    15
100
AcDbSpline
210
0.0
220
0.0
230
1.0
 70
     8
 71
     3
 72
    11
 73
     7
 74
     0
 42
0.000000001
 43
0.00000001
 40
0.0
 40
0.0
 40
0.0
 40
0.0
 40
0.2499025642575891
 40
0.4998439875364833
 40
0.7498772393425231
 40
1.0
 40
1.0
 40
1.0
 40
1.0
 10
185.7753985057614
 20
198.0355364906754
 30
0.0
 10
186.2058832241297
 20
198.0356278366804
 30
0.0
 10
187.0669195998146
 20
198.0358105428945
 30
0.0
 10
188.2403810114373
 20
198.0360862039975
 30
0.0
 10
189.2247577825109
 20
198.0363628983296
 30
0.0
 10
189.6181273106474
 20
198.0365483799253
 30
0.0
 10
189.8148472737873
 20
198.0366411373202
 30
0.0
  0
SPLINE
  5
11B
330
1F
100
AcDbEntity
  8
0
  6
Continuous
 62
     7
370
    15
100
AcDbSpline
210
0.0
220
0.0
230
1.0
 70
     8
 71
     3
 72
     9
 73
     5
 74
     0
 42
0.000000001
 43
0.00000001
 40
0.0
 40
0.0
 40
0.0
 40
0.0
 40
0.4822878213208485
 40
1.0
 40
1.0
 40
1.0
 40
1.0
 10
190.1286447389035
 20
198.0355358397055
 30
0.0
 10
190.2410069629723
 20
198.0646302158659
 30
0.0
 10
190.4739844902943
 20
198.1249559692317
 30
0.0
 10
190.4752745331266
 20
198.2511927485392
 30
0.0
 10
190.4759424040119
 20
198.3165470665839
 30
0.0
  0
SPLINE
  5
11C
330
1F
100
AcDbEntity
  8
0
  6
Continuous
 62
     7
370
    15
100
AcDbSpline
210
0.0
220
0.0
230
1.0
 70
     8
 71
     3
 72
    11
 73
     7
 74
     0
 42
0.000000001
 43
0.00000001
 40
0.0
 40
0.0
 40
0.0
 40
0.0
 40
0.2554163007092431
 40
0.5148627785241924
 40
0.7663741714622428
 40
1.0
 40
1.0
 40
1.0
 40
1.0
 10
190.4050453118118
 20
198.1381553171234
 30
0.0
 10
190.5851177927629
 20
198.2281641429281
 30
0.0
 10
190.9481040924658
 20
198.4096020308657
 30
0.0
 10
191.3522638462835
 20
198.8743357292447
 30
0.0
 10
191.6129797180409
 20
199.4143703888362
 30
0.0
 10
191.6478553631802
 20
199.8000860343422
 30
0.0
 10
191.6646503051694
 20
199.9858337635872
 30
0.0
  0
LINE
  5
11D
330
1F
100
AcDbEntity
  8
0
  6
Continuous
 62
     7
370
    15
100
AcDbLine
 10
189.7235862915
 20
198.1381553171
 30
0.0
 11
189.7856285022
 21
198.0565702463
 31
0.0
  0
LINE
  5
11E
330
1F
100
AcDbEntity
  8
0
  6
Continuous
 62
     7
370
    15
100
AcDbLine
 10
191.1883864916
 20
197.5039462242
 30
0.0
 11
191.1883864916
 21
198.5891164914
 31
0.0
  0
LINE
  5
11F
330
1F
100
AcDbEntity
  8
0
  6
Continuous
 62
     7
370
    15
100
AcDbLine
 10
181.6883864916
 20
198.0039462242
 30
0.0
 11
181.6883864916
 21
197.5039462242
 31
0.0
  0
LINE
  5
120
330
1F
100
AcDbEntity
  8
0
  6
Continuous
 62
     7
370
    15
100
AcDbLine
 10
93.1883864916
 20
197.5039462242
 30
0.0
 11
93.1883864916
 21
198.0039462242
 31
0.0
  0
LINE
  5
121
330
1F
100
AcDbEntity
  8
0
  6
Continuous
 62
     7
370
    15
100
AcDbLine
 10
83.6883864916
 20
198.5891164914
 30
0.0
 11
83.6883864916
 21
197.5039462242
 31
0.0
  0
LINE
  5
122
330
1F
100
AcDbEntity
  8
0
  6
Continuous
 62
     7
370
    15
100
AcDbLine
 10
88.4374726625
 20
238.0039462242
 30
0.0
 11
82.4383864916
 21
238.0039462242
 31
0.0
  0
LINE
  5
123
330
1F
100
AcDbEntity
  8
0
  6
Continuous
 62
     7
370
    15
100
AcDbLine
 10
88.4374726625
 20
238.0039462242
 30
0.0
 11
89.1015877058
 21
199.9690421608
 31
0.0
  0
SPLINE
  5
124
330
1F
100
AcDbEntity
  8
0
  6
Continuous
 62
     7
370
    15
100
AcDbSpline
210
0.0
220
0.0
230
1.0
 70
     8
 71
     3
 72
    47
 73
    43
 74
     0
 42
0.000000001
 43
0.00000001
 40
0.0
 40
0.0
 40
0.0
 40
0.0
 40
0.0249864999188309
 40
0.0499847530454852
 40
0.0749893896214435
 40
0.0999951565465058
 40
0.1249974495472798
 40
0.1499955383249027
 40
0.1749907855695876
 40
0.199984389805257
 40
0.2249775132331061
 40
0.2499714348660234
 40
0.2749669867540694
 40
0.2999639419431164
 40
0.3249618029125061
 40
0.349960047107215
 40
0.3749583089300425
 40
0.3999565938027327
 40
0.4249551000892208
 40
0.4499538000348887
 40
0.4749525572079746
 40
0.4999513051366905
 40
0.5249502182938851
 40
0.5499495683136159
 40
0.574949368743221
 40
0.5999494901872886
 40
0.6249498391088985
 40
0.6499505289835674
 40
0.6749517186010041
 40
0.6999531653321758
 40
0.7249543885380093
 40
0.7499548584851219
 40
0.7749541813723616
 40
0.799952688532447
 40
0.824951641054056
 40
0.8499522352494157
 40
0.8749556361243106
 40
0.8999631444621059
 40
0.92497549580934
 40
0.9499892212342127
 40
0.9749991744005861
 40
0.9999999999999999
 40
0.9999999999999999
 40
0.9999999999999999
 40
0.9999999999999999
 10
89.10158770764573
 20
199.96904256635
 30
0.0
 10
89.0231035002037
 20
199.9685926258266
 30
0.0
 10
88.86609816773604
 20
199.9676925331358
 30
0.0
 10
88.63091520388913
 20
199.9664294572216
 30
0.0
 10
88.3963947048115
 20
199.9652296049365
 30
0.0
 10
88.16294526962687
 20
199.9640993154574
 30
0.0
 10
87.93096663570535
 20
199.9630368646027
 30
0.0
 10
87.7008300203625
 20
199.9620428116961
 30
0.0
 10
87.47287858963185
 20
199.9611171259061
 30
0.0
 10
87.24744949676698
 20
199.960259868806
 30
0.0
 10
87.02487876673673
 20
199.9594710637384
 30
0.0
 10
86.80550732962847
 20
199.9587507532485
 30
0.0
 10
86.58967180042086
 20
199.9580989728778
 30
0.0
 10
86.37769248286162
 20
199.9575157322556
 30
0.0
 10
86.16989522080371
 20
199.9570010525156
 30
0.0
 10
85.96660505059685
 20
199.9565549521107
 30
0.0
 10
85.76814796498289
 20
199.9561774476036
 30
0.0
 10
85.57484807078201
 20
199.9558685566628
 30
0.0
 10
85.3869851990987
 20
199.9556282942889
 30
0.0
 10
85.20483914248503
 20
199.9554566681248
 30
0.0
 10
85.02868957236701
 20
199.9553536843107
 30
0.0
 10
84.85881476846544
 20
199.9553193471602
 30
0.0
 10
84.69550003796145
 20
199.9553536590822
 30
0.0
 10
84.53898312054616
 20
199.955456617969
 30
0.0
 10
84.38948851864954
 20
199.9556282191009
 30
0.0
 10
84.24724434656483
 20
199.9558684561142
 30
0.0
 10
84.11247577104244
 20
199.9561773210682
 30
0.0
 10
83.9854174789949
 20
199.956554801746
 30
0.0
 10
83.86626559126606
 20
199.957000878301
 30
0.0
 10
83.75517610996341
 20
199.9575155336866
 30
0.0
 10
83.6523137808297
 20
199.9580987490326
 30
0.0
 10
83.55784029018324
 20
199.9587505029994
 30
0.0
 10
83.4719212791087
 20
199.9594707794576
 30
0.0
 10
83.3947073713389
 20
199.9602595593352
 30
0.0
 10
83.3262880676339
 20
199.961116790988
 30
0.0
 10
83.26675980381603
 20
199.962042451521
 30
0.0
 10
83.21621190161247
 20
199.9630364732905
 30
0.0
 10
83.17475430055374
 20
199.9640989339676
 30
0.0
 10
83.14242613951257
 20
199.9652292281457
 30
0.0
 10
83.11946732365627
 20
199.9664290563325
 30
0.0
 10
83.10504899084894
 20
199.9676921202459
 30
0.0
 10
83.10323284707776
 20
199.9685921296262
 30
0.0
 10
83.10232494092618
 20
199.9690420521851
 30
0.0
  0
LINE
  5
125
330
1F
100
AcDbEntity
  8
0
  6
Continuous
 62
     7
370
    15
100
AcDbLine
 10
82.4383864916
 20
238.0039462242
 30
0.0
 11
83.1022882246
 21
199.9690414113
 31
0.0
  0
LINE
  5
126
330
1F
100
AcDbEntity
  8
0
  6
Continuous
 62
     7
370
    15
100
AcDbLine
 10
186.4393003206
 20
238.0039462242
 30
0.0
 11
88.4374726625
 21
238.0039462242
 31
0.0
  0
LINE
  5
127
330
1F
100
AcDbEntity
  8
0
  6
Continuous
 62
     7
370
    15
100
AcDbLine
 10
186.4393003206
 20
238.0039462242
 30
0.0
 11
185.7753985863
 21
199.9690414113
 31
0.0
  0
LINE
  5
128
330
1F
100
AcDbEntity
  8
0
  6
Continuous
 62
     7
370
    15
100
AcDbLine
 10
185.7753985876
 20
199.9690414113
 30
0.0
 11
89.1015877058
 21
199.9690414113
 31
0.0
  0
LINE
  5
129
330
1F
100
AcDbEntity
  8
0
  6
Continuous
 62
     7
370
    15
100
AcDbLine
 10
192.4383864916
 20
238.0039462242
 30
0.0
 11
186.4393003206
 21
238.0039462242
 31
0.0
  0
LINE
  5
12A
330
1F
100
AcDbEntity
  8
0
  6
Continuous
 62
     7
370
    15
100
AcDbLine
 10
192.4383864916
 20
238.0039462242
 30
0.0
 11
191.7744847716
 21
199.9690421608
 31
0.0
  0
LINE
  5
12B
330
1F
100
AcDbEntity
  8
0
  6
Continuous
 62
     7
370
    15
100
AcDbLine
 10
191.7744847678
 20
199.9690421609
 30
0.0
 11
191.6571187129
 21
199.9630094143
 31
0.0
  0
LINE
  5
12C
330
1F
100
AcDbEntity
  8
0
  6
Continuous
 62
     7
370
    15
100
AcDbLine
 10
89.1013986159
 20
198.0715822751
 30
0.0
 11
89.1013743955
 21
198.0039462242
 31
0.0
  0
SPLINE
  5
12D
330
1F
100
AcDbEntity
  8
0
  6
Continuous
 62
     7
370
    15
100
AcDbSpline
210
0.0
220
0.0
230
1.0
 70
     8
 71
     3
 72
    11
 73
     7
 74
     0
 42
0.000000001
 43
0.00000001
 40
0.0
 40
0.0
 40
0.0
 40
0.0
 40
0.282326278785391
 40
0.5646525575707821
 40
0.8469788363561748
 40
1.0
 40
1.0
 40
1.0
 40
1.0
 10
83.10228822460458
 20
199.9690414113104
 30
0.0
 10
83.13604606663822
 20
199.7099945509187
 30
0.0
 10
83.2035617507055
 20
199.1919008301351
 30
0.0
 10
83.66987194030237
 20
198.5501063366605
 30
0.0
 10
84.21900270723845
 20
198.1452837095768
 30
0.0
 10
84.61570473388188
 20
198.0911711039489
 30
0.0
 10
84.7551423412286
 20
198.0721509534347
 30
0.0
  0
LINE
  5
12E
330
1F
100
AcDbEntity
  8
0
  6
Continuous
 62
     7
370
    15
100
AcDbLine
 10
185.7753985876
 20
198.072120107
 30
0.0
 11
185.7753985876
 21
198.0039462242
 31
0.0
  0
LINE
  5
12F
330
1F
100
AcDbEntity
  8
0
  6
Continuous
 62
     7
370
    15
100
AcDbLine
 10
89.1013743955
 20
198.0039462242
 30
0.0
 11
185.7753985876
 21
198.0039462242
 31
0.0
  0
LINE
  5
130
330
1F
100
AcDbEntity
  8
0
  6
Continuous
 62
     7
370
    15
100
AcDbLine
 10
190.1350110274
 20
198.0747821618
 30
0.0
 11
189.7747893682
 21
198.0039462242
 31
0.0
  0
LINE
  5
131
330
1F
100
AcDbEntity
  8
0
  6
Continuous
 62
     7
370
    15
100
AcDbLine
 10
189.6996197338
 20
198.0039462242
 30
0.0
 11
189.7747893682
 21
198.0039462242
 31
0.0
  0
LINE
  5
132
330
1F
100
AcDbEntity
  8
0
  6
Continuous
 62
     7
370
    15
100
AcDbLine
 10
182.1383864916
 20
239.5039462242
 30
0.0
 11
177.4383864916
 21
239.5039462242
 31
0.0
  0
LINE
  5
133
330
1F
100
AcDbEntity
  8
0
  6
Continuous
 62
     7
370
    15
100
AcDbLine
 10
182.1383864916
 20
238.0039462242
 30
0.0
 11
182.1383864916
 21
239.5039462242
 31
0.0
  0
LINE
  5
134
330
1F
100
AcDbEntity
  8
0
  6
Continuous
 62
     7
370
    15
100
AcDbLine
 10
177.4383864916
 20
238.0039462242
 30
0.0
 11
177.4383864916
 21
239.5039462242
 31
0.0
  0
LINE
  5
135
330
1F
100
AcDbEntity
  8
0
  6
Continuous
 62
     7
370
    15
100
AcDbLine
 10
177.4383864916
 20
239.5039462242
 30
0.0
 11
97.4383864916
 21
239.5039462242
 31
0.0
  0
LINE
  5
136
330
1F
100
AcDbEntity
  8
0
  6
Continuous
 62
     7
370
    15
100
AcDbLine
 10
97.4383864916
 20
238.0039462242
 30
0.0
 11
97.4383864916
 21
239.5039462242
 31
0.0
  0
LINE
  5
137
330
1F
100
AcDbEntity
  8
0
  6
Continuous
 62
     7
370
    15
100
AcDbLine
 10
92.7383864916
 20
238.0039462242
 30
0.0
 11
92.7383864916
 21
239.5039462242
 31
0.0
  0
LINE
  5
138
330
1F
100
AcDbEntity
  8
0
  6
Continuous
 62
     7
370
    15
100
AcDbLine
 10
97.4383864916
 20
239.5039462242
 30
0.0
 11
92.7383864916
 21
239.5039462242
 31
0.0
  0
LINE
  5
139
330
1F
100
AcDbEntity
  8
0
  6
Continuous
 62
     7
370
    15
100
AcDbLine
 10
181.6883864916
 20
197.5039462242
 30
0.0
 11
191.1883864916
 21
197.5039462242
 31
0.0
  0
LINE
  5
13A
330
1F
100
AcDbEntity
  8
0
  6
Continuous
 62
     7
370
    15
100
AcDbLine
 10
83.6883864916
 20
197.5039462242
 30
0.0
 11
93.1883864916
 21
197.5039462242
 31
0.0
  0
LINE
  5
13B
330
1F
100
AcDbEntity
  8
0
  6
Continuous
 62
     7
370
    15
100
AcDbLine
 10
185.8411642693
 20
239.5039462242
 30
0.0
 11
185.8411642693
 21
238.0039462242
 31
0.0
  0
LINE
  5
13C
330
1F
100
AcDbEntity
  8
0
  6
Continuous
 62
     7
370
    15
100
AcDbLine
 10
182.1383864916
 20
239.5039462242
 30
0.0
 11
185.8411642693
 21
239.5039462242
 31
0.0
  0
LINE
  5
13D
330
1F
100
AcDbEntity
  8
0
  6
Continuous
 62
     7
370
    15
100
AcDbLine
 10
89.0356087138
 20
238.0039462242
 30
0.0
 11
89.0356087138
 21
239.5039462242
 31
0.0
  0
LINE
  5
13E
330
1F
100
AcDbEntity
  8
0
  6
Continuous
 62
     7
370
    15
100
AcDbLine
 10
89.0356087138
 20
239.5039462242
 30
0.0
 11
92.7383864916
 21
239.5039462242
 31
0.0
  0
LINE
  5
13F
330
1F
100
AcDbEntity
  8
0
  6
Continuous
 62
     7
370
    15
100
AcDbLine
 10
84.9883864916
 20
238.0039462242
 30
0.0
 11
84.9883864916
 21
239.5039462242
 31
0.0
  0
LINE
  5
140
330
1F
100
AcDbEntity
  8
0
  6
Continuous
 62
     7
370
    15
100
AcDbLine
 10
89.0356087138
 20
239.5039462242
 30
0.0
 11
84.9883864916
 21
239.5039462242
 31
0.0
  0
LINE
  5
141
330
1F
100
AcDbEntity
  8
0
  6
Continuous
 62
     7
370
    15
100
AcDbLine
 10
189.8883864916
 20
238.0039462242
 30
0.0
 11
189.8883864916
 21
239.5039462242
 31
0.0
  0
LINE
  5
142
330
1F
100
AcDbEntity
  8
0
  6
Continuous
 62
     7
370
    15
100
AcDbLine
 10
189.8883864916
 20
239.5039462242
 30
0.0
 11
185.8411642693
 21
239.5039462242
 31
0.0
  0
SPLINE
  5
143
330
1F
100
AcDbEntity
  8
0
  6
Continuous
 62
     8
370
    15
100
AcDbSpline
210
0.0
220
0.0
230
1.0
 70
     8
 71
     3
 72
    15
 73
    11
 74
     0
 42
0.000000001
 43
0.00000001
 40
0.0
 40
0.0
 40
0.0
 40
0.0
 40
0.0091108229788054
 40
0.1534700746001064
 40
0.2939086335649144
 40
0.4304267216463362
 40
0.5669811004142165
 40
0.7074279697707109
 40
0.8517675663595721
 40
1.0
 40
1.0
 40
1.0
 40
1.0
 10
191.6571187128745
 20
199.9630094142968
 30
0.0
 10
191.6546921983604
 20
199.9628768606504
 30
0.0
 10
191.6138180243852
 20
199.9606440197698
 30
0.0
 10
191.3160506031599
 20
199.9578472916281
 30
0.0
 10
190.7765251031041
 20
199.9550860391331
 30
0.0
 10
190.0412105355709
 20
199.9543413025009
 30
0.0
 10
189.1603795297968
 20
199.9551082001485
 30
0.0
 10
188.1358575935647
 20
199.9577605880008
 30
0.0
 10
186.9910326511762
 20
199.9623248422312
 30
0.0
 10
186.1841884480746
 20
199.9667827831387
 30
0.0
 10
185.7753985863072
 20
199.9690414113104
 30
0.0
  0
SPLINE
  5
144
330
1F
100
AcDbEntity
  8
0
  6
Continuous
 62
     8
370
    15
100
AcDbSpline
210
0.0
220
0.0
230
1.0
 70
     8
 71
     3
 72
    11
 73
     7
 74
     0
 42
0.000000001
 43
0.00000001
 40
0.0
 40
0.0
 40
0.0
 40
0.0
 40
0.2820222071949887
 40
0.5640444143899788
 40
0.8460666215849676
 40
1.0
 40
1.0
 40
1.0
 40
1.0
 10
89.10158770578724
 20
199.9690421608016
 30
0.0
 10
89.1015699299339
 20
199.7100000629597
 30
0.0
 10
89.10153437822723
 20
199.191915867276
 30
0.0
 10
89.10148105066725
 20
198.5500485378946
 30
0.0
 10
89.1014357965432
 20
198.1448515524829
 30
0.0
 10
89.10140831827255
 20
198.0907021231963
 30
0.0
 10
89.10139861585517
 20
198.0715822750639
 30
0.0
  0
SPLINE
  5
145
330
1F
100
AcDbEntity
  8
0
  6
Continuous
 62
     8
370
    15
100
AcDbSpline
210
0.0
220
0.0
230
1.0
 70
    24
 71
     3
 72
    11
 73
     7
 74
     0
 42
0.000000001
 43
0.00000001
 40
0.0
 40
0.0
 40
0.0
 40
0.0
 40
0.2823097693286125
 40
0.564619538657225
 40
0.846929307985839
 40
1.0
 40
1.0
 40
1.0
 40
1.0
 10
185.7753985875673
 20
199.9690414113104
 30
0.0
 10
185.7753985875672
 20
199.7099948139886
 30
0.0
 10
185.7753985875673
 20
199.1919016193451
 30
0.0
 10
185.7753985875672
 20
198.5501031798204
 30
0.0
 10
185.7753985875673
 20
198.1452602723971
 30
0.0
 10
185.7753985875672
 20
198.0911456720725
 30
0.0
 10
185.7753985875673
 20
198.0721201069513
 30
0.0
  0
SPLINE
  5
146
330
1F
100
AcDbEntity
  8
0
  6
Continuous
 62
     7
370
    15
100
AcDbSpline
210
0.0
220
0.0
230
1.0
 70
     8
 71
     3
 72
    15
 73
    11
 74
     0
 42
0.000000001
 43
0.00000001
 40
0.0
 40
0.0
 40
0.0
 40
0.0
 40
0.1522682802332668
 40
0.2967204847550219
 40
0.4334050116173678
 40
0.5623034746607063
 40
0.6834169477634262
 40
0.7967302252494817
 40
0.9022648405793108
 40
1.0
 40
1.0
 40
1.0
 40
1.0
 10
190.128932234976
 20
96.1226058419541
 30
0.0
 10
190.1046299865938
 20
96.12260741056522
 30
0.0
 10
190.0572729473629
 20
96.12261046726915
 30
0.0
 10
189.6960004744699
 20
96.12261443633408
 30
0.0
 10
189.183090570401
 20
96.12261779049376
 30
0.0
 10
188.5508992086554
 20
96.12262049947724
 30
0.0
 10
187.853927035198
 20
96.1226225769642
 30
0.0
 10
187.1335499145974
 20
96.12262400004704
 30
0.0
 10
186.4242448946985
 20
96.12262484376059
 30
0.0
 10
185.9582831746205
 20
96.12262485479717
 30
0.0
 10
185.7342417840515
 20
96.1226248601037
 30
0.0
  0
SPLINE
  5
147
330
1F
100
AcDbEntity
  8
0
  6
Continuous
 62
     7
370
    15
100
AcDbSpline
210
0.0
220
0.0
230
1.0
 70
     8
 71
     3
 72
    11
 73
     7
 74
     0
 42
0.000000001
 43
0.00000001
 40
0.0
 40
0.0
 40
0.0
 40
0.0
 40
0.249902564257591
 40
0.4998439875364827
 40
0.7498772393425203
 40
1.0
 40
1.0
 40
1.0
 40
1.0
 10
89.10137447735309
 20
96.12262486016876
 30
0.0
 10
88.6708897589848
 20
96.12253351416373
 30
0.0
 10
87.80985338329991
 20
96.1223508079497
 30
0.0
 10
86.63639197167714
 20
96.12207514684663
 30
0.0
 10
85.65201520060361
 20
96.12179845251455
 30
0.0
 10
85.25864567246713
 20
96.12161297091885
 30
0.0
 10
85.0619257093272
 20
96.12152021352394
 30
0.0
  0
SPLINE
  5
148
330
1F
100
AcDbEntity
  8
0
  6
Continuous
 62
     7
370
    15
100
AcDbSpline
210
0.0
220
0.0
230
1.0
 70
     8
 71
     3
 72
     9
 73
     5
 74
     0
 42
0.000000001
 43
0.00000001
 40
0.0
 40
0.0
 40
0.0
 40
0.0
 40
0.4822878213208547
 40
1.0
 40
1.0
 40
1.0
 40
1.0
 10
84.74812824421073
 20
96.12262551113858
 30
0.0
 10
84.63576602014194
 20
96.09353113497824
 30
0.0
 10
84.40278849282006
 20
96.03320538161238
 30
0.0
 10
84.40149844998781
 20
95.90696860230496
 30
0.0
 10
84.40083057910256
 20
95.84161428426026
 30
0.0
  0
SPLINE
  5
149
330
1F
100
AcDbEntity
  8
0
  6
Continuous
 62
     7
370
    15
100
AcDbSpline
210
0.0
220
0.0
230
1.0
 70
     8
 71
     3
 72
    11
 73
     7
 74
     0
 42
0.000000001
 43
0.00000001
 40
0.0
 40
0.0
 40
0.0
 40
0.0
 40
0.2554163007092489
 40
0.5148627785241917
 40
0.7663741714622444
 40
1.0
 40
1.0
 40
1.0
 40
1.0
 10
84.47172767130273
 20
96.02000603372072
 30
0.0
 10
84.29165519035159
 20
95.92999720791602
 30
0.0
 10
83.92866889064871
 20
95.74855931997845
 30
0.0
 10
83.52450913683097
 20
95.28382562159946
 30
0.0
 10
83.26379326507355
 20
94.74379096200795
 30
0.0
 10
83.22891761993422
 20
94.35807531650194
 30
0.0
 10
83.21212267794509
 20
94.17232758725703
 30
0.0
  0
LINE
  5
14A
330
1F
100
AcDbEntity
  8
0
  6
Continuous
 62
     7
370
    15
100
AcDbLine
 10
85.1531866916
 20
96.0200060337
 30
0.0
 11
85.0911444809
 21
96.1015911046
 31
0.0
  0
LINE
  5
14B
330
1F
100
AcDbEntity
  8
0
  6
Continuous
 62
     7
370
    15
100
AcDbLine
 10
181.6883864916
 20
96.6542151267
 30
0.0
 11
181.6883864916
 21
96.1542151267
 31
0.0
  0
LINE
  5
14C
330
1F
100
AcDbEntity
  8
0
  6
Continuous
 62
     7
370
    15
100
AcDbLine
 10
191.1883864916
 20
95.5690448595
 30
0.0
 11
191.1883864916
 21
96.6542151267
 31
0.0
  0
LINE
  5
14D
330
1F
100
AcDbEntity
  8
0
  6
Continuous
 62
     7
370
    15
100
AcDbLine
 10
83.6883864916
 20
96.6542151267
 30
0.0
 11
83.6883864916
 21
95.5690448595
 31
0.0
  0
LINE
  5
14E
330
1F
100
AcDbEntity
  8
0
  6
Continuous
 62
     7
370
    15
100
AcDbLine
 10
93.1883864916
 20
96.1542151267
 30
0.0
 11
93.1883864916
 21
96.6542151267
 31
0.0
  0
LINE
  5
14F
330
1F
100
AcDbEntity
  8
0
  6
Continuous
 62
     7
370
    15
100
AcDbLine
 10
186.4393003206
 20
56.1542151267
 30
0.0
 11
192.4383864916
 21
56.1542151267
 31
0.0
  0
LINE
  5
150
330
1F
100
AcDbEntity
  8
0
  6
Continuous
 62
     7
370
    15
100
AcDbLine
 10
186.4393003206
 20
56.1542151267
 30
0.0
 11
185.7751852773
 21
94.18911919
 31
0.0
  0
SPLINE
  5
151
330
1F
100
AcDbEntity
  8
0
  6
Continuous
 62
     7
370
    15
100
AcDbSpline
210
0.0
220
0.0
230
1.0
 70
     8
 71
     3
 72
    47
 73
    43
 74
     0
 42
0.000000001
 43
0.00000001
 40
0.0
 40
0.0
 40
0.0
 40
0.0
 40
0.0249864999188316
 40
0.0499847530454853
 40
0.0749893896214435
 40
0.0999951565465082
 40
0.1249974495472794
 40
0.1499955383249043
 40
0.1749907855695894
 40
0.1999843898052581
 40
0.2249775132331089
 40
0.2499714348660253
 40
0.2749669867540711
 40
0.2999639419431167
 40
0.3249618029125078
 40
0.3499600471072162
 40
0.3749583089300428
 40
0.399956593802733
 40
0.4249551000892217
 40
0.4499538000348879
 40
0.4749525572079749
 40
0.4999513051366908
 40
0.5249502182938849
 40
0.5499495683136163
 40
0.5749493687432214
 40
0.5999494901872879
 40
0.624949839108899
 40
0.6499505289835691
 40
0.6749517186010034
 40
0.6999531653321748
 40
0.7249543885380089
 40
0.7499548584851208
 40
0.7749541813723613
 40
0.7999526885324463
 40
0.8249516410540559
 40
0.8499522352494164
 40
0.8749556361243108
 40
0.8999631444621057
 40
0.9249754958093398
 40
0.9499892212342128
 40
0.9749991744005861
 40
1.0
 40
1.0
 40
1.0
 40
1.0
 10
185.7751852754688
 20
94.18911878449416
 30
0.0
 10
185.8536694829108
 20
94.18956872501754
 30
0.0
 10
186.0106748153785
 20
94.19046881770838
 30
0.0
 10
186.2458577792254
 20
94.19173189362256
 30
0.0
 10
186.480378278303
 20
94.19293174590773
 30
0.0
 10
186.7138277134876
 20
94.19406203538674
 30
0.0
 10
186.9458063474091
 20
94.19512448624141
 30
0.0
 10
187.175942962752
 20
94.1961185391481
 30
0.0
 10
187.4038943934826
 20
94.19704422493805
 30
0.0
 10
187.6293234863475
 20
94.19790148203815
 30
0.0
 10
187.8518942163778
 20
94.1986902871058
 30
0.0
 10
188.071265653486
 20
94.19941059759569
 30
0.0
 10
188.2871011826936
 20
94.20006237796643
 30
0.0
 10
188.4990805002529
 20
94.20064561858851
 30
0.0
 10
188.7068777623108
 20
94.20116029832852
 30
0.0
 10
188.9101679325176
 20
94.20160639873353
 30
0.0
 10
189.1086250181316
 20
94.2019839032406
 30
0.0
 10
189.3019249123325
 20
94.20229279418135
 30
0.0
 10
189.4897877840158
 20
94.20253305655525
 30
0.0
 10
189.6719338406294
 20
94.20270468271937
 30
0.0
 10
189.8480834107474
 20
94.20280766653347
 30
0.0
 10
190.017958214649
 20
94.20284200368395
 30
0.0
 10
190.1812729451531
 20
94.20280769176203
 30
0.0
 10
190.3377898625683
 20
94.20270473287513
 30
0.0
 10
190.4872844644649
 20
94.2025331317433
 30
0.0
 10
190.6295286365497
 20
94.20229289473004
 30
0.0
 10
190.764297212072
 20
94.20198402977599
 30
0.0
 10
190.8913555041195
 20
94.20160654909816
 30
0.0
 10
191.0105073918484
 20
94.20116047254315
 30
0.0
 10
191.121596873151
 20
94.20064581715756
 30
0.0
 10
191.2244592022848
 20
94.20006260181162
 30
0.0
 10
191.3189326929312
 20
94.19941084784475
 30
0.0
 10
191.4048517040057
 20
94.19869057138656
 30
0.0
 10
191.4820656117756
 20
94.19790179150897
 30
0.0
 10
191.5504849154806
 20
94.1970445598562
 30
0.0
 10
191.6100131792984
 20
94.19611889932312
 30
0.0
 10
191.660561081502
 20
94.19512487755368
 30
0.0
 10
191.7020186825607
 20
94.19406241687659
 30
0.0
 10
191.734346843602
 20
94.19293212269851
 30
0.0
 10
191.7573056594582
 20
94.19173229451165
 30
0.0
 10
191.7717239922655
 20
94.19046923059824
 30
0.0
 10
191.7735401360367
 20
94.18956922121798
 30
0.0
 10
191.7744480421883
 20
94.1891192986591
 30
0.0
  0
LINE
  5
152
330
1F
100
AcDbEntity
  8
0
  6
Continuous
 62
     7
370
    15
100
AcDbLine
 10
191.7744847585
 20
94.1891199395
 30
0.0
 11
192.4383864916
 21
56.1542151267
 31
0.0
  0
LINE
  5
153
330
1F
100
AcDbEntity
  8
0
  6
Continuous
 62
     7
370
    15
100
AcDbLine
 10
88.4374726625
 20
56.1542151267
 30
0.0
 11
186.4393003206
 21
56.1542151267
 31
0.0
  0
LINE
  5
154
330
1F
100
AcDbEntity
  8
0
  6
Continuous
 62
     7
370
    15
100
AcDbLine
 10
88.4374726625
 20
56.1542151267
 30
0.0
 11
89.1013743955
 21
94.1891199396
 31
0.0
  0
LINE
  5
155
330
1F
100
AcDbEntity
  8
0
  6
Continuous
 62
     7
370
    15
100
AcDbLine
 10
89.1013743955
 20
94.1891199395
 30
0.0
 11
185.7751852773
 21
94.1891199395
 31
0.0
  0
LINE
  5
156
330
1F
100
AcDbEntity
  8
0
  6
Continuous
 62
     7
370
    15
100
AcDbLine
 10
82.4383864916
 20
56.1542151267
 30
0.0
 11
88.4374726625
 21
56.1542151267
 31
0.0
  0
LINE
  5
157
330
1F
100
AcDbEntity
  8
0
  6
Continuous
 62
     7
370
    15
100
AcDbLine
 10
82.4383864916
 20
56.1542151267
 30
0.0
 11
83.1022882181
 21
94.1891195647
 31
0.0
  0
LINE
  5
158
330
1F
100
AcDbEntity
  8
0
  6
Continuous
 62
     7
370
    15
100
AcDbLine
 10
83.1022882153
 20
94.18911919
 30
0.0
 11
83.2196542702
 21
94.1951519365
 31
0.0
  0
LINE
  5
159
330
1F
100
AcDbEntity
  8
0
  6
Continuous
 62
     7
370
    15
100
AcDbLine
 10
185.7753743673
 20
96.0865790758
 30
0.0
 11
185.7753985876
 21
96.1542151267
 31
0.0
  0
SPLINE
  5
15A
330
1F
100
AcDbEntity
  8
0
  6
Continuous
 62
     7
370
    15
100
AcDbSpline
210
0.0
220
0.0
230
1.0
 70
     8
 71
     3
 72
    11
 73
     7
 74
     0
 42
0.000000001
 43
0.00000001
 40
0.0
 40
0.0
 40
0.0
 40
0.0
 40
0.1530211637159869
 40
0.4353474424773256
 40
0.7176737212386629
 40
1.0
 40
1.0
 40
1.0
 40
1.0
 10
190.1216306416573
 20
96.08601039745439
 30
0.0
 10
190.2610682490826
 20
96.06699024693229
 30
0.0
 10
190.6577702758062
 20
96.01287764130154
 30
0.0
 10
191.2069010428136
 20
95.60805501418821
 30
0.0
 10
191.6732112324086
 20
94.96626052070789
 30
0.0
 10
191.7407269164761
 20
94.44816679992515
 30
0.0
 10
191.7744847585099
 20
94.18911993953377
 30
0.0
  0
LINE
  5
15B
330
1F
100
AcDbEntity
  8
0
  6
Continuous
 62
     7
370
    15
100
AcDbLine
 10
89.1013743955
 20
96.0860412439
 30
0.0
 11
89.1013743955
 21
96.1542151267
 31
0.0
  0
LINE
  5
15C
330
1F
100
AcDbEntity
  8
0
  6
Continuous
 62
     7
370
    15
100
AcDbLine
 10
185.7753985876
 20
96.1542151267
 30
0.0
 11
89.1013743955
 21
96.1542151267
 31
0.0
  0
LINE
  5
15D
330
1F
100
AcDbEntity
  8
0
  6
Continuous
 62
     7
370
    15
100
AcDbLine
 10
84.7417619557
 20
96.0833791891
 30
0.0
 11
85.1019836149
 21
96.1542151267
 31
0.0
  0
LINE
  5
15E
330
1F
100
AcDbEntity
  8
0
  6
Continuous
 62
     7
370
    15
100
AcDbLine
 10
85.1771532494
 20
96.1542151267
 30
0.0
 11
85.1019836149
 21
96.1542151267
 31
0.0
  0
LINE
  5
15F
330
1F
100
AcDbEntity
  8
0
  6
Continuous
 62
     7
370
    15
100
AcDbLine
 10
92.7383864916
 20
54.6542151267
 30
0.0
 11
97.4383864916
 21
54.6542151267
 31
0.0
  0
LINE
  5
160
330
1F
100
AcDbEntity
  8
0
  6
Continuous
 62
     7
370
    15
100
AcDbLine
 10
92.7383864916
 20
56.1542151267
 30
0.0
 11
92.7383864916
 21
54.6542151267
 31
0.0
  0
LINE
  5
161
330
1F
100
AcDbEntity
  8
0
  6
Continuous
 62
     7
370
    15
100
AcDbLine
 10
97.4383864916
 20
56.1542151267
 30
0.0
 11
97.4383864916
 21
54.6542151267
 31
0.0
  0
LINE
  5
162
330
1F
100
AcDbEntity
  8
0
  6
Continuous
 62
     7
370
    15
100
AcDbLine
 10
97.4383864916
 20
54.6542151267
 30
0.0
 11
177.4383864916
 21
54.6542151267
 31
0.0
  0
LINE
  5
163
330
1F
100
AcDbEntity
  8
0
  6
Continuous
 62
     7
370
    15
100
AcDbLine
 10
177.4383864916
 20
54.6542151267
 30
0.0
 11
177.4383864916
 21
56.1542151267
 31
0.0
  0
LINE
  5
164
330
1F
100
AcDbEntity
  8
0
  6
Continuous
 62
     7
370
    15
100
AcDbLine
 10
177.4383864916
 20
54.6542151267
 30
0.0
 11
182.1383864916
 21
54.6542151267
 31
0.0
  0
LINE
  5
165
330
1F
100
AcDbEntity
  8
0
  6
Continuous
 62
     7
370
    15
100
AcDbLine
 10
182.1383864916
 20
56.1542151267
 30
0.0
 11
182.1383864916
 21
54.6542151267
 31
0.0
  0
LINE
  5
166
330
1F
100
AcDbEntity
  8
0
  6
Continuous
 62
     7
370
    15
100
AcDbLine
 10
186.4383864916
 20
96.6542151267
 30
0.0
 11
181.6883864916
 21
96.6542151267
 31
0.0
  0
LINE
  5
167
330
1F
100
AcDbEntity
  8
0
  6
Continuous
 62
     7
370
    15
100
AcDbLine
 10
191.1883864916
 20
96.6542151267
 30
0.0
 11
186.4383864916
 21
96.6542151267
 31
0.0
  0
LINE
  5
168
330
1F
100
AcDbEntity
  8
0
  6
Continuous
 62
     7
370
    15
100
AcDbLine
 10
88.4383864916
 20
96.6542151267
 30
0.0
 11
83.6883864916
 21
96.6542151267
 31
0.0
  0
LINE
  5
169
330
1F
100
AcDbEntity
  8
0
  6
Continuous
 62
     7
370
    15
100
AcDbLine
 10
93.1883864916
 20
96.6542151267
 30
0.0
 11
88.4383864916
 21
96.6542151267
 31
0.0
  0
LINE
  5
16A
330
1F
100
AcDbEntity
  8
0
  6
Continuous
 62
     7
370
    15
100
AcDbLine
 10
89.0356087138
 20
54.6542151267
 30
0.0
 11
89.0356087138
 21
56.1542151267
 31
0.0
  0
LINE
  5
16B
330
1F
100
AcDbEntity
  8
0
  6
Continuous
 62
     7
370
    15
100
AcDbLine
 10
92.7383864916
 20
54.6542151267
 30
0.0
 11
89.0356087138
 21
54.6542151267
 31
0.0
  0
LINE
  5
16C
330
1F
100
AcDbEntity
  8
0
  6
Continuous
 62
     7
370
    15
100
AcDbLine
 10
185.8411642693
 20
56.1542151267
 30
0.0
 11
185.8411642693
 21
54.6542151267
 31
0.0
  0
LINE
  5
16D
330
1F
100
AcDbEntity
  8
0
  6
Continuous
 62
     7
370
    15
100
AcDbLine
 10
185.8411642693
 20
54.6542151267
 30
0.0
 11
182.1383864916
 21
54.6542151267
 31
0.0
  0
LINE
  5
16E
330
1F
100
AcDbEntity
  8
0
  6
Continuous
 62
     7
370
    15
100
AcDbLine
 10
84.9883864916
 20
56.1542151267
 30
0.0
 11
84.9883864916
 21
54.6542151267
 31
0.0
  0
LINE
  5
16F
330
1F
100
AcDbEntity
  8
0
  6
Continuous
 62
     7
370
    15
100
AcDbLine
 10
84.9883864916
 20
54.6542151267
 30
0.0
 11
89.0356087138
 21
54.6542151267
 31
0.0
  0
LINE
  5
170
330
1F
100
AcDbEntity
  8
0
  6
Continuous
 62
     7
370
    15
100
AcDbLine
 10
189.8883864916
 20
56.1542151267
 30
0.0
 11
189.8883864916
 21
54.6542151267
 31
0.0
  0
LINE
  5
171
330
1F
100
AcDbEntity
  8
0
  6
Continuous
 62
     7
370
    15
100
AcDbLine
 10
185.8411642693
 20
54.6542151267
 30
0.0
 11
189.8883864916
 21
54.6542151267
 31
0.0
  0
SPLINE
  5
172
330
1F
100
AcDbEntity
  8
0
  6
Continuous
 62
     8
370
    15
100
AcDbSpline
210
0.0
220
0.0
230
1.0
 70
     8
 71
     3
 72
    15
 73
    11
 74
     0
 42
0.000000001
 43
0.00000001
 40
0.0
 40
0.0
 40
0.0
 40
0.0
 40
0.0091108229801923
 40
0.1534700746234839
 40
0.2939086336096847
 40
0.4304267217119013
 40
0.5669811004339228
 40
0.7074279697642086
 40
0.8517675663465059
 40
1.0
 40
1.0
 40
1.0
 40
1.0
 10
83.21965427024
 20
94.19515193654739
 30
0.0
 10
83.22208078475407
 20
94.1952844901938
 30
0.0
 10
83.26295495872927
 20
94.19751733107432
 30
0.0
 10
83.56072237995465
 20
94.20031405921604
 30
0.0
 10
84.10024788001023
 20
94.20307531171112
 30
0.0
 10
84.83556244742574
 20
94.2038200483428
 30
0.0
 10
85.71639345291757
 20
94.2030531506974
 30
0.0
 10
86.74091538872877
 20
94.20040076285179
 30
0.0
 10
87.88574033082102
 20
94.19583650862909
 30
0.0
 10
88.6925845338075
 20
94.19137856772566
 30
0.0
 10
89.10137439554347
 20
94.18911993955582
 30
0.0
  0
SPLINE
  5
173
330
1F
100
AcDbEntity
  8
0
  6
Continuous
 62
     8
370
    15
100
AcDbSpline
210
0.0
220
0.0
230
1.0
 70
     8
 71
     3
 72
    11
 73
     7
 74
     0
 42
0.000000001
 43
0.00000001
 40
0.0
 40
0.0
 40
0.0
 40
0.0
 40
0.2820222071949652
 40
0.5640444143899319
 40
0.8460666215848973
 40
1.0
 40
1.0
 40
1.0
 40
1.0
 10
185.7751852773272
 20
94.18911919004262
 30
0.0
 10
185.7752030531806
 20
94.44816128788447
 30
0.0
 10
185.7752386048872
 20
94.96624548356816
 30
0.0
 10
185.7752919324472
 20
95.60811281294961
 30
0.0
 10
185.7753371865713
 20
96.01330979836135
 30
0.0
 10
185.775364664842
 20
96.06745922764793
 30
0.0
 10
185.7753743672593
 20
96.08657907578034
 30
0.0
  0
SPLINE
  5
174
330
1F
100
AcDbEntity
  8
0
  6
Continuous
 62
     8
370
    15
100
AcDbSpline
210
0.0
220
0.0
230
1.0
 70
    24
 71
     3
 72
    11
 73
     7
 74
     0
 42
0.000000001
 43
0.00000001
 40
0.0
 40
0.0
 40
0.0
 40
0.0
 40
0.2823097693286123
 40
0.5646195386572247
 40
0.8469293079858385
 40
1.0
 40
1.0
 40
1.0
 40
1.0
 10
89.10137439554724
 20
94.18911993953377
 30
0.0
 10
89.10137439554724
 20
94.44816653685551
 30
0.0
 10
89.10137439554723
 20
94.966259731499
 30
0.0
 10
89.10137439554724
 20
95.60805817102377
 30
0.0
 10
89.10137439554721
 20
96.01290107844703
 30
0.0
 10
89.10137439554724
 20
96.06701567877168
 30
0.0
 10
89.10137439554724
 20
96.08604124389286
 30
0.0
  0
SPLINE
  5
175
330
1F
100
AcDbEntity
  8
0
  6
Continuous
 62
     7
370
    15
100
AcDbSpline
210
0.0
220
0.0
230
1.0
 70
     8
 71
     3
 72
    15
 73
    11
 74
     0
 42
0.000000001
 43
0.00000001
 40
0.0
 40
0.0
 40
0.0
 40
0.0
 40
0.1522682802350277
 40
0.2967204847577282
 40
0.4334050116203836
 40
0.562303474663557
 40
0.6834169477657766
 40
0.7967302252511183
 40
0.9022648405801342
 40
0.9999999999999999
 40
0.9999999999999999
 40
0.9999999999999999
 40
0.9999999999999999
 10
218.8972628259811
 20
183.7852736984898
 30
0.0
 10
218.8972612573685
 20
183.7609714500993
 30
0.0
 10
218.8972582006618
 20
183.7136144108524
 30
0.0
 10
218.8972542315933
 20
183.3523419379351
 30
0.0
 10
218.8972508774305
 20
182.8394320338462
 30
0.0
 10
218.8972481684446
 20
182.207240672086
 30
0.0
 10
218.8972460909556
 20
181.5102684986194
 30
0.0
 10
218.8972446678714
 20
180.789891378014
 30
0.0
 10
218.8972438241569
 20
180.0805863581134
 30
0.0
 10
218.8972438131202
 20
179.6146246380352
 30
0.0
 10
218.8972438078137
 20
179.3905832474661
 30
0.0
  0
SPLINE
  5
176
330
1F
100
AcDbEntity
  8
0
  6
Continuous
 62
     7
370
    15
100
AcDbSpline
210
0.0
220
0.0
230
1.0
 70
     8
 71
     3
 72
    11
 73
     7
 74
     0
 42
0.000000001
 43
0.00000001
 40
0.0
 40
0.0
 40
0.0
 40
0.0
 40
0.24990256425759
 40
0.4998439875364828
 40
0.7498772393425233
 40
1.0
 40
1.0
 40
1.0
 40
1.0
 10
218.8972438077486
 20
117.7577159407677
 30
0.0
 10
218.8973351537536
 20
117.3272312223994
 30
0.0
 10
218.8975178599676
 20
116.4661948467145
 30
0.0
 10
218.8977935210707
 20
115.2927334350917
 30
0.0
 10
218.8980702154028
 20
114.3083566640182
 30
0.0
 10
218.8982556969985
 20
113.9149871358817
 30
0.0
 10
218.8983484543934
 20
113.7182671727417
 30
0.0
  0
SPLINE
  5
177
330
1F
100
AcDbEntity
  8
0
  6
Continuous
 62
     7
370
    15
100
AcDbSpline
210
0.0
220
0.0
230
1.0
 70
     8
 71
     3
 72
     9
 73
     5
 74
     0
 42
0.000000001
 43
0.00000001
 40
0.0
 40
0.0
 40
0.0
 40
0.0
 40
0.4822878213207385
 40
1.0
 40
1.0
 40
1.0
 40
1.0
 10
218.8972431567779
 20
113.40446970763
 30
0.0
 10
218.9263375329382
 20
113.2921074835604
 30
0.0
 10
218.9866632863039
 20
113.0591299562368
 30
0.0
 10
219.112900065612
 20
113.0578399134031
 30
0.0
 10
219.178254383657
 20
113.0571720425171
 30
0.0
  0
SPLINE
  5
178
330
1F
100
AcDbEntity
  8
0
  6
Continuous
 62
     7
370
    15
100
AcDbSpline
210
0.0
220
0.0
230
1.0
 70
     8
 71
     3
 72
    11
 73
     7
 74
     0
 42
0.000000001
 43
0.00000001
 40
0.0
 40
0.0
 40
0.0
 40
0.0
 40
0.2554163007092395
 40
0.5148627785241892
 40
0.76637417146224
 40
0.9999999999999999
 40
0.9999999999999999
 40
0.9999999999999999
 40
0.9999999999999999
 10
218.9998626341966
 20
113.1280691347173
 30
0.0
 10
219.0898714600013
 20
112.9479966537662
 30
0.0
 10
219.2713093479389
 20
112.5850103540633
 30
0.0
 10
219.7360430463179
 20
112.1808506002456
 30
0.0
 10
220.2760777059094
 20
111.9201347284881
 30
0.0
 10
220.6617933514154
 20
111.8852590833488
 30
0.0
 10
220.8475410806603
 20
111.8684641413597
 30
0.0
  0
LINE
  5
179
330
1F
100
AcDbEntity
  8
0
  6
Continuous
 62
     7
370
    15
100
AcDbLine
 10
218.9998626342
 20
113.8095281551
 30
0.0
 11
218.9182775634
 21
113.7474859443
 31
0.0
  0
LINE
  5
17A
330
1F
100
AcDbEntity
  8
0
  6
Continuous
 62
     7
370
    15
100
AcDbLine
 10
218.3656535413
 20
166.344727955
 30
0.0
 11
218.8656535413
 21
166.344727955
 31
0.0
  0
LINE
  5
17B
330
1F
100
AcDbEntity
  8
0
  6
Continuous
 62
     7
370
    15
100
AcDbLine
 10
218.8656535413
 20
175.844727955
 30
0.0
 11
218.3656535413
 21
175.844727955
 31
0.0
  0
LINE
  5
17C
330
1F
100
AcDbEntity
  8
0
  6
Continuous
 62
     7
370
    15
100
AcDbLine
 10
218.3656535413
 20
121.344727955
 30
0.0
 11
218.8656535413
 21
121.344727955
 31
0.0
  0
LINE
  5
17D
330
1F
100
AcDbEntity
  8
0
  6
Continuous
 62
     7
370
    15
100
AcDbLine
 10
218.8656535413
 20
130.844727955
 30
0.0
 11
218.3656535413
 21
130.844727955
 31
0.0
  0
LINE
  5
17E
330
1F
100
AcDbEntity
  8
0
  6
Continuous
 62
     7
370
    15
100
AcDbLine
 10
218.9803281543
 20
184.0142852446
 30
0.0
 11
218.8972431568
 21
183.7849862023
 31
0.0
  0
SPLINE
  5
17F
330
1F
100
AcDbEntity
  8
0
  6
Continuous
 62
     7
370
    15
100
AcDbSpline
210
0.0
220
0.0
230
1.0
 70
     8
 71
     3
 72
    14
 73
    10
 74
     0
 42
0.000000001
 43
0.00000001
 40
0.0
 40
0.0
 40
0.0
 40
0.0
 40
0.1315455219463224
 40
0.2735886325246177
 40
0.426101344620734
 40
0.5891126409501064
 40
0.7626020556068984
 40
0.9465710339657376
 40
1.0
 40
1.0
 40
1.0
 40
1.0
 10
218.8972438078137
 20
117.7988726624775
 30
0.0
 10
218.8972438131399
 20
117.5748410401206
 30
0.0
 10
218.8972438242175
 20
117.1088996359891
 30
0.0
 10
218.8972446675989
 20
116.3994288353907
 30
0.0
 10
218.897246092094
 20
115.6797529461716
 30
0.0
 10
218.8972481637605
 20
114.9798854628828
 30
0.0
 10
218.8972508966111
 20
114.3595590203447
 30
0.0
 10
218.8972533214536
 20
113.9416902746031
 30
0.0
 10
218.8972549575697
 20
113.8095472345973
 30
0.0
 10
218.8972553257952
 20
113.779807019221
 30
0.0
  0
SPLINE
  5
180
330
1F
100
AcDbEntity
  8
0
  6
Continuous
 62
     7
370
    15
100
AcDbSpline
210
0.0
220
0.0
230
1.0
 70
     8
 71
     3
 72
     9
 73
     5
 74
     0
 42
0.000000001
 43
0.00000001
 40
0.0
 40
0.0
 40
0.0
 40
0.0
 40
0.1573232415585661
 40
1.0
 40
1.0
 40
1.0
 40
1.0
 10
218.8972574269624
 20
113.5976099874899
 30
0.0
 10
218.8972576857361
 20
113.5738262374205
 30
0.0
 10
218.8972593305897
 20
113.4226486375072
 30
0.0
 10
218.8972612275033
 20
113.4126271152795
 30
0.0
 10
218.8972628259883
 20
113.404182211414
 30
0.0
  0
LINE
  5
181
330
1F
100
AcDbEntity
  8
0
  6
Continuous
 62
     7
370
    15
100
AcDbLine
 10
258.8656535413
 20
180.095641784
 30
0.0
 11
258.8656535413
 21
186.094727955
 31
0.0
  0
LINE
  5
182
330
1F
100
AcDbEntity
  8
0
  6
Continuous
 62
     7
370
    15
100
AcDbLine
 10
258.8656535413
 20
180.095641784
 30
0.0
 11
220.8307491032
 21
179.4315267342
 31
0.0
  0
SPLINE
  5
183
330
1F
100
AcDbEntity
  8
0
  6
Continuous
 62
     7
370
    15
100
AcDbSpline
210
0.0
220
0.0
230
1.0
 70
     8
 71
     3
 72
    47
 73
    43
 74
     0
 42
0.000000001
 43
0.00000001
 40
0.0
 40
0.0
 40
0.0
 40
0.0
 40
0.0249864999188858
 40
0.0499847530455897
 40
0.0749893896215987
 40
0.0999951565467068
 40
0.1249974495475243
 40
0.1499955383251882
 40
0.174990785569912
 40
0.1999843898056166
 40
0.2249775132334986
 40
0.2499714348664441
 40
0.2749669867545182
 40
0.2999639419435876
 40
0.3249618029129978
 40
0.349960047107725
 40
0.3749583089305674
 40
0.3999565938032698
 40
0.4249551000897681
 40
0.4499538000354424
 40
0.474952557208533
 40
0.4999513051372506
 40
0.5249502182944437
 40
0.5499495683141723
 40
0.5749493687437698
 40
0.5999494901878283
 40
0.6249498391094239
 40
0.64995052898408
 40
0.6749517186014964
 40
0.6999531653326465
 40
0.7249543885384565
 40
0.7499548584855424
 40
0.7749541813727527
 40
0.7999526885328063
 40
0.824951641054382
 40
0.8499522352497023
 40
0.874955636124558
 40
0.89996314446231
 40
0.9249754958094969
 40
0.9499892212343205
 40
0.9749991744006413
 40
1.0
 40
1.0
 40
1.0
 40
1.0
 10
220.8307498834232
 20
179.4315267388833
 30
0.0
 10
220.8302999428998
 20
179.5100109463255
 30
0.0
 10
220.8293998502089
 20
179.6670162787935
 30
0.0
 10
220.8281367742947
 20
179.9021992426409
 30
0.0
 10
220.8269369220097
 20
180.136719741719
 30
0.0
 10
220.8258066325306
 20
180.3701691769041
 30
0.0
 10
220.824744181676
 20
180.602147810826
 30
0.0
 10
220.8237501287692
 20
180.8322844261692
 30
0.0
 10
220.8228244429793
 20
181.0602358569001
 30
0.0
 10
220.8219671858792
 20
181.2856649497653
 30
0.0
 10
220.8211783808116
 20
181.5082356797958
 30
0.0
 10
220.8204580703217
 20
181.7276071169042
 30
0.0
 10
220.8198062899509
 20
181.943442646112
 30
0.0
 10
220.8192230493288
 20
182.1554219636714
 30
0.0
 10
220.8187083695889
 20
182.3632192257294
 30
0.0
 10
220.8182622691839
 20
182.5665093959363
 30
0.0
 10
220.8178847646768
 20
182.7649664815503
 30
0.0
 10
220.817575873736
 20
182.9582663757511
 30
0.0
 10
220.8173356113621
 20
183.1461292474344
 30
0.0
 10
220.8171639851981
 20
183.3282753040479
 30
0.0
 10
220.8170610013839
 20
183.5044248741659
 30
0.0
 10
220.8170266642335
 20
183.6742996780673
 30
0.0
 10
220.8170609761553
 20
183.8376144085713
 30
0.0
 10
220.8171639350423
 20
183.9941313259862
 30
0.0
 10
220.8173355361741
 20
184.1436259278827
 30
0.0
 10
220.8175757731874
 20
184.2858700999672
 30
0.0
 10
220.8178846381414
 20
184.4206386754894
 30
0.0
 10
220.8182621188192
 20
184.5476969675366
 30
0.0
 10
220.8187081953743
 20
184.6668488552653
 30
0.0
 10
220.8192228507598
 20
184.7779383365676
 30
0.0
 10
220.8198060661058
 20
184.8808006657011
 30
0.0
 10
220.8204578200726
 20
184.9752741563474
 30
0.0
 10
220.8211780965308
 20
185.0611931674216
 30
0.0
 10
220.8219668764084
 20
185.1384070751912
 30
0.0
 10
220.8228241080612
 20
185.206826378896
 30
0.0
 10
220.8237497685942
 20
185.2663546427136
 30
0.0
 10
220.8247437903637
 20
185.316902544917
 30
0.0
 10
220.8258062510408
 20
185.3583601459756
 30
0.0
 10
220.8269365452189
 20
185.3906883070166
 30
0.0
 10
220.8281363734057
 20
185.4136471228729
 30
0.0
 10
220.8293994373192
 20
185.4280654556801
 30
0.0
 10
220.8302994466994
 20
185.4298815994513
 30
0.0
 10
220.8307493692583
 20
185.4307895056029
 30
0.0
  0
LINE
  5
184
330
1F
100
AcDbEntity
  8
0
  6
Continuous
 62
     7
370
    15
100
AcDbLine
 10
258.8656535413
 20
186.094727955
 30
0.0
 11
220.8307487284
 21
185.4308262219
 31
0.0
  0
LINE
  5
185
330
1F
100
AcDbEntity
  8
0
  6
Continuous
 62
     7
370
    15
100
AcDbLine
 10
258.8656535413
 20
117.0938141259
 30
0.0
 11
258.8656535413
 21
180.095641784
 31
0.0
  0
LINE
  5
186
330
1F
100
AcDbEntity
  8
0
  6
Continuous
 62
     7
370
    15
100
AcDbLine
 10
258.8656535413
 20
117.0938141259
 30
0.0
 11
220.8307487284
 21
117.7577158602
 31
0.0
  0
LINE
  5
187
330
1F
100
AcDbEntity
  8
0
  6
Continuous
 62
     7
370
    15
100
AcDbLine
 10
220.8307487284
 20
117.757715859
 30
0.0
 11
220.8307487284
 21
179.4315267407
 31
0.0
  0
LINE
  5
188
330
1F
100
AcDbEntity
  8
0
  6
Continuous
 62
     7
370
    15
100
AcDbLine
 10
258.8656535413
 20
111.094727955
 30
0.0
 11
258.8656535413
 21
117.0938141259
 31
0.0
  0
LINE
  5
189
330
1F
100
AcDbEntity
  8
0
  6
Continuous
 62
     7
370
    15
100
AcDbLine
 10
258.8656535413
 20
111.094727955
 30
0.0
 11
220.8307494779
 21
111.7586296749
 31
0.0
  0
LINE
  5
18A
330
1F
100
AcDbEntity
  8
0
  6
Continuous
 62
     7
370
    15
100
AcDbLine
 10
220.8307494779
 20
111.7586296787
 30
0.0
 11
220.8247167314
 21
111.8759957337
 31
0.0
  0
LINE
  5
18B
330
1F
100
AcDbEntity
  8
0
  6
Continuous
 62
     7
370
    15
100
AcDbLine
 10
218.9332895921
 20
179.4317158307
 30
0.0
 11
218.8656535413
 21
179.431740051
 31
0.0
  0
SPLINE
  5
18C
330
1F
100
AcDbEntity
  8
0
  6
Continuous
 62
     7
370
    15
100
AcDbSpline
210
0.0
220
0.0
230
1.0
 70
     8
 71
     3
 72
    11
 73
     7
 74
     0
 42
0.000000001
 43
0.00000001
 40
0.0
 40
0.0
 40
0.0
 40
0.0
 40
0.2823262787717459
 40
0.5646525575434919
 40
0.8469788363152393
 40
1.0
 40
1.0
 40
1.0
 40
1.0
 10
220.8307487283836
 20
185.4308262219245
 30
0.0
 10
220.571701867992
 20
185.3970683798908
 30
0.0
 10
220.053608147209
 20
185.3295526958233
 30
0.0
 10
219.4118136537311
 20
184.8632425062275
 30
0.0
 10
219.0069910266306
 20
184.314111739251
 30
0.0
 10
218.9528784210011
 20
183.917409712562
 30
0.0
 10
218.9338582704824
 20
183.7779721051708
 30
0.0
  0
LINE
  5
18D
330
1F
100
AcDbEntity
  8
0
  6
Continuous
 62
     7
370
    15
100
AcDbLine
 10
218.8656535413
 20
122.7138220762
 30
0.0
 11
218.8656535413
 21
117.757715859
 31
0.0
  0
SPLINE
  5
18E
330
1F
100
AcDbEntity
  8
0
  6
Continuous
 62
     7
370
    15
100
AcDbSpline
210
0.0
220
0.0
230
1.0
 70
     8
 71
     3
 72
    24
 73
    20
 74
     0
 42
0.000000001
 43
0.00000001
 40
0.0
 40
0.0
 40
0.0
 40
0.0
 40
0.1250000000000012
 40
0.1250000000000012
 40
0.2500000000000023
 40
0.2500000000000023
 40
0.3125000000000021
 40
0.3125000000000021
 40
0.3750000000000019
 40
0.3750000000000019
 40
0.5000000000000016
 40
0.5000000000000016
 40
0.6250000000000011
 40
0.6250000000000011
 40
0.7500000000000008
 40
0.7500000000000008
 40
0.8750000000000003
 40
0.8750000000000003
 40
1.0
 40
1.0
 40
1.0
 40
1.0
 10
218.8656535414743
 20
129.4756631503106
 30
0.0
 10
218.8656568491278
 20
129.2500124326199
 30
0.0
 10
218.9036340134029
 20
129.0066780398057
 30
0.0
 10
219.0152911416341
 20
128.4837839589788
 30
0.0
 10
219.088160648971
 20
128.2108287427462
 30
0.0
 10
219.197334069048
 20
127.7852782290604
 30
0.0
 10
219.233807096793
 20
127.6404727445287
 30
0.0
 10
219.3025832199927
 20
127.343877810391
 30
0.0
 10
219.335008366895
 20
127.1912556576105
 30
0.0
 10
219.4169634748351
 20
126.7300385463917
 30
0.0
 10
219.4507751129073
 20
126.4165779582186
 30
0.0
 10
219.4508723949406
 20
125.7743181558724
 30
0.0
 10
219.4171001150468
 20
125.4599140966365
 30
0.0
 10
219.3071763132509
 20
124.8418435345028
 30
0.0
 10
219.2337372340873
 20
124.5460730266656
 30
0.0
 10
219.0881148314544
 20
123.9784502721757
 30
0.0
 10
219.014659435096
 20
123.7029755129012
 30
0.0
 10
218.9036284596978
 20
123.1824884912866
 30
0.0
 10
218.865656851831
 20
122.9396278931344
 30
0.0
 10
218.8656535414743
 20
122.713792759633
 30
0.0
  0
LINE
  5
18F
330
1F
100
AcDbEntity
  8
0
  6
Continuous
 62
     7
370
    15
100
AcDbLine
 10
218.8656535413
 20
167.7138220762
 30
0.0
 11
218.8656535413
 21
129.4756338337
 31
0.0
  0
SPLINE
  5
190
330
1F
100
AcDbEntity
  8
0
  6
Continuous
 62
     7
370
    15
100
AcDbSpline
210
0.0
220
0.0
230
1.0
 70
     8
 71
     3
 72
    24
 73
    20
 74
     0
 42
0.000000001
 43
0.00000001
 40
0.0
 40
0.0
 40
0.0
 40
0.0
 40
0.1249999999999997
 40
0.1249999999999997
 40
0.2499999999999993
 40
0.2499999999999993
 40
0.3124999999999996
 40
0.3124999999999996
 40
0.3749999999999999
 40
0.3749999999999999
 40
0.4999999999999999
 40
0.4999999999999999
 40
0.6249999999999999
 40
0.6249999999999999
 40
0.7499999999999999
 40
0.7499999999999999
 40
0.8749999999999999
 40
0.8749999999999999
 40
1.0
 40
1.0
 40
1.0
 40
1.0
 10
218.8656535414743
 20
174.4756631503106
 30
0.0
 10
218.8656568491278
 20
174.2500124326199
 30
0.0
 10
218.9036340134029
 20
174.0066780398057
 30
0.0
 10
219.0152911416341
 20
173.4837839589788
 30
0.0
 10
219.088160648971
 20
173.2108287427462
 30
0.0
 10
219.197334069048
 20
172.7852782290604
 30
0.0
 10
219.233807096793
 20
172.6404727445287
 30
0.0
 10
219.3025832199926
 20
172.343877810391
 30
0.0
 10
219.335008366895
 20
172.1912556576104
 30
0.0
 10
219.4169634748351
 20
171.7300385463917
 30
0.0
 10
219.4507751129073
 20
171.4165779582187
 30
0.0
 10
219.4508723949407
 20
170.7743181558724
 30
0.0
 10
219.4171001150468
 20
170.4599140966365
 30
0.0
 10
219.3071763132509
 20
169.8418435345028
 30
0.0
 10
219.2337372340873
 20
169.5460730266655
 30
0.0
 10
219.0881148314544
 20
168.9784502721757
 30
0.0
 10
219.014659435096
 20
168.7029755129012
 30
0.0
 10
218.9036284596978
 20
168.1824884912866
 30
0.0
 10
218.865656851831
 20
167.9396278931344
 30
0.0
 10
218.8656535414743
 20
167.7137927596331
 30
0.0
  0
LINE
  5
191
330
1F
100
AcDbEntity
  8
0
  6
Continuous
 62
     7
370
    15
100
AcDbLine
 10
218.8656535413
 20
179.431740051
 30
0.0
 11
218.8656535413
 21
174.4756338337
 31
0.0
  0
LINE
  5
192
330
1F
100
AcDbEntity
  8
0
  6
Continuous
 62
     7
370
    15
100
AcDbLine
 10
218.933827424
 20
117.757715859
 30
0.0
 11
218.8656535413
 21
117.757715859
 31
0.0
  0
LINE
  5
193
330
1F
100
AcDbEntity
  8
0
  6
Continuous
 62
     7
370
    15
100
AcDbLine
 10
218.9364894788
 20
113.3981034192
 30
0.0
 11
218.8656535413
 21
113.7583250783
 31
0.0
  0
LINE
  5
194
330
1F
100
AcDbEntity
  8
0
  6
Continuous
 62
     7
370
    15
100
AcDbLine
 10
218.8656535413
 20
113.8334947128
 30
0.0
 11
218.8656535413
 21
113.7583250783
 31
0.0
  0
LINE
  5
195
330
1F
100
AcDbEntity
  8
0
  6
Continuous
 62
     7
370
    15
100
AcDbLine
 10
218.3656535413
 20
175.844727955
 30
0.0
 11
218.3656535413
 21
166.344727955
 31
0.0
  0
LINE
  5
196
330
1F
100
AcDbEntity
  8
0
  6
Continuous
 62
     7
370
    15
100
AcDbLine
 10
218.3656535413
 20
130.844727955
 30
0.0
 11
218.3656535413
 21
121.344727955
 31
0.0
  0
LINE
  5
197
330
1F
100
AcDbEntity
  8
0
  6
Continuous
 62
     7
370
    15
100
AcDbLine
 10
260.3656535413
 20
135.00749969
 30
0.0
 11
260.3656535413
 21
162.18195622
 31
0.0
  0
LINE
  5
198
330
1F
100
AcDbEntity
  8
0
  6
Continuous
 62
     7
370
    15
100
AcDbLine
 10
258.8656535413
 20
135.00749969
 30
0.0
 11
260.3656535413
 21
135.00749969
 31
0.0
  0
LINE
  5
199
330
1F
100
AcDbEntity
  8
0
  6
Continuous
 62
     7
370
    15
100
AcDbLine
 10
258.8656535413
 20
162.18195622
 30
0.0
 11
260.3656535413
 21
162.18195622
 31
0.0
  0
LINE
  5
19A
330
1F
100
AcDbEntity
  8
0
  6
Continuous
 62
     7
370
    15
100
AcDbLine
 10
260.3656535413
 20
162.18195622
 30
0.0
 11
260.3656535413
 21
166.8364036816
 31
0.0
  0
LINE
  5
19B
330
1F
100
AcDbEntity
  8
0
  6
Continuous
 62
     7
370
    15
100
AcDbLine
 10
260.3656535413
 20
166.8364036816
 30
0.0
 11
258.8656535413
 21
166.8364036816
 31
0.0
  0
LINE
  5
19C
330
1F
100
AcDbEntity
  8
0
  6
Continuous
 62
     7
370
    15
100
AcDbLine
 10
260.3656535413
 20
130.3530522284
 30
0.0
 11
260.3656535413
 21
135.00749969
 31
0.0
  0
LINE
  5
19D
330
1F
100
AcDbEntity
  8
0
  6
Continuous
 62
     7
370
    15
100
AcDbLine
 10
258.8656535413
 20
130.3530522284
 30
0.0
 11
260.3656535413
 21
130.3530522284
 31
0.0
  0
LINE
  5
19E
330
1F
100
AcDbEntity
  8
0
  6
Continuous
 62
     7
370
    15
100
AcDbLine
 10
260.3656535413
 20
126.094727955
 30
0.0
 11
258.8656535413
 21
126.094727955
 31
0.0
  0
LINE
  5
19F
330
1F
100
AcDbEntity
  8
0
  6
Continuous
 62
     7
370
    15
100
AcDbLine
 10
260.3656535413
 20
130.3530522284
 30
0.0
 11
260.3656535413
 21
126.094727955
 31
0.0
  0
LINE
  5
1A0
330
1F
100
AcDbEntity
  8
0
  6
Continuous
 62
     7
370
    15
100
AcDbLine
 10
258.8656535413
 20
171.094727955
 30
0.0
 11
260.3656535413
 21
171.094727955
 31
0.0
  0
LINE
  5
1A1
330
1F
100
AcDbEntity
  8
0
  6
Continuous
 62
     7
370
    15
100
AcDbLine
 10
260.3656535413
 20
171.094727955
 30
0.0
 11
260.3656535413
 21
166.8364036816
 31
0.0
  0
LINE
  5
1A2
330
1F
100
AcDbEntity
  8
0
  6
Continuous
 62
     7
370
    15
100
AcDbLine
 10
258.8656535413
 20
178.844727955
 30
0.0
 11
260.3656535413
 21
178.844727955
 31
0.0
  0
LINE
  5
1A3
330
1F
100
AcDbEntity
  8
0
  6
Continuous
 62
     7
370
    15
100
AcDbLine
 10
260.3656535413
 20
171.094727955
 30
0.0
 11
260.3656535413
 21
178.844727955
 31
0.0
  0
LINE
  5
1A4
330
1F
100
AcDbEntity
  8
0
  6
Continuous
 62
     7
370
    15
100
AcDbLine
 10
258.8656535413
 20
118.344727955
 30
0.0
 11
260.3656535413
 21
118.344727955
 31
0.0
  0
LINE
  5
1A5
330
1F
100
AcDbEntity
  8
0
  6
Continuous
 62
     7
370
    15
100
AcDbLine
 10
260.3656535413
 20
118.344727955
 30
0.0
 11
260.3656535413
 21
126.094727955
 31
0.0
  0
LINE
  5
1A6
330
1F
100
AcDbEntity
  8
0
  6
Continuous
 62
     7
370
    15
100
AcDbLine
 10
258.8656535413
 20
183.544727955
 30
0.0
 11
260.3656535413
 21
183.544727955
 31
0.0
  0
LINE
  5
1A7
330
1F
100
AcDbEntity
  8
0
  6
Continuous
 62
     7
370
    15
100
AcDbLine
 10
260.3656535413
 20
178.844727955
 30
0.0
 11
260.3656535413
 21
183.544727955
 31
0.0
  0
LINE
  5
1A8
330
1F
100
AcDbEntity
  8
0
  6
Continuous
 62
     7
370
    15
100
AcDbLine
 10
258.8656535413
 20
113.644727955
 30
0.0
 11
260.3656535413
 21
113.644727955
 31
0.0
  0
LINE
  5
1A9
330
1F
100
AcDbEntity
  8
0
  6
Continuous
 62
     7
370
    15
100
AcDbLine
 10
260.3656535413
 20
113.644727955
 30
0.0
 11
260.3656535413
 21
118.344727955
 31
0.0
  0
SPLINE
  5
1AA
330
1F
100
AcDbEntity
  8
0
  6
Continuous
 62
     8
370
    15
100
AcDbSpline
210
0.0
220
0.0
230
1.0
 70
     8
 71
     3
 72
    15
 73
    11
 74
     0
 42
0.000000001
 43
0.00000001
 40
0.0
 40
0.0
 40
0.0
 40
0.0
 40
0.0091108229787819
 40
0.1534700746000852
 40
0.2939086335648973
 40
0.4304267216463241
 40
0.5669811004142075
 40
0.7074279697707051
 40
0.8517675663595698
 40
1.0
 40
1.0
 40
1.0
 40
1.0
 10
220.82471673137
 20
111.8759957336546
 30
0.0
 10
220.8245841777236
 20
111.8784222481686
 30
0.0
 10
220.822351336843
 20
111.9192964221439
 30
0.0
 10
220.8195546087013
 20
112.2170638433691
 30
0.0
 10
220.8167933562063
 20
112.756589343425
 30
0.0
 10
220.816048619574
 20
113.4919039109581
 30
0.0
 10
220.8168155172217
 20
114.3727349167323
 30
0.0
 10
220.8194679050739
 20
115.3972568529643
 30
0.0
 10
220.8240321593044
 20
116.5420817953529
 30
0.0
 10
220.8284901002118
 20
117.3489259984545
 30
0.0
 10
220.8307487283836
 20
117.7577158602218
 30
0.0
  0
SPLINE
  5
1AB
330
1F
100
AcDbEntity
  8
0
  6
Continuous
 62
     8
370
    15
100
AcDbSpline
210
0.0
220
0.0
230
1.0
 70
     8
 71
     3
 72
    11
 73
     7
 74
     0
 42
0.000000001
 43
0.00000001
 40
0.0
 40
0.0
 40
0.0
 40
0.0
 40
0.2820222071949747
 40
0.5640444143899509
 40
0.8460666215849258
 40
1.0
 40
1.0
 40
1.0
 40
1.0
 10
220.8307494778747
 20
179.4315267407418
 30
0.0
 10
220.5717073800329
 20
179.4315445165952
 30
0.0
 10
220.0536231843492
 20
179.4315800683018
 30
0.0
 10
219.4117558549677
 20
179.4316333958618
 30
0.0
 10
219.006558869556
 20
179.4316786499859
 30
0.0
 10
218.9524094402694
 20
179.4317061282565
 30
0.0
 10
218.933289592137
 20
179.4317158306739
 30
0.0
  0
SPLINE
  5
1AC
330
1F
100
AcDbEntity
  8
0
  6
Continuous
 62
     8
370
    15
100
AcDbSpline
210
0.0
220
0.0
230
1.0
 70
    24
 71
     3
 72
    11
 73
     7
 74
     0
 42
0.000000001
 43
0.00000001
 40
0.0
 40
0.0
 40
0.0
 40
0.0
 40
0.2823097693286138
 40
0.5646195386572278
 40
0.8469293079858432
 40
1.0
 40
1.0
 40
1.0
 40
1.0
 10
220.8307487283836
 20
117.7577158589618
 30
0.0
 10
220.5717021310618
 20
117.7577158589618
 30
0.0
 10
220.0536089364184
 20
117.7577158589618
 30
0.0
 10
219.4118104968936
 20
117.7577158589618
 30
0.0
 10
219.0069675894703
 20
117.7577158589618
 30
0.0
 10
218.9528529891457
 20
117.7577158589618
 30
0.0
 10
218.9338274240245
 20
117.7577158589618
 30
0.0
  0
CIRCLE
  5
1AD
330
1F
100
AcDbEntity
  8
0
  6
Continuous
 62
     7
370
    15
100
AcDbCircle
 10
294.7558724203
 20
126.094727955
 30
0.0
 40
4.750000000000014
  0
CIRCLE
  5
1AE
330
1F
100
AcDbEntity
  8
0
  6
Continuous
 62
     7
370
    15
100
AcDbCircle
 10
294.7558724203
 20
126.094727955
 30
0.0
 40
2.25
  0
CIRCLE
  5
1AF
330
1F
100
AcDbEntity
  8
0
  6
Continuous
 62
     7
370
    15
100
AcDbCircle
 10
294.7558724203
 20
171.094727955
 30
0.0
 40
2.25
  0
CIRCLE
  5
1B0
330
1F
100
AcDbEntity
  8
0
  6
Continuous
 62
     7
370
    15
100
AcDbCircle
 10
294.7558724203
 20
171.094727955
 30
0.0
 40
4.75
  0
CIRCLE
  5
1B1
330
1F
100
AcDbEntity
  8
0
  6
Continuous
 62
     7
370
    15
100
AcDbCircle
 10
392.7558724203
 20
171.094727955
 30
0.0
 40
4.75
  0
CIRCLE
  5
1B2
330
1F
100
AcDbEntity
  8
0
  6
Continuous
 62
     7
370
    15
100
AcDbCircle
 10
392.7558724203
 20
171.094727955
 30
0.0
 40
2.25
  0
CIRCLE
  5
1B3
330
1F
100
AcDbEntity
  8
0
  6
Continuous
 62
     7
370
    15
100
AcDbCircle
 10
392.7558724203
 20
126.094727955
 30
0.0
 40
2.25
  0
CIRCLE
  5
1B4
330
1F
100
AcDbEntity
  8
0
  6
Continuous
 62
     7
370
    15
100
AcDbCircle
 10
392.7558724203
 20
126.094727955
 30
0.0
 40
4.750000000000014
  0
SPLINE
  5
1B5
330
1F
100
AcDbEntity
  8
0
  6
Continuous
 62
     7
370
    15
100
AcDbSpline
210
0.0
220
0.0
230
1.0
 70
     8
 71
     3
 72
    47
 73
    43
 74
     0
 42
0.000000001
 43
0.00000001
 40
0.0
 40
0.0
 40
0.0
 40
0.0
 40
0.0249864999188858
 40
0.0499847530455897
 40
0.0749893896215987
 40
0.0999951565467068
 40
0.1249974495475243
 40
0.1499955383251882
 40
0.174990785569912
 40
0.1999843898056166
 40
0.2249775132334986
 40
0.2499714348664441
 40
0.2749669867545182
 40
0.2999639419435876
 40
0.3249618029129978
 40
0.349960047107725
 40
0.3749583089305674
 40
0.3999565938032698
 40
0.4249551000897681
 40
0.4499538000354424
 40
0.474952557208533
 40
0.4999513051372506
 40
0.5249502182944437
 40
0.5499495683141723
 40
0.5749493687437698
 40
0.5999494901878283
 40
0.6249498391094239
 40
0.64995052898408
 40
0.6749517186014964
 40
0.6999531653326465
 40
0.7249543885384565
 40
0.7499548584855424
 40
0.7749541813727527
 40
0.7999526885328063
 40
0.824951641054382
 40
0.8499522352497023
 40
0.874955636124558
 40
0.89996314446231
 40
0.9249754958094969
 40
0.9499892212343205
 40
0.9749991744006413
 40
1.0
 40
1.0
 40
1.0
 40
1.0
 10
289.4197973748362
 20
117.7579291710603
 30
0.0
 10
289.4207031890576
 20
117.6794449636181
 30
0.0
 10
289.4225152435792
 20
117.5224396311501
 30
0.0
 10
289.4369248089204
 20
117.2872566673027
 30
0.0
 10
289.4598659070813
 20
117.0527361682246
 30
0.0
 10
289.4921578317445
 20
116.8192867330396
 30
0.0
 10
289.5335666156275
 20
116.5873080991177
 30
0.0
 10
289.5840780914392
 20
116.3571714837745
 30
0.0
 10
289.6435693625163
 20
116.1292200530435
 30
0.0
 10
289.7119481750153
 20
115.9037909601783
 30
0.0
 10
289.7891129859112
 20
115.6812202301478
 30
0.0
 10
289.8749701148144
 20
115.4618487930394
 30
0.0
 10
289.9693943886667
 20
115.2460132638316
 30
0.0
 10
290.0722119459513
 20
115.0340339462722
 30
0.0
 10
290.1832571989019
 20
114.8262366842142
 30
0.0
 10
290.3023618461822
 20
114.6229465140073
 30
0.0
 10
290.4293599001537
 20
114.4244894283933
 30
0.0
 10
290.5640791811273
 20
114.2311895341925
 30
0.0
 10
290.7062837788927
 20
114.0433266625092
 30
0.0
 10
290.8557432217377
 20
113.8611806058957
 30
0.0
 10
291.0122265139676
 20
113.6850310357777
 30
0.0
 10
291.175501615863
 20
113.5151562318763
 30
0.0
 10
291.3453410902964
 20
113.3518415013724
 30
0.0
 10
291.5214687638811
 20
113.1953245839574
 30
0.0
 10
291.7035994053612
 20
113.0458299820609
 30
0.0
 10
291.8914510891187
 20
112.9035858099764
 30
0.0
 10
292.0847397829381
 20
112.7688172344542
 30
0.0
 10
292.2831861465176
 20
112.641758942407
 30
0.0
 10
292.486481509698
 20
112.5226070546783
 30
0.0
 10
292.6942936228853
 20
112.411517573376
 30
0.0
 10
292.9062958418411
 20
112.3086552442425
 30
0.0
 10
293.1221596774168
 20
112.2141817535963
 30
0.0
 10
293.341559856986
 20
112.128262742522
 30
0.0
 10
293.564167412924
 20
112.0510488347524
 30
0.0
 10
293.7896370466446
 20
111.9826295310476
 30
0.0
 10
294.0176308317427
 20
111.92310126723
 30
0.0
 10
294.2478103640766
 20
111.8725533650266
 30
0.0
 10
294.4798348474629
 20
111.831095763968
 30
0.0
 10
294.7133457926947
 20
111.798767602927
 30
0.0
 10
294.9479511455351
 20
111.7758087870707
 30
0.0
 10
295.1832441132335
 20
111.7613904542635
 30
0.0
 10
295.3403311473748
 20
111.7595743104923
 30
0.0
 10
295.4188603293115
 20
111.7586664043407
 30
0.0
  0
SPLINE
  5
1B6
330
1F
100
AcDbEntity
  8
0
  6
Continuous
 62
     7
370
    15
100
AcDbSpline
210
0.0
220
0.0
230
1.0
 70
     8
 71
     3
 72
    14
 73
    10
 74
     0
 42
0.000000001
 43
0.00000001
 40
0.0
 40
0.0
 40
0.0
 40
0.0
 40
0.25
 40
0.25
 40
0.5
 40
0.5
 40
0.75
 40
0.75
 40
1.0
 40
1.0
 40
1.0
 40
1.0
 10
289.4197741402278
 20
117.7579291692018
 30
0.0
 10
289.4242923066292
 20
117.7579113933485
 30
0.0
 10
289.479691507
 20
117.7578936174951
 30
0.0
 10
289.6840822958009
 20
117.7578580657885
 30
0.0
 10
289.8329969676672
 20
117.7578402899351
 30
0.0
 10
290.2023045277275
 20
117.7578047382285
 30
0.0
 10
290.4225584376994
 20
117.7577869623751
 30
0.0
 10
290.9017858332444
 20
117.7577514106684
 30
0.0
 10
291.1605789754437
 20
117.7577336348151
 30
0.0
 10
291.4194695436227
 20
117.7577158589618
 30
0.0
  0
SPLINE
  5
1B7
330
1F
100
AcDbEntity
  8
0
  6
Continuous
 62
     7
370
    15
100
AcDbSpline
210
0.0
220
0.0
230
1.0
 70
     8
 71
     3
 72
    14
 73
    10
 74
     0
 42
0.000000001
 43
0.00000001
 40
0.0
 40
0.0
 40
0.0
 40
0.0
 40
0.25
 40
0.25
 40
0.5
 40
0.5
 40
0.75
 40
0.75
 40
1.0
 40
1.0
 40
1.0
 40
1.0
 10
295.4188603242527
 20
113.7583250783311
 30
0.0
 10
294.8955167600242
 20
113.7584015370136
 30
0.0
 10
294.3718395690492
 20
113.8623763619995
 30
0.0
 10
293.4046123898015
 20
114.2630961387386
 30
0.0
 10
292.9609134510949
 20
114.5594685906762
 30
0.0
 10
292.2206153572484
 20
115.29981001351
 30
0.0
 10
291.9242137752749
 20
115.7434967635058
 30
0.0
 10
291.5235275232337
 20
116.7107114800535
 30
0.0
 10
291.4195492310063
 20
117.234505818695
 30
0.0
 10
291.419469543622
 20
117.7577158589618
 30
0.0
  0
SPLINE
  5
1B8
330
1F
100
AcDbEntity
  8
0
  6
Continuous
 62
     7
370
    15
100
AcDbSpline
210
0.0
220
0.0
230
1.0
 70
    24
 71
     3
 72
    14
 73
    10
 74
     0
 42
0.000000001
 43
0.00000001
 40
0.0
 40
0.0
 40
0.0
 40
0.0
 40
0.25
 40
0.25
 40
0.5
 40
0.5
 40
0.75
 40
0.75
 40
1.0
 40
1.0
 40
1.0
 40
1.0
 10
295.4188604225691
 20
113.7583250783311
 30
0.0
 10
295.4188604116736
 20
113.5246905844506
 30
0.0
 10
295.418860399938
 20
113.2730442091004
 30
0.0
 10
295.4188603772011
 20
112.7855050543577
 30
0.0
 10
295.4188603662672
 20
112.5510565960982
 30
0.0
 10
295.4188603481227
 20
112.1620006918536
 30
0.0
 10
295.4188603409706
 20
112.0086482867396
 30
0.0
 10
295.418860331674
 20
111.8093155331121
 30
0.0
 10
295.4188603295018
 20
111.762743788185
 30
0.0
 10
295.4188603293115
 20
111.7586664043407
 30
0.0
  0
SPLINE
  5
1B9
330
1F
100
AcDbEntity
  8
0
  6
Continuous
 62
     7
370
    15
100
AcDbSpline
210
0.0
220
0.0
230
1.0
 70
     8
 71
     3
 72
    47
 73
    43
 74
     0
 42
0.000000001
 43
0.00000001
 40
0.0
 40
0.0
 40
0.0
 40
0.0
 40
0.0249864999188858
 40
0.0499847530455897
 40
0.0749893896215987
 40
0.0999951565467068
 40
0.1249974495475243
 40
0.1499955383251882
 40
0.174990785569912
 40
0.1999843898056166
 40
0.2249775132334986
 40
0.2499714348664441
 40
0.2749669867545182
 40
0.2999639419435876
 40
0.3249618029129978
 40
0.349960047107725
 40
0.3749583089305674
 40
0.3999565938032698
 40
0.4249551000897681
 40
0.4499538000354424
 40
0.474952557208533
 40
0.4999513051372506
 40
0.5249502182944437
 40
0.5499495683141723
 40
0.5749493687437698
 40
0.5999494901878283
 40
0.6249498391094239
 40
0.64995052898408
 40
0.6749517186014964
 40
0.6999531653326465
 40
0.7249543885384565
 40
0.7499548584855424
 40
0.7749541813727527
 40
0.7999526885328063
 40
0.824951641054382
 40
0.8499522352497023
 40
0.874955636124558
 40
0.89996314446231
 40
0.9249754958094969
 40
0.9499892212343205
 40
0.9749991744006413
 40
1.0
 40
1.0
 40
1.0
 40
1.0
 10
398.0919474656892
 20
179.4315267388833
 30
0.0
 10
398.0910416514678
 20
179.5100109463255
 30
0.0
 10
398.0892295969462
 20
179.6670162787935
 30
0.0
 10
398.074820031605
 20
179.9021992426409
 30
0.0
 10
398.0518789334441
 20
180.136719741719
 30
0.0
 10
398.0195870087809
 20
180.3701691769041
 30
0.0
 10
397.978178224898
 20
180.602147810826
 30
0.0
 10
397.9276667490862
 20
180.8322844261692
 30
0.0
 10
397.8681754780091
 20
181.0602358569001
 30
0.0
 10
397.7997966655101
 20
181.2856649497653
 30
0.0
 10
397.7226318546142
 20
181.5082356797958
 30
0.0
 10
397.636774725711
 20
181.7276071169042
 30
0.0
 10
397.5423504518586
 20
181.943442646112
 30
0.0
 10
397.4395328945741
 20
182.1554219636714
 30
0.0
 10
397.3284876416236
 20
182.3632192257294
 30
0.0
 10
397.2093829943432
 20
182.5665093959363
 30
0.0
 10
397.0823849403718
 20
182.7649664815503
 30
0.0
 10
396.9476656593981
 20
182.9582663757511
 30
0.0
 10
396.8054610616327
 20
183.1461292474344
 30
0.0
 10
396.6560016187877
 20
183.3282753040479
 30
0.0
 10
396.4995183265578
 20
183.5044248741659
 30
0.0
 10
396.3362432246624
 20
183.6742996780673
 30
0.0
 10
396.1664037502291
 20
183.8376144085713
 30
0.0
 10
395.9902760766442
 20
183.9941313259862
 30
0.0
 10
395.8081454351642
 20
184.1436259278827
 30
0.0
 10
395.6202937514067
 20
184.2858700999672
 30
0.0
 10
395.4270050575873
 20
184.4206386754894
 30
0.0
 10
395.2285586940077
 20
184.5476969675366
 30
0.0
 10
395.0252633308274
 20
184.6668488552653
 30
0.0
 10
394.8174512176401
 20
184.7779383365676
 30
0.0
 10
394.6054489986843
 20
184.8808006657011
 30
0.0
 10
394.3895851631086
 20
184.9752741563474
 30
0.0
 10
394.1701849835395
 20
185.0611931674216
 30
0.0
 10
393.9475774276014
 20
185.1384070751912
 30
0.0
 10
393.7221077938808
 20
185.206826378896
 30
0.0
 10
393.4941140087827
 20
185.2663546427136
 30
0.0
 10
393.2639344764488
 20
185.316902544917
 30
0.0
 10
393.0319099930625
 20
185.3583601459756
 30
0.0
 10
392.7983990478307
 20
185.3906883070166
 30
0.0
 10
392.5637936949904
 20
185.4136471228729
 30
0.0
 10
392.3285007272919
 20
185.4280654556801
 30
0.0
 10
392.1714136931506
 20
185.4298815994513
 30
0.0
 10
392.0928845112139
 20
185.4307895056029
 30
0.0
  0
SPLINE
  5
1BA
330
1F
100
AcDbEntity
  8
0
  6
Continuous
 62
     7
370
    15
100
AcDbSpline
210
0.0
220
0.0
230
1.0
 70
     8
 71
     3
 72
    14
 73
    10
 74
     0
 42
0.000000001
 43
0.00000001
 40
0.0
 40
0.0
 40
0.0
 40
0.0
 40
0.25
 40
0.25
 40
0.5
 40
0.5
 40
0.75
 40
0.75
 40
1.0
 40
1.0
 40
1.0
 40
1.0
 10
398.0919707002977
 20
179.4315267407418
 30
0.0
 10
398.0874525338962
 20
179.4315445165952
 30
0.0
 10
398.0320533335254
 20
179.4315622924485
 30
0.0
 10
397.8276625447245
 20
179.4315978441551
 30
0.0
 10
397.6787478728583
 20
179.4316156200085
 30
0.0
 10
397.3094403127979
 20
179.4316511717151
 30
0.0
 10
397.089186402826
 20
179.4316689475685
 30
0.0
 10
396.6099590072809
 20
179.4317044992752
 30
0.0
 10
396.3511658650817
 20
179.4317222751285
 30
0.0
 10
396.0922752969027
 20
179.4317400509818
 30
0.0
  0
SPLINE
  5
1BB
330
1F
100
AcDbEntity
  8
0
  6
Continuous
 62
     7
370
    15
100
AcDbSpline
210
0.0
220
0.0
230
1.0
 70
     8
 71
     3
 72
    14
 73
    10
 74
     0
 42
0.000000001
 43
0.00000001
 40
0.0
 40
0.0
 40
0.0
 40
0.0
 40
0.25
 40
0.25
 40
0.5
 40
0.5
 40
0.75
 40
0.75
 40
1.0
 40
1.0
 40
1.0
 40
1.0
 10
392.0928845162727
 20
183.4311308316125
 30
0.0
 10
392.6162280805012
 20
183.43105437293
 30
0.0
 10
393.1399052714762
 20
183.3270795479441
 30
0.0
 10
394.107132450724
 20
182.926359771205
 30
0.0
 10
394.5508313894305
 20
182.6299873192674
 30
0.0
 10
395.291129483277
 20
181.8896458964336
 30
0.0
 10
395.5875310652505
 20
181.4459591464378
 30
0.0
 10
395.9882173172917
 20
180.4787444298902
 30
0.0
 10
396.0921956095191
 20
179.9549500912486
 30
0.0
 10
396.0922752969034
 20
179.4317400509818
 30
0.0
  0
SPLINE
  5
1BC
330
1F
100
AcDbEntity
  8
0
  6
Continuous
 62
     7
370
    15
100
AcDbSpline
210
0.0
220
0.0
230
1.0
 70
    24
 71
     3
 72
    14
 73
    10
 74
     0
 42
0.000000001
 43
0.00000001
 40
0.0
 40
0.0
 40
0.0
 40
0.0
 40
0.25
 40
0.25
 40
0.5
 40
0.5
 40
0.75
 40
0.75
 40
1.0
 40
1.0
 40
1.0
 40
1.0
 10
392.0928844179563
 20
183.4311308316125
 30
0.0
 10
392.0928844288518
 20
183.6647653254931
 30
0.0
 10
392.0928844405875
 20
183.9164117008432
 30
0.0
 10
392.0928844633244
 20
184.4039508555859
 30
0.0
 10
392.0928844742582
 20
184.6383993138454
 30
0.0
 10
392.0928844924027
 20
185.02745521809
 30
0.0
 10
392.0928844995548
 20
185.1808076232041
 30
0.0
 10
392.0928845088514
 20
185.3801403768315
 30
0.0
 10
392.0928845110236
 20
185.4267121217586
 30
0.0
 10
392.0928845112139
 20
185.4307895056029
 30
0.0
  0
SPLINE
  5
1BD
330
1F
100
AcDbEntity
  8
0
  6
Continuous
 62
     7
370
    15
100
AcDbSpline
210
0.0
220
0.0
230
1.0
 70
     8
 71
     3
 72
    47
 73
    43
 74
     0
 42
0.000000001
 43
0.00000001
 40
0.0
 40
0.0
 40
0.0
 40
0.0
 40
0.0249864999188309
 40
0.0499847530454852
 40
0.0749893896214435
 40
0.0999951565465058
 40
0.1249974495472798
 40
0.1499955383249027
 40
0.1749907855695876
 40
0.199984389805257
 40
0.2249775132331061
 40
0.2499714348660234
 40
0.2749669867540694
 40
0.2999639419431164
 40
0.3249618029125061
 40
0.349960047107215
 40
0.3749583089300425
 40
0.3999565938027327
 40
0.4249551000892208
 40
0.4499538000348887
 40
0.4749525572079746
 40
0.4999513051366905
 40
0.5249502182938851
 40
0.5499495683136159
 40
0.574949368743221
 40
0.5999494901872886
 40
0.6249498391088985
 40
0.6499505289835674
 40
0.6749517186010041
 40
0.6999531653321758
 40
0.7249543885380093
 40
0.7499548584851219
 40
0.7749541813723616
 40
0.799952688532447
 40
0.824951641054056
 40
0.8499522352494157
 40
0.8749556361243106
 40
0.8999631444621059
 40
0.92497549580934
 40
0.9499892212342127
 40
0.9749991744005861
 40
0.9999999999999999
 40
0.9999999999999999
 40
0.9999999999999999
 40
0.9999999999999999
 10
392.0926712041742
 20
111.7586529095453
 30
0.0
 10
392.1711554116162
 20
111.7595587237667
 30
0.0
 10
392.3281607440839
 20
111.7613707782884
 30
0.0
 10
392.5633437079308
 20
111.7757803436294
 30
0.0
 10
392.7978642070084
 20
111.7987214417902
 30
0.0
 10
393.0313136421931
 20
111.8310133664533
 30
0.0
 10
393.2632922761146
 20
111.8724221503361
 30
0.0
 10
393.4934288914574
 20
111.9229336261477
 30
0.0
 10
393.7213803221881
 20
111.9824248972246
 30
0.0
 10
393.9468094150529
 20
112.0508037097233
 30
0.0
 10
394.1693801450832
 20
112.127968520619
 30
0.0
 10
394.3887515821914
 20
112.2138256495219
 30
0.0
 10
394.604587111399
 20
112.3082499233741
 30
0.0
 10
394.8165664289584
 20
112.4110674806584
 30
0.0
 10
395.0243636910162
 20
112.5221127336087
 30
0.0
 10
395.2276538612231
 20
112.6412173808888
 30
0.0
 10
395.4261109468371
 20
112.76821543486
 30
0.0
 10
395.6194108410379
 20
112.9029347158334
 30
0.0
 10
395.8072737127212
 20
113.0451393135986
 30
0.0
 10
395.9894197693349
 20
113.1945987564433
 30
0.0
 10
396.1655693394529
 20
113.3510820486731
 30
0.0
 10
396.3354441433545
 20
113.5143571505684
 30
0.0
 10
396.4987588738585
 20
113.6841966250016
 30
0.0
 10
396.6552757912738
 20
113.8603242985862
 30
0.0
 10
396.8047703931704
 20
114.0424549400663
 30
0.0
 10
396.9470145652551
 20
114.2303066238237
 30
0.0
 10
397.0817831407775
 20
114.4235953176431
 30
0.0
 10
397.208841432825
 20
114.6220416812226
 30
0.0
 10
397.3279933205539
 20
114.8253370444031
 30
0.0
 10
397.4390828018565
 20
115.0331491575904
 30
0.0
 10
397.5419451309902
 20
115.2451513765464
 30
0.0
 10
397.6364186216367
 20
115.4610152121223
 30
0.0
 10
397.7223376327112
 20
115.6804153916916
 30
0.0
 10
397.799551540481
 20
115.9030229476299
 30
0.0
 10
397.867970844186
 20
116.1284925813508
 30
0.0
 10
397.9274991080039
 20
116.3564863664492
 30
0.0
 10
397.9780470102074
 20
116.5866658987834
 30
0.0
 10
398.0195046112663
 20
116.8186903821701
 30
0.0
 10
398.0518327723074
 20
117.0522013274023
 30
0.0
 10
398.0747915881637
 20
117.2868066802432
 30
0.0
 10
398.089209920971
 20
117.5220996479421
 30
0.0
 10
398.0910260647422
 20
117.6791866820837
 30
0.0
 10
398.0919339708938
 20
117.7577158640206
 30
0.0
  0
SPLINE
  5
1BE
330
1F
100
AcDbEntity
  8
0
  6
Continuous
 62
     7
370
    15
100
AcDbSpline
210
0.0
220
0.0
230
1.0
 70
     8
 71
     3
 72
    14
 73
    10
 74
     0
 42
0.000000001
 43
0.00000001
 40
0.0
 40
0.0
 40
0.0
 40
0.0
 40
0.25
 40
0.25
 40
0.5
 40
0.5
 40
0.75
 40
0.75
 40
1.0
 40
1.0
 40
1.0
 40
1.0
 10
392.0926712060327
 20
111.7586296749369
 30
0.0
 10
392.0926889818861
 20
111.7631478413383
 30
0.0
 10
392.0927067577394
 20
111.8185470417092
 30
0.0
 10
392.092742309446
 20
112.02293783051
 30
0.0
 10
392.0927600852993
 20
112.1718525023763
 30
0.0
 10
392.0927956370061
 20
112.5411600624366
 30
0.0
 10
392.0928134128594
 20
112.7614139724085
 30
0.0
 10
392.092848964566
 20
113.2406413679536
 30
0.0
 10
392.0928667404194
 20
113.4994345101528
 30
0.0
 10
392.0928845162727
 20
113.7583250783318
 30
0.0
  0
SPLINE
  5
1BF
330
1F
100
AcDbEntity
  8
0
  6
Continuous
 62
     7
370
    15
100
AcDbSpline
210
0.0
220
0.0
230
1.0
 70
     8
 71
     3
 72
    14
 73
    10
 74
     0
 42
0.000000001
 43
0.00000001
 40
0.0
 40
0.0
 40
0.0
 40
0.0
 40
0.25
 40
0.25
 40
0.5
 40
0.5
 40
0.75
 40
0.75
 40
1.0
 40
1.0
 40
1.0
 40
1.0
 10
396.0922752969034
 20
117.7577158589618
 30
0.0
 10
396.092198838221
 20
117.2343722947333
 30
0.0
 10
395.988224013235
 20
116.7106951037584
 30
0.0
 10
395.5875042364959
 20
115.7434679245106
 30
0.0
 10
395.2911317845583
 20
115.299768985804
 30
0.0
 10
394.5507903617245
 20
114.5594708919576
 30
0.0
 10
394.1071036117287
 20
114.263069309984
 30
0.0
 10
393.1398888951811
 20
113.8623830579428
 30
0.0
 10
392.6160945565395
 20
113.7584047657154
 30
0.0
 10
392.0928845162727
 20
113.7583250783311
 30
0.0
  0
SPLINE
  5
1C0
330
1F
100
AcDbEntity
  8
0
  6
Continuous
 62
     7
370
    15
100
AcDbSpline
210
0.0
220
0.0
230
1.0
 70
    24
 71
     3
 72
    14
 73
    10
 74
     0
 42
0.000000001
 43
0.00000001
 40
0.0
 40
0.0
 40
0.0
 40
0.0
 40
0.25
 40
0.25
 40
0.5
 40
0.5
 40
0.75
 40
0.75
 40
1.0
 40
1.0
 40
1.0
 40
1.0
 10
396.0922752969034
 20
117.7577159572783
 30
0.0
 10
396.325909790784
 20
117.7577159463827
 30
0.0
 10
396.5775561661341
 20
117.7577159346471
 30
0.0
 10
397.0650953208768
 20
117.7577159119102
 30
0.0
 10
397.2995437791362
 20
117.7577159009763
 30
0.0
 10
397.6885996833809
 20
117.7577158828318
 30
0.0
 10
397.8419520884949
 20
117.7577158756798
 30
0.0
 10
398.0412848421224
 20
117.7577158663831
 30
0.0
 10
398.0878565870495
 20
117.7577158642109
 30
0.0
 10
398.0919339708938
 20
117.7577158640206
 30
0.0
  0
SPLINE
  5
1C1
330
1F
100
AcDbEntity
  8
0
  6
Continuous
 62
     7
370
    15
100
AcDbSpline
210
0.0
220
0.0
230
1.0
 70
     8
 71
     3
 72
    47
 73
    43
 74
     0
 42
0.000000001
 43
0.00000001
 40
0.0
 40
0.0
 40
0.0
 40
0.0
 40
0.0249864999188316
 40
0.0499847530454853
 40
0.0749893896214435
 40
0.0999951565465082
 40
0.1249974495472794
 40
0.1499955383249043
 40
0.1749907855695894
 40
0.1999843898052581
 40
0.2249775132331089
 40
0.2499714348660253
 40
0.2749669867540711
 40
0.2999639419431167
 40
0.3249618029125078
 40
0.3499600471072162
 40
0.3749583089300428
 40
0.399956593802733
 40
0.4249551000892217
 40
0.4499538000348879
 40
0.4749525572079749
 40
0.4999513051366908
 40
0.5249502182938849
 40
0.5499495683136163
 40
0.5749493687432214
 40
0.5999494901872879
 40
0.624949839108899
 40
0.6499505289835691
 40
0.6749517186010034
 40
0.6999531653321748
 40
0.7249543885380089
 40
0.7499548584851208
 40
0.7749541813723613
 40
0.7999526885324463
 40
0.8249516410540559
 40
0.8499522352494164
 40
0.8749556361243108
 40
0.8999631444621057
 40
0.9249754958093398
 40
0.9499892212342128
 40
0.9749991744005861
 40
1.0
 40
1.0
 40
1.0
 40
1.0
 10
295.4190736363512
 20
185.4308030003983
 30
0.0
 10
295.3405894289092
 20
185.429897186177
 30
0.0
 10
295.1835840964415
 20
185.4280851316553
 30
0.0
 10
294.9484011325946
 20
185.4136755663142
 30
0.0
 10
294.713880633517
 20
185.3907344681534
 30
0.0
 10
294.4804311983323
 20
185.3584425434903
 30
0.0
 10
294.2484525644108
 20
185.3170337596075
 30
0.0
 10
294.018315949068
 20
185.2665222837959
 30
0.0
 10
293.7903645183374
 20
185.207031012719
 30
0.0
 10
293.5649354254725
 20
185.1386522002202
 30
0.0
 10
293.3423646954421
 20
185.0614873893246
 30
0.0
 10
293.1229932583339
 20
184.9756302604217
 30
0.0
 10
292.9071577291264
 20
184.8812059865695
 30
0.0
 10
292.695178411567
 20
184.7783884292852
 30
0.0
 10
292.4873811495092
 20
184.6673431763349
 30
0.0
 10
292.2840909793023
 20
184.5482385290548
 30
0.0
 10
292.0856338936883
 20
184.4212404750836
 30
0.0
 10
291.8923339994875
 20
184.2865211941102
 30
0.0
 10
291.7044711278042
 20
184.144316596345
 30
0.0
 10
291.5223250711906
 20
183.9948571535003
 30
0.0
 10
291.3461755010725
 20
183.8383738612705
 30
0.0
 10
291.1763006971709
 20
183.6750987593753
 30
0.0
 10
291.0129859666669
 20
183.505259284942
 30
0.0
 10
290.8564690492516
 20
183.3291316113574
 30
0.0
 10
290.706974447355
 20
183.1470009698774
 30
0.0
 10
290.5647302752703
 20
182.95914928612
 30
0.0
 10
290.4299616997479
 20
182.7658605923005
 30
0.0
 10
290.3029034077004
 20
182.567414228721
 30
0.0
 10
290.1837515199715
 20
182.3641188655405
 30
0.0
 10
290.0726620386689
 20
182.1563067523532
 30
0.0
 10
289.9697997095352
 20
181.9443045333972
 30
0.0
 10
289.8753262188887
 20
181.7284406978214
 30
0.0
 10
289.7894072078142
 20
181.509040518252
 30
0.0
 10
289.7121933000443
 20
181.2864329623137
 30
0.0
 10
289.6437739963393
 20
181.0609633285928
 30
0.0
 10
289.5842457325215
 20
180.8329695434944
 30
0.0
 10
289.533697830318
 20
180.6027900111602
 30
0.0
 10
289.4922402292592
 20
180.3707655277735
 30
0.0
 10
289.459912068218
 20
180.1372545825413
 30
0.0
 10
289.4369532523618
 20
179.9026492297004
 30
0.0
 10
289.4225349195544
 20
179.6673562620015
 30
0.0
 10
289.4207187757833
 20
179.5102692278599
 30
0.0
 10
289.4198108696316
 20
179.431740045923
 30
0.0
  0
SPLINE
  5
1C2
330
1F
100
AcDbEntity
  8
0
  6
Continuous
 62
     7
370
    15
100
AcDbSpline
210
0.0
220
0.0
230
1.0
 70
     8
 71
     3
 72
    14
 73
    10
 74
     0
 42
0.000000001
 43
0.00000001
 40
0.0
 40
0.0
 40
0.0
 40
0.0
 40
0.25
 40
0.25
 40
0.5
 40
0.5
 40
0.75
 40
0.75
 40
1.0
 40
1.0
 40
1.0
 40
1.0
 10
295.4190736344927
 20
185.4308262350067
 30
0.0
 10
295.4190558586394
 20
185.4263080686053
 30
0.0
 10
295.419038082786
 20
185.3709088682345
 30
0.0
 10
295.4190025310794
 20
185.1665180794336
 30
0.0
 10
295.4189847552261
 20
185.0176034075673
 30
0.0
 10
295.4189492035193
 20
184.648295847507
 30
0.0
 10
295.418931427666
 20
184.4280419375351
 30
0.0
 10
295.4188958759594
 20
183.94881454199
 30
0.0
 10
295.418878100106
 20
183.6900213997909
 30
0.0
 10
295.4188603242527
 20
183.4311308316118
 30
0.0
  0
SPLINE
  5
1C3
330
1F
100
AcDbEntity
  8
0
  6
Continuous
 62
     7
370
    15
100
AcDbSpline
210
0.0
220
0.0
230
1.0
 70
     8
 71
     3
 72
    14
 73
    10
 74
     0
 42
0.000000001
 43
0.00000001
 40
0.0
 40
0.0
 40
0.0
 40
0.0
 40
0.25
 40
0.25
 40
0.5
 40
0.5
 40
0.75
 40
0.75
 40
1.0
 40
1.0
 40
1.0
 40
1.0
 10
291.419469543622
 20
179.4317400509818
 30
0.0
 10
291.4195460023045
 20
179.9550836152103
 30
0.0
 10
291.5235208272905
 20
180.4787608061852
 30
0.0
 10
291.9242406040294
 20
181.445987985433
 30
0.0
 10
292.2206130559671
 20
181.8896869241396
 30
0.0
 10
292.9609544788009
 20
182.6299850179861
 30
0.0
 10
293.4046412287967
 20
182.9263865999596
 30
0.0
 10
294.3718559453443
 20
183.3270728520008
 30
0.0
 10
294.8956502839859
 20
183.4310511442281
 30
0.0
 10
295.4188603242528
 20
183.4311308316125
 30
0.0
  0
SPLINE
  5
1C4
330
1F
100
AcDbEntity
  8
0
  6
Continuous
 62
     7
370
    15
100
AcDbSpline
210
0.0
220
0.0
230
1.0
 70
    24
 71
     3
 72
    14
 73
    10
 74
     0
 42
0.000000001
 43
0.00000001
 40
0.0
 40
0.0
 40
0.0
 40
0.0
 40
0.25
 40
0.25
 40
0.5
 40
0.5
 40
0.75
 40
0.75
 40
1.0
 40
1.0
 40
1.0
 40
1.0
 10
289.4197741533101
 20
179.4317400509818
 30
0.0
 10
289.4242924156394
 20
179.4317400509818
 30
0.0
 10
289.4796916867203
 20
179.4317400509818
 30
0.0
 10
289.6840825599336
 20
179.4317400509818
 30
0.0
 10
289.8329972455443
 20
179.4317400509818
 30
0.0
 10
290.2023047845065
 20
179.4317400509818
 30
0.0
 10
290.4225586597774
 20
179.4317400509818
 30
0.0
 10
290.9017859580615
 20
179.4317400509818
 30
0.0
 10
291.1605790379108
 20
179.4317400509818
 30
0.0
 10
291.4194695436227
 20
179.4317400509818
 30
0.0
  0
LINE
  5
1C5
330
1F
100
AcDbEntity
  8
0
  6
Continuous
 62
     7
370
    15
100
AcDbLine
 10
295.4188603243
 20
183.4311308316
 30
0.0
 11
392.0928845163
 21
183.4311308316
 31
0.0
  0
LINE
  5
1C6
330
1F
100
AcDbEntity
  8
0
  6
Continuous
 62
     7
370
    15
100
AcDbLine
 10
392.0928845163
 20
113.7583250783
 30
0.0
 11
295.4188603243
 21
113.7583250783
 31
0.0
  0
LINE
  5
1C7
330
1F
100
AcDbEntity
  8
0
  6
Continuous
 62
     7
370
    15
100
AcDbLine
 10
392.0928845163
 20
185.4308262219
 30
0.0
 11
295.4190736345
 21
185.4308262219
 31
0.0
  0
LINE
  5
1C8
330
1F
100
AcDbEntity
  8
0
  6
Continuous
 62
     7
370
    15
100
AcDbLine
 10
295.4188603243
 20
111.758629688
 30
0.0
 11
392.092671206
 21
111.758629688
 31
0.0
  0
LINE
  5
1C9
330
1F
100
AcDbEntity
  8
0
  6
Continuous
 62
     7
370
    15
100
AcDbLine
 10
289.4197741533
 20
179.431740051
 30
0.0
 11
289.4197741533
 21
117.7579291692
 31
0.0
  0
LINE
  5
1CA
330
1F
100
AcDbEntity
  8
0
  6
Continuous
 62
     7
370
    15
100
AcDbLine
 10
398.0919706872
 20
117.757715859
 30
0.0
 11
398.0919706872
 21
179.4315267407
 31
0.0
  0
ELLIPSE
  5
1CB
330
1F
100
AcDbEntity
  8
0
  6
Continuous
 62
     7
370
    15
100
AcDbEllipse
 10
392.754958452
 20
180.0938139867
 30
0.0
 11
-4.243933135017471
 21
-4.243933135017471
 31
0.0
210
0.0
220
0.0
230
1.0
 40
0.9996954599
 41
2.356346783439808
 42
3.926838523739659
  0
LINE
  5
1CC
330
1F
100
AcDbEntity
  8
0
  6
Continuous
 62
     7
370
    15
100
AcDbLine
 10
398.7558724203
 20
180.095641784
 30
0.0
 11
398.0919706938
 21
179.4315267342
 31
0.0
  0
LINE
  5
1CD
330
1F
100
AcDbEntity
  8
0
  6
Continuous
 62
     7
370
    15
100
AcDbLine
 10
392.7567862493
 20
186.094727955
 30
0.0
 11
392.0928845163
 21
185.4308262219
 31
0.0
  0
ELLIPSE
  5
1CE
330
1F
100
AcDbEntity
  8
0
  6
Continuous
 62
     7
370
    15
100
AcDbEllipse
 10
294.7567863885
 20
117.0956419232
 30
0.0
 11
4.243933135017471
 21
4.243933135017471
 31
0.0
210
0.0
220
0.0
230
1.0
 40
0.9996954599
 41
2.356346783439812
 42
3.926838523739788
  0
LINE
  5
1CF
330
1F
100
AcDbEntity
  8
0
  6
Continuous
 62
     7
370
    15
100
AcDbLine
 10
288.7558724203
 20
117.0938141259
 30
0.0
 11
289.4197741402
 21
117.7579291692
 31
0.0
  0
LINE
  5
1D0
330
1F
100
AcDbEntity
  8
0
  6
Continuous
 62
     7
370
    15
100
AcDbLine
 10
294.7549585912
 20
111.094727955
 30
0.0
 11
295.4188603255
 21
111.758629688
 31
0.0
  0
ELLIPSE
  5
1D1
330
1F
100
AcDbEntity
  8
0
  6
Continuous
 62
     7
370
    15
100
AcDbEllipse
 10
392.754958452
 20
117.0956419232
 30
0.0
 11
-4.243933135017471
 21
4.243933135017471
 31
0.0
210
0.0
220
0.0
230
1.0
 40
0.9996954599
 41
2.356346783439808
 42
3.926838523739792
  0
LINE
  5
1D2
330
1F
100
AcDbEntity
  8
0
  6
Continuous
 62
     7
370
    15
100
AcDbLine
 10
392.7567862493
 20
111.094727955
 30
0.0
 11
392.092671206
 21
111.7586296749
 31
0.0
  0
LINE
  5
1D3
330
1F
100
AcDbEntity
  8
0
  6
Continuous
 62
     7
370
    15
100
AcDbLine
 10
398.7558724203
 20
117.0938141259
 30
0.0
 11
398.0919706872
 21
117.7577158602
 31
0.0
  0
ELLIPSE
  5
1D4
330
1F
100
AcDbEntity
  8
0
  6
Continuous
 62
     7
370
    15
100
AcDbEllipse
 10
294.7567863885
 20
180.0938139867
 30
0.0
 11
4.243933135017471
 21
-4.243933135017471
 31
0.0
210
0.0
220
0.0
230
1.0
 40
0.9996954599
 41
2.356346783439808
 42
3.926838523739792
  0
LINE
  5
1D5
330
1F
100
AcDbEntity
  8
0
  6
Continuous
 62
     7
370
    15
100
AcDbLine
 10
294.7549585912
 20
186.094727955
 30
0.0
 11
295.4190736345
 21
185.430826235
 31
0.0
  0
LINE
  5
1D6
330
1F
100
AcDbEntity
  8
0
  6
Continuous
 62
     7
370
    15
100
AcDbLine
 10
289.4197741533
 20
179.4317400497
 30
0.0
 11
288.7558724203
 21
180.095641784
 31
0.0
  0
LINE
  5
1D7
330
1F
100
AcDbEntity
  8
0
  6
Continuous
 62
     7
370
    15
100
AcDbLine
 10
392.7567862493
 20
186.094727955
 30
0.0
 11
294.7549585912
 21
186.094727955
 31
0.0
  0
LINE
  5
1D8
330
1F
100
AcDbEntity
  8
0
  6
Continuous
 62
     7
370
    15
100
AcDbLine
 10
294.7549585912
 20
111.094727955
 30
0.0
 11
392.7567862493
 21
111.094727955
 31
0.0
  0
LINE
  5
1D9
330
1F
100
AcDbEntity
  8
0
  6
Continuous
 62
     7
370
    15
100
AcDbLine
 10
398.7558724203
 20
117.0938141259
 30
0.0
 11
398.7558724203
 21
180.095641784
 31
0.0
  0
LINE
  5
1DA
330
1F
100
AcDbEntity
  8
0
  6
Continuous
 62
     7
370
    15
100
AcDbLine
 10
288.7558724203
 20
180.095641784
 30
0.0
 11
288.7558724203
 21
117.0938141259
 31
0.0
  0
LINE
  5
1DB
330
1F
100
AcDbEntity
  8
0
  6
Continuous
 62
     8
370
    15
100
AcDbLine
 10
291.4194695436
 20
129.4756916999
 30
0.0
 11
291.4194695436
 21
167.71376421
 31
0.0
  0
LINE
  5
1DC
330
1F
100
AcDbEntity
  8
0
  6
Continuous
 62
     8
370
    15
100
AcDbLine
 10
291.4194695436
 20
174.4756916999
 30
0.0
 11
291.4194695436
 21
179.431740051
 31
0.0
  0
LINE
  5
1DD
330
1F
100
AcDbEntity
  8
0
  6
Continuous
 62
     8
370
    15
100
AcDbLine
 10
396.0922752969
 20
179.431740051
 30
0.0
 11
396.0922752969
 21
174.4756916999
 31
0.0
  0
LINE
  5
1DE
330
1F
100
AcDbEntity
  8
0
  6
Continuous
 62
     8
370
    15
100
AcDbLine
 10
396.0922752969
 20
167.71376421
 30
0.0
 11
396.0922752969
 21
129.4756916999
 31
0.0
  0
LINE
  5
1DF
330
1F
100
AcDbEntity
  8
0
  6
Continuous
 62
     8
370
    15
100
AcDbLine
 10
396.0922752969
 20
122.71376421
 30
0.0
 11
396.0922752969
 21
117.757715859
 31
0.0
  0
LINE
  5
1E0
330
1F
100
AcDbEntity
  8
0
  6
Continuous
 62
     8
370
    15
100
AcDbLine
 10
291.4194695436
 20
117.757715859
 30
0.0
 11
291.4194695436
 21
122.71376421
 31
0.0
  0
ENDSEC
  0
SECTION
  2
OBJECTS
  0
DICTIONARY
  5
C
330
0
100
AcDbDictionary
281
     1
  3
ACAD_GROUP
350
D
  3
ACAD_LAYOUT
350
1A
  3
ACAD_MLINESTYLE
350
17
  3
ACAD_PLOTSETTINGS
350
19
  3
ACAD_PLOTSTYLENAME
350
E
  3
ACAD_SCALELIST
350
47
  0
DICTIONARY
  5
D
102
{ACAD_REACTORS
330
C
102
}
330
C
100
AcDbDictionary
281
     1
  0
DICTIONARY
  5
1A
102
{ACAD_REACTORS
330
C
102
}
330
C
100
AcDbDictionary
281
     1
  3
Layout1
350
1E
  3
Layout2
350
26
  3
Model
350
22
  0
DICTIONARY
  5
17
102
{ACAD_REACTORS
330
C
102
}
330
C
100
AcDbDictionary
281
     1
  3
Standard
350
18
  0
DICTIONARY
  5
19
102
{ACAD_REACTORS
330
C
102
}
330
C
100
AcDbDictionary
281
     1
  0
ACDBDICTIONARYWDFLT
  5
E
102
{ACAD_REACTORS
330
C
102
}
330
C
100
AcDbDictionary
281
     1
  3
Normal
350
F
100
AcDbDictionaryWithDefault
340
F
  0
DICTIONARY
  5
47
102
{ACAD_REACTORS
330
C
102
}
330
C
100
AcDbDictionary
281
     1
  3
A0
350
48
  3
A1
350
49
  3
A2
350
4A
  3
A3
350
4B
  3
A4
350
4C
  3
A5
350
4D
  3
A6
350
4E
  3
A7
350
4F
  3
A8
350
50
  3
A9
350
51
  3
B0
350
52
  3
B1
350
53
  3
B2
350
54
  3
B3
350
55
  3
B4
350
56
  3
B5
350
57
  3
B6
350
58
  3
B7
350
59
  3
B8
350
5A
  3
B9
350
5B
  3
C0
350
5C
  3
C1
350
5D
  3
C2
350
5E
  3
C3
350
5F
  3
C4
350
60
  3
C5
350
61
  3
C6
350
62
  3
C7
350
63
  3
C8
350
64
  3
C9
350
65
  3
D0
350
66
  3
D1
350
67
  3
D2
350
68
  0
LAYOUT
  5
1E
102
{ACAD_REACTORS
330
1A
102
}
330
1A
100
AcDbPlotSettings
  1

  2
none_device
  4

  6

 40
0.0
 41
0.0
 42
0.0
 43
0.0
 44
0.0
 45
0.0
 46
0.0
 47
0.0
 48
0.0
 49
0.0
140
0.0
141
0.0
142
1.0
143
1.0
 70
   688
 72
     1
 73
     0
 74
     5
  7

 75
    16
147
1.0
148
0.0
149
0.0
100
AcDbLayout
  1
Layout1
 70
     1
 71
     1
 10
0.0
 20
0.0
 11
420.0
 21
297.0
 12
0.0
 22
0.0
 32
0.0
 14
1.0000000000E+20
 24
1.0000000000E+20
 34
1.0000000000E+20
 15
-1.0000000000E+20
 25
-1.0000000000E+20
 35
-1.0000000000E+20
146
0.0
 13
0.0
 23
0.0
 33
0.0
 16
1.0
 26
0.0
 36
0.0
 17
0.0
 27
1.0
 37
0.0
 76
     0
330
1B
  0
LAYOUT
  5
26
102
{ACAD_REACTORS
330
1A
102
}
330
1A
100
AcDbPlotSettings
  1

  2
none_device
  4

  6

 40
0.0
 41
0.0
 42
0.0
 43
0.0
 44
0.0
 45
0.0
 46
0.0
 47
0.0
 48
0.0
 49
0.0
140
0.0
141
0.0
142
1.0
143
1.0
 70
   688
 72
     1
 73
     0
 74
     5
  7

 75
    16
147
1.0
148
0.0
149
0.0
100
AcDbLayout
  1
Layout2
 70
     1
 71
     2
 10
0.0
 20
0.0
 11
0.0
 21
0.0
 12
0.0
 22
0.0
 32
0.0
 14
0.0
 24
0.0
 34
0.0
 15
0.0
 25
0.0
 35
0.0
146
0.0
 13
0.0
 23
0.0
 33
0.0
 16
1.0
 26
0.0
 36
0.0
 17
0.0
 27
1.0
 37
0.0
 76
     0
330
23
  0
LAYOUT
  5
22
102
{ACAD_REACTORS
330
1A
102
}
330
1A
100
AcDbPlotSettings
  1

  2
none_device
  4
Letter_(8.50_x_11.00_Inches)
  6

 40
6.35
 41
6.35
 42
6.35000508
 43
6.35000508
 44
215.9
 45
279.4
 46
0.0
 47
0.0
 48
0.0
 49
0.0
140
0.0
141
0.0
142
1.0
143
1.0
 70
  1712
 72
     1
 73
     0
 74
     0
  7

 75
     0
147
1.0
148
0.0
149
0.0
100
AcDbLayout
  1
Model
 70
     1
 71
     0
 10
0.0
 20
0.0
 11
420.0
 21
297.0
 12
0.0
 22
0.0
 32
0.0
 14
0.0
 24
0.0
 34
0.0
 15
420.0
 25
297.0
 35
0.0
146
0.0
 13
0.0
 23
0.0
 33
0.0
 16
1.0
 26
0.0
 36
0.0
 17
0.0
 27
1.0
 37
0.0
 76
     0
330
1F
331
29
  0
MLINESTYLE
  5
18
102
{ACAD_REACTORS
330
17
102
}
330
17
100
AcDbMlineStyle
  2
Standard
 70
     0
  3

 62
   256
 51
90.0
 52
90.0
 71
     2
 49
0.5
 62
   256
  6
BYLAYER
 49
-0.5
 62
   256
  6
BYLAYER
  0
ACDBPLACEHOLDER
  5
F
102
{ACAD_REACTORS
330
E
102
}
330
E
  0
SCALE
  5
48
102
{ACAD_REACTORS
330
47
102
}
330
47
100
AcDbScale
 70
     0
300
1:1
140
1.0
141
1.0
290
     1
  0
SCALE
  5
49
102
{ACAD_REACTORS
330
47
102
}
330
47
100
AcDbScale
 70
     0
300
1:2
140
1.0
141
2.0
290
     0
  0
SCALE
  5
4A
102
{ACAD_REACTORS
330
47
102
}
330
47
100
AcDbScale
 70
     0
300
1:4
140
1.0
141
4.0
290
     0
  0
SCALE
  5
4B
102
{ACAD_REACTORS
330
47
102
}
330
47
100
AcDbScale
 70
     0
300
1:5
140
1.0
141
5.0
290
     0
  0
SCALE
  5
4C
102
{ACAD_REACTORS
330
47
102
}
330
47
100
AcDbScale
 70
     0
300
1:8
140
1.0
141
8.0
290
     0
  0
SCALE
  5
4D
102
{ACAD_REACTORS
330
47
102
}
330
47
100
AcDbScale
 70
     0
300
1:10
140
1.0
141
10.0
290
     0
  0
SCALE
  5
4E
102
{ACAD_REACTORS
330
47
102
}
330
47
100
AcDbScale
 70
     0
300
1:16
140
1.0
141
16.0
290
     0
  0
SCALE
  5
4F
102
{ACAD_REACTORS
330
47
102
}
330
47
100
AcDbScale
 70
     0
300
1:20
140
1.0
141
20.0
290
     0
  0
SCALE
  5
50
102
{ACAD_REACTORS
330
47
102
}
330
47
100
AcDbScale
 70
     0
300
1:30
140
1.0
141
30.0
290
     0
  0
SCALE
  5
51
102
{ACAD_REACTORS
330
47
102
}
330
47
100
AcDbScale
 70
     0
300
1:40
140
1.0
141
40.0
290
     0
  0
SCALE
  5
52
102
{ACAD_REACTORS
330
47
102
}
330
47
100
AcDbScale
 70
     0
300
1:50
140
1.0
141
50.0
290
     0
  0
SCALE
  5
53
102
{ACAD_REACTORS
330
47
102
}
330
47
100
AcDbScale
 70
     0
300
1:100
140
1.0
141
100.0
290
     0
  0
SCALE
  5
54
102
{ACAD_REACTORS
330
47
102
}
330
47
100
AcDbScale
 70
     0
300
2:1
140
2.0
141
1.0
290
     0
  0
SCALE
  5
55
102
{ACAD_REACTORS
330
47
102
}
330
47
100
AcDbScale
 70
     0
300
4:1
140
4.0
141
1.0
290
     0
  0
SCALE
  5
56
102
{ACAD_REACTORS
330
47
102
}
330
47
100
AcDbScale
 70
     0
300
8:1
140
8.0
141
1.0
290
     0
  0
SCALE
  5
57
102
{ACAD_REACTORS
330
47
102
}
330
47
100
AcDbScale
 70
     0
300
10:1
140
10.0
141
1.0
290
     0
  0
SCALE
  5
58
102
{ACAD_REACTORS
330
47
102
}
330
47
100
AcDbScale
 70
     0
300
100:1
140
100.0
141
1.0
290
     0
  0
SCALE
  5
59
102
{ACAD_REACTORS
330
47
102
}
330
47
100
AcDbScale
 70
     0
300
1/128" = 1'-0"
140
0.0078125
141
12.0
290
     0
  0
SCALE
  5
5A
102
{ACAD_REACTORS
330
47
102
}
330
47
100
AcDbScale
 70
     0
300
1/64" = 1'-0"
140
0.015625
141
12.0
290
     0
  0
SCALE
  5
5B
102
{ACAD_REACTORS
330
47
102
}
330
47
100
AcDbScale
 70
     0
300
1/32" = 1'-0"
140
0.03125
141
12.0
290
     0
  0
SCALE
  5
5C
102
{ACAD_REACTORS
330
47
102
}
330
47
100
AcDbScale
 70
     0
300
1/16" = 1'-0"
140
0.0625
141
12.0
290
     0
  0
SCALE
  5
5D
102
{ACAD_REACTORS
330
47
102
}
330
47
100
AcDbScale
 70
     0
300
3/32" = 1'-0"
140
0.09375
141
12.0
290
     0
  0
SCALE
  5
5E
102
{ACAD_REACTORS
330
47
102
}
330
47
100
AcDbScale
 70
     0
300
1/8" = 1'-0"
140
0.125
141
12.0
290
     0
  0
SCALE
  5
5F
102
{ACAD_REACTORS
330
47
102
}
330
47
100
AcDbScale
 70
     0
300
3/16" = 1'-0"
140
0.1875
141
12.0
290
     0
  0
SCALE
  5
60
102
{ACAD_REACTORS
330
47
102
}
330
47
100
AcDbScale
 70
     0
300
1/4" = 1'-0"
140
0.25
141
12.0
290
     0
  0
SCALE
  5
61
102
{ACAD_REACTORS
330
47
102
}
330
47
100
AcDbScale
 70
     0
300
3/8" = 1'-0"
140
0.375
141
12.0
290
     0
  0
SCALE
  5
62
102
{ACAD_REACTORS
330
47
102
}
330
47
100
AcDbScale
 70
     0
300
1/2" = 1'-0"
140
0.5
141
12.0
290
     0
  0
SCALE
  5
63
102
{ACAD_REACTORS
330
47
102
}
330
47
100
AcDbScale
 70
     0
300
3/4" = 1'-0"
140
0.75
141
12.0
290
     0
  0
SCALE
  5
64
102
{ACAD_REACTORS
330
47
102
}
330
47
100
AcDbScale
 70
     0
300
1" = 1'-0"
140
1.0
141
12.0
290
     0
  0
SCALE
  5
65
102
{ACAD_REACTORS
330
47
102
}
330
47
100
AcDbScale
 70
     0
300
1-1/2" = 1'-0"
140
1.5
141
12.0
290
     0
  0
SCALE
  5
66
102
{ACAD_REACTORS
330
47
102
}
330
47
100
AcDbScale
 70
     0
300
3" = 1'-0"
140
3.0
141
12.0
290
     0
  0
SCALE
  5
67
102
{ACAD_REACTORS
330
47
102
}
330
47
100
AcDbScale
 70
     0
300
6" = 1'-0"
140
6.0
141
12.0
290
     0
  0
SCALE
  5
68
102
{ACAD_REACTORS
330
47
102
}
330
47
100
AcDbScale
 70
     0
300
1'-0" = 1'-0"
140
12.0
141
12.0
290
     0
  0
ENDSEC
  0
EOF
