  0
SECTION
  2
HEADER
  9
$ACADVER
  1
AC1015
  9
$ACADMAINTVER
 70
     6
  9
$DWGCODEPAGE
  3
ANSI_1252
  9
$INSBASE
 10
0.0
 20
0.0
 30
0.0
  9
$EXTMIN
 10
0.0
 20
0.0
 30
0.0
  9
$EXTMAX
 10
420.0
 20
297.0
 30
0.0
  9
$LIMMIN
 10
0.0
 20
0.0
  9
$LIMMAX
 10
420.0
 20
297.0
  9
$ORTHOMODE
 70
     0
  9
$REGENMODE
 70
     1
  9
$FILLMODE
 70
     1
  9
$QTEXTMODE
 70
     0
  9
$MIRRTEXT
 70
     1
  9
$LTSCALE
 40
1.0
  9
$ATTMODE
 70
     1
  9
$TEXTSIZE
 40
3.5
  9
$TRACEWID
 40
1.0
  9
$TEXTSTYLE
  7
Standard
  9
$CLAYER
  8
0
  9
$CELTYPE
  6
ByLayer
  9
$CECOLOR
 62
   256
  9
$CELTSCALE
 40
1.0
  9
$DISPSILH
 70
     0
  9
$DIMSCALE
 40
1.0
  9
$DIMASZ
 40
6.0
  9
$DIMEXO
 40
1.0
  9
$DIMDLI
 40
3.75
  9
$DIMRND
 40
0.0
  9
$DIMDLE
 40
0.0
  9
$DIMEXE
 40
1.0
  9
$DIMTP
 40
0.0
  9
$DIMTM
 40
0.0
  9
$DIMTXT
 40
3.5
  9
$DIMCEN
 40
2.5
  9
$DIMTSZ
 40
0.0
  9
$DIMTOL
 70
     0
  9
$DIMLIM
 70
     0
  9
$DIMTIH
 70
     1
  9
$DIMTOH
 70
     1
  9
$DIMSE1
 70
     0
  9
$DIMSE2
 70
     0
  9
$DIMTAD
 70
     1
  9
$DIMZIN
 70
     0
  9
$DIMBLK
  1

  9
$DIMASO
 70
     1
  9
$DIMSHO
 70
     1
  9
$DIMPOST
  1

  9
$DIMAPOST
  1

  9
$DIMALT
 70
     0
  9
$DIMALTD
 70
     3
  9
$DIMALTF
 40
0.0393700787
  9
$DIMLFAC
 40
1.0
  9
$DIMTOFL
 70
     1
  9
$DIMTVP
 40
0.0
  9
$DIMTIX
 70
     0
  9
$DIMSOXD
 70
     0
  9
$DIMSAH
 70
     0
  9
$DIMBLK1
  1

  9
$DIMBLK2
  1

  9
$DIMSTYLE
  2
ISO-25
  9
$DIMCLRD
 70
     0
  9
$DIMCLRE
 70
     0
  9
$DIMCLRT
 70
     0
  9
$DIMTFAC
 40
1.0
  9
$DIMGAP
 40
1.524
  9
$DIMJUST
 70
     0
  9
$DIMSD1
 70
     0
  9
$DIMSD2
 70
     0
  9
$DIMTOLJ
 70
     0
  9
$DIMTZIN
 70
     0
  9
$DIMALTZ
 70
     0
  9
$DIMALTTZ
 70
     0
  9
$DIMUPT
 70
     0
  9
$DIMDEC
 70
     2
  9
$DIMTDEC
 70
     2
  9
$DIMALTU
 70
     2
  9
$DIMALTTD
 70
     3
  9
$DIMTXSTY
  7
Standard
  9
$DIMAUNIT
 70
     0
  9
$DIMADEC
 70
     2
  9
$DIMALTRND
 40
0.0
  9
$DIMAZIN
 70
     0
  9
$DIMDSEP
 70
    44
  9
$DIMATFIT
 70
     3
  9
$DIMFRAC
 70
     0
  9
$DIMLDRBLK
  1

  9
$DIMLUNIT
 70
     2
  9
$DIMLWD
 70
    -2
  9
$DIMLWE
 70
    -2
  9
$DIMTMOVE
 70
     0
  9
$LUNITS
 70
     2
  9
$LUPREC
 70
     2
  9
$SKETCHINC
 40
1.0
  9
$FILLETRAD
 40
10.0
  9
$AUNITS
 70
     0
  9
$AUPREC
 70
     2
  9
$MENU
  1
.
  9
$ELEVATION
 40
0.0
  9
$PELEVATION
 40
0.0
  9
$THICKNESS
 40
0.0
  9
$LIMCHECK
 70
     0
  9
$CHAMFERA
 40
0.0
  9
$CHAMFERB
 40
0.0
  9
$CHAMFERC
 40
0.0
  9
$CHAMFERD
 40
0.0
  9
$SKPOLY
 70
     0
  9
$TDCREATE
 40
2456937.334109526
  9
$TDUCREATE
 40
2456937.209109526
  9
$TDUPDATE
 40
2456937.334110266
  9
$TDUUPDATE
 40
2456937.209110266
  9
$TDINDWG
 40
0.0000000116
  9
$TDUSRTIMER
 40
0.0000000116
  9
$USRTIMER
 70
     1
  9
$ANGBASE
 50
0.0
  9
$ANGDIR
 70
     0
  9
$PDMODE
 70
     0
  9
$PDSIZE
 40
-1.0
  9
$PLINEWID
 40
0.0
  9
$SPLFRAME
 70
     0
  9
$SPLINETYPE
 70
     6
  9
$SPLINESEGS
 70
     8
  9
$HANDSEED
  5
1DB
  9
$SURFTAB1
 70
     6
  9
$SURFTAB2
 70
     6
  9
$SURFTYPE
 70
     6
  9
$SURFU
 70
     6
  9
$SURFV
 70
     6
  9
$UCSBASE
  2

  9
$UCSNAME
  2

  9
$UCSORG
 10
0.0
 20
0.0
 30
0.0
  9
$UCSXDIR
 10
1.0
 20
0.0
 30
0.0
  9
$UCSYDIR
 10
0.0
 20
1.0
 30
0.0
  9
$UCSORTHOREF
  2

  9
$UCSORTHOVIEW
 70
     0
  9
$UCSORGTOP
 10
0.0
 20
0.0
 30
0.0
  9
$UCSORGBOTTOM
 10
0.0
 20
0.0
 30
0.0
  9
$UCSORGLEFT
 10
0.0
 20
0.0
 30
0.0
  9
$UCSORGRIGHT
 10
0.0
 20
0.0
 30
0.0
  9
$UCSORGFRONT
 10
0.0
 20
0.0
 30
0.0
  9
$UCSORGBACK
 10
0.0
 20
0.0
 30
0.0
  9
$PUCSBASE
  2

  9
$PUCSNAME
  2

  9
$PUCSORG
 10
0.0
 20
0.0
 30
0.0
  9
$PUCSXDIR
 10
1.0
 20
0.0
 30
0.0
  9
$PUCSYDIR
 10
0.0
 20
1.0
 30
0.0
  9
$PUCSORTHOREF
  2

  9
$PUCSORTHOVIEW
 70
     0
  9
$PUCSORGTOP
 10
0.0
 20
0.0
 30
0.0
  9
$PUCSORGBOTTOM
 10
0.0
 20
0.0
 30
0.0
  9
$PUCSORGLEFT
 10
0.0
 20
0.0
 30
0.0
  9
$PUCSORGRIGHT
 10
0.0
 20
0.0
 30
0.0
  9
$PUCSORGFRONT
 10
0.0
 20
0.0
 30
0.0
  9
$PUCSORGBACK
 10
0.0
 20
0.0
 30
0.0
  9
$USERI1
 70
     0
  9
$USERI2
 70
     0
  9
$USERI3
 70
     0
  9
$USERI4
 70
     0
  9
$USERI5
 70
     0
  9
$USERR1
 40
0.0
  9
$USERR2
 40
0.0
  9
$USERR3
 40
0.0
  9
$USERR4
 40
0.0
  9
$USERR5
 40
0.0
  9
$WORLDVIEW
 70
     1
  9
$SHADEDGE
 70
     3
  9
$SHADEDIF
 70
    70
  9
$TILEMODE
 70
     1
  9
$MAXACTVP
 70
    64
  9
$PINSBASE
 10
0.0
 20
0.0
 30
0.0
  9
$PLIMCHECK
 70
     0
  9
$PEXTMIN
 10
1.0000000000E+20
 20
1.0000000000E+20
 30
1.0000000000E+20
  9
$PEXTMAX
 10
-1.0000000000E+20
 20
-1.0000000000E+20
 30
-1.0000000000E+20
  9
$PLIMMIN
 10
0.0
 20
0.0
  9
$PLIMMAX
 10
420.0
 20
297.0
  9
$UNITMODE
 70
     0
  9
$VISRETAIN
 70
     1
  9
$PLINEGEN
 70
     0
  9
$PSLTSCALE
 70
     1
  9
$TREEDEPTH
 70
  3020
  9
$CMLSTYLE
  2
Standard
  9
$CMLJUST
 70
     0
  9
$CMLSCALE
 40
20.0
  9
$PROXYGRAPHICS
 70
     1
  9
$MEASUREMENT
 70
     1
  9
$CELWEIGHT
370
    -1
  9
$ENDCAPS
280
     0
  9
$JOINSTYLE
280
     0
  9
$LWDISPLAY
290
     1
  9
$INSUNITS
 70
     4
  9
$HYPERLINKBASE
  1

  9
$STYLESHEET
  1

  9
$XEDIT
290
     1
  9
$CEPSNTYPE
380
     0
  9
$PSTYLEMODE
290
     1
  9
$FINGERPRINTGUID
  2
{BDB33ABE-2013-49F3-A818-22AB29F96E0C}
  9
$VERSIONGUID
  2
{FAEB1C32-E019-11D5-929B-00C0DF256EC4}
  9
$EXTNAMES
290
     1
  9
$PSVPSCALE
 40
0.0
  9
$OLESTARTUP
290
     0
  0
ENDSEC
  0
SECTION
  2
CLASSES
  0
CLASS
  1
ACDBDICTIONARYWDFLT
  2
AcDbDictionaryWithDefault
  3
ObjectDBX Classes
 90
        0
280
     0
281
     0
  0
CLASS
  1
VISUALSTYLE
  2
AcDbVisualStyle
  3
ObjectDBX Classes
 90
     4095
280
     0
281
     0
  0
CLASS
  1
MATERIAL
  2
AcDbMaterial
  3
ObjectDBX Classes
 90
     1153
280
     0
281
     0
  0
CLASS
  1
SCALE
  2
AcDbScale
  3
ObjectDBX Classes
 90
     1153
280
     0
281
     0
  0
CLASS
  1
SUN
  2
AcDbSun
  3
SCENEOE
 90
     1153
280
     0
281
     0
  0
CLASS
  1
ACDBPLACEHOLDER
  2
AcDbPlaceHolder
  3
ObjectDBX Classes
 90
        0
280
     0
281
     0
  0
CLASS
  1
LAYOUT
  2
AcDbLayout
  3
ObjectDBX Classes
 90
        0
280
     0
281
     0
  0
ENDSEC
  0
SECTION
  2
TABLES
  0
TABLE
  2
VPORT
  5
8
330
0
100
AcDbSymbolTable
 70
     1
  0
VPORT
  5
29
330
8
100
AcDbSymbolTableRecord
100
AcDbViewportTableRecord
  2
*Active
 70
     0
 10
0.0
 20
0.0
 11
1.0
 21
1.0
 12
210.0
 22
148.5
 13
0.0
 23
0.0
 14
10.0
 24
10.0
 15
10.0
 25
10.0
 16
0.0
 26
0.0
 36
1.0
 17
0.0
 27
0.0
 37
0.0
 40
297.0
 41
1.4141414141
 42
50.0
 43
0.0
 44
0.0
 50
0.0
 51
0.0
 71
     0
 72
  2000
 73
     1
 74
     3
 75
     0
 76
     0
 77
     0
 78
     0
281
     0
 65
     1
110
0.0
120
0.0
130
0.0
111
1.0
121
0.0
131
0.0
112
0.0
122
1.0
132
0.0
 79
     0
146
0.0
  0
ENDTAB
  0
TABLE
  2
LTYPE
  5
5
330
0
100
AcDbSymbolTable
 70
     6
  0
LTYPE
  5
14
330
5
100
AcDbSymbolTableRecord
100
AcDbLinetypeTableRecord
  2
ByBlock
 70
     0
  3

 72
    65
 73
     0
 40
0.0
  0
LTYPE
  5
15
330
5
100
AcDbSymbolTableRecord
100
AcDbLinetypeTableRecord
  2
ByLayer
 70
     0
  3

 72
    65
 73
     0
 40
0.0
  0
LTYPE
  5
16
330
5
100
AcDbSymbolTableRecord
100
AcDbLinetypeTableRecord
  2
Continuous
 70
     0
  3
Solid line
 72
    65
 73
     0
 40
0.0
  0
LTYPE
  5
6A
330
5
100
AcDbSymbolTableRecord
100
AcDbLinetypeTableRecord
  2
HIDDEN
 70
     0
  3
Hidden __ __ __ __ __ __ __ __ __ __ __ __ __ __
 72
    65
 73
     2
 40
1.905
 49
1.27
 74
     0
 49
-0.635
 74
     0
  0
LTYPE
  5
6B
330
5
100
AcDbSymbolTableRecord
100
AcDbLinetypeTableRecord
  2
PHANTOM
 70
     0
  3
Phantom ______  __  __  ______  __  __  ______
 72
    65
 73
     6
 40
12.7
 49
6.35
 74
     0
 49
-1.27
 74
     0
 49
1.27
 74
     0
 49
-1.27
 74
     0
 49
1.27
 74
     0
 49
-1.27
 74
     0
  0
LTYPE
  5
6C
330
5
100
AcDbSymbolTableRecord
100
AcDbLinetypeTableRecord
  2
CENTER
 70
     0
  3
Center ____ _ ____ _ ____ _ ____ _ ____ _ ____
 72
    65
 73
     4
 40
10.16
 49
6.35
 74
     0
 49
-1.27
 74
     0
 49
1.27
 74
     0
 49
-1.27
 74
     0
  0
LTYPE
  5
6D
330
5
100
AcDbSymbolTableRecord
100
AcDbLinetypeTableRecord
  2
CENTERX2
 70
     0
  3
Center (2x) ________  __  ________  __  _____
 72
    65
 73
     4
 40
20.32
 49
12.7
 74
     0
 49
-2.54
 74
     0
 49
2.54
 74
     0
 49
-2.54
 74
     0
  0
LTYPE
  5
6E
330
5
100
AcDbSymbolTableRecord
100
AcDbLinetypeTableRecord
  2
DOT2
 70
     0
  3
Dot (.5x) ........................................
 72
    65
 73
     2
 40
0.635
 49
0.0
 74
     0
 49
-0.635
 74
     0
  0
ENDTAB
  0
TABLE
  2
LAYER
  5
2
330
0
100
AcDbSymbolTable
 70
     1
  0
LAYER
  5
10
330
2
100
AcDbSymbolTableRecord
100
AcDbLayerTableRecord
  2
0
 70
     0
 62
     7
  6
Continuous
370
    -3
390
F
  0
ENDTAB
  0
TABLE
  2
STYLE
  5
3
330
0
100
AcDbSymbolTable
 70
     1
  0
STYLE
  5
11
330
3
100
AcDbSymbolTableRecord
100
AcDbTextStyleTableRecord
  2
Standard
 70
     0
 40
0.0
 41
1.0
 50
0.0
 71
     0
 42
3.5
  3
txt
  4

  0
ENDTAB
  0
TABLE
  2
VIEW
  5
6
330
0
100
AcDbSymbolTable
 70
     0
  0
ENDTAB
  0
TABLE
  2
UCS
  5
7
330
0
100
AcDbSymbolTable
 70
     0
  0
ENDTAB
  0
TABLE
  2
APPID
  5
9
330
0
100
AcDbSymbolTable
 70
     1
  0
APPID
  5
12
330
9
100
AcDbSymbolTableRecord
100
AcDbRegAppTableRecord
  2
ACAD
 70
     0
  0
ENDTAB
  0
TABLE
  2
DIMSTYLE
  5
A
330
0
100
AcDbSymbolTable
 70
     1
100
AcDbDimStyleTable
  0
DIMSTYLE
105
27
330
A
100
AcDbSymbolTableRecord
100
AcDbDimStyleTableRecord
  2
ISO-25
 70
     0
 41
2.5
 42
0.625
 43
3.75
 44
1.25
 73
     0
 74
     0
 77
     1
 78
     8
140
2.5
141
2.5
143
0.0393700787
147
0.625
171
     3
172
     1
178
     0
271
     2
272
     2
274
     3
278
    44
283
     0
284
     8
340
11
  0
ENDTAB
  0
TABLE
  2
BLOCK_RECORD
  5
1
330
0
100
AcDbSymbolTable
 70
     1
  0
BLOCK_RECORD
  5
1F
330
1
100
AcDbSymbolTableRecord
100
AcDbBlockTableRecord
  2
*Model_Space
340
22
  0
BLOCK_RECORD
  5
1B
330
1
100
AcDbSymbolTableRecord
100
AcDbBlockTableRecord
  2
*Paper_Space
340
1E
  0
BLOCK_RECORD
  5
23
330
1
100
AcDbSymbolTableRecord
100
AcDbBlockTableRecord
  2
*Paper_Space0
340
26
  0
ENDTAB
  0
ENDSEC
  0
SECTION
  2
BLOCKS
  0
BLOCK
  5
20
330
1F
100
AcDbEntity
  8
0
100
AcDbBlockBegin
  2
*Model_Space
 70
     0
 10
0.0
 20
0.0
 30
0.0
  3
*Model_Space
  1
*Model_Space
  0
ENDBLK
  5
21
330
1F
100
AcDbEntity
  8
0
100
AcDbBlockEnd
  0
BLOCK
  5
1C
330
1B
100
AcDbEntity
 67
     1
  8
0
100
AcDbBlockBegin
  2
*Paper_Space
 70
     0
 10
0.0
 20
0.0
 30
0.0
  3
*Paper_Space
  1
*Paper_Space
  0
ENDBLK
  5
1D
330
1B
100
AcDbEntity
 67
     1
  8
0
100
AcDbBlockEnd
  0
BLOCK
  5
24
330
23
100
AcDbEntity
  8
0
100
AcDbBlockBegin
  2
*Paper_Space0
 70
     0
 10
0.0
 20
0.0
 30
0.0
  3
*Paper_Space0
  1
*Paper_Space0
  0
ENDBLK
  5
25
330
23
100
AcDbEntity
  8
0
100
AcDbBlockEnd
  0
ENDSEC
  0
SECTION
  2
ENTITIES
  0
SPLINE
  5
6F
330
1F
100
AcDbEntity
  8
0
  6
Continuous
 62
     7
370
    15
100
AcDbSpline
210
0.0
220
0.0
230
1.0
 70
     8
 71
     3
 72
     8
 73
     4
 74
     0
 42
0.000000001
 43
0.00000001
 40
0.0
 40
0.0
 40
0.0
 40
0.0
 40
1.0
 40
1.0
 40
1.0
 40
1.0
 10
184.2842329968935
 20
189.1722729332459
 30
0.0
 10
184.4274271890666
 20
189.1722588878543
 30
0.0
 10
184.5707568790089
 20
189.1645499971272
 30
0.0
 10
184.7132851674335
 20
189.1491969335058
 30
0.0
  0
SPLINE
  5
70
330
1F
100
AcDbEntity
  8
0
  6
Continuous
 62
     7
370
    15
100
AcDbSpline
210
0.0
220
0.0
230
1.0
 70
     8
 71
     3
 72
    14
 73
    10
 74
     0
 42
0.000000001
 43
0.00000001
 40
0.0
 40
0.0
 40
0.0
 40
0.0
 40
0.25
 40
0.25
 40
0.5
 40
0.5
 40
0.75
 40
0.75
 40
1.0
 40
1.0
 40
1.0
 40
1.0
 10
184.2842329968935
 20
189.1722729332458
 30
0.0
 10
184.2842164184927
 20
189.431163497216
 30
0.0
 10
184.2841998400919
 20
189.6899566352143
 30
0.0
 10
184.2841666832902
 20
190.1691840242062
 30
0.0
 10
184.2841501048894
 20
190.38943793184
 30
0.0
 10
184.2841169480877
 20
190.7587454904789
 30
0.0
 10
184.2841003696869
 20
190.9076601632712
 30
0.0
 10
184.2840672128852
 20
191.1120509577595
 30
0.0
 10
184.2840506344843
 20
191.1674501628945
 30
0.0
 10
184.2840340560835
 20
191.1719683357593
 30
0.0
  0
SPLINE
  5
71
330
1F
100
AcDbEntity
  8
0
  6
Continuous
 62
     7
370
    15
100
AcDbSpline
210
0.0
220
0.0
230
1.0
 70
     8
 71
     3
 72
    47
 73
    43
 74
     0
 42
0.000000001
 43
0.00000001
 40
0.0
 40
0.0
 40
0.0
 40
0.0
 40
0.0249979674494258
 40
0.0500061543604603
 40
0.0750191945692637
 40
0.1000318817488375
 40
0.1250400996410191
 40
0.1500439987977188
 40
0.1750449201267108
 40
0.2000440436375775
 40
0.2250425537682879
 40
0.2500417333853016
 40
0.2750420826162792
 40
0.3000432471772167
 40
0.3250447067296955
 40
0.3500459693985877
 40
0.375046757995552
 40
0.4000471978400886
 40
0.4250474198178627
 40
0.4500473425554847
 40
0.4750468379576078
 40
0.5000459099496107
 40
0.5250448185920306
 40
0.550043744099937
 40
0.5750426259259914
 40
0.6000413316880726
 40
0.6250398357971483
 40
0.6500383330176983
 40
0.6750368147890196
 40
0.7000349087123631
 40
0.7250320930980486
 40
0.7500278789407879
 40
0.7750220771422147
 40
0.8000155887804281
 40
0.8250096851320131
 40
0.8500055294736957
 40
0.8750043363809173
 40
0.900007441557701
 40
0.9250135597306645
 40
0.9500178928805981
 40
0.9750151609806764
 40
0.9999999999999999
 40
0.9999999999999999
 40
0.9999999999999999
 40
0.9999999999999999
 10
190.2832911644723
 20
185.1728821487105
 30
0.0
 10
190.2823826123646
 20
185.2514022390072
 30
0.0
 10
190.2805651367226
 20
185.4084745195323
 30
0.0
 10
190.2661418941491
 20
185.6437501734666
 30
0.0
 10
190.2431799924446
 20
185.8783481193497
 30
0.0
 10
190.2108563424841
 20
186.1118603872706
 30
0.0
 10
190.169405607599
 20
186.3438907249117
 30
0.0
 10
190.1188580356881
 20
186.5740749898514
 30
0.0
 10
190.0593290709844
 20
186.8020714793412
 30
0.0
 10
189.9909092828643
 20
187.0275422512593
 30
0.0
 10
189.9136976725671
 20
187.2501502871739
 30
0.0
 10
189.8277843760655
 20
187.4695514800987
 30
0.0
 10
189.7333120185906
 20
187.6854144015616
 30
0.0
 10
189.6304494768727
 20
187.8974155614347
 30
0.0
 10
189.5193594272404
 20
188.1052270869551
 30
0.0
 10
189.4002079757915
 20
188.3085229289817
 30
0.0
 10
189.2731534142106
 20
188.5069722470812
 30
0.0
 10
189.138386265448
 20
188.7002626856007
 30
0.0
 10
188.9961423583714
 20
188.8881153935948
 30
0.0
 10
188.8466474632082
 20
189.0702468633863
 30
0.0
 10
188.6901302612877
 20
189.2463756051371
 30
0.0
 10
188.5268163382833
 20
189.4162173967073
 30
0.0
 10
188.3569421177585
 20
189.5794948463274
 30
0.0
 10
188.1807924999402
 20
189.7359800073757
 30
0.0
 10
187.9986459835955
 20
189.8854410877907
 30
0.0
 10
187.8107823044367
 20
190.0276471953699
 30
0.0
 10
187.6174812637514
 20
190.1623678366142
 30
0.0
 10
187.4190231528935
 20
190.2893676777849
 30
0.0
 10
187.2157322915857
 20
190.4084748541667
 30
0.0
 10
187.0079342413901
 20
190.5195225932849
 30
0.0
 10
186.7959538053848
 20
190.6223421072521
 30
0.0
 10
186.5801164326765
 20
190.7167671963203
 30
0.0
 10
186.3607421031892
 20
190.8026237352591
 30
0.0
 10
186.1381685828687
 20
190.8797904794676
 30
0.0
 10
185.9127357435638
 20
190.9481718024234
 30
0.0
 10
185.6847793121084
 20
191.0076650782019
 30
0.0
 10
185.4546362847876
 20
191.0581772189109
 30
0.0
 10
185.222651292336
 20
191.0995820347318
 30
0.0
 10
184.9891997431992
 20
191.1318753654356
 30
0.0
 10
184.7546829108975
 20
191.154819994907
 30
0.0
 10
184.5195097555314
 20
191.1692333590463
 30
0.0
 10
184.3625129415434
 20
191.1710453244745
 30
0.0
 10
184.2840340547956
 20
191.1719510818973
 30
0.0
  0
SPLINE
  5
72
330
1F
100
AcDbEntity
  8
0
  6
Continuous
 62
     7
370
    15
100
AcDbSpline
210
0.0
220
0.0
230
1.0
 70
     8
 71
     3
 72
    14
 73
    10
 74
     0
 42
0.000000001
 43
0.00000001
 40
0.0
 40
0.0
 40
0.0
 40
0.0
 40
0.25
 40
0.25
 40
0.5
 40
0.5
 40
0.75
 40
0.75
 40
1.0
 40
1.0
 40
1.0
 40
1.0
 10
190.2833191678362
 20
185.1728821516358
 30
0.0
 10
190.2791219949988
 20
185.1728282167117
 30
0.0
 10
190.2310908915456
 20
185.1727742817875
 30
0.0
 10
190.0534915693515
 20
185.1726664119391
 30
0.0
 10
189.9239731666227
 20
185.172612477015
 30
0.0
 10
189.6000307575607
 20
185.1725046071667
 30
0.0
 10
189.4056976159829
 20
185.1724506722425
 30
0.0
 10
188.9771123670917
 20
185.1723428023942
 30
0.0
 10
188.742980476498
 20
185.17228886747
 30
0.0
 10
188.5039517532563
 20
185.1722349325458
 30
0.0
  0
SPLINE
  5
73
330
1F
100
AcDbEntity
  8
0
  6
Continuous
 62
     7
370
    15
100
AcDbSpline
210
0.0
220
0.0
230
1.0
 70
     8
 71
     3
 72
    22
 73
    18
 74
     0
 42
0.000000001
 43
0.00000001
 40
0.0
 40
0.0
 40
0.0
 40
0.0
 40
0.125
 40
0.125
 40
0.25
 40
0.25
 40
0.375
 40
0.375
 40
0.5
 40
0.5
 40
0.625
 40
0.625
 40
0.75
 40
0.75
 40
0.875
 40
0.875
 40
1.0
 40
1.0
 40
1.0
 40
1.0
 10
184.7132852320421
 20
189.1491918395594
 30
0.0
 10
184.9723552881182
 20
189.1524777370595
 30
0.0
 10
185.2272370637857
 20
189.1291448090349
 30
0.0
 10
185.7289617846542
 20
189.0313758802023
 30
0.0
 10
185.9785471914966
 20
188.9555482435607
 30
0.0
 10
186.4515269061517
 20
188.756563353578
 30
0.0
 10
186.6756225811358
 20
188.6340178088331
 30
0.0
 10
187.0989164935913
 20
188.3426112019978
 30
0.0
 10
187.296944077253
 20
188.1736533131087
 30
0.0
 10
187.6497482167371
 20
187.8040722452668
 30
0.0
 10
187.8076839605974
 20
187.6008739840763
 30
0.0
 10
188.0809014948165
 20
187.1620281017784
 30
0.0
 10
188.1928949152411
 20
186.9321164092926
 30
0.0
 10
188.3691944765318
 20
186.4519731754688
 30
0.0
 10
188.4335952214655
 20
186.1992845145719
 30
0.0
 10
188.5084331459244
 20
185.6899119989457
 30
0.0
 10
188.5196528482503
 20
185.4308430001274
 30
0.0
 10
188.5039517522573
 20
185.172234916031
 30
0.0
  0
SPLINE
  5
74
330
1F
100
AcDbEntity
  8
0
  6
Continuous
 62
     7
370
    15
100
AcDbSpline
210
0.0
220
0.0
230
1.0
 70
     8
 71
     3
 72
     8
 73
     4
 74
     0
 42
0.000000001
 43
0.00000001
 40
0.0
 40
0.0
 40
0.0
 40
0.0
 40
1.0
 40
1.0
 40
1.0
 40
1.0
 10
116.7374555584535
 20
118.6267139335457
 30
0.0
 10
116.5942613662805
 20
118.6267279789373
 30
0.0
 10
116.4509316763381
 20
118.6344368696645
 30
0.0
 10
116.3084033879135
 20
118.6497899332858
 30
0.0
  0
SPLINE
  5
75
330
1F
100
AcDbEntity
  8
0
  6
Continuous
 62
     7
370
    15
100
AcDbSpline
210
0.0
220
0.0
230
1.0
 70
     8
 71
     3
 72
    14
 73
    10
 74
     0
 42
0.000000001
 43
0.00000001
 40
0.0
 40
0.0
 40
0.0
 40
0.0
 40
0.25
 40
0.25
 40
0.5
 40
0.5
 40
0.75
 40
0.75
 40
1.0
 40
1.0
 40
1.0
 40
1.0
 10
116.7374555584535
 20
118.6267139335458
 30
0.0
 10
116.7374721368544
 20
118.3678233695756
 30
0.0
 10
116.7374887152552
 20
118.1090302315774
 30
0.0
 10
116.7375218720569
 20
117.6298028425854
 30
0.0
 10
116.7375384504577
 20
117.4095489349516
 30
0.0
 10
116.7375716072593
 20
117.0402413763128
 30
0.0
 10
116.7375881856602
 20
116.8913267035204
 30
0.0
 10
116.7376213424618
 20
116.6869359090322
 30
0.0
 10
116.7376379208627
 20
116.6315367038971
 30
0.0
 10
116.7376544992635
 20
116.6270185310323
 30
0.0
  0
SPLINE
  5
76
330
1F
100
AcDbEntity
  8
0
  6
Continuous
 62
     7
370
    15
100
AcDbSpline
210
0.0
220
0.0
230
1.0
 70
     8
 71
     3
 72
    47
 73
    43
 74
     0
 42
0.000000001
 43
0.00000001
 40
0.0
 40
0.0
 40
0.0
 40
0.0
 40
0.0249979674494126
 40
0.0500061543604325
 40
0.0750191945692236
 40
0.1000318817487839
 40
0.1250400996409556
 40
0.1500439987976436
 40
0.1750449201266268
 40
0.2000440436374867
 40
0.2250425537681873
 40
0.2500417333851946
 40
0.2750420826161658
 40
0.3000432471770978
 40
0.3250447067295709
 40
0.3500459693984593
 40
0.3750467579954199
 40
0.400047197839955
 40
0.4250474198177259
 40
0.4500473425553459
 40
0.4750468379574693
 40
0.5000459099494723
 40
0.5250448185918926
 40
0.5500437440997998
 40
0.5750426259258569
 40
0.6000413316879405
 40
0.6250398357970187
 40
0.6500383330175733
 40
0.675036814788899
 40
0.7000349087122482
 40
0.7250320930979396
 40
0.750027878940685
 40
0.7750220771421208
 40
0.8000155887803393
 40
0.8250096851319345
 40
0.8500055294736256
 40
0.8750043363808574
 40
0.9000074415576503
 40
0.9250135597306275
 40
0.9500178928805737
 40
0.9750151609806631
 40
0.9999999999999999
 40
0.9999999999999999
 40
0.9999999999999999
 40
0.9999999999999999
 10
110.7383973908748
 20
122.6261047180812
 30
0.0
 10
110.7393059429824
 20
122.5475846277845
 30
0.0
 10
110.7411234186244
 20
122.3905123472594
 30
0.0
 10
110.7555466611979
 20
122.1552366933253
 30
0.0
 10
110.7785085629024
 20
121.9206387474424
 30
0.0
 10
110.8108322128629
 20
121.6871264795215
 30
0.0
 10
110.8522829477479
 20
121.4550961418805
 30
0.0
 10
110.9028305196588
 20
121.2249118769409
 30
0.0
 10
110.9623594843624
 20
120.9969153874512
 30
0.0
 10
111.0307792724824
 20
120.7714446155332
 30
0.0
 10
111.1079908827797
 20
120.5488365796187
 30
0.0
 10
111.1939041792811
 20
120.3294353866938
 30
0.0
 10
111.2883765367561
 20
120.113572465231
 30
0.0
 10
111.3912390784739
 20
119.9015713053579
 30
0.0
 10
111.5023291281061
 20
119.6937597798375
 30
0.0
 10
111.6214805795549
 20
119.4904639378109
 30
0.0
 10
111.7485351411358
 20
119.2920146197115
 30
0.0
 10
111.8833022898983
 20
119.0987241811919
 30
0.0
 10
112.0255461969749
 20
118.9108714731979
 30
0.0
 10
112.175041092138
 20
118.7287400034063
 30
0.0
 10
112.3315582940584
 20
118.5526112616555
 30
0.0
 10
112.4948722170628
 20
118.3827694700853
 30
0.0
 10
112.6647464375877
 20
118.2194920204652
 30
0.0
 10
112.8408960554058
 20
118.0630068594167
 30
0.0
 10
113.0230425717506
 20
117.9135457790018
 30
0.0
 10
113.2109062509094
 20
117.7713396714226
 30
0.0
 10
113.4042072915947
 20
117.6366190301781
 30
0.0
 10
113.6026654024526
 20
117.5096191890074
 30
0.0
 10
113.8059562637604
 20
117.3905120126255
 30
0.0
 10
114.013754313956
 20
117.2794642735072
 30
0.0
 10
114.2257347499613
 20
117.17664475954
 30
0.0
 10
114.4415721226697
 20
117.0822196704717
 30
0.0
 10
114.660946452157
 20
116.9963631315329
 30
0.0
 10
114.8835199724775
 20
116.9191963873242
 30
0.0
 10
115.1089528117825
 20
116.8508150643684
 30
0.0
 10
115.336909243238
 20
116.7913217885898
 30
0.0
 10
115.5670522705589
 20
116.7408096478809
 30
0.0
 10
115.7990372630106
 20
116.6994048320599
 30
0.0
 10
116.0324888121475
 20
116.667111501356
 30
0.0
 10
116.2670056444494
 20
116.6441668718847
 30
0.0
 10
116.5021787998155
 20
116.6297535077453
 30
0.0
 10
116.6591756138036
 20
116.6279415423172
 30
0.0
 10
116.7376545005514
 20
116.6270357848943
 30
0.0
  0
SPLINE
  5
77
330
1F
100
AcDbEntity
  8
0
  6
Continuous
 62
     7
370
    15
100
AcDbSpline
210
0.0
220
0.0
230
1.0
 70
     8
 71
     3
 72
    14
 73
    10
 74
     0
 42
0.000000001
 43
0.00000001
 40
0.0
 40
0.0
 40
0.0
 40
0.0
 40
0.25
 40
0.25
 40
0.5
 40
0.5
 40
0.75
 40
0.75
 40
1.0
 40
1.0
 40
1.0
 40
1.0
 10
110.7383693875108
 20
122.6261047151558
 30
0.0
 10
110.7425665603483
 20
122.62615865008
 30
0.0
 10
110.7905976638015
 20
122.6262125850041
 30
0.0
 10
110.9681969859956
 20
122.6263204548525
 30
0.0
 10
111.0977153887244
 20
122.6263743897766
 30
0.0
 10
111.4216577977864
 20
122.626482259625
 30
0.0
 10
111.6159909393641
 20
122.6265361945492
 30
0.0
 10
112.0445761882554
 20
122.6266440643975
 30
0.0
 10
112.2787080788491
 20
122.6266979993216
 30
0.0
 10
112.5177368020907
 20
122.6267519342458
 30
0.0
  0
SPLINE
  5
78
330
1F
100
AcDbEntity
  8
0
  6
Continuous
 62
     7
370
    15
100
AcDbSpline
210
0.0
220
0.0
230
1.0
 70
     8
 71
     3
 72
    22
 73
    18
 74
     0
 42
0.000000001
 43
0.00000001
 40
0.0
 40
0.0
 40
0.0
 40
0.0
 40
0.125
 40
0.125
 40
0.25
 40
0.25
 40
0.375
 40
0.375
 40
0.5
 40
0.5
 40
0.625
 40
0.625
 40
0.75
 40
0.75
 40
0.875
 40
0.875
 40
1.0
 40
1.0
 40
1.0
 40
1.0
 10
116.3084033233049
 20
118.6497950272322
 30
0.0
 10
116.0493332672289
 20
118.6465091297322
 30
0.0
 10
115.7944514915614
 20
118.6698420577567
 30
0.0
 10
115.2927267706928
 20
118.7676109865893
 30
0.0
 10
115.0431413638505
 20
118.843438623231
 30
0.0
 10
114.5701616491954
 20
119.0424235132137
 30
0.0
 10
114.3460659742112
 20
119.1649690579586
 30
0.0
 10
113.9227720617557
 20
119.4563756647939
 30
0.0
 10
113.724744478094
 20
119.6253335536829
 30
0.0
 10
113.3719403386099
 20
119.9949146215248
 30
0.0
 10
113.2140045947497
 20
120.1981128827153
 30
0.0
 10
112.9407870605306
 20
120.6369587650132
 30
0.0
 10
112.828793640106
 20
120.866870457499
 30
0.0
 10
112.6524940788152
 20
121.3470136913228
 30
0.0
 10
112.5880933338816
 20
121.5997023522197
 30
0.0
 10
112.5132554094227
 20
122.1090748678459
 30
0.0
 10
112.5020357070968
 20
122.3681438666642
 30
0.0
 10
112.5177368030897
 20
122.6267519507606
 30
0.0
  0
SPLINE
  5
79
330
1F
100
AcDbEntity
  8
0
  6
Continuous
 62
     7
370
    15
100
AcDbSpline
210
0.0
220
0.0
230
1.0
 70
     8
 71
     3
 72
    14
 73
    10
 74
     0
 42
0.000000001
 43
0.00000001
 40
0.0
 40
0.0
 40
0.0
 40
0.0
 40
0.25
 40
0.25
 40
0.5
 40
0.5
 40
0.75
 40
0.75
 40
1.0
 40
1.0
 40
1.0
 40
1.0
 10
112.517735233725
 20
185.1722579262658
 30
0.0
 10
112.2787066041726
 20
185.1722933667275
 30
0.0
 10
112.0445748385683
 20
185.1723288071892
 30
0.0
 10
111.6159898684502
 20
185.1723996881125
 30
0.0
 10
111.4216568804322
 20
185.1724351285742
 30
0.0
 10
111.0977147724178
 20
185.1725060094975
 30
0.0
 10
110.9681965169821
 20
185.1725414499591
 30
0.0
 10
110.7905974542367
 20
185.1726123308825
 30
0.0
 10
110.7425664628059
 20
185.1726477713441
 30
0.0
 10
110.7383693753085
 20
185.1726832118058
 30
0.0
  0
SPLINE
  5
7A
330
1F
100
AcDbEntity
  8
0
  6
Continuous
 62
     7
370
    15
100
AcDbSpline
210
0.0
220
0.0
230
1.0
 70
     8
 71
     3
 72
    47
 73
    43
 74
     0
 42
0.000000001
 43
0.00000001
 40
0.0
 40
0.0
 40
0.0
 40
0.0
 40
0.0249979673723371
 40
0.0500061542101245
 40
0.0750191943495863
 40
0.1000318814637841
 40
0.125040099294563
 40
0.1500439983937821
 40
0.1750449196692332
 40
0.2000440431305196
 40
0.2250425532156175
 40
0.2500417327910119
 40
0.2750420819843921
 40
0.3000432465117573
 40
0.3250447060346734
 40
0.3500459686779976
 40
0.3750467572533615
 40
0.400047197080248
 40
0.4250474190443164
 40
0.4500473417721736
 40
0.4750468371684582
 40
0.5000459091585294
 40
0.5250448178029127
 40
0.5500437433166917
 40
0.575042625152547
 40
0.6000413309283701
 40
0.6250398350551346
 40
0.650038332297333
 40
0.6750368140942801
 40
0.7000349080472418
 40
0.7250320924665434
 40
0.7500278783468945
 40
0.7750220765899163
 40
0.8000155882736785
 40
0.8250096846747671
 40
0.8500055290699038
 40
0.875004336034525
 40
0.9000074412726592
 40
0.9250135595109691
 40
0.9500178927302217
 40
0.9750151609035462
 40
1.0
 40
1.0
 40
1.0
 40
1.0
 10
116.7374555633289
 20
191.1719403201965
 30
0.0
 10
116.6589354732661
 20
191.171031768107
 30
0.0
 10
116.5018631931967
 20
191.169214292501
 30
0.0
 10
116.2665875399228
 20
191.154791050048
 30
0.0
 10
116.0319895946559
 20
191.1318291485074
 30
0.0
 10
115.7984773273039
 20
191.0995054987551
 30
0.0
 10
115.5664469901823
 20
191.0580547641168
 30
0.0
 10
115.3362627257113
 20
191.0075071924852
 30
0.0
 10
115.1082662366379
 20
190.9479782280886
 30
0.0
 10
114.8827954650829
 20
190.8795584402981
 30
0.0
 10
114.6601874294773
 20
190.8023468303479
 30
0.0
 10
114.4407862368068
 20
190.7164335342063
 30
0.0
 10
114.2249233155443
 20
190.6219611770971
 30
0.0
 10
114.0129221558177
 20
190.5190986357466
 30
0.0
 10
113.805110630391
 20
190.4080085864788
 30
0.0
 10
113.6018147884065
 20
190.2888571353869
 30
0.0
 10
113.4033654702986
 20
190.1618025741519
 30
0.0
 10
113.2100750317236
 20
190.0270354257175
 30
0.0
 10
113.0222223236288
 20
189.8847915189476
 30
0.0
 10
112.8400908536939
 20
189.735296624066
 30
0.0
 10
112.6639621117595
 20
189.5787794223984
 30
0.0
 10
112.4941203199679
 20
189.4154654996155
 30
0.0
 10
112.3308428700931
 20
189.2455912792759
 30
0.0
 10
112.1743577087609
 20
189.069441661603
 30
0.0
 10
112.0248966280363
 20
188.8872951453613
 30
0.0
 10
111.8826905201254
 20
188.6994314662606
 30
0.0
 10
111.7479698785308
 20
188.5061304255863
 30
0.0
 10
111.6209700369966
 20
188.3076723146897
 30
0.0
 10
111.5018628602438
 20
188.1043814532909
 30
0.0
 10
111.3908151207509
 20
187.8965834029512
 30
0.0
 10
111.28799560641
 20
187.6846029667479
 30
0.0
 10
111.1935705169735
 20
187.4687655937871
 30
0.0
 10
111.1077139776768
 20
187.2493912639926
 30
0.0
 10
111.0305472331274
 20
187.0268177433099
 30
0.0
 10
110.962165909852
 20
186.8013849035887
 30
0.0
 10
110.9026726337802
 20
186.5734284716638
 30
0.0
 10
110.8521604928093
 20
186.3432854438214
 30
0.0
 10
110.8107556767625
 20
186.1113004507975
 30
0.0
 10
110.778462345875
 20
185.8778489010395
 30
0.0
 10
110.7555177162682
 20
185.64333206807
 30
0.0
 10
110.7411043520414
 20
185.4081589119928
 30
0.0
 10
110.7392923866038
 20
185.2511620975161
 30
0.0
 10
110.7383866291762
 20
185.1726832105179
 30
0.0
  0
SPLINE
  5
7B
330
1F
100
AcDbEntity
  8
0
  6
Continuous
 62
     7
370
    15
100
AcDbSpline
210
0.0
220
0.0
230
1.0
 70
    24
 71
     3
 72
    14
 73
    10
 74
     0
 42
0.000000001
 43
0.00000001
 40
0.0
 40
0.0
 40
0.0
 40
0.0
 40
0.25
 40
0.25
 40
0.5
 40
0.5
 40
0.75
 40
0.75
 40
1.0
 40
1.0
 40
1.0
 40
1.0
 10
116.7374555604035
 20
191.1719683357593
 30
0.0
 10
116.7374555604035
 20
191.1674501628945
 30
0.0
 10
116.7374555604035
 20
191.1120509577595
 30
0.0
 10
116.7374555604035
 20
190.9076601632712
 30
0.0
 10
116.7374555604035
 20
190.7587454904788
 30
0.0
 10
116.7374555604035
 20
190.38943793184
 30
0.0
 10
116.7374555604035
 20
190.1691840242062
 30
0.0
 10
116.7374555604035
 20
189.6899566352143
 30
0.0
 10
116.7374555604035
 20
189.431163497216
 30
0.0
 10
116.7374555604035
 20
189.1722729332458
 30
0.0
  0
SPLINE
  5
7C
330
1F
100
AcDbEntity
  8
0
  6
Continuous
 62
     7
370
    15
100
AcDbSpline
210
0.0
220
0.0
230
1.0
 70
     8
 71
     3
 72
     8
 73
     4
 74
     0
 42
0.000000001
 43
0.00000001
 40
0.0
 40
0.0
 40
0.0
 40
0.0
 40
1.0
 40
1.0
 40
1.0
 40
1.0
 10
116.3083939131336
 20
189.1491961684258
 30
0.0
 10
116.450910943003
 20
189.1645511609489
 30
0.0
 10
116.5942438826564
 20
189.172258577091
 30
0.0
 10
116.7374555574085
 20
189.1722798242053
 30
0.0
  0
SPLINE
  5
7D
330
1F
100
AcDbEntity
  8
0
  6
Continuous
 62
     7
370
    15
100
AcDbSpline
210
0.0
220
0.0
230
1.0
 70
     8
 71
     3
 72
    22
 73
    18
 74
     0
 42
0.000000001
 43
0.00000001
 40
0.0
 40
0.0
 40
0.0
 40
0.0
 40
0.125
 40
0.125
 40
0.25
 40
0.25
 40
0.375
 40
0.375
 40
0.5
 40
0.5
 40
0.625
 40
0.625
 40
0.75
 40
0.75
 40
0.875
 40
0.875
 40
1.0
 40
1.0
 40
1.0
 40
1.0
 10
112.5177354061184
 20
185.172257926299
 30
0.0
 10
112.5020359873756
 20
185.4308646657347
 30
0.0
 10
112.5133784205366
 20
185.689784205111
 30
0.0
 10
112.5873752008898
 20
186.1953539893124
 30
0.0
 10
112.6502107680301
 20
186.4447979709735
 30
0.0
 10
112.8278151105927
 20
186.930390769997
 30
0.0
 10
112.9400351273527
 20
187.1602097370585
 30
0.0
 10
113.2098046487832
 20
187.5947274750822
 30
0.0
 10
113.3695714820975
 20
187.8013084365924
 30
0.0
 10
113.7231973452041
 20
188.1723118072074
 30
0.0
 10
113.9173526249207
 20
188.3383321404271
 30
0.0
 10
114.3407878442338
 20
188.6309187172101
 30
0.0
 10
114.5685080482966
 20
188.7556423287096
 30
0.0
 10
115.0392070819617
 20
188.9541157597241
 30
0.0
 10
115.2860147217352
 20
189.0297753452778
 30
0.0
 10
115.7930458954184
 20
189.129158846865
 30
0.0
 10
116.0493254635541
 20
189.1524771820782
 30
0.0
 10
116.3083938597618
 20
189.1491919595767
 30
0.0
  0
SPLINE
  5
7E
330
1F
100
AcDbEntity
  8
0
  6
Continuous
 62
     7
370
    15
100
AcDbSpline
210
0.0
220
0.0
230
1.0
 70
     8
 71
     3
 72
    14
 73
    10
 74
     0
 42
0.000000001
 43
0.00000001
 40
0.0
 40
0.0
 40
0.0
 40
0.0
 40
0.25
 40
0.25
 40
0.5
 40
0.5
 40
0.75
 40
0.75
 40
1.0
 40
1.0
 40
1.0
 40
1.0
 10
188.5039533216221
 20
122.6267289405258
 30
0.0
 10
188.7429819511744
 20
122.6266935000641
 30
0.0
 10
188.9771137167787
 20
122.6266580596025
 30
0.0
 10
189.4056986868968
 20
122.6265871786791
 30
0.0
 10
189.6000316749149
 20
122.6265517382175
 30
0.0
 10
189.9239737829293
 20
122.6264808572942
 30
0.0
 10
190.053492038365
 20
122.6264454168325
 30
0.0
 10
190.2310911011103
 20
122.6263745359091
 30
0.0
 10
190.2791220925411
 20
122.6263390954475
 30
0.0
 10
190.2833191800386
 20
122.6263036549858
 30
0.0
  0
SPLINE
  5
7F
330
1F
100
AcDbEntity
  8
0
  6
Continuous
 62
     7
370
    15
100
AcDbSpline
210
0.0
220
0.0
230
1.0
 70
     8
 71
     3
 72
    47
 73
    43
 74
     0
 42
0.000000001
 43
0.00000001
 40
0.0
 40
0.0
 40
0.0
 40
0.0
 40
0.0249979673723371
 40
0.0500061542101245
 40
0.0750191943495863
 40
0.1000318814637841
 40
0.125040099294563
 40
0.1500439983937821
 40
0.1750449196692332
 40
0.2000440431305196
 40
0.2250425532156175
 40
0.2500417327910119
 40
0.2750420819843921
 40
0.3000432465117573
 40
0.3250447060346734
 40
0.3500459686779976
 40
0.3750467572533615
 40
0.400047197080248
 40
0.4250474190443164
 40
0.4500473417721736
 40
0.4750468371684582
 40
0.5000459091585294
 40
0.5250448178029127
 40
0.5500437433166917
 40
0.575042625152547
 40
0.6000413309283701
 40
0.6250398350551346
 40
0.650038332297333
 40
0.6750368140942801
 40
0.7000349080472418
 40
0.7250320924665434
 40
0.7500278783468945
 40
0.7750220765899163
 40
0.8000155882736785
 40
0.8250096846747671
 40
0.8500055290699038
 40
0.875004336034525
 40
0.9000074412726592
 40
0.9250135595109691
 40
0.9500178927302217
 40
0.9750151609035462
 40
1.0
 40
1.0
 40
1.0
 40
1.0
 10
184.2842329920182
 20
116.6270465465951
 30
0.0
 10
184.362753082081
 20
116.6279550986847
 30
0.0
 10
184.5198253621504
 20
116.6297725742906
 30
0.0
 10
184.7551010154243
 20
116.6441958167436
 30
0.0
 10
184.9896989606912
 20
116.6671577182843
 30
0.0
 10
185.2232112280431
 20
116.6994813680366
 30
0.0
 10
185.4552415651648
 20
116.7409321026748
 30
0.0
 10
185.6854258296358
 20
116.7914796743064
 30
0.0
 10
185.9134223187092
 20
116.8510086387031
 30
0.0
 10
186.1388930902641
 20
116.9194284264936
 30
0.0
 10
186.3615011258697
 20
116.9966400364438
 30
0.0
 10
186.5809023185403
 20
117.0825533325853
 30
0.0
 10
186.7967652398028
 20
117.1770256896946
 30
0.0
 10
187.0087663995293
 20
117.279888231045
 30
0.0
 10
187.216577924956
 20
117.3909782803129
 30
0.0
 10
187.4198737669405
 20
117.5101297314047
 30
0.0
 10
187.6183230850484
 20
117.6371842926397
 30
0.0
 10
187.8116135236235
 20
117.7719514410742
 30
0.0
 10
187.9994662317183
 20
117.914195347844
 30
0.0
 10
188.1815977016532
 20
118.0636902427256
 30
0.0
 10
188.3577264435876
 20
118.2202074443932
 30
0.0
 10
188.5275682353792
 20
118.3835213671761
 30
0.0
 10
188.6908456852539
 20
118.5533955875157
 30
0.0
 10
188.8473308465861
 20
118.7295452051886
 30
0.0
 10
188.9967919273108
 20
118.9116917214303
 30
0.0
 10
189.1389980352217
 20
119.099555400531
 30
0.0
 10
189.2737186768163
 20
119.2928564412053
 30
0.0
 10
189.4007185183504
 20
119.491314552102
 30
0.0
 10
189.5198256951033
 20
119.6946054135007
 30
0.0
 10
189.6308734345962
 20
119.9024034638404
 30
0.0
 10
189.7336929489371
 20
120.1143839000437
 30
0.0
 10
189.8281180383736
 20
120.3302212730046
 30
0.0
 10
189.9139745776703
 20
120.549595602799
 30
0.0
 10
189.9911413222197
 20
120.7721691234817
 30
0.0
 10
190.059522645495
 20
120.9976019632029
 30
0.0
 10
190.1190159215668
 20
121.2255583951279
 30
0.0
 10
190.1695280625378
 20
121.4557014229703
 30
0.0
 10
190.2109328785845
 20
121.6876864159942
 30
0.0
 10
190.2432262094721
 20
121.9211379657522
 30
0.0
 10
190.2661708390788
 20
122.1556547987216
 30
0.0
 10
190.2805842033057
 20
122.3908279547989
 30
0.0
 10
190.2823961687433
 20
122.5478247692756
 30
0.0
 10
190.2833019261709
 20
122.6263036562737
 30
0.0
  0
SPLINE
  5
80
330
1F
100
AcDbEntity
  8
0
  6
Continuous
 62
     7
370
    15
100
AcDbSpline
210
0.0
220
0.0
230
1.0
 70
    24
 71
     3
 72
    14
 73
    10
 74
     0
 42
0.000000001
 43
0.00000001
 40
0.0
 40
0.0
 40
0.0
 40
0.0
 40
0.25
 40
0.25
 40
0.5
 40
0.5
 40
0.75
 40
0.75
 40
1.0
 40
1.0
 40
1.0
 40
1.0
 10
184.2842329949435
 20
116.6270185310323
 30
0.0
 10
184.2842329949435
 20
116.6315367038971
 30
0.0
 10
184.2842329949435
 20
116.6869359090321
 30
0.0
 10
184.2842329949435
 20
116.8913267035204
 30
0.0
 10
184.2842329949435
 20
117.0402413763128
 30
0.0
 10
184.2842329949435
 20
117.4095489349516
 30
0.0
 10
184.2842329949435
 20
117.6298028425854
 30
0.0
 10
184.2842329949435
 20
118.1090302315774
 30
0.0
 10
184.2842329949435
 20
118.3678233695756
 30
0.0
 10
184.2842329949435
 20
118.6267139335458
 30
0.0
  0
SPLINE
  5
81
330
1F
100
AcDbEntity
  8
0
  6
Continuous
 62
     7
370
    15
100
AcDbSpline
210
0.0
220
0.0
230
1.0
 70
     8
 71
     3
 72
     8
 73
     4
 74
     0
 42
0.000000001
 43
0.00000001
 40
0.0
 40
0.0
 40
0.0
 40
0.0
 40
1.0
 40
1.0
 40
1.0
 40
1.0
 10
184.7132946422135
 20
118.6497906983659
 30
0.0
 10
184.570777612344
 20
118.6344357058428
 30
0.0
 10
184.4274446726907
 20
118.6267282897007
 30
0.0
 10
184.2842329979386
 20
118.6267070425863
 30
0.0
  0
SPLINE
  5
82
330
1F
100
AcDbEntity
  8
0
  6
Continuous
 62
     7
370
    15
100
AcDbSpline
210
0.0
220
0.0
230
1.0
 70
     8
 71
     3
 72
    22
 73
    18
 74
     0
 42
0.000000001
 43
0.00000001
 40
0.0
 40
0.0
 40
0.0
 40
0.0
 40
0.125
 40
0.125
 40
0.25
 40
0.25
 40
0.375
 40
0.375
 40
0.5
 40
0.5
 40
0.625
 40
0.625
 40
0.75
 40
0.75
 40
0.875
 40
0.875
 40
1.0
 40
1.0
 40
1.0
 40
1.0
 10
188.5039531492286
 20
122.6267289404926
 30
0.0
 10
188.5196525679714
 20
122.3681222010569
 30
0.0
 10
188.5083101348104
 20
122.1092026616806
 30
0.0
 10
188.4343133544572
 20
121.6036328774792
 30
0.0
 10
188.3714777873169
 20
121.3541888958182
 30
0.0
 10
188.1938734447544
 20
120.8685960967947
 30
0.0
 10
188.0816534279943
 20
120.6387771297332
 30
0.0
 10
187.8118839065638
 20
120.2042593917095
 30
0.0
 10
187.6521170732495
 20
119.9976784301992
 30
0.0
 10
187.2984912101429
 20
119.6266750595842
 30
0.0
 10
187.1043359304263
 20
119.4606547263645
 30
0.0
 10
186.6809007111132
 20
119.1680681495815
 30
0.0
 10
186.4531805070505
 20
119.043344538082
 30
0.0
 10
185.9824814733853
 20
118.8448711070676
 30
0.0
 10
185.7356738336118
 20
118.7692115215138
 30
0.0
 10
185.2286426599287
 20
118.6698280199267
 30
0.0
 10
184.9723630917929
 20
118.6465096847134
 30
0.0
 10
184.7132946955853
 20
118.6497949072149
 30
0.0
  0
LINE
  5
83
330
1F
100
AcDbEntity
  8
0
  6
Continuous
 62
     7
370
    15
100
AcDbLine
 10
116.7374555585
 20
118.6267139335
 30
0.0
 11
184.2842329969
 21
118.6267139335
 31
0.0
  0
LINE
  5
84
330
1F
100
AcDbEntity
  8
0
  6
Continuous
 62
     7
370
    15
100
AcDbLine
 10
112.7380647778
 20
184.1139878537
 30
0.0
 11
112.7380647778
 21
123.6849990131
 31
0.0
  0
LINE
  5
85
330
1F
100
AcDbEntity
  8
0
  6
Continuous
 62
     7
370
    15
100
AcDbLine
 10
184.2842329969
 20
189.1722729332
 30
0.0
 11
116.7374555585
 21
189.1722729332
 31
0.0
  0
LINE
  5
86
330
1F
100
AcDbEntity
  8
0
  6
Continuous
 62
     7
370
    15
100
AcDbLine
 10
188.2836237775
 20
123.6849990131
 30
0.0
 11
188.2836237775
 21
184.1139878537
 31
0.0
  0
ARC
  5
87
330
1F
100
AcDbEntity
  8
0
  6
Continuous
 62
     7
370
    15
100
AcDbCircle
 10
184.7608442777
 20
122.3994934334
 30
0.0
 40
3.750000000000001
100
AcDbArc
 50
20.0476480586
 51
269.2734764318
  0
ARC
  5
88
330
1F
100
AcDbEntity
  8
0
  6
Continuous
 62
     7
370
    15
100
AcDbCircle
 10
116.2608442777
 20
185.3994934334
 30
0.0
 40
3.750000000000001
100
AcDbArc
 50
200.0476480586
 51
89.2734764318
  0
ARC
  5
89
330
1F
100
AcDbEntity
  8
0
  6
Continuous
 62
     7
370
    15
100
AcDbCircle
 10
184.7608442777
 20
185.3994934334
 30
0.0
 40
3.750000000000039
100
AcDbArc
 50
90.7266681722
 51
339.9523519414
  0
ARC
  5
8A
330
1F
100
AcDbEntity
  8
0
  6
Continuous
 62
     7
370
    15
100
AcDbCircle
 10
116.2608442777
 20
122.3994934334
 30
0.0
 40
3.749999999999999
100
AcDbArc
 50
270.7266681722
 51
159.9523519414
  0
LINE
  5
8B
330
1F
100
AcDbEntity
  8
0
  6
Continuous
 62
     7
370
    15
100
AcDbLine
 10
116.7376544993
 20
116.627018531
 30
0.0
 11
184.2842329949
 21
116.627018531
 31
0.0
  0
LINE
  5
8C
330
1F
100
AcDbEntity
  8
0
  6
Continuous
 62
     7
370
    15
100
AcDbLine
 10
184.2840340561
 20
191.1719683358
 30
0.0
 11
116.7374555604
 21
191.1719683358
 31
0.0
  0
LINE
  5
8D
330
1F
100
AcDbEntity
  8
0
  6
Continuous
 62
     7
370
    15
100
AcDbLine
 10
110.7383693753
 20
185.1726832118
 30
0.0
 11
110.7383693753
 21
122.6261047152
 31
0.0
  0
SPLINE
  5
8E
330
1F
100
AcDbEntity
  8
0
  6
Continuous
 62
     7
370
    15
100
AcDbSpline
210
0.0
220
0.0
230
1.0
 70
     8
 71
     3
 72
     8
 73
     4
 74
     0
 42
0.000000001
 43
0.00000001
 40
0.0
 40
0.0
 40
0.0
 40
0.0
 40
1.0
 40
1.0
 40
1.0
 40
1.0
 10
112.7380647778272
 20
184.1139878536871
 30
0.0
 10
112.6132271437996
 20
184.4560909646369
 30
0.0
 10
112.5398009640346
 20
184.8087859252805
 30
0.0
 10
112.517735412962
 20
185.17225781357
 30
0.0
  0
SPLINE
  5
8F
330
1F
100
AcDbEntity
  8
0
  6
Continuous
 62
     7
370
    15
100
AcDbSpline
210
0.0
220
0.0
230
1.0
 70
     8
 71
     3
 72
     8
 73
     4
 74
     0
 42
0.000000001
 43
0.00000001
 40
0.0
 40
0.0
 40
0.0
 40
0.0
 40
1.0
 40
1.0
 40
1.0
 40
1.0
 10
112.5177368020851
 20
122.626751934213
 30
0.0
 10
112.5398041019629
 20
122.9902158963609
 30
0.0
 10
112.6132298187998
 20
123.3429032326837
 30
0.0
 10
112.7380647778272
 20
123.6849990131045
 30
0.0
  0
LINE
  5
90
330
1F
100
AcDbEntity
  8
0
  6
Continuous
 62
     7
370
    15
100
AcDbLine
 10
190.28331918
 20
122.626303655
 30
0.0
 11
190.28331918
 21
185.1728821516
 31
0.0
  0
SPLINE
  5
91
330
1F
100
AcDbEntity
  8
0
  6
Continuous
 62
     7
370
    15
100
AcDbSpline
210
0.0
220
0.0
230
1.0
 70
     8
 71
     3
 72
     8
 73
     4
 74
     0
 42
0.000000001
 43
0.00000001
 40
0.0
 40
0.0
 40
0.0
 40
0.0
 40
1.0
 40
1.0
 40
1.0
 40
1.0
 10
188.2836237775199
 20
123.6849990131045
 30
0.0
 10
188.4084614115474
 20
123.3428959021548
 30
0.0
 10
188.4818875913125
 20
122.9902009415111
 30
0.0
 10
188.5039531423851
 20
122.6267290532216
 30
0.0
  0
SPLINE
  5
92
330
1F
100
AcDbEntity
  8
0
  6
Continuous
 62
     7
370
    15
100
AcDbSpline
210
0.0
220
0.0
230
1.0
 70
     8
 71
     3
 72
     8
 73
     4
 74
     0
 42
0.000000001
 43
0.00000001
 40
0.0
 40
0.0
 40
0.0
 40
0.0
 40
1.0
 40
1.0
 40
1.0
 40
1.0
 10
188.503951753262
 20
185.1722349325786
 30
0.0
 10
188.4818844533841
 20
184.8087709704307
 30
0.0
 10
188.4084587365473
 20
184.456083634108
 30
0.0
 10
188.2836237775199
 20
184.1139878536871
 30
0.0
  0
ELLIPSE
  5
93
330
1F
100
AcDbEntity
  8
0
  6
Continuous
 62
     7
370
    15
100
AcDbEllipse
 10
116.5117582459
 20
122.4004074017
 30
0.0
 11
-4.243933135017486
 21
-4.2439331350175
 31
0.0
210
0.0
220
0.0
230
1.0
 40
0.9996954599
 41
5.497939437029194
 42
7.068431177329991
  0
LINE
  5
94
330
1F
100
AcDbEntity
  8
0
  6
Continuous
 62
     7
370
    15
100
AcDbLine
 10
110.5108442777
 20
122.3985796043
 30
0.0
 11
110.7383693875
 21
122.6261047152
 31
0.0
  0
LINE
  5
95
330
1F
100
AcDbEntity
  8
0
  6
Continuous
 62
     7
370
    15
100
AcDbLine
 10
116.7376544993
 20
116.627018531
 30
0.0
 11
116.5099304486
 21
116.3994934334
 31
0.0
  0
ELLIPSE
  5
96
330
1F
100
AcDbEntity
  8
0
  6
Continuous
 62
     7
370
    15
100
AcDbEllipse
 10
184.5099303094
 20
185.3985794651
 30
0.0
 11
4.243933135017471
 21
4.243933135017528
 31
0.0
210
0.0
220
0.0
230
1.0
 40
0.9996954599
 41
5.497939437029194
 42
7.068431177329984
  0
LINE
  5
97
330
1F
100
AcDbEntity
  8
0
  6
Continuous
 62
     7
370
    15
100
AcDbLine
 10
190.5108442777
 20
185.4004072625
 30
0.0
 11
190.2833191678
 21
185.1728821516
 31
0.0
  0
LINE
  5
98
330
1F
100
AcDbEntity
  8
0
  6
Continuous
 62
     7
370
    15
100
AcDbLine
 10
184.2840340561
 20
191.1719683358
 30
0.0
 11
184.5117581067
 21
191.3994934334
 31
0.0
  0
ELLIPSE
  5
99
330
1F
100
AcDbEntity
  8
0
  6
Continuous
 62
     7
370
    15
100
AcDbEllipse
 10
116.5117582459
 20
185.3985794651
 30
0.0
 11
-4.243933135017486
 21
4.243933135017529
 31
0.0
210
0.0
220
0.0
230
1.0
 40
0.9996954599
 41
5.4979394370292
 42
7.068431177329994
  0
LINE
  5
9A
330
1F
100
AcDbEntity
  8
0
  6
Continuous
 62
     7
370
    15
100
AcDbLine
 10
116.5099304486
 20
191.3994934334
 30
0.0
 11
116.7374555604
 21
191.1719683236
 31
0.0
  0
LINE
  5
9B
330
1F
100
AcDbEntity
  8
0
  6
Continuous
 62
     7
370
    15
100
AcDbLine
 10
110.7383693753
 20
185.1726832118
 30
0.0
 11
110.5108442777
 21
185.4004072625
 31
0.0
  0
ELLIPSE
  5
9C
330
1F
100
AcDbEntity
  8
0
  6
Continuous
 62
     7
370
    15
100
AcDbEllipse
 10
184.5099303094
 20
122.4004074017
 30
0.0
 11
4.243933135017471
 21
-4.2439331350175
 31
0.0
210
0.0
220
0.0
230
1.0
 40
0.9996954599
 41
5.497939437029198
 42
7.068431177329995
  0
LINE
  5
9D
330
1F
100
AcDbEntity
  8
0
  6
Continuous
 62
     7
370
    15
100
AcDbLine
 10
184.5117581067
 20
116.3994934334
 30
0.0
 11
184.2842329949
 21
116.6270185432
 31
0.0
  0
LINE
  5
9E
330
1F
100
AcDbEntity
  8
0
  6
Continuous
 62
     7
370
    15
100
AcDbLine
 10
190.28331918
 20
122.626303655
 30
0.0
 11
190.5108442777
 21
122.3985796043
 31
0.0
  0
LINE
  5
9F
330
1F
100
AcDbEntity
  8
0
  6
Continuous
 62
     7
370
    15
100
AcDbLine
 10
110.5108442777
 20
185.4004072625
 30
0.0
 11
110.5108442777
 21
122.3985796043
 31
0.0
  0
LINE
  5
A0
330
1F
100
AcDbEntity
  8
0
  6
Continuous
 62
     7
370
    15
100
AcDbLine
 10
190.5108442777
 20
122.3985796043
 30
0.0
 11
190.5108442777
 21
185.4004072625
 31
0.0
  0
LINE
  5
A1
330
1F
100
AcDbEntity
  8
0
  6
Continuous
 62
     7
370
    15
100
AcDbLine
 10
184.5117581067
 20
191.3994934334
 30
0.0
 11
116.5099304486
 21
191.3994934334
 31
0.0
  0
LINE
  5
A2
330
1F
100
AcDbEntity
  8
0
  6
Continuous
 62
     7
370
    15
100
AcDbLine
 10
116.5099304486
 20
116.3994934334
 30
0.0
 11
184.5117581067
 21
116.3994934334
 31
0.0
  0
CIRCLE
  5
A3
330
1F
100
AcDbEntity
  8
0
  6
Continuous
 62
     7
370
    15
100
AcDbCircle
 10
184.7608442777
 20
185.3994934334
 30
0.0
 40
2.299999999999983
  0
CIRCLE
  5
A4
330
1F
100
AcDbEntity
  8
0
  6
Continuous
 62
     7
370
    15
100
AcDbCircle
 10
116.2608442777
 20
122.3994934334
 30
0.0
 40
2.299999999999997
  0
CIRCLE
  5
A5
330
1F
100
AcDbEntity
  8
0
  6
Continuous
 62
     7
370
    15
100
AcDbCircle
 10
116.2608442777
 20
185.3994934334
 30
0.0
 40
2.299999999999983
  0
CIRCLE
  5
A6
330
1F
100
AcDbEntity
  8
0
  6
Continuous
 62
     7
370
    15
100
AcDbCircle
 10
184.7608442777
 20
122.3994934334
 30
0.0
 40
2.299999999999997
  0
SPLINE
  5
A7
330
1F
100
AcDbEntity
  8
0
  6
Continuous
 62
     7
370
    15
100
AcDbSpline
210
0.0
220
0.0
230
1.0
 70
     8
 71
     3
 72
    10
 73
     6
 74
     0
 42
0.000000001
 43
0.00000001
 40
0.0
 40
0.0
 40
0.0
 40
0.0
 40
0.0937871718676861
 40
0.5468122470425404
 40
1.0
 40
1.0
 40
1.0
 40
1.0
 10
77.91424143151329
 20
120.4573505982096
 30
0.0
 10
77.91426038494834
 20
120.3755110382216
 30
0.0
 10
77.91437089015074
 20
119.898357576796
 30
0.0
 10
77.91457402364654
 20
119.1957924548791
 30
0.0
 10
77.91475884982457
 20
118.7923954327167
 30
0.0
 10
77.914851279503
 20
118.5906607139529
 30
0.0
  0
SPLINE
  5
A8
330
1F
100
AcDbEntity
  8
0
  6
Continuous
 62
     7
370
    15
100
AcDbSpline
210
0.0
220
0.0
230
1.0
 70
     8
 71
     3
 72
     9
 73
     5
 74
     0
 42
0.000000001
 43
0.00000001
 40
0.0
 40
0.0
 40
0.0
 40
0.0
 40
0.4143501459985926
 40
1.0
 40
1.0
 40
1.0
 40
1.0
 10
77.91387027250958
 20
122.1055567186145
 30
0.0
 10
77.91392136105436
 20
121.8617728367427
 30
0.0
 10
77.91404465905555
 20
121.2734204873444
 30
0.0
 10
77.914168754837
 20
120.7587609065577
 30
0.0
 10
77.91424143151329
 20
120.4573505982096
 30
0.0
  0
LINE
  5
A9
330
1F
100
AcDbEntity
  8
0
  6
Continuous
 62
     7
370
    15
100
AcDbLine
 10
77.9137502754
 20
122.6677495958
 30
0.0
 11
77.9138702725
 21
122.1055567186
 31
0.0
  0
SPLINE
  5
AA
330
1F
100
AcDbEntity
  8
0
  6
Continuous
 62
     7
370
    15
100
AcDbSpline
210
0.0
220
0.0
230
1.0
 70
     8
 71
     3
 72
     9
 73
     5
 74
     0
 42
0.000000001
 43
0.00000001
 40
0.0
 40
0.0
 40
0.0
 40
0.0
 40
0.4822823599864356
 40
1.0
 40
1.0
 40
1.0
 40
1.0
 10
77.91374974155153
 20
118.2728571745915
 30
0.0
 10
77.94284801602113
 20
118.1606680274411
 30
0.0
 10
78.00318253555534
 20
117.9280467324105
 30
0.0
 10
78.12943736018042
 20
117.9294275966311
 30
0.0
 10
78.19480171002564
 20
117.9301424943965
 30
0.0
  0
SPLINE
  5
AB
330
1F
100
AcDbEntity
  8
0
  6
Continuous
 62
     7
370
    15
100
AcDbSpline
210
0.0
220
0.0
230
1.0
 70
     8
 71
     3
 72
    11
 73
     7
 74
     0
 42
0.000000001
 43
0.00000001
 40
0.0
 40
0.0
 40
0.0
 40
0.0
 40
0.2554163460160729
 40
0.5148628124666507
 40
0.7663741793184764
 40
1.0
 40
1.0
 40
1.0
 40
1.0
 10
78.0163703284159
 20
117.9975597980063
 30
0.0
 10
78.10637939000445
 20
117.8175302093335
 30
0.0
 10
78.28781773300712
 20
117.4546304114268
 30
0.0
 10
78.75255099145643
 20
117.0505662383948
 30
0.0
 10
79.29258463442213
 20
116.7899109524672
 30
0.0
 10
79.67829947129121
 20
116.7550418000977
 30
0.0
 10
79.86404681787322
 20
116.7382499841988
 30
0.0
  0
LINE
  5
AC
330
1F
100
AcDbEntity
  8
0
  6
Continuous
 62
     7
370
    15
100
AcDbLine
 10
78.0163703284
 20
118.6872529085
 30
0.0
 11
77.9320798429
 21
118.6187807874
 31
0.0
  0
LINE
  5
AD
330
1F
100
AcDbEntity
  8
0
  6
Continuous
 62
     7
370
    15
100
AcDbLine
 10
77.9320954761
 20
189.1802293346
 30
0.0
 11
78.0163671869
 21
189.111801379
 31
0.0
  0
SPLINE
  5
AE
330
1F
100
AcDbEntity
  8
0
  6
Continuous
 62
     7
370
    15
100
AcDbSpline
210
0.0
220
0.0
230
1.0
 70
     8
 71
     3
 72
    11
 73
     7
 74
     0
 42
0.000000001
 43
0.00000001
 40
0.0
 40
0.0
 40
0.0
 40
0.0
 40
0.2336258737325308
 40
0.4851373065819122
 40
0.7445837805422227
 40
1.0
 40
1.0
 40
1.0
 40
1.0
 10
79.86404687785638
 20
191.0607567912428
 30
0.0
 10
79.67829883783853
 20
191.043963018267
 30
0.0
 10
79.29258255394657
 20
191.0090898012782
 30
0.0
 10
78.75254718818496
 20
190.7484269746726
 30
0.0
 10
78.28781328505401
 20
190.3443546059124
 30
0.0
 10
78.10637579939797
 20
189.9814497422456
 30
0.0
 10
78.01636718691425
 20
189.8014176880968
 30
0.0
  0
SPLINE
  5
AF
330
1F
100
AcDbEntity
  8
0
  6
Continuous
 62
     7
370
    15
100
AcDbSpline
210
0.0
220
0.0
230
1.0
 70
     8
 71
     3
 72
     9
 73
     5
 74
     0
 42
0.000000001
 43
0.00000001
 40
0.0
 40
0.0
 40
0.0
 40
0.0
 40
0.5177354195441916
 40
1.0
 40
1.0
 40
1.0
 40
1.0
 10
78.19477593653923
 20
189.8688690312008
 30
0.0
 10
78.12941805737191
 20
189.8695808497006
 30
0.0
 10
78.00318006649837
 20
189.8709557189346
 30
0.0
 10
77.94284570762841
 20
189.6383212187952
 30
0.0
 10
77.9137485833609
 20
189.5261298391859
 30
0.0
  0
SPLINE
  5
B0
330
1F
100
AcDbEntity
  8
0
  6
Continuous
 62
     7
370
    15
100
AcDbSpline
210
0.0
220
0.0
230
1.0
 70
     8
 71
     3
 72
    10
 73
     6
 74
     0
 42
0.000000001
 43
0.00000001
 40
0.0
 40
0.0
 40
0.0
 40
0.0
 40
0.0428108203308399
 40
0.5430094557121137
 40
1.0
 40
1.0
 40
1.0
 40
1.0
 10
77.91400594304963
 20
187.4872747408727
 30
0.0
 10
77.91399748177255
 20
187.458461094295
 30
0.0
 10
77.91389015952494
 20
187.0929908130827
 30
0.0
 10
77.9137594601492
 20
186.297449727701
 30
0.0
 10
77.91375259362859
 20
185.5080744391615
 30
0.0
 10
77.9137493153477
 20
185.1312032308161
 30
0.0
  0
SPLINE
  5
B1
330
1F
100
AcDbEntity
  8
0
  6
Continuous
 62
     7
370
    15
100
AcDbSpline
210
0.0
220
0.0
230
1.0
 70
     8
 71
     3
 72
    11
 73
     7
 74
     0
 42
0.000000001
 43
0.00000001
 40
0.0
 40
0.0
 40
0.0
 40
0.0
 40
0.2748782350457067
 40
0.5396986289432014
 40
0.7944721224305641
 40
1.0
 40
1.0
 40
1.0
 40
1.0
 10
77.91485117104932
 20
189.208379044324
 30
0.0
 10
77.91475598030019
 20
189.1028118324845
 30
0.0
 10
77.91456908184756
 20
188.8955401309559
 30
0.0
 10
77.91433332869735
 20
188.4565438774713
 30
0.0
 10
77.91414255556708
 20
187.9897050534346
 30
0.0
 10
77.91404811254101
 20
187.6423647072273
 30
0.0
 10
77.91400594304963
 20
187.4872747408727
 30
0.0
  0
LINE
  5
B2
330
1F
100
AcDbEntity
  8
0
  6
Continuous
 62
     7
370
    15
100
AcDbLine
 10
77.8822875459
 20
118.6494934334
 30
0.0
 11
77.9698876952
 21
118.6494934334
 31
0.0
  0
SPLINE
  5
B3
330
1F
100
AcDbEntity
  8
0
  6
Continuous
 62
     7
370
    15
100
AcDbSpline
210
0.0
220
0.0
230
1.0
 70
     8
 71
     3
 72
     9
 73
     5
 74
     0
 42
0.000000001
 43
0.00000001
 40
0.0
 40
0.0
 40
0.0
 40
0.0
 40
0.9708155493259206
 40
1.0
 40
1.0
 40
1.0
 40
1.0
 10
77.91374858336101
 20
118.2728570276052
 30
0.0
 10
77.93766983785962
 20
118.1422872675675
 30
0.0
 10
77.96231020802593
 20
118.0077923471592
 30
0.0
 10
78.01968901904301
 20
117.9895444629895
 30
0.0
 10
78.0213635881229
 20
117.9890119085141
 30
0.0
  0
SPLINE
  5
B4
330
1F
100
AcDbEntity
  8
0
  6
Continuous
 62
     7
370
    15
100
AcDbSpline
210
0.0
220
0.0
230
1.0
 70
     8
 71
     3
 72
     9
 73
     5
 74
     0
 42
0.000000001
 43
0.00000001
 40
0.0
 40
0.0
 40
0.0
 40
0.0
 40
0.0290556186875354
 40
1.0
 40
1.0
 40
1.0
 40
1.0
 10
78.0213512961961
 20
189.8099577527293
 30
0.0
 10
78.01968411055459
 20
189.8094275784243
 30
0.0
 10
77.96230499708864
 20
189.791180701264
 30
0.0
 10
77.93766946906592
 20
189.6567015086615
 30
0.0
 10
77.91374974155163
 20
189.5261296922008
 30
0.0
  0
LINE
  5
B5
330
1F
100
AcDbEntity
  8
0
  6
Continuous
 62
     7
370
    15
100
AcDbLine
 10
92.8821594658
 20
185.4004072625
 30
0.0
 11
92.8821594658
 21
191.3994934334
 31
0.0
  0
LINE
  5
B6
330
1F
100
AcDbEntity
  8
0
  6
Continuous
 62
     7
370
    15
100
AcDbLine
 10
92.8821594658
 20
185.4004072625
 30
0.0
 11
79.8472546529
 21
185.1728821516
 31
0.0
  0
SPLINE
  5
B7
330
1F
100
AcDbEntity
  8
0
  6
Continuous
 62
     7
370
    15
100
AcDbSpline
210
0.0
220
0.0
230
1.0
 70
     8
 71
     3
 72
    10
 73
     6
 74
     0
 42
0.000000001
 43
0.00000001
 40
0.0
 40
0.0
 40
0.0
 40
0.0
 40
0.2910195183103433
 40
0.6439601823778848
 40
1.0
 40
1.0
 40
1.0
 40
1.0
 10
79.84115539487327
 20
191.0585020353438
 30
0.0
 10
79.84168760681038
 20
191.0789620741753
 30
0.0
 10
79.84286527110616
 20
191.1242354991807
 30
0.0
 10
79.84490429557394
 20
191.1633330412719
 30
0.0
 10
79.84646938603768
 20
191.1690815259833
 30
0.0
 10
79.84725535199537
 20
191.1719683324626
 30
0.0
  0
LINE
  5
B8
330
1F
100
AcDbEntity
  8
0
  6
Continuous
 62
     7
370
    15
100
AcDbLine
 10
79.8472553519
 20
191.1719683358
 30
0.0
 11
92.8821594658
 21
191.3994934334
 31
0.0
  0
LINE
  5
B9
330
1F
100
AcDbEntity
  8
0
  6
Continuous
 62
     7
370
    15
100
AcDbLine
 10
92.8821594658
 20
122.3985796043
 30
0.0
 11
92.8821594658
 21
185.4004072625
 31
0.0
  0
LINE
  5
BA
330
1F
100
AcDbEntity
  8
0
  6
Continuous
 62
     7
370
    15
100
AcDbLine
 10
79.847255352
 20
122.626303655
 30
0.0
 11
92.8821594658
 21
122.3985796043
 31
0.0
  0
LINE
  5
BB
330
1F
100
AcDbEntity
  8
0
  6
Continuous
 62
     7
370
    15
100
AcDbLine
 10
79.847255352
 20
122.626303655
 30
0.0
 11
79.847255352
 21
185.1728821516
 31
0.0
  0
LINE
  5
BC
330
1F
100
AcDbEntity
  8
0
  6
Continuous
 62
     7
370
    15
100
AcDbLine
 10
92.8821594658
 20
116.3994934334
 30
0.0
 11
92.8821594658
 21
122.3985796043
 31
0.0
  0
LINE
  5
BD
330
1F
100
AcDbEntity
  8
0
  6
Continuous
 62
     7
370
    15
100
AcDbLine
 10
92.8821594658
 20
116.3994934334
 30
0.0
 11
79.8472546529
 21
116.6270185432
 31
0.0
  0
LINE
  5
BE
330
1F
100
AcDbEntity
  8
0
  6
Continuous
 62
     7
370
    15
100
AcDbLine
 10
79.8472546529
 20
116.6270185432
 30
0.0
 11
79.8411861958
 21
116.7451112829
 31
0.0
  0
LINE
  5
BF
330
1F
100
AcDbEntity
  8
0
  6
Continuous
 62
     7
370
    15
100
AcDbLine
 10
77.8943327903
 20
122.6267289405
 30
0.0
 11
77.9310069775
 21
122.6267099857
 31
0.0
  0
LINE
  5
C0
330
1F
100
AcDbEntity
  8
0
  6
Continuous
 62
     7
370
    15
100
AcDbLine
 10
77.9529629453
 20
118.2666573272
 30
0.0
 11
77.8821594658
 21
118.6267139335
 31
0.0
  0
SPLINE
  5
C1
330
1F
100
AcDbEntity
  8
0
  6
Continuous
 62
     7
370
    15
100
AcDbSpline
210
0.0
220
0.0
230
1.0
 70
    24
 71
     3
 72
     8
 73
     4
 74
     0
 42
0.000000001
 43
0.00000001
 40
0.0
 40
0.0
 40
0.0
 40
0.0
 40
1.0
 40
1.0
 40
1.0
 40
1.0
 10
77.88215946602654
 20
118.6497906983659
 30
0.0
 10
77.88215946602654
 20
118.6344357058428
 30
0.0
 10
77.88215946602654
 20
118.6267282897007
 30
0.0
 10
77.88215946602654
 20
118.6267070425863
 30
0.0
  0
SPLINE
  5
C2
330
1F
100
AcDbEntity
  8
0
  6
Continuous
 62
     7
370
    15
100
AcDbSpline
210
0.0
220
0.0
230
1.0
 70
     8
 71
     3
 72
    13
 73
     9
 74
     0
 42
0.000000001
 43
0.00000001
 40
0.0
 40
0.0
 40
0.0
 40
0.0
 40
0.0401303727822104
 40
0.2623789359496099
 40
0.4846250220041257
 40
0.706855316344527
 40
0.9291126468486182
 40
1.0
 40
1.0
 40
1.0
 40
1.0
 10
77.8943343456166
 20
122.6267289404926
 30
0.0
 10
77.8948355136733
 20
122.5510134692001
 30
0.0
 10
77.89811223233619
 20
122.0559733433465
 30
0.0
 10
77.90251959850049
 20
121.134578739351
 30
0.0
 10
77.90096853167464
 20
120.0093206195945
 30
0.0
 10
77.8931491860878
 20
119.1704346762421
 30
0.0
 10
77.88496447496617
 20
118.7511470057536
 30
0.0
 10
77.88374084903202
 20
118.7093258061595
 30
0.0
 10
77.88344495554134
 20
118.699212731251
 30
0.0
  0
SPLINE
  5
C3
330
1F
100
AcDbEntity
  8
0
  6
Continuous
 62
     7
370
    15
100
AcDbSpline
210
0.0
220
0.0
230
1.0
 70
    24
 71
     3
 72
     8
 73
     4
 74
     0
 42
0.000000001
 43
0.00000001
 40
0.0
 40
0.0
 40
0.0
 40
0.0
 40
1.0
 40
1.0
 40
1.0
 40
1.0
 10
77.882159465872
 20
189.1722729332459
 30
0.0
 10
77.88215946591966
 20
189.1722588878543
 30
0.0
 10
77.8821594660028
 20
189.1645499971272
 30
0.0
 10
77.88215946612137
 20
189.1491969335058
 30
0.0
  0
LINE
  5
C4
330
1F
100
AcDbEntity
  8
0
  6
Continuous
 62
     7
370
    15
100
AcDbLine
 10
77.8821594658
 20
189.1722729332
 30
0.0
 11
77.9529699951
 21
189.5323653898
 31
0.0
  0
SPLINE
  5
C5
330
1F
100
AcDbEntity
  8
0
  6
Continuous
 62
     7
370
    15
100
AcDbSpline
210
0.0
220
0.0
230
1.0
 70
     8
 71
     3
 72
    14
 73
    10
 74
     0
 42
0.000000001
 43
0.00000001
 40
0.0
 40
0.0
 40
0.0
 40
0.0
 40
0.25
 40
0.25
 40
0.5
 40
0.5
 40
0.75
 40
0.75
 40
1.0
 40
1.0
 40
1.0
 40
1.0
 10
79.84725465294544
 20
185.1728821516358
 30
0.0
 10
79.60679878216972
 20
185.1728282167117
 30
0.0
 10
79.36717550311127
 20
185.1727742817875
 30
0.0
 10
78.92017992264371
 20
185.1726664119391
 30
0.0
 10
78.71293300199048
 20
185.172612477015
 30
0.0
 10
78.35739413799323
 20
185.1725046071667
 30
0.0
 10
78.20920192210393
 20
185.1724506722425
 30
0.0
 10
77.99088734944755
 20
185.1723428023942
 30
0.0
 10
77.92082622918332
 20
185.17228886747
 30
0.0
 10
77.89433261644726
 20
185.1722349325458
 30
0.0
  0
SPLINE
  5
C6
330
1F
100
AcDbEntity
  8
0
  6
Continuous
 62
     7
370
    15
100
AcDbSpline
210
0.0
220
0.0
230
1.0
 70
     8
 71
     3
 72
    13
 73
     9
 74
     0
 42
0.000000001
 43
0.00000001
 40
0.0
 40
0.0
 40
0.0
 40
0.0
 40
0.150878498867604
 40
0.3699056721253841
 40
0.5889784180703374
 40
0.8080297659448666
 40
0.960442929249298
 40
1.0
 40
1.0
 40
1.0
 40
1.0
 10
77.88357437286426
 20
189.0883516085322
 30
0.0
 10
77.88439403198701
 20
189.0600164276059
 30
0.0
 10
77.88640357318076
 20
188.9905476548914
 30
0.0
 10
77.89605246704579
 20
188.4042347267352
 30
0.0
 10
77.90227863158174
 20
187.4695517867598
 30
0.0
 10
77.90144651534995
 20
186.4048506660711
 30
0.0
 10
77.8972665507139
 20
185.6155240552098
 30
0.0
 10
77.89483593348385
 20
185.2479720730641
 30
0.0
 10
77.89433508449436
 20
185.172234916031
 30
0.0
  0
SPLINE
  5
C7
330
1F
100
AcDbEntity
  8
0
  6
Continuous
 62
     7
370
    15
100
AcDbSpline
210
0.0
220
0.0
230
1.0
 70
     8
 71
     3
 72
     8
 73
     4
 74
     0
 42
0.000000001
 43
0.00000001
 40
0.0
 40
0.0
 40
0.0
 40
0.0
 40
1.0
 40
1.0
 40
1.0
 40
1.0
 10
77.88215946582561
 20
123.6849990131045
 30
0.0
 10
77.88215946582537
 20
123.3428959021548
 30
0.0
 10
77.89188703967766
 20
122.9902009415111
 30
0.0
 10
77.89433277041685
 20
122.6267290532216
 30
0.0
  0
LINE
  5
C8
330
1F
100
AcDbEntity
  8
0
  6
Continuous
 62
     7
370
    15
100
AcDbLine
 10
77.8821594658
 20
123.6849990131
 30
0.0
 11
77.8821594658
 21
184.1139878537
 31
0.0
  0
SPLINE
  5
C9
330
1F
100
AcDbEntity
  8
0
  6
Continuous
 62
     7
370
    15
100
AcDbSpline
210
0.0
220
0.0
230
1.0
 70
     8
 71
     3
 72
     8
 73
     4
 74
     0
 42
0.000000001
 43
0.00000001
 40
0.0
 40
0.0
 40
0.0
 40
0.0
 40
1.0
 40
1.0
 40
1.0
 40
1.0
 10
77.89433261644771
 20
185.1722349325786
 30
0.0
 10
77.89188670748256
 20
184.8087709704307
 30
0.0
 10
77.88215946582537
 20
184.456083634108
 30
0.0
 10
77.88215946582561
 20
184.1139878536871
 30
0.0
  0
LINE
  5
CA
330
1F
100
AcDbEntity
  8
0
  6
Continuous
 62
     7
370
    15
100
AcDbLine
 10
77.8821594659
 20
118.6497949072
 30
0.0
 11
77.8821594659
 21
123.6849990131
 31
0.0
  0
LINE
  5
CB
330
1F
100
AcDbEntity
  8
0
  6
Continuous
 62
     7
370
    15
100
AcDbLine
 10
77.8821594658
 20
184.1139878537
 30
0.0
 11
77.8821594658
 21
189.0420293308
 31
0.0
  0
SPLINE
  5
CC
330
1F
100
AcDbEntity
  8
0
  6
Continuous
 62
     8
370
    15
100
AcDbSpline
210
0.0
220
0.0
230
1.0
 70
     8
 71
     3
 72
    15
 73
    11
 74
     0
 42
0.000000001
 43
0.00000001
 40
0.0
 40
0.0
 40
0.0
 40
0.0
 40
0.1483900829864172
 40
0.2928713345642242
 40
0.4334438575750517
 40
0.5701078772682172
 40
0.7067260618076762
 40
0.8472721260363262
 40
0.9917462893211323
 40
0.9999999999999999
 40
0.9999999999999999
 40
0.9999999999999999
 40
0.9999999999999999
 10
79.84725465294544
 20
185.1728821516358
 30
0.0
 10
79.8449951519679
 20
185.5817510204012
 30
0.0
 10
79.84053566887158
 20
186.3887184999465
 30
0.0
 10
79.83597131451266
 20
187.5337403879124
 30
0.0
 10
79.83332205654156
 20
188.557991489178
 30
0.0
 10
79.83254990824535
 20
189.4397038864948
 30
0.0
 10
79.83331754086555
 20
190.1712584495766
 30
0.0
 10
79.83598883182225
 20
190.7248244352737
 30
0.0
 10
79.83901314824423
 20
190.9845028030811
 30
0.0
 10
79.84104555942893
 20
191.054708009742
 30
0.0
 10
79.84115539487327
 20
191.0585020353438
 30
0.0
  0
SPLINE
  5
CD
330
1F
100
AcDbEntity
  8
0
  6
Continuous
 62
     8
370
    15
100
AcDbSpline
210
0.0
220
0.0
230
1.0
 70
     8
 71
     3
 72
    15
 73
    11
 74
     0
 42
0.000000001
 43
0.00000001
 40
0.0
 40
0.0
 40
0.0
 40
0.0
 40
0.0082201128137656
 40
0.152676098779603
 40
0.2932246221095536
 40
0.4298659132802285
 40
0.5665047514277168
 40
0.7070732540459443
 40
0.8515716400796494
 40
1.0
 40
1.0
 40
1.0
 40
1.0
 10
79.84118619576222
 20
116.7451112829302
 30
0.0
 10
79.84106680582029
 20
116.7473100502441
 30
0.0
 10
79.83884931915327
 20
116.7881488103937
 30
0.0
 10
79.83606431834266
 20
117.0855055433396
 30
0.0
 10
79.83329991140201
 20
117.6247018767044
 30
0.0
 10
79.83255483067856
 20
118.3599456100584
 30
0.0
 10
79.83331971737638
 20
119.2406399638302
 30
0.0
 10
79.83596847554014
 20
120.2651131225474
 30
0.0
 10
79.84053191576335
 20
121.4101881929187
 30
0.0
 10
79.84499425073403
 20
122.2173222677447
 30
0.0
 10
79.84725535208534
 20
122.626303655129
 30
0.0
  0
SPLINE
  5
CE
330
1F
100
AcDbEntity
  8
0
  6
Continuous
 62
     8
370
    15
100
AcDbSpline
210
0.0
220
0.0
230
1.0
 70
     8
 71
     3
 72
    11
 73
     7
 74
     0
 42
0.000000001
 43
0.00000001
 40
0.0
 40
0.0
 40
0.0
 40
0.0
 40
0.2150133656449534
 40
0.4766755770966363
 40
0.7383377885483184
 40
1.0
 40
1.0
 40
1.0
 40
1.0
 10
77.93100697746218
 20
122.6267099856685
 30
0.0
 10
77.97472178917415
 20
122.6266808634926
 30
0.0
 10
78.07163568584272
 20
122.626616300855
 30
0.0
 10
78.51022865874218
 20
122.6265162977558
 30
0.0
 10
79.12614684754818
 20
122.6264099763708
 30
0.0
 10
79.60688585053394
 20
122.6263390954475
 30
0.0
 10
79.84725535202682
 20
122.6263036549858
 30
0.0
  0
LINE
  5
CF
330
1F
100
AcDbEntity
  8
0
  6
Continuous
 62
     7
370
    15
100
AcDbLine
 10
113.0296653207
 20
219.6752104389
 30
0.0
 11
112.7017724149
 21
219.6750733137
 31
0.0
  0
SPLINE
  5
D0
330
1F
100
AcDbEntity
  8
0
  6
Continuous
 62
     7
370
    15
100
AcDbSpline
210
0.0
220
0.0
230
1.0
 70
     8
 71
     3
 72
     9
 73
     5
 74
     0
 42
0.000000001
 43
0.00000001
 40
0.0
 40
0.0
 40
0.0
 40
0.0
 40
0.4933983047689777
 40
1.0
 40
1.0
 40
1.0
 40
1.0
 10
113.8383423088278
 20
219.6754868454475
 30
0.0
 10
113.6685826122294
 20
219.6754415267881
 30
0.0
 10
113.3245204317199
 20
219.6753496767373
 30
0.0
 10
113.1288116973388
 20
219.6752572582878
 30
0.0
 10
113.0296653207298
 20
219.6752104389447
 30
0.0
  0
SPLINE
  5
D1
330
1F
100
AcDbEntity
  8
0
  6
Continuous
 62
     7
370
    15
100
AcDbSpline
210
0.0
220
0.0
230
1.0
 70
     8
 71
     3
 72
    10
 73
     6
 74
     0
 42
0.000000001
 43
0.00000001
 40
0.0
 40
0.0
 40
0.0
 40
0.0
 40
0.398762876734249
 40
0.7976064921939732
 40
0.9999999999999999
 40
0.9999999999999999
 40
0.9999999999999999
 40
0.9999999999999999
 10
116.7786019849172
 20
219.6761756377277
 30
0.0
 10
116.3481389072168
 20
219.6760844691436
 30
0.0
 10
115.487125594655
 20
219.6759021135161
 30
0.0
 10
114.4602334387377
 20
219.6756723841323
 30
0.0
 10
113.9949649192528
 20
219.6755335731652
 30
0.0
 10
113.8383423088278
 20
219.6754868454475
 30
0.0
  0
SPLINE
  5
D2
330
1F
100
AcDbEntity
  8
0
  6
Continuous
 62
     7
370
    15
100
AcDbSpline
210
0.0
220
0.0
230
1.0
 70
     8
 71
     3
 72
     9
 73
     5
 74
     0
 42
0.000000001
 43
0.00000001
 40
0.0
 40
0.0
 40
0.0
 40
0.0
 40
0.4822840820087991
 40
1.0
 40
1.0
 40
1.0
 40
1.0
 10
112.3842195719583
 20
219.6761761654558
 30
0.0
 10
112.2720037259393
 20
219.647083997573
 30
0.0
 10
112.0393279022804
 20
219.586762355271
 30
0.0
 10
112.0406399567903
 20
219.4605404694899
 30
0.0
 10
112.0413192282953
 20
219.3951933900222
 30
0.0
  0
SPLINE
  5
D3
330
1F
100
AcDbEntity
  8
0
  6
Continuous
 62
     7
370
    15
100
AcDbSpline
210
0.0
220
0.0
230
1.0
 70
     8
 71
     3
 72
    11
 73
     7
 74
     0
 42
0.000000001
 43
0.00000001
 40
0.0
 40
0.0
 40
0.0
 40
0.0
 40
0.2554161643618768
 40
0.5148626188568027
 40
0.7663740708087893
 40
1.0
 40
1.0
 40
1.0
 40
1.0
 10
112.1088932690892
 20
219.5735577661813
 30
0.0
 10
111.9288569063922
 20
219.4835491491329
 30
0.0
 10
111.5659433319158
 20
219.3021116414128
 30
0.0
 10
111.1618570368673
 20
218.8373777269948
 30
0.0
 10
110.9011806465397
 20
218.2973423491541
 30
0.0
 10
110.8662990502159
 20
217.9116261094993
 30
0.0
 10
110.8495012406271
 20
217.7258780752392
 30
0.0
  0
LINE
  5
D4
330
1F
100
AcDbEntity
  8
0
  6
Continuous
 62
     7
370
    15
100
AcDbLine
 10
112.7982423964
 20
219.5735577662
 30
0.0
 11
112.7299944399
 21
219.6577528131
 31
0.0
  0
LINE
  5
D5
330
1F
100
AcDbEntity
  8
0
  6
Continuous
 62
     7
370
    15
100
AcDbLine
 10
188.2917163747
 20
219.6577425085
 30
0.0
 11
188.2234904337
 21
219.5735546247
 31
0.0
  0
SPLINE
  5
D6
330
1F
100
AcDbEntity
  8
0
  6
Continuous
 62
     7
370
    15
100
AcDbSpline
210
0.0
220
0.0
230
1.0
 70
     8
 71
     3
 72
    11
 73
     7
 74
     0
 42
0.000000001
 43
0.00000001
 40
0.0
 40
0.0
 40
0.0
 40
0.0
 40
0.2336259213778299
 40
0.4851373052473957
 40
0.7445837288375873
 40
0.9999999999999999
 40
0.9999999999999999
 40
0.9999999999999999
 40
0.9999999999999999
 10
190.1721916276969
 20
217.7258781352224
 30
0.0
 10
190.1553935822336
 20
217.9116254680666
 30
0.0
 10
190.1205115003931
 20
218.2973402037496
 30
0.0
 10
189.8598358942037
 20
218.8373739070024
 30
0.0
 10
189.4557512598588
 20
219.3021071972755
 30
0.0
 10
189.0928390518088
 20
219.4835455594031
 30
0.0
 10
188.9128033182352
 20
219.5735546246797
 30
0.0
  0
SPLINE
  5
D7
330
1F
100
AcDbEntity
  8
0
  6
Continuous
 62
     7
370
    15
100
AcDbSpline
210
0.0
220
0.0
230
1.0
 70
     8
 71
     3
 72
     9
 73
     5
 74
     0
 42
0.000000001
 43
0.00000001
 40
0.0
 40
0.0
 40
0.0
 40
0.0
 40
0.5177340700137999
 40
1.0
 40
1.0
 40
1.0
 40
1.0
 10
188.9803923204301
 20
219.3951945131346
 30
0.0
 10
188.9810679047005
 20
219.4605404781872
 30
0.0
 10
188.9823727913392
 20
219.5867557860785
 30
0.0
 10
188.7496942982016
 20
219.6470820839922
 30
0.0
 10
188.6374813883208
 20
219.6761754021582
 30
0.0
  0
SPLINE
  5
D8
330
1F
100
AcDbEntity
  8
0
  6
Continuous
 62
     7
370
    15
100
AcDbSpline
210
0.0
220
0.0
230
1.0
 70
     8
 71
     3
 72
    13
 73
     9
 74
     0
 42
0.000000001
 43
0.00000001
 40
0.0
 40
0.0
 40
0.0
 40
0.0
 40
0.143448221504944
 40
0.2816476659899305
 40
0.4146040268869114
 40
0.5423305370534232
 40
0.7814949719198846
 40
1.0
 40
1.0
 40
1.0
 40
1.0
 10
188.3199392468658
 20
219.6750729352351
 30
0.0
 10
188.2143071577722
 20
219.6751680616082
 30
0.0
 10
188.0069080625814
 20
219.675354833676
 30
0.0
 10
187.5693490425658
 20
219.6755912913628
 30
0.0
 10
187.0724877575495
 20
219.6757897288209
 30
0.0
 10
186.363011570735
 20
219.6759935798971
 30
0.0
 10
185.4151193087531
 20
219.6761675786534
 30
0.0
 10
184.6219196651575
 20
219.6761723836371
 30
0.0
 10
184.2432225388928
 20
219.6761746776794
 30
0.0
  0
LINE
  5
D9
330
1F
100
AcDbEntity
  8
0
  6
Continuous
 62
     7
370
    15
100
AcDbLine
 10
188.9167484219
 20
219.5746413588
 30
0.0
 11
188.6374689834
 21
219.6761761655
 31
0.0
  0
SPLINE
  5
DA
330
1F
100
AcDbEntity
  8
0
  6
Continuous
 62
     7
370
    15
100
AcDbSpline
210
0.0
220
0.0
230
1.0
 70
     8
 71
     3
 72
     9
 73
     5
 74
     0
 42
0.000000001
 43
0.00000001
 40
0.0
 40
0.0
 40
0.0
 40
0.0
 40
0.9705289127854428
 40
1.0
 40
1.0
 40
1.0
 40
1.0
 10
112.3842071670263
 20
219.6761754021582
 30
0.0
 10
112.253628698766
 20
219.6522537695216
 30
0.0
 10
112.1190850838978
 20
219.6276057324344
 30
0.0
 10
112.1008102486224
 20
219.5702167597046
 30
0.0
 10
112.1002716693582
 20
219.5685254442841
 30
0.0
  0
LINE
  5
DB
330
1F
100
AcDbEntity
  8
0
  6
Continuous
 62
     7
370
    15
100
AcDbLine
 10
110.5108442777
 20
204.7077654873
 30
0.0
 11
116.5099304486
 21
204.7077654873
 31
0.0
  0
LINE
  5
DC
330
1F
100
AcDbEntity
  8
0
  6
Continuous
 62
     7
370
    15
100
AcDbLine
 10
110.5108442777
 20
204.7077654873
 30
0.0
 11
110.7383693875
 21
217.7426703002
 31
0.0
  0
LINE
  5
DD
330
1F
100
AcDbEntity
  8
0
  6
Continuous
 62
     7
370
    15
100
AcDbLine
 10
110.7383693875
 20
217.7426703002
 30
0.0
 11
110.8564306729
 21
217.7487359422
 31
0.0
  0
LINE
  5
DE
330
1F
100
AcDbEntity
  8
0
  6
Continuous
 62
     7
370
    15
100
AcDbLine
 10
116.7376544993
 20
217.7426696012
 30
0.0
 11
116.5099304486
 21
204.7077654873
 31
0.0
  0
LINE
  5
DF
330
1F
100
AcDbEntity
  8
0
  6
Continuous
 62
     7
370
    15
100
AcDbLine
 10
116.5099304486
 20
204.7077654873
 30
0.0
 11
184.5117581067
 21
204.7077654873
 31
0.0
  0
LINE
  5
E0
330
1F
100
AcDbEntity
  8
0
  6
Continuous
 62
     7
370
    15
100
AcDbLine
 10
116.7376544993
 20
217.7426696012
 30
0.0
 11
184.2842329949
 21
217.7426696012
 31
0.0
  0
LINE
  5
E1
330
1F
100
AcDbEntity
  8
0
  6
Continuous
 62
     7
370
    15
100
AcDbLine
 10
184.5117581067
 20
204.7077654873
 30
0.0
 11
184.2842329949
 21
217.7426703002
 31
0.0
  0
LINE
  5
E2
330
1F
100
AcDbEntity
  8
0
  6
Continuous
 62
     7
370
    15
100
AcDbLine
 10
184.5117581067
 20
204.7077654873
 30
0.0
 11
190.5108442777
 21
204.7077654873
 31
0.0
  0
LINE
  5
E3
330
1F
100
AcDbEntity
  8
0
  6
Continuous
 62
     7
370
    15
100
AcDbLine
 10
190.1652475037
 20
217.7487382838
 30
0.0
 11
190.2833191767
 21
217.742669601
 31
0.0
  0
LINE
  5
E4
330
1F
100
AcDbEntity
  8
0
  6
Continuous
 62
     7
370
    15
100
AcDbLine
 10
190.28331918
 20
217.7426696011
 30
0.0
 11
190.5108442777
 21
204.7077654873
 31
0.0
  0
LINE
  5
E5
330
1F
100
AcDbEntity
  8
0
  6
Continuous
 62
     7
370
    15
100
AcDbLine
 10
116.7374555585
 20
219.7077654873
 30
0.0
 11
116.737477955
 21
219.6407050085
 31
0.0
  0
LINE
  5
E6
330
1F
100
AcDbEntity
  8
0
  6
Continuous
 62
     7
370
    15
100
AcDbLine
 10
112.3770586206
 20
219.6534961021
 30
0.0
 11
112.5177368021
 21
219.6955923366
 31
0.0
  0
SPLINE
  5
E7
330
1F
100
AcDbEntity
  8
0
  6
Continuous
 62
     7
370
    15
100
AcDbSpline
210
0.0
220
0.0
230
1.0
 70
     8
 71
     3
 72
    22
 73
    18
 74
     0
 42
0.000000001
 43
0.00000001
 40
0.0
 40
0.0
 40
0.0
 40
0.0
 40
0.125
 40
0.125
 40
0.25
 40
0.25
 40
0.375
 40
0.375
 40
0.5
 40
0.5
 40
0.625
 40
0.625
 40
0.75
 40
0.75
 40
0.875
 40
0.875
 40
1.0
 40
1.0
 40
1.0
 40
1.0
 10
116.3084033233049
 20
219.7077654870551
 30
0.0
 10
116.0493332672289
 20
219.7077650303826
 30
0.0
 10
115.7944514915614
 20
219.7070497226002
 30
0.0
 10
115.2927267706928
 20
219.7047580482657
 30
0.0
 10
115.0431413638505
 20
219.7031538962313
 30
0.0
 10
114.5701616491954
 20
219.6996943903767
 30
0.0
 10
114.3460659742112
 20
219.6978444156388
 30
0.0
 10
113.9227720617557
 20
219.6943501819811
 30
0.0
 10
113.724744478094
 20
219.6927262938469
 30
0.0
 10
113.3719403386099
 20
219.6901719115259
 30
0.0
 10
113.2140045947497
 20
219.6892290757577
 30
0.0
 10
112.9407870605306
 20
219.6882201024935
 30
0.0
 10
112.828793640106
 20
219.6881783297903
 30
0.0
 10
112.6524940788152
 20
219.6889853902133
 30
0.0
 10
112.5880933338816
 20
219.6898515813155
 30
0.0
 10
112.5132554094227
 20
219.6922843016984
 30
0.0
 10
112.5020357070968
 20
219.6938495788196
 30
0.0
 10
112.5177368030897
 20
219.6955898686012
 30
0.0
  0
LINE
  5
E8
330
1F
100
AcDbEntity
  8
0
  6
Continuous
 62
     7
370
    15
100
AcDbLine
 10
188.5039533216
 20
219.6955921628
 30
0.0
 11
188.6446355564
 21
219.6534946028
 31
0.0
  0
SPLINE
  5
E9
330
1F
100
AcDbEntity
  8
0
  6
Continuous
 62
     7
370
    15
100
AcDbSpline
210
0.0
220
0.0
230
1.0
 70
    24
 71
     3
 72
    14
 73
    10
 74
     0
 42
0.000000001
 43
0.00000001
 40
0.0
 40
0.0
 40
0.0
 40
0.0
 40
0.25
 40
0.25
 40
0.5
 40
0.5
 40
0.75
 40
0.75
 40
1.0
 40
1.0
 40
1.0
 40
1.0
 10
184.2842329949435
 20
217.7426696011587
 30
0.0
 10
184.2842329949435
 20
218.0015207364214
 30
0.0
 10
184.2842329949435
 20
218.2593863169408
 30
0.0
 10
184.2842329949435
 20
218.7351191196564
 30
0.0
 10
184.2842329949435
 20
218.9528073135792
 30
0.0
 10
184.2842329949435
 20
219.3157249675772
 30
0.0
 10
184.2842329949435
 20
219.4608178540956
 30
0.0
 10
184.2842329949435
 20
219.6568750041594
 30
0.0
 10
184.2842329949435
 20
219.70776548727
 30
0.0
 10
184.2842329949435
 20
219.70776548727
 30
0.0
  0
SPLINE
  5
EA
330
1F
100
AcDbEntity
  8
0
  6
Continuous
 62
     7
370
    15
100
AcDbSpline
210
0.0
220
0.0
230
1.0
 70
    24
 71
     3
 72
     8
 73
     4
 74
     0
 42
0.000000001
 43
0.00000001
 40
0.0
 40
0.0
 40
0.0
 40
0.0
 40
1.0
 40
1.0
 40
1.0
 40
1.0
 10
184.7132946422135
 20
219.7077654870691
 30
0.0
 10
184.570777612344
 20
219.7077654870691
 30
0.0
 10
184.4274446726907
 20
219.7077654870691
 30
0.0
 10
184.2842329979386
 20
219.7077654870691
 30
0.0
  0
SPLINE
  5
EB
330
1F
100
AcDbEntity
  8
0
  6
Continuous
 62
     7
370
    15
100
AcDbSpline
210
0.0
220
0.0
230
1.0
 70
     8
 71
     3
 72
    10
 73
     6
 74
     0
 42
0.000000001
 43
0.00000001
 40
0.0
 40
0.0
 40
0.0
 40
0.0
 40
0.1504741107389557
 40
0.9838243287177431
 40
1.0
 40
1.0
 40
1.0
 40
1.0
 10
188.5039531492286
 20
219.695590607479
 30
0.0
 10
188.5065631776339
 20
219.6950995089557
 30
0.0
 10
188.5236279699168
 20
219.6918886265483
 30
0.0
 10
188.5001752682957
 20
219.6882175614053
 30
0.0
 10
188.2916053815774
 20
219.6886911997645
 30
0.0
 10
188.28763403948
 20
219.6887002182282
 30
0.0
  0
SPLINE
  5
EC
330
1F
100
AcDbEntity
  8
0
  6
Continuous
 62
     7
370
    15
100
AcDbSpline
210
0.0
220
0.0
230
1.0
 70
     8
 71
     3
 72
    11
 73
     7
 74
     0
 42
0.000000001
 43
0.00000001
 40
0.0
 40
0.0
 40
0.0
 40
0.0
 40
0.2351586387303022
 40
0.5188681390105544
 40
0.8026121549112476
 40
1.0
 40
1.0
 40
1.0
 40
1.0
 10
188.1950097804917
 20
219.6889015879576
 30
0.0
 10
188.0451063339141
 20
219.6889109514596
 30
0.0
 10
187.7143503694429
 20
219.6889316116526
 30
0.0
 10
186.7803550883449
 20
219.6970330709415
 30
0.0
 10
185.7206851697695
 20
219.7058542648941
 30
0.0
 10
185.0063541794601
 20
219.707209494374
 30
0.0
 10
184.7132946955853
 20
219.7077654871242
 30
0.0
  0
LINE
  5
ED
330
1F
100
AcDbEntity
  8
0
  6
Continuous
 62
     7
370
    15
100
AcDbLine
 10
116.7374555585
 20
219.7077654873
 30
0.0
 11
184.2842329969
 21
219.7077654873
 31
0.0
  0
SPLINE
  5
EE
330
1F
100
AcDbEntity
  8
0
  6
Continuous
 62
     7
370
    15
100
AcDbSpline
210
0.0
220
0.0
230
1.0
 70
     8
 71
     3
 72
     8
 73
     4
 74
     0
 42
0.000000001
 43
0.00000001
 40
0.0
 40
0.0
 40
0.0
 40
0.0
 40
1.0
 40
1.0
 40
1.0
 40
1.0
 10
188.2836237775199
 20
219.70776548727
 30
0.0
 10
188.4084614115474
 20
219.7077654872702
 30
0.0
 10
188.4818875913125
 20
219.6980379134179
 30
0.0
 10
188.5039531423851
 20
219.6955921826787
 30
0.0
  0
LINE
  5
EF
330
1F
100
AcDbEntity
  8
0
  6
Continuous
 62
     7
370
    15
100
AcDbLine
 10
184.8267131688
 20
219.7077654872
 30
0.0
 11
188.2836237775
 21
219.7077654873
 31
0.0
  0
SPLINE
  5
F0
330
1F
100
AcDbEntity
  8
0
  6
Continuous
 62
     7
370
    15
100
AcDbSpline
210
0.0
220
0.0
230
1.0
 70
     8
 71
     3
 72
     8
 73
     4
 74
     0
 42
0.000000001
 43
0.00000001
 40
0.0
 40
0.0
 40
0.0
 40
0.0
 40
1.0
 40
1.0
 40
1.0
 40
1.0
 10
112.5177368020851
 20
219.6955923366479
 30
0.0
 10
112.5398041019629
 20
219.698038245613
 30
0.0
 10
112.6132298187998
 20
219.7077654872702
 30
0.0
 10
112.7380647778272
 20
219.70776548727
 30
0.0
  0
LINE
  5
F1
330
1F
100
AcDbEntity
  8
0
  6
Continuous
 62
     7
370
    15
100
AcDbLine
 10
112.7380647778
 20
219.7077654873
 30
0.0
 11
116.7374555585
 21
219.7077654873
 31
0.0
  0
SPLINE
  5
F2
330
1F
100
AcDbEntity
  8
0
  6
Continuous
 62
     8
370
    15
100
AcDbSpline
210
0.0
220
0.0
230
1.0
 70
     8
 71
     3
 72
    15
 73
    11
 74
     0
 42
0.000000001
 43
0.00000001
 40
0.0
 40
0.0
 40
0.0
 40
0.0
 40
0.0083081173332989
 40
0.1527802972423963
 40
0.2933440900978899
 40
0.429999726298288
 40
0.5666072323699828
 40
0.7071429887381573
 40
0.8516072144043428
 40
1.0
 40
1.0
 40
1.0
 40
1.0
 10
110.8564306729183
 20
217.74873594223
 30
0.0
 10
110.8586524072365
 20
217.748856623039
 30
0.0
 10
110.8995085020543
 20
217.7510758562461
 30
0.0
 10
111.1969993028451
 20
217.7538621629646
 30
0.0
 10
111.7363969547953
 20
217.7566260617786
 30
0.0
 10
112.471786686515
 20
217.7573701309454
 30
0.0
 10
113.3525172304516
 20
217.7566041933943
 30
0.0
 10
114.3768620411464
 20
217.7539550320372
 30
0.0
 10
115.5217543873772
 20
217.7493919062033
 30
0.0
 10
116.3287459720485
 20
217.7449303196024
 30
0.0
 10
116.7376544994067
 20
217.7426696011002
 30
0.0
  0
SPLINE
  5
F3
330
1F
100
AcDbEntity
  8
0
  6
Continuous
 62
     8
370
    15
100
AcDbSpline
210
0.0
220
0.0
230
1.0
 70
     8
 71
     3
 72
    15
 73
    11
 74
     0
 42
0.000000001
 43
0.00000001
 40
0.0
 40
0.0
 40
0.0
 40
0.0
 40
0.1483574779511761
 40
0.2928075501824048
 40
0.4333503197413293
 40
0.5699860170951251
 40
0.7066192615261563
 40
0.8471820095554461
 40
0.9916744801187698
 40
1.0
 40
1.0
 40
1.0
 40
1.0
 10
184.2842329949435
 20
217.7426703001502
 30
0.0
 10
184.6930343410595
 20
217.7449294531147
 30
0.0
 10
185.4998701158418
 20
217.7493882579838
 30
0.0
 10
186.6446353120677
 20
217.7539518302512
 30
0.0
 10
187.6690329068544
 20
217.7566032349346
 30
0.0
 10
188.5497893046335
 20
217.7573701190539
 30
0.0
 10
189.2851874236893
 20
217.7566270563935
 30
0.0
 10
189.824611319232
 20
217.7538652079027
 30
0.0
 10
190.1221632004712
 20
217.7510798166265
 30
0.0
 10
190.1630215423492
 20
217.7488592597171
 30
0.0
 10
190.1652475036815
 20
217.7487382838383
 30
0.0
  0
SPLINE
  5
F4
330
1F
100
AcDbEntity
  8
0
  6
Continuous
 62
     8
370
    15
100
AcDbSpline
210
0.0
220
0.0
230
1.0
 70
     8
 71
     3
 72
    11
 73
     7
 74
     0
 42
0.000000001
 43
0.00000001
 40
0.0
 40
0.0
 40
0.0
 40
0.0
 40
0.1548545967897288
 40
0.4365697311931537
 40
0.7182848655965766
 40
1.0
 40
1.0
 40
1.0
 40
1.0
 10
116.7374779549589
 20
219.640705008546
 30
0.0
 10
116.7374870678579
 20
219.6214845696134
 30
0.0
 10
116.7375127591578
 20
219.5672978549005
 30
0.0
 10
116.7375550288585
 20
219.1617216253823
 30
0.0
 10
116.737604764061
 20
218.5197812708126
 30
0.0
 10
116.7376379208627
 20
218.0017068243767
 30
0.0
 10
116.7376544992635
 20
217.7426696011587
 30
0.0
  0
LINE
  5
F5
330
1F
100
AcDbEntity
  8
0
  6
Continuous
 62
     7
370
    15
100
AcDbLine
 10
187.9920232346
 20
85.8503055085
 30
0.0
 11
188.3199161405
 21
85.8504426338
 31
0.0
  0
SPLINE
  5
F6
330
1F
100
AcDbEntity
  8
0
  6
Continuous
 62
     7
370
    15
100
AcDbSpline
210
0.0
220
0.0
230
1.0
 70
     8
 71
     3
 72
     9
 73
     5
 74
     0
 42
0.000000001
 43
0.00000001
 40
0.0
 40
0.0
 40
0.0
 40
0.0
 40
0.4933983047689518
 40
1.0
 40
1.0
 40
1.0
 40
1.0
 10
187.1833462465192
 20
85.85002910201952
 30
0.0
 10
187.3531059431177
 20
85.85007442067888
 30
0.0
 10
187.6971681236271
 20
85.85016627072969
 30
0.0
 10
187.8928768580083
 20
85.85025868917916
 30
0.0
 10
187.9920232346173
 20
85.85030550852234
 30
0.0
  0
SPLINE
  5
F7
330
1F
100
AcDbEntity
  8
0
  6
Continuous
 62
     7
370
    15
100
AcDbSpline
210
0.0
220
0.0
230
1.0
 70
     8
 71
     3
 72
    10
 73
     6
 74
     0
 42
0.000000001
 43
0.00000001
 40
0.0
 40
0.0
 40
0.0
 40
0.0
 40
0.3987628767342468
 40
0.7976064921939695
 40
1.0
 40
1.0
 40
1.0
 40
1.0
 10
184.2430865704298
 20
85.8493403097393
 30
0.0
 10
184.6735496481302
 20
85.84943147832344
 30
0.0
 10
185.534562960692
 20
85.84961383395088
 30
0.0
 10
186.5614551166094
 20
85.84984356333469
 30
0.0
 10
187.0267236360943
 20
85.84998237430183
 30
0.0
 10
187.1833462465192
 20
85.85002910201952
 30
0.0
  0
SPLINE
  5
F8
330
1F
100
AcDbEntity
  8
0
  6
Continuous
 62
     7
370
    15
100
AcDbSpline
210
0.0
220
0.0
230
1.0
 70
     8
 71
     3
 72
     9
 73
     5
 74
     0
 42
0.000000001
 43
0.00000001
 40
0.0
 40
0.0
 40
0.0
 40
0.0
 40
0.482284082008695
 40
1.0
 40
1.0
 40
1.0
 40
1.0
 10
188.6374689833843
 20
85.84933978201039
 30
0.0
 10
188.7496848294041
 20
85.87843194989318
 30
0.0
 10
188.9823606530647
 20
85.93875359219501
 30
0.0
 10
188.9810485985561
 20
86.06497547797677
 30
0.0
 10
188.9803693270517
 20
86.13032255744486
 30
0.0
  0
SPLINE
  5
F9
330
1F
100
AcDbEntity
  8
0
  6
Continuous
 62
     7
370
    15
100
AcDbSpline
210
0.0
220
0.0
230
1.0
 70
     8
 71
     3
 72
    11
 73
     7
 74
     0
 42
0.000000001
 43
0.00000001
 40
0.0
 40
0.0
 40
0.0
 40
0.0
 40
0.2554161643618764
 40
0.5148626188568033
 40
0.76637407080879
 40
1.0
 40
1.0
 40
1.0
 40
1.0
 10
188.9127952862578
 20
85.95195818128569
 30
0.0
 10
189.0928316489548
 20
86.04196679833414
 30
0.0
 10
189.4557452234312
 20
86.22340430605425
 30
0.0
 10
189.8598315184798
 20
86.68813822047217
 30
0.0
 10
190.1205079088073
 20
87.22817359831296
 30
0.0
 10
190.1553895051311
 20
87.61388983796765
 30
0.0
 10
190.1721873147199
 20
87.79963787222782
 30
0.0
  0
LINE
  5
FA
330
1F
100
AcDbEntity
  8
0
  6
Continuous
 62
     7
370
    15
100
AcDbLine
 10
188.2234461589
 20
85.9519581813
 30
0.0
 11
188.2916941154
 21
85.8677631344
 31
0.0
  0
LINE
  5
FB
330
1F
100
AcDbEntity
  8
0
  6
Continuous
 62
     7
370
    15
100
AcDbLine
 10
112.7299721807
 20
85.867773439
 30
0.0
 11
112.7981981217
 21
85.9519613228
 31
0.0
  0
SPLINE
  5
FC
330
1F
100
AcDbEntity
  8
0
  6
Continuous
 62
     7
370
    15
100
AcDbSpline
210
0.0
220
0.0
230
1.0
 70
     8
 71
     3
 72
    11
 73
     7
 74
     0
 42
0.000000001
 43
0.00000001
 40
0.0
 40
0.0
 40
0.0
 40
0.0
 40
0.2336259213778301
 40
0.4851373052473946
 40
0.7445837288375929
 40
1.0
 40
1.0
 40
1.0
 40
1.0
 10
110.8494969276501
 20
87.79963781224465
 30
0.0
 10
110.8662949731135
 20
87.61389047940041
 30
0.0
 10
110.9011770549539
 20
87.22817574371742
 30
0.0
 10
111.1618526611433
 20
86.68814204046465
 30
0.0
 10
111.5659372954883
 20
86.22340875019157
 30
0.0
 10
111.9288495035383
 20
86.04197038806393
 30
0.0
 10
112.1088852371118
 20
85.95196132278734
 30
0.0
  0
SPLINE
  5
FD
330
1F
100
AcDbEntity
  8
0
  6
Continuous
 62
     7
370
    15
100
AcDbSpline
210
0.0
220
0.0
230
1.0
 70
     8
 71
     3
 72
     9
 73
     5
 74
     0
 42
0.000000001
 43
0.00000001
 40
0.0
 40
0.0
 40
0.0
 40
0.0
 40
0.5177340700138114
 40
1.0
 40
1.0
 40
1.0
 40
1.0
 10
112.0412962349169
 20
86.13032143433246
 30
0.0
 10
112.0406206506466
 20
86.06497546927983
 30
0.0
 10
112.039315764008
 20
85.93876016138847
 30
0.0
 10
112.2719942571457
 20
85.87843386347473
 30
0.0
 10
112.3842071670266
 20
85.84934054530873
 30
0.0
  0
SPLINE
  5
FE
330
1F
100
AcDbEntity
  8
0
  6
Continuous
 62
     7
370
    15
100
AcDbSpline
210
0.0
220
0.0
230
1.0
 70
     8
 71
     3
 72
    13
 73
     9
 74
     0
 42
0.000000001
 43
0.00000001
 40
0.0
 40
0.0
 40
0.0
 40
0.0
 40
0.1434482215049445
 40
0.2816476659899335
 40
0.4146040268869134
 40
0.542330537053426
 40
0.781494971919886
 40
0.9999999999999999
 40
0.9999999999999999
 40
0.9999999999999999
 40
0.9999999999999999
 10
112.7017493084813
 20
85.85044301223189
 30
0.0
 10
112.8073813975749
 20
85.85034788585882
 30
0.0
 10
113.0147804927657
 20
85.85016111379106
 30
0.0
 10
113.4523395127812
 20
85.84992465610422
 30
0.0
 10
113.9492007977975
 20
85.84972621864613
 30
0.0
 10
114.6586769846121
 20
85.84952236756996
 30
0.0
 10
115.606569246594
 20
85.84934836881361
 30
0.0
 10
116.3997688901895
 20
85.84934356382988
 30
0.0
 10
116.7784660164542
 20
85.8493412697876
 30
0.0
  0
LINE
  5
FF
330
1F
100
AcDbEntity
  8
0
  6
Continuous
 62
     7
370
    15
100
AcDbLine
 10
112.1049401335
 20
85.9508745887
 30
0.0
 11
112.384219572
 21
85.849339782
 31
0.0
  0
SPLINE
  5
100
330
1F
100
AcDbEntity
  8
0
  6
Continuous
 62
     7
370
    15
100
AcDbSpline
210
0.0
220
0.0
230
1.0
 70
     8
 71
     3
 72
     9
 73
     5
 74
     0
 42
0.000000001
 43
0.00000001
 40
0.0
 40
0.0
 40
0.0
 40
0.0
 40
0.9705289127852522
 40
1.0
 40
1.0
 40
1.0
 40
1.0
 10
188.637481388321
 20
85.84934054530885
 30
0.0
 10
188.7680598565813
 20
85.87326217794546
 30
0.0
 10
188.9026034714495
 20
85.89791021503277
 30
0.0
 10
188.9208783067248
 20
85.9552991877625
 30
0.0
 10
188.921416885989
 20
85.956990503183
 30
0.0
  0
LINE
  5
101
330
1F
100
AcDbEntity
  8
0
  6
Continuous
 62
     7
370
    15
100
AcDbLine
 10
190.5108442777
 20
100.8177504602
 30
0.0
 11
184.5117581067
 21
100.8177504602
 31
0.0
  0
LINE
  5
102
330
1F
100
AcDbEntity
  8
0
  6
Continuous
 62
     7
370
    15
100
AcDbLine
 10
190.5108442777
 20
100.8177504602
 30
0.0
 11
190.2833191678
 21
87.7828456473
 31
0.0
  0
LINE
  5
103
330
1F
100
AcDbEntity
  8
0
  6
Continuous
 62
     7
370
    15
100
AcDbLine
 10
190.2833191678
 20
87.7828456473
 30
0.0
 11
190.1652579143
 21
87.7767800083
 31
0.0
  0
LINE
  5
104
330
1F
100
AcDbEntity
  8
0
  6
Continuous
 62
     7
370
    15
100
AcDbLine
 10
184.2840340561
 20
87.7828463463
 30
0.0
 11
184.5117581067
 21
100.8177504602
 31
0.0
  0
LINE
  5
105
330
1F
100
AcDbEntity
  8
0
  6
Continuous
 62
     7
370
    15
100
AcDbLine
 10
116.5099304486
 20
100.8177504602
 30
0.0
 11
110.5108442777
 21
100.8177504602
 31
0.0
  0
LINE
  5
106
330
1F
100
AcDbEntity
  8
0
  6
Continuous
 62
     7
370
    15
100
AcDbLine
 10
116.5099304486
 20
100.8177504602
 30
0.0
 11
116.7374555604
 21
87.7828456473
 31
0.0
  0
LINE
  5
107
330
1F
100
AcDbEntity
  8
0
  6
Continuous
 62
     7
370
    15
100
AcDbLine
 10
110.8564410517
 20
87.7767776636
 30
0.0
 11
110.7383693786
 21
87.7828463465
 31
0.0
  0
LINE
  5
108
330
1F
100
AcDbEntity
  8
0
  6
Continuous
 62
     7
370
    15
100
AcDbLine
 10
110.7383693753
 20
87.7828463464
 30
0.0
 11
110.5108442777
 21
100.8177504602
 31
0.0
  0
LINE
  5
109
330
1F
100
AcDbEntity
  8
0
  6
Continuous
 62
     7
370
    15
100
AcDbLine
 10
184.5117581067
 20
100.8177504602
 30
0.0
 11
116.5099304486
 21
100.8177504602
 31
0.0
  0
LINE
  5
10A
330
1F
100
AcDbEntity
  8
0
  6
Continuous
 62
     7
370
    15
100
AcDbLine
 10
184.2840340561
 20
87.7828463463
 30
0.0
 11
116.7374555604
 21
87.7828463463
 31
0.0
  0
LINE
  5
10B
330
1F
100
AcDbEntity
  8
0
  6
Continuous
 62
     7
370
    15
100
AcDbLine
 10
184.2842329969
 20
85.8177504602
 30
0.0
 11
184.2842106004
 21
85.8848109389
 31
0.0
  0
LINE
  5
10C
330
1F
100
AcDbEntity
  8
0
  6
Continuous
 62
     7
370
    15
100
AcDbLine
 10
188.6446299347
 20
85.8720198454
 30
0.0
 11
188.5039517533
 21
85.8299236108
 31
0.0
  0
SPLINE
  5
10D
330
1F
100
AcDbEntity
  8
0
  6
Continuous
 62
     7
370
    15
100
AcDbSpline
210
0.0
220
0.0
230
1.0
 70
     8
 71
     3
 72
    22
 73
    18
 74
     0
 42
0.000000001
 43
0.00000001
 40
0.0
 40
0.0
 40
0.0
 40
0.0
 40
0.125
 40
0.125
 40
0.25
 40
0.25
 40
0.375
 40
0.375
 40
0.5
 40
0.5
 40
0.625
 40
0.625
 40
0.75
 40
0.75
 40
0.875
 40
0.875
 40
1.0
 40
1.0
 40
1.0
 40
1.0
 10
184.7132852320421
 20
85.81775046041197
 30
0.0
 10
184.9723552881182
 20
85.81775091708445
 30
0.0
 10
185.2272370637857
 20
85.81846622486681
 30
0.0
 10
185.7289617846542
 20
85.82075789920137
 30
0.0
 10
185.9785471914966
 20
85.8223620512357
 30
0.0
 10
186.4515269061517
 20
85.82582155709031
 30
0.0
 10
186.6756225811358
 20
85.82767153182824
 30
0.0
 10
187.0989164935913
 20
85.83116576548595
 30
0.0
 10
187.296944077253
 20
85.83278965362014
 30
0.0
 10
187.6497482167371
 20
85.8353440359411
 30
0.0
 10
187.8076839605974
 20
85.83628687170932
 30
0.0
 10
188.0809014948165
 20
85.83729584497351
 30
0.0
 10
188.1928949152411
 20
85.8373376176767
 30
0.0
 10
188.3691944765318
 20
85.8365305572537
 30
0.0
 10
188.4335952214655
 20
85.83566436615149
 30
0.0
 10
188.5084331459244
 20
85.83323164576862
 30
0.0
 10
188.5196528482503
 20
85.83166636864739
 30
0.0
 10
188.5039517522573
 20
85.82992607886581
 30
0.0
  0
LINE
  5
10E
330
1F
100
AcDbEntity
  8
0
  6
Continuous
 62
     7
370
    15
100
AcDbLine
 10
112.5177352337
 20
85.8299237847
 30
0.0
 11
112.377052999
 21
85.8720213447
 31
0.0
  0
SPLINE
  5
10F
330
1F
100
AcDbEntity
  8
0
  6
Continuous
 62
     7
370
    15
100
AcDbSpline
210
0.0
220
0.0
230
1.0
 70
    24
 71
     3
 72
    14
 73
    10
 74
     0
 42
0.000000001
 43
0.00000001
 40
0.0
 40
0.0
 40
0.0
 40
0.0
 40
0.25
 40
0.25
 40
0.5
 40
0.5
 40
0.75
 40
0.75
 40
1.0
 40
1.0
 40
1.0
 40
1.0
 10
116.7374555604035
 20
87.78284634630828
 30
0.0
 10
116.7374555604035
 20
87.52399521104563
 30
0.0
 10
116.7374555604035
 20
87.26612963052621
 30
0.0
 10
116.7374555604035
 20
86.79039682781061
 30
0.0
 10
116.7374555604035
 20
86.57270863388784
 30
0.0
 10
116.7374555604035
 20
86.2097909798898
 30
0.0
 10
116.7374555604035
 20
86.0646980933714
 30
0.0
 10
116.7374555604035
 20
85.86864094330758
 30
0.0
 10
116.7374555604035
 20
85.81775046019705
 30
0.0
 10
116.7374555604035
 20
85.81775046019705
 30
0.0
  0
SPLINE
  5
110
330
1F
100
AcDbEntity
  8
0
  6
Continuous
 62
     7
370
    15
100
AcDbSpline
210
0.0
220
0.0
230
1.0
 70
    24
 71
     3
 72
     8
 73
     4
 74
     0
 42
0.000000001
 43
0.00000001
 40
0.0
 40
0.0
 40
0.0
 40
0.0
 40
1.0
 40
1.0
 40
1.0
 40
1.0
 10
116.3083939131336
 20
85.81775046039799
 30
0.0
 10
116.450910943003
 20
85.81775046039799
 30
0.0
 10
116.5942438826564
 20
85.81775046039799
 30
0.0
 10
116.7374555574085
 20
85.81775046039799
 30
0.0
  0
SPLINE
  5
111
330
1F
100
AcDbEntity
  8
0
  6
Continuous
 62
     7
370
    15
100
AcDbSpline
210
0.0
220
0.0
230
1.0
 70
     8
 71
     3
 72
    10
 73
     6
 74
     0
 42
0.000000001
 43
0.00000001
 40
0.0
 40
0.0
 40
0.0
 40
0.0
 40
0.1504741107389881
 40
0.9838243287179552
 40
0.9999999999999999
 40
0.9999999999999999
 40
0.9999999999999999
 40
0.9999999999999999
 10
112.5177354061184
 20
85.82992533998804
 30
0.0
 10
112.5151253777132
 20
85.83041643851128
 30
0.0
 10
112.4980605854302
 20
85.83362732091871
 30
0.0
 10
112.5215132870511
 20
85.83729838606175
 30
0.0
 10
112.7300831737695
 20
85.83682474770255
 30
0.0
 10
112.734054515867
 20
85.83681572923884
 30
0.0
  0
SPLINE
  5
112
330
1F
100
AcDbEntity
  8
0
  6
Continuous
 62
     7
370
    15
100
AcDbSpline
210
0.0
220
0.0
230
1.0
 70
     8
 71
     3
 72
    11
 73
     7
 74
     0
 42
0.000000001
 43
0.00000001
 40
0.0
 40
0.0
 40
0.0
 40
0.0
 40
0.2351586387303001
 40
0.5188681390105531
 40
0.802612154911247
 40
1.0
 40
1.0
 40
1.0
 40
1.0
 10
112.8266787748553
 20
85.83661435950941
 30
0.0
 10
112.9765822214329
 20
85.83660499600741
 30
0.0
 10
113.3073381859041
 20
85.83658433581442
 30
0.0
 10
114.2413334670022
 20
85.82848287652554
 30
0.0
 10
115.3010033855776
 20
85.81966168257294
 30
0.0
 10
116.015334375887
 20
85.81830645309307
 30
0.0
 10
116.3083938597618
 20
85.81775046034281
 30
0.0
  0
LINE
  5
113
330
1F
100
AcDbEntity
  8
0
  6
Continuous
 62
     7
370
    15
100
AcDbLine
 10
184.2842329969
 20
85.8177504602
 30
0.0
 11
116.7374555585
 21
85.8177504602
 31
0.0
  0
SPLINE
  5
114
330
1F
100
AcDbEntity
  8
0
  6
Continuous
 62
     7
370
    15
100
AcDbSpline
210
0.0
220
0.0
230
1.0
 70
     8
 71
     3
 72
     8
 73
     4
 74
     0
 42
0.000000001
 43
0.00000001
 40
0.0
 40
0.0
 40
0.0
 40
0.0
 40
1.0
 40
1.0
 40
1.0
 40
1.0
 10
112.7380647778272
 20
85.81775046019705
 30
0.0
 10
112.6132271437996
 20
85.8177504601968
 30
0.0
 10
112.5398009640346
 20
85.8274780340491
 30
0.0
 10
112.517735412962
 20
85.82992376478829
 30
0.0
  0
LINE
  5
115
330
1F
100
AcDbEntity
  8
0
  6
Continuous
 62
     7
370
    15
100
AcDbLine
 10
116.1949753866
 20
85.8177504603
 30
0.0
 11
112.7380647778
 21
85.8177504602
 31
0.0
  0
SPLINE
  5
116
330
1F
100
AcDbEntity
  8
0
  6
Continuous
 62
     7
370
    15
100
AcDbSpline
210
0.0
220
0.0
230
1.0
 70
     8
 71
     3
 72
     8
 73
     4
 74
     0
 42
0.000000001
 43
0.00000001
 40
0.0
 40
0.0
 40
0.0
 40
0.0
 40
1.0
 40
1.0
 40
1.0
 40
1.0
 10
188.503951753262
 20
85.82992361081915
 30
0.0
 10
188.4818844533841
 20
85.827477701854
 30
0.0
 10
188.4084587365473
 20
85.8177504601968
 30
0.0
 10
188.2836237775199
 20
85.81775046019705
 30
0.0
  0
LINE
  5
117
330
1F
100
AcDbEntity
  8
0
  6
Continuous
 62
     7
370
    15
100
AcDbLine
 10
188.2836237775
 20
85.8177504602
 30
0.0
 11
184.2842329969
 21
85.8177504602
 31
0.0
  0
SPLINE
  5
118
330
1F
100
AcDbEntity
  8
0
  6
Continuous
 62
     8
370
    15
100
AcDbSpline
210
0.0
220
0.0
230
1.0
 70
     8
 71
     3
 72
    17
 73
    13
 74
     0
 42
0.000000001
 43
0.00000001
 40
0.0
 40
0.0
 40
0.0
 40
0.0
 40
0.0083061671123514
 40
0.1527449968197144
 40
0.293276245621646
 40
0.4299001387013273
 40
0.5664782100851931
 40
0.706983007873644
 40
0.8514147513692355
 40
0.9005059604735984
 40
0.9500355219892024
 40
1.0
 40
1.0
 40
1.0
 40
1.0
 10
190.1652579142592
 20
87.77678000826704
 30
0.0
 10
190.1630361902142
 20
87.77665932814314
 30
0.0
 10
190.1221801337935
 20
87.77444009935914
 30
0.0
 10
189.8246909570246
 20
87.77165371900753
 30
0.0
 10
189.2852897309502
 20
87.76889018142677
 30
0.0
 10
188.5499154282408
 20
87.76814482051435
 30
0.0
 10
187.6691136007465
 20
87.76891549748153
 30
0.0
 10
186.6450069315558
 20
87.77154647887848
 30
0.0
 10
185.7616539746483
 20
87.77511908869732
 30
0.0
 10
185.1023124226061
 20
87.77834868321759
 30
0.0
 10
184.6953222397205
 20
87.78049217008598
 30
0.0
 10
184.4215290595922
 20
87.78205933742977
 30
0.0
 10
184.2840340559403
 20
87.78284634636681
 30
0.0
  0
SPLINE
  5
119
330
1F
100
AcDbEntity
  8
0
  6
Continuous
 62
     8
370
    15
100
AcDbSpline
210
0.0
220
0.0
230
1.0
 70
     8
 71
     3
 72
    15
 73
    11
 74
     0
 42
0.000000001
 43
0.00000001
 40
0.0
 40
0.0
 40
0.0
 40
0.0
 40
0.148357477971431
 40
0.2928075501925301
 40
0.4333503197109209
 40
0.5699860169937656
 40
0.7066192614570028
 40
0.847182009519424
 40
0.9916744801168059
 40
1.0
 40
1.0
 40
1.0
 40
1.0
 10
116.7374555584496
 20
87.78284564728278
 30
0.0
 10
116.3286542123821
 20
87.78058649432111
 30
0.0
 10
115.5218184377778
 20
87.77612768945829
 30
0.0
 10
114.3770532420099
 20
87.77156411720289
 30
0.0
 10
113.3526556478739
 20
87.76891271252968
 30
0.0
 10
112.4718992505314
 20
87.76814582841385
 30
0.0
 10
111.7365011316574
 20
87.76888889107336
 30
0.0
 10
111.1970772361151
 20
87.77165073956438
 30
0.0
 10
110.8995253548758
 20
87.77443613084051
 30
0.0
 10
110.8586670129979
 20
87.77665668774992
 30
0.0
 10
110.8564410516655
 20
87.77677766362876
 30
0.0
  0
SPLINE
  5
11A
330
1F
100
AcDbEntity
  8
0
  6
Continuous
 62
     8
370
    15
100
AcDbSpline
210
0.0
220
0.0
230
1.0
 70
     8
 71
     3
 72
    11
 73
     7
 74
     0
 42
0.000000001
 43
0.00000001
 40
0.0
 40
0.0
 40
0.0
 40
0.0
 40
0.1548545967897331
 40
0.4365697311931567
 40
0.7182848655965781
 40
1.0
 40
1.0
 40
1.0
 40
1.0
 10
184.2842106003881
 20
85.88481093892099
 30
0.0
 10
184.2842014874891
 20
85.90403137785361
 30
0.0
 10
184.2841757961892
 20
85.95821809256653
 30
0.0
 10
184.2841335264885
 20
86.36379432208473
 30
0.0
 10
184.2840837912861
 20
87.00573467665436
 30
0.0
 10
184.2840506344843
 20
87.52380912309032
 30
0.0
 10
184.2840340560835
 20
87.78284634630828
 30
0.0
  0
SPLINE
  5
11B
330
1F
100
AcDbEntity
  8
0
  6
Continuous
 62
     7
370
    15
100
AcDbSpline
210
0.0
220
0.0
230
1.0
 70
     8
 71
     3
 72
    10
 73
     6
 74
     0
 42
0.000000001
 43
0.00000001
 40
0.0
 40
0.0
 40
0.0
 40
0.0
 40
0.0937871718676861
 40
0.5468122470425404
 40
1.0
 40
1.0
 40
1.0
 40
1.0
 10
220.4550643846217
 20
187.3416362685821
 30
0.0
 10
220.4550454311867
 20
187.42347582857
 30
0.0
 10
220.4549349259843
 20
187.9006292899957
 30
0.0
 10
220.4547317924885
 20
188.6031944119125
 30
0.0
 10
220.4545469663105
 20
189.0065914340749
 30
0.0
 10
220.454454536632
 20
189.2083261528388
 30
0.0
  0
SPLINE
  5
11C
330
1F
100
AcDbEntity
  8
0
  6
Continuous
 62
     7
370
    15
100
AcDbSpline
210
0.0
220
0.0
230
1.0
 70
     8
 71
     3
 72
     9
 73
     5
 74
     0
 42
0.000000001
 43
0.00000001
 40
0.0
 40
0.0
 40
0.0
 40
0.0
 40
0.4143501459985926
 40
1.0
 40
1.0
 40
1.0
 40
1.0
 10
220.4554355436255
 20
185.6934301481772
 30
0.0
 10
220.4553844550807
 20
185.937214030049
 30
0.0
 10
220.4552611570795
 20
186.5255663794473
 30
0.0
 10
220.455137061298
 20
187.0402259602339
 30
0.0
 10
220.4550643846217
 20
187.3416362685821
 30
0.0
  0
LINE
  5
11D
330
1F
100
AcDbEntity
  8
0
  6
Continuous
 62
     7
370
    15
100
AcDbLine
 10
220.4555555407
 20
185.131237271
 30
0.0
 11
220.4554355436
 21
185.6934301482
 31
0.0
  0
SPLINE
  5
11E
330
1F
100
AcDbEntity
  8
0
  6
Continuous
 62
     7
370
    15
100
AcDbSpline
210
0.0
220
0.0
230
1.0
 70
     8
 71
     3
 72
     9
 73
     5
 74
     0
 42
0.000000001
 43
0.00000001
 40
0.0
 40
0.0
 40
0.0
 40
0.0
 40
0.4822823599864356
 40
1.0
 40
1.0
 40
1.0
 40
1.0
 10
220.4555560745835
 20
189.5261296922001
 30
0.0
 10
220.4264578001139
 20
189.6383188393506
 30
0.0
 10
220.3661232805797
 20
189.8709401343811
 30
0.0
 10
220.2398684559546
 20
189.8695592701605
 30
0.0
 10
220.1745041061094
 20
189.8688443723951
 30
0.0
  0
SPLINE
  5
11F
330
1F
100
AcDbEntity
  8
0
  6
Continuous
 62
     7
370
    15
100
AcDbSpline
210
0.0
220
0.0
230
1.0
 70
     8
 71
     3
 72
    11
 73
     7
 74
     0
 42
0.000000001
 43
0.00000001
 40
0.0
 40
0.0
 40
0.0
 40
0.0
 40
0.2554163460160729
 40
0.5148628124666507
 40
0.7663741793184764
 40
1.0
 40
1.0
 40
1.0
 40
1.0
 10
220.3529354877192
 20
189.8014270687853
 30
0.0
 10
220.2629264261306
 20
189.9814566574581
 30
0.0
 10
220.0814880831279
 20
190.3443564553648
 30
0.0
 10
219.6167548246786
 20
190.7484206283969
 30
0.0
 10
219.0767211817129
 20
191.0090759143244
 30
0.0
 10
218.6910063448438
 20
191.0439450666939
 30
0.0
 10
218.5052589982618
 20
191.0607368825928
 30
0.0
  0
LINE
  5
120
330
1F
100
AcDbEntity
  8
0
  6
Continuous
 62
     7
370
    15
100
AcDbLine
 10
220.3529354877
 20
189.1117339583
 30
0.0
 11
220.4372259732
 21
189.1802060794
 31
0.0
  0
LINE
  5
121
330
1F
100
AcDbEntity
  8
0
  6
Continuous
 62
     7
370
    15
100
AcDbLine
 10
220.4372103401
 20
118.6187575322
 30
0.0
 11
220.3529386292
 21
118.6871854878
 31
0.0
  0
SPLINE
  5
122
330
1F
100
AcDbEntity
  8
0
  6
Continuous
 62
     7
370
    15
100
AcDbSpline
210
0.0
220
0.0
230
1.0
 70
     8
 71
     3
 72
    11
 73
     7
 74
     0
 42
0.000000001
 43
0.00000001
 40
0.0
 40
0.0
 40
0.0
 40
0.0
 40
0.2336258737325312
 40
0.4851373065819127
 40
0.7445837805422274
 40
1.0
 40
1.0
 40
1.0
 40
1.0
 10
218.5052589382787
 20
116.7382300755488
 30
0.0
 10
218.6910069782965
 20
116.7550238485247
 30
0.0
 10
219.0767232621885
 20
116.7898970655134
 30
0.0
 10
219.6167586279501
 20
117.0505598921191
 30
0.0
 10
220.081492531081
 20
117.4546322608792
 30
0.0
 10
220.2629300167371
 20
117.817537124546
 30
0.0
 10
220.3529386292208
 20
117.9975691786948
 30
0.0
  0
SPLINE
  5
123
330
1F
100
AcDbEntity
  8
0
  6
Continuous
 62
     7
370
    15
100
AcDbSpline
210
0.0
220
0.0
230
1.0
 70
     8
 71
     3
 72
     9
 73
     5
 74
     0
 42
0.000000001
 43
0.00000001
 40
0.0
 40
0.0
 40
0.0
 40
0.0
 40
0.5177354195441884
 40
1.0
 40
1.0
 40
1.0
 40
1.0
 10
220.1745298795958
 20
117.9301178355908
 30
0.0
 10
220.2398877587632
 20
117.9294060170911
 30
0.0
 10
220.3661257496367
 20
117.9280311478571
 30
0.0
 10
220.4264601085066
 20
118.1606656479965
 30
0.0
 10
220.4555572327741
 20
118.2728570276058
 30
0.0
  0
SPLINE
  5
124
330
1F
100
AcDbEntity
  8
0
  6
Continuous
 62
     7
370
    15
100
AcDbSpline
210
0.0
220
0.0
230
1.0
 70
     8
 71
     3
 72
    10
 73
     6
 74
     0
 42
0.000000001
 43
0.00000001
 40
0.0
 40
0.0
 40
0.0
 40
0.0
 40
0.042810820330818
 40
0.5430094557121159
 40
1.0
 40
1.0
 40
1.0
 40
1.0
 10
220.4552998730854
 20
120.311712125919
 30
0.0
 10
220.4553083343625
 20
120.3405257724967
 30
0.0
 10
220.4554156566101
 20
120.705996053709
 30
0.0
 10
220.4555463559858
 20
121.5015371390907
 30
0.0
 10
220.4555532225065
 20
122.2909124276301
 30
0.0
 10
220.4555565007874
 20
122.6677836359755
 30
0.0
  0
SPLINE
  5
125
330
1F
100
AcDbEntity
  8
0
  6
Continuous
 62
     7
370
    15
100
AcDbSpline
210
0.0
220
0.0
230
1.0
 70
     8
 71
     3
 72
    11
 73
     7
 74
     0
 42
0.000000001
 43
0.00000001
 40
0.0
 40
0.0
 40
0.0
 40
0.0
 40
0.2748782350456944
 40
0.5396986289431847
 40
0.7944721224305422
 40
1.0
 40
1.0
 40
1.0
 40
1.0
 10
220.4544546450857
 20
118.5906078224676
 30
0.0
 10
220.4545498358349
 20
118.6961750343071
 30
0.0
 10
220.4547367342875
 20
118.9034467358357
 30
0.0
 10
220.4549724874377
 20
119.3424429893203
 30
0.0
 10
220.455163260568
 20
119.809281813357
 30
0.0
 10
220.4552577035941
 20
120.1566221595643
 30
0.0
 10
220.4552998730854
 20
120.311712125919
 30
0.0
  0
LINE
  5
126
330
1F
100
AcDbEntity
  8
0
  6
Continuous
 62
     7
370
    15
100
AcDbLine
 10
220.4870182702
 20
189.1494934334
 30
0.0
 11
220.3994181209
 21
189.1494934334
 31
0.0
  0
SPLINE
  5
127
330
1F
100
AcDbEntity
  8
0
  6
Continuous
 62
     7
370
    15
100
AcDbSpline
210
0.0
220
0.0
230
1.0
 70
     8
 71
     3
 72
     9
 73
     5
 74
     0
 42
0.000000001
 43
0.00000001
 40
0.0
 40
0.0
 40
0.0
 40
0.0
 40
0.970815549325921
 40
1.0
 40
1.0
 40
1.0
 40
1.0
 10
220.455557232774
 20
189.5261298391865
 30
0.0
 10
220.4316359782754
 20
189.6566995992242
 30
0.0
 10
220.4069956081092
 20
189.7911945196325
 30
0.0
 10
220.349616797092
 20
189.8094424038021
 30
0.0
 10
220.3479422280122
 20
189.8099749582776
 30
0.0
  0
LINE
  5
128
330
1F
100
AcDbEntity
  8
0
  6
Continuous
 62
     7
370
    15
100
AcDbLine
 10
220.3539919289
 20
117.9936414779
 30
0.0
 11
220.4555560746
 21
118.2728571746
 31
0.0
  0
LINE
  5
129
330
1F
100
AcDbEntity
  8
0
  6
Continuous
 62
     7
370
    15
100
AcDbLine
 10
205.4871463503
 20
122.3985796043
 30
0.0
 11
205.4871463503
 21
116.3994934334
 31
0.0
  0
LINE
  5
12A
330
1F
100
AcDbEntity
  8
0
  6
Continuous
 62
     7
370
    15
100
AcDbLine
 10
205.4871463503
 20
122.3985796043
 30
0.0
 11
218.5220511632
 21
122.6261047152
 31
0.0
  0
LINE
  5
12B
330
1F
100
AcDbEntity
  8
0
  6
Continuous
 62
     7
370
    15
100
AcDbLine
 10
218.5281215438
 20
116.7451134952
 30
0.0
 11
218.5220504641
 21
116.6270185343
 31
0.0
  0
LINE
  5
12C
330
1F
100
AcDbEntity
  8
0
  6
Continuous
 62
     7
370
    15
100
AcDbLine
 10
218.5220504642
 20
116.627018531
 30
0.0
 11
205.4871463503
 21
116.3994934334
 31
0.0
  0
LINE
  5
12D
330
1F
100
AcDbEntity
  8
0
  6
Continuous
 62
     7
370
    15
100
AcDbLine
 10
205.4871463503
 20
191.3994934334
 30
0.0
 11
205.4871463503
 21
185.4004072625
 31
0.0
  0
LINE
  5
12E
330
1F
100
AcDbEntity
  8
0
  6
Continuous
 62
     7
370
    15
100
AcDbLine
 10
205.4871463503
 20
191.3994934334
 30
0.0
 11
218.5220511632
 21
191.1719683236
 31
0.0
  0
LINE
  5
12F
330
1F
100
AcDbEntity
  8
0
  6
Continuous
 62
     7
370
    15
100
AcDbLine
 10
218.5220511632
 20
191.1719683236
 30
0.0
 11
218.5281196204
 21
191.0538755837
 31
0.0
  0
LINE
  5
130
330
1F
100
AcDbEntity
  8
0
  6
Continuous
 62
     7
370
    15
100
AcDbLine
 10
218.5220504641
 20
185.1726832118
 30
0.0
 11
205.4871463503
 21
185.4004072625
 31
0.0
  0
LINE
  5
131
330
1F
100
AcDbEntity
  8
0
  6
Continuous
 62
     7
370
    15
100
AcDbLine
 10
205.4871463503
 20
185.4004072625
 30
0.0
 11
205.4871463503
 21
122.3985796043
 31
0.0
  0
LINE
  5
132
330
1F
100
AcDbEntity
  8
0
  6
Continuous
 62
     7
370
    15
100
AcDbLine
 10
218.5220504641
 20
185.1726832118
 30
0.0
 11
218.5220504641
 21
122.6261047152
 31
0.0
  0
LINE
  5
133
330
1F
100
AcDbEntity
  8
0
  6
Continuous
 62
     7
370
    15
100
AcDbLine
 10
220.4749730259
 20
185.1722579263
 30
0.0
 11
220.4382988387
 21
185.1722768811
 31
0.0
  0
LINE
  5
134
330
1F
100
AcDbEntity
  8
0
  6
Continuous
 62
     7
370
    15
100
AcDbLine
 10
220.4163428708
 20
189.5323295396
 30
0.0
 11
220.4871463503
 21
189.1722729332
 31
0.0
  0
SPLINE
  5
135
330
1F
100
AcDbEntity
  8
0
  6
Continuous
 62
     7
370
    15
100
AcDbSpline
210
0.0
220
0.0
230
1.0
 70
    24
 71
     3
 72
     8
 73
     4
 74
     0
 42
0.000000001
 43
0.00000001
 40
0.0
 40
0.0
 40
0.0
 40
0.0
 40
1.0
 40
1.0
 40
1.0
 40
1.0
 10
220.4871463501085
 20
189.1491961684258
 30
0.0
 10
220.4871463501085
 20
189.1645511609489
 30
0.0
 10
220.4871463501085
 20
189.172258577091
 30
0.0
 10
220.4871463501085
 20
189.1722798242053
 30
0.0
  0
SPLINE
  5
136
330
1F
100
AcDbEntity
  8
0
  6
Continuous
 62
     7
370
    15
100
AcDbSpline
210
0.0
220
0.0
230
1.0
 70
     8
 71
     3
 72
    13
 73
     9
 74
     0
 42
0.000000001
 43
0.00000001
 40
0.0
 40
0.0
 40
0.0
 40
0.0
 40
0.0401303727822104
 40
0.2623789359496099
 40
0.4846250220041257
 40
0.706855316344527
 40
0.9291126468486182
 40
1.0
 40
1.0
 40
1.0
 40
1.0
 10
220.4749714705185
 20
185.172257926299
 30
0.0
 10
220.4744703024618
 20
185.2479733975916
 30
0.0
 10
220.4711935837989
 20
185.7430135234452
 30
0.0
 10
220.4667862176345
 20
186.6644081274407
 30
0.0
 10
220.4683372844604
 20
187.7896662471972
 30
0.0
 10
220.4761566300473
 20
188.6285521905495
 30
0.0
 10
220.4843413411689
 20
189.047839861038
 30
0.0
 10
220.485564967103
 20
189.0896610606322
 30
0.0
 10
220.4858608605937
 20
189.0997741355407
 30
0.0
  0
SPLINE
  5
137
330
1F
100
AcDbEntity
  8
0
  6
Continuous
 62
     7
370
    15
100
AcDbSpline
210
0.0
220
0.0
230
1.0
 70
    24
 71
     3
 72
     8
 73
     4
 74
     0
 42
0.000000001
 43
0.00000001
 40
0.0
 40
0.0
 40
0.0
 40
0.0
 40
1.0
 40
1.0
 40
1.0
 40
1.0
 10
220.4871463502631
 20
118.6267139335457
 30
0.0
 10
220.4871463502154
 20
118.6267279789373
 30
0.0
 10
220.4871463501323
 20
118.6344368696645
 30
0.0
 10
220.4871463500137
 20
118.6497899332858
 30
0.0
  0
LINE
  5
138
330
1F
100
AcDbEntity
  8
0
  6
Continuous
 62
     7
370
    15
100
AcDbLine
 10
220.4871463503
 20
118.6267139335
 30
0.0
 11
220.416335821
 21
118.266621477
 31
0.0
  0
SPLINE
  5
139
330
1F
100
AcDbEntity
  8
0
  6
Continuous
 62
     7
370
    15
100
AcDbSpline
210
0.0
220
0.0
230
1.0
 70
     8
 71
     3
 72
    14
 73
    10
 74
     0
 42
0.000000001
 43
0.00000001
 40
0.0
 40
0.0
 40
0.0
 40
0.0
 40
0.25
 40
0.25
 40
0.5
 40
0.5
 40
0.75
 40
0.75
 40
1.0
 40
1.0
 40
1.0
 40
1.0
 10
218.5220511631896
 20
122.6261047151558
 30
0.0
 10
218.7625070339653
 20
122.62615865008
 30
0.0
 10
219.0021303130238
 20
122.6262125850041
 30
0.0
 10
219.4491258934913
 20
122.6263204548525
 30
0.0
 10
219.6563728141446
 20
122.6263743897766
 30
0.0
 10
220.0119116781418
 20
122.626482259625
 30
0.0
 10
220.1601038940311
 20
122.6265361945492
 30
0.0
 10
220.3784184666875
 20
122.6266440643975
 30
0.0
 10
220.4484795869517
 20
122.6266979993216
 30
0.0
 10
220.4749731996878
 20
122.6267519342458
 30
0.0
  0
SPLINE
  5
13A
330
1F
100
AcDbEntity
  8
0
  6
Continuous
 62
     7
370
    15
100
AcDbSpline
210
0.0
220
0.0
230
1.0
 70
     8
 71
     3
 72
    13
 73
     9
 74
     0
 42
0.000000001
 43
0.00000001
 40
0.0
 40
0.0
 40
0.0
 40
0.0
 40
0.1508784988675968
 40
0.3699056721253806
 40
0.5889784180703375
 40
0.8080297659448702
 40
0.9604429292493049
 40
1.0
 40
1.0
 40
1.0
 40
1.0
 10
220.4857314432708
 20
118.7106352582594
 30
0.0
 10
220.484911784148
 20
118.7389704391857
 30
0.0
 10
220.4829022429543
 20
118.8084392119002
 30
0.0
 10
220.4732533490892
 20
119.3947521400565
 30
0.0
 10
220.4670271845533
 20
120.3294350800318
 30
0.0
 10
220.4678593007851
 20
121.3941362007205
 30
0.0
 10
220.4720392654211
 20
122.1834628115818
 30
0.0
 10
220.4744698826512
 20
122.5510147937275
 30
0.0
 10
220.4749707316407
 20
122.6267519507605
 30
0.0
  0
SPLINE
  5
13B
330
1F
100
AcDbEntity
  8
0
  6
Continuous
 62
     7
370
    15
100
AcDbSpline
210
0.0
220
0.0
230
1.0
 70
     8
 71
     3
 72
     8
 73
     4
 74
     0
 42
0.000000001
 43
0.00000001
 40
0.0
 40
0.0
 40
0.0
 40
0.0
 40
1.0
 40
1.0
 40
1.0
 40
1.0
 10
220.4871463503094
 20
184.1139878536871
 30
0.0
 10
220.4871463503097
 20
184.4560909646369
 30
0.0
 10
220.4774187764574
 20
184.8087859252805
 30
0.0
 10
220.4749730457182
 20
185.17225781357
 30
0.0
  0
LINE
  5
13C
330
1F
100
AcDbEntity
  8
0
  6
Continuous
 62
     7
370
    15
100
AcDbLine
 10
220.4871463503
 20
184.1139878537
 30
0.0
 11
220.4871463503
 21
123.6849990131
 31
0.0
  0
SPLINE
  5
13D
330
1F
100
AcDbEntity
  8
0
  6
Continuous
 62
     7
370
    15
100
AcDbSpline
210
0.0
220
0.0
230
1.0
 70
     8
 71
     3
 72
     8
 73
     4
 74
     0
 42
0.000000001
 43
0.00000001
 40
0.0
 40
0.0
 40
0.0
 40
0.0
 40
1.0
 40
1.0
 40
1.0
 40
1.0
 10
220.4749731996873
 20
122.626751934213
 30
0.0
 10
220.4774191086525
 20
122.9902158963609
 30
0.0
 10
220.4871463503097
 20
123.3429032326837
 30
0.0
 10
220.4871463503094
 20
123.6849990131045
 30
0.0
  0
LINE
  5
13E
330
1F
100
AcDbEntity
  8
0
  6
Continuous
 62
     7
370
    15
100
AcDbLine
 10
220.4871463503
 20
123.6849990131
 30
0.0
 11
220.4871463503
 21
118.756957536
 31
0.0
  0
LINE
  5
13F
330
1F
100
AcDbEntity
  8
0
  6
Continuous
 62
     7
370
    15
100
AcDbLine
 10
220.4871463502
 20
189.1491919596
 30
0.0
 11
220.4871463502
 21
184.1139878537
 31
0.0
  0
SPLINE
  5
140
330
1F
100
AcDbEntity
  8
0
  6
Continuous
 62
     8
370
    15
100
AcDbSpline
210
0.0
220
0.0
230
1.0
 70
     8
 71
     3
 72
    15
 73
    11
 74
     0
 42
0.000000001
 43
0.00000001
 40
0.0
 40
0.0
 40
0.0
 40
0.0
 40
0.1483916106019679
 40
0.2928744430736101
 40
0.4334486003092625
 40
0.5701143127244215
 40
0.7067318914620333
 40
0.8472780101431143
 40
0.9917528877853437
 40
1.0
 40
1.0
 40
1.0
 40
1.0
 10
218.5220511631896
 20
122.6261047151558
 30
0.0
 10
218.5243106987959
 20
122.2172305205026
 30
0.0
 10
218.5287702516616
 20
121.4102522717966
 30
0.0
 10
218.5333341390551
 20
120.265304341211
 30
0.0
 10
218.5359851411008
 20
119.240778426114
 30
0.0
 10
218.5367509758026
 20
118.360058028359
 30
0.0
 10
218.5360068970783
 20
117.6248065202183
 30
0.0
 10
218.5332445557939
 20
117.0855815165331
 30
0.0
 10
218.5304603351593
 20
116.7881603002419
 30
0.0
 10
218.5282413697623
 20
116.7473189608982
 30
0.0
 10
218.5281215438181
 20
116.7451134952093
 30
0.0
  0
SPLINE
  5
141
330
1F
100
AcDbEntity
  8
0
  6
Continuous
 62
     8
370
    15
100
AcDbSpline
210
0.0
220
0.0
230
1.0
 70
     8
 71
     3
 72
    15
 73
    11
 74
     0
 42
0.000000001
 43
0.00000001
 40
0.0
 40
0.0
 40
0.0
 40
0.0
 40
0.0082201130347484
 40
0.1526760989564095
 40
0.2932246222126995
 40
0.4298659132802158
 40
0.5665047514277076
 40
0.7070732540459378
 40
0.851571640079646
 40
1.0
 40
1.0
 40
1.0
 40
1.0
 10
218.5281196203886
 20
191.0538755836966
 30
0.0
 10
218.5282390103336
 20
191.0516768163193
 30
0.0
 10
218.5304564970005
 20
191.0108380560423
 30
0.0
 10
218.5332414978055
 20
190.7134813229327
 30
0.0
 10
218.5360059047358
 20
190.1742849895955
 30
0.0
 10
218.5367509854558
 20
189.4390412565171
 30
0.0
 10
218.5359860987588
 20
188.5583469029604
 30
0.0
 10
218.5333373405949
 20
187.5338737442445
 30
0.0
 10
218.5287739003717
 20
186.3887986738729
 30
0.0
 10
218.524311565401
 20
185.5816645990469
 30
0.0
 10
218.5220504640497
 20
185.1726832116626
 30
0.0
  0
SPLINE
  5
142
330
1F
100
AcDbEntity
  8
0
  6
Continuous
 62
     8
370
    15
100
AcDbSpline
210
0.0
220
0.0
230
1.0
 70
     8
 71
     3
 72
    11
 73
     7
 74
     0
 42
0.000000001
 43
0.00000001
 40
0.0
 40
0.0
 40
0.0
 40
0.0
 40
0.2150133656449534
 40
0.4766755770966363
 40
0.7383377885483184
 40
1.0
 40
1.0
 40
1.0
 40
1.0
 10
220.4382988386729
 20
185.1722768811232
 30
0.0
 10
220.3945840269609
 20
185.1723060032991
 30
0.0
 10
220.2976701302923
 20
185.1723705659366
 30
0.0
 10
219.8590771573929
 20
185.1724705690358
 30
0.0
 10
219.2431589685869
 20
185.1725768904208
 30
0.0
 10
218.7624199656011
 20
185.1726477713441
 30
0.0
 10
218.5220504641082
 20
185.1726832118058
 30
0.0
  0
LINE
  5
143
330
1F
100
AcDbEntity
  8
0
  6
Continuous
 62
     7
370
    15
100
AcDbLine
 10
250.3834945095
 20
140.273613108
 30
0.0
 11
250.1983489681
 21
140.273613108
 31
0.0
  0
ARC
  5
144
330
1F
100
AcDbEntity
  8
0
  6
Continuous
 62
     7
370
    15
100
AcDbCircle
 10
250.9483489681
 20
140.273613108
 30
0.0
 40
0.5648544580693771
100
AcDbArc
 50
180.0
 51
260.4059317728
  0
LINE
  5
145
330
1F
100
AcDbEntity
  8
0
  6
Continuous
 62
     7
370
    15
100
AcDbLine
 10
250.8542065583
 20
139.7166591009
 30
0.0
 11
250.8233489681
 21
139.5341031352
 31
0.0
  0
ARC
  5
146
330
1F
100
AcDbEntity
  8
0
  6
Continuous
 62
     7
370
    15
100
AcDbCircle
 10
250.9483489681
 20
140.273613108
 30
0.0
 40
0.7500000000004758
100
AcDbArc
 50
180.0
 51
260.405931773
  0
ARC
  5
147
330
1F
100
AcDbEntity
  8
0
  6
Continuous
 62
     7
370
    15
100
AcDbCircle
 10
249.4483489681
 20
131.3994934334
 30
0.0
 40
8.250000000000082
100
AcDbArc
 50
0.0
 51
80.4059317732
  0
ARC
  5
148
330
1F
100
AcDbEntity
  8
0
  6
Continuous
 62
     7
370
    15
100
AcDbCircle
 10
249.4483489681
 20
131.3994934334
 30
0.0
 40
8.43514554140062
100
AcDbArc
 50
0.0
 51
80.4059317732
  0
LINE
  5
149
330
1F
100
AcDbEntity
  8
0
  6
Continuous
 62
     7
370
    15
100
AcDbLine
 10
257.6983489681
 20
131.3994934334
 30
0.0
 11
257.8834945095
 21
131.3994934334
 31
0.0
  0
ARC
  5
14A
330
1F
100
AcDbEntity
  8
0
  6
Continuous
 62
     7
370
    15
100
AcDbCircle
 10
249.4483489681
 20
176.3994934334
 30
0.0
 40
8.250000000000515
100
AcDbArc
 50
279.5940682269
 51
0.0
  0
LINE
  5
14B
330
1F
100
AcDbEntity
  8
0
  6
Continuous
 62
     7
370
    15
100
AcDbLine
 10
257.88349451
 20
176.3994934334
 30
0.0
 11
257.6983489681
 21
176.3994934334
 31
0.0
  0
ARC
  5
14C
330
1F
100
AcDbEntity
  8
0
  6
Continuous
 62
     7
370
    15
100
AcDbCircle
 10
249.4483489681
 20
176.3994934334
 30
0.0
 40
8.435145541927369
100
AcDbArc
 50
279.5940682269
 51
0.0
  0
LINE
  5
14D
330
1F
100
AcDbEntity
  8
0
  6
Continuous
 62
     7
370
    15
100
AcDbLine
 10
250.8233489681
 20
168.2648837316
 30
0.0
 11
250.8542065584
 21
168.0823277654
 31
0.0
  0
ARC
  5
14E
330
1F
100
AcDbEntity
  8
0
  6
Continuous
 62
     7
370
    15
100
AcDbCircle
 10
250.9483489681
 20
167.5253737587
 30
0.0
 40
0.5648544580729151
100
AcDbArc
 50
99.5940682268
 51
180.0
  0
LINE
  5
14F
330
1F
100
AcDbEntity
  8
0
  6
Continuous
 62
     7
370
    15
100
AcDbLine
 10
250.1983489681
 20
167.5253737587
 30
0.0
 11
250.3834945095
 21
167.5253737587
 31
0.0
  0
ARC
  5
150
330
1F
100
AcDbEntity
  8
0
  6
Continuous
 62
     7
370
    15
100
AcDbCircle
 10
250.9483489681
 20
167.5253737587
 30
0.0
 40
0.7500000000000412
100
AcDbArc
 50
99.5940682268
 51
180.0
  0
LINE
  5
151
330
1F
100
AcDbEntity
  8
0
  6
Continuous
 62
     7
370
    15
100
AcDbLine
 10
257.8834945095
 20
131.3994934334
 30
0.0
 11
257.8834945095
 21
123.6494934334
 31
0.0
  0
LINE
  5
152
330
1F
100
AcDbEntity
  8
0
  6
Continuous
 62
     7
370
    15
100
AcDbLine
 10
257.8834945095
 20
123.6494934334
 30
0.0
 11
257.6983489681
 21
123.6494934334
 31
0.0
  0
LINE
  5
153
330
1F
100
AcDbEntity
  8
0
  6
Continuous
 62
     7
370
    15
100
AcDbLine
 10
257.6983489681
 20
131.3994934334
 30
0.0
 11
257.6983489681
 21
123.6494934334
 31
0.0
  0
LINE
  5
154
330
1F
100
AcDbEntity
  8
0
  6
Continuous
 62
     7
370
    15
100
AcDbLine
 10
257.6983489681
 20
184.1494934334
 30
0.0
 11
257.8834945095
 21
184.1494934334
 31
0.0
  0
LINE
  5
155
330
1F
100
AcDbEntity
  8
0
  6
Continuous
 62
     7
370
    15
100
AcDbLine
 10
257.8834945095
 20
184.1494934334
 30
0.0
 11
257.8834945095
 21
176.3994934334
 31
0.0
  0
LINE
  5
156
330
1F
100
AcDbEntity
  8
0
  6
Continuous
 62
     7
370
    15
100
AcDbLine
 10
257.6983489681
 20
184.1494934334
 30
0.0
 11
257.6983489681
 21
176.3994934334
 31
0.0
  0
LINE
  5
157
330
1F
100
AcDbEntity
  8
0
  6
Continuous
 62
     7
370
    15
100
AcDbLine
 10
250.3834945095
 20
167.5253737587
 30
0.0
 11
250.3834945095
 21
140.273613108
 31
0.0
  0
LINE
  5
158
330
1F
100
AcDbEntity
  8
0
  6
Continuous
 62
     7
370
    15
100
AcDbLine
 10
250.1983489681
 20
167.5253737587
 30
0.0
 11
250.1983489681
 21
140.273613108
 31
0.0
  0
ARC
  5
159
330
1F
100
AcDbEntity
  8
0
  6
Continuous
 62
     7
370
    15
100
AcDbCircle
 10
258.4483489681
 20
123.6494934334
 30
0.0
 40
0.564854458121161
100
AcDbArc
 50
180.0
 51
270.0
  0
LINE
  5
15A
330
1F
100
AcDbEntity
  8
0
  6
Continuous
 62
     7
370
    15
100
AcDbLine
 10
258.4483489681
 20
122.8994934334
 30
0.0
 11
258.4483489681
 21
123.0846389748
 31
0.0
  0
ARC
  5
15B
330
1F
100
AcDbEntity
  8
0
  6
Continuous
 62
     7
370
    15
100
AcDbCircle
 10
258.4483489681
 20
123.6494934334
 30
0.0
 40
0.7500000000000568
100
AcDbArc
 50
180.0
 51
270.0
  0
LINE
  5
15C
330
1F
100
AcDbEntity
  8
0
  6
Continuous
 62
     7
370
    15
100
AcDbLine
 10
258.4483489681
 20
184.714347892
 30
0.0
 11
258.4483489681
 21
184.8994934334
 31
0.0
  0
ARC
  5
15D
330
1F
100
AcDbEntity
  8
0
  6
Continuous
 62
     7
370
    15
100
AcDbCircle
 10
258.4483489681
 20
184.1494934334
 30
0.0
 40
0.5648544581211752
100
AcDbArc
 50
90.0
 51
180.0
  0
ARC
  5
15E
330
1F
100
AcDbEntity
  8
0
  6
Continuous
 62
     7
370
    15
100
AcDbCircle
 10
258.4483489681
 20
184.1494934334
 30
0.0
 40
0.7500000000000568
100
AcDbArc
 50
90.0
 51
180.0
  0
LINE
  5
15F
330
1F
100
AcDbEntity
  8
0
  6
Continuous
 62
     7
370
    15
100
AcDbLine
 10
258.4483489681
 20
123.0846389748
 30
0.0
 11
308.9483489681
 21
123.0846389748
 31
0.0
  0
LINE
  5
160
330
1F
100
AcDbEntity
  8
0
  6
Continuous
 62
     7
370
    15
100
AcDbLine
 10
308.9483489681
 20
123.0846389748
 30
0.0
 11
308.9483489681
 21
122.8994934334
 31
0.0
  0
LINE
  5
161
330
1F
100
AcDbEntity
  8
0
  6
Continuous
 62
     7
370
    15
100
AcDbLine
 10
258.4483489681
 20
122.8994934334
 30
0.0
 11
308.9483489681
 21
122.8994934334
 31
0.0
  0
LINE
  5
162
330
1F
100
AcDbEntity
  8
0
  6
Continuous
 62
     7
370
    15
100
AcDbLine
 10
308.9483489681
 20
184.8994934334
 30
0.0
 11
308.9483489681
 21
184.714347892
 31
0.0
  0
LINE
  5
163
330
1F
100
AcDbEntity
  8
0
  6
Continuous
 62
     7
370
    15
100
AcDbLine
 10
308.9483489681
 20
184.714347892
 30
0.0
 11
258.4483489681
 21
184.714347892
 31
0.0
  0
LINE
  5
164
330
1F
100
AcDbEntity
  8
0
  6
Continuous
 62
     7
370
    15
100
AcDbLine
 10
308.9483489681
 20
184.8994934334
 30
0.0
 11
258.4483489681
 21
184.8994934334
 31
0.0
  0
ARC
  5
165
330
1F
100
AcDbEntity
  8
0
  6
Continuous
 62
     7
370
    15
100
AcDbCircle
 10
317.9483489681
 20
176.3994934334
 30
0.0
 40
8.250000000000027
100
AcDbArc
 50
180.0
 51
260.4059317732
  0
LINE
  5
166
330
1F
100
AcDbEntity
  8
0
  6
Continuous
 62
     7
370
    15
100
AcDbLine
 10
316.5424913779
 20
168.0823277659
 30
0.0
 11
316.5733489681
 21
168.2648837316
 31
0.0
  0
ARC
  5
167
330
1F
100
AcDbEntity
  8
0
  6
Continuous
 62
     7
370
    15
100
AcDbCircle
 10
317.9483489681
 20
176.3994934334
 30
0.0
 40
8.435145541394036
100
AcDbArc
 50
180.0
 51
260.4059317732
  0
LINE
  5
168
330
1F
100
AcDbEntity
  8
0
  6
Continuous
 62
     7
370
    15
100
AcDbLine
 10
309.6983489681
 20
176.3994934334
 30
0.0
 11
309.5132034267
 21
176.3994934334
 31
0.0
  0
LINE
  5
169
330
1F
100
AcDbEntity
  8
0
  6
Continuous
 62
     7
370
    15
100
AcDbLine
 10
309.5132034267
 20
176.3994934334
 30
0.0
 11
309.5132034267
 21
184.1494934334
 31
0.0
  0
LINE
  5
16A
330
1F
100
AcDbEntity
  8
0
  6
Continuous
 62
     7
370
    15
100
AcDbLine
 10
309.5132034267
 20
184.1494934334
 30
0.0
 11
309.6983489681
 21
184.1494934334
 31
0.0
  0
LINE
  5
16B
330
1F
100
AcDbEntity
  8
0
  6
Continuous
 62
     7
370
    15
100
AcDbLine
 10
309.6983489681
 20
176.3994934334
 30
0.0
 11
309.6983489681
 21
184.1494934334
 31
0.0
  0
ARC
  5
16C
330
1F
100
AcDbEntity
  8
0
  6
Continuous
 62
     7
370
    15
100
AcDbCircle
 10
308.9483489681
 20
123.6494934334
 30
0.0
 40
0.5648544581207489
100
AcDbArc
 50
270.0
 51
0.0
  0
LINE
  5
16D
330
1F
100
AcDbEntity
  8
0
  6
Continuous
 62
     7
370
    15
100
AcDbLine
 10
309.6983489681
 20
123.6494934334
 30
0.0
 11
309.5132034267
 21
123.6494934334
 31
0.0
  0
ARC
  5
16E
330
1F
100
AcDbEntity
  8
0
  6
Continuous
 62
     7
370
    15
100
AcDbCircle
 10
308.9483489681
 20
123.6494934334
 30
0.0
 40
0.7500000000000568
100
AcDbArc
 50
270.0
 51
0.0
  0
ARC
  5
16F
330
1F
100
AcDbEntity
  8
0
  6
Continuous
 62
     7
370
    15
100
AcDbCircle
 10
308.9483489681
 20
184.1494934334
 30
0.0
 40
0.5648544581207489
100
AcDbArc
 50
0.0
 51
90.0
  0
ARC
  5
170
330
1F
100
AcDbEntity
  8
0
  6
Continuous
 62
     7
370
    15
100
AcDbCircle
 10
308.9483489681
 20
184.1494934334
 30
0.0
 40
0.7500000000000568
100
AcDbArc
 50
0.0
 51
90.0
  0
ARC
  5
171
330
1F
100
AcDbEntity
  8
0
  6
Continuous
 62
     7
370
    15
100
AcDbCircle
 10
317.9483489681
 20
131.3994934334
 30
0.0
 40
8.25000000000046
100
AcDbArc
 50
99.5940682269
 51
180.0
  0
LINE
  5
172
330
1F
100
AcDbEntity
  8
0
  6
Continuous
 62
     7
370
    15
100
AcDbLine
 10
309.5132034262
 20
131.3994934334
 30
0.0
 11
309.6983489681
 21
131.3994934334
 31
0.0
  0
ARC
  5
173
330
1F
100
AcDbEntity
  8
0
  6
Continuous
 62
     7
370
    15
100
AcDbCircle
 10
317.9483489681
 20
131.3994934334
 30
0.0
 40
8.435145541927398
100
AcDbArc
 50
99.5940682269
 51
180.0
  0
LINE
  5
174
330
1F
100
AcDbEntity
  8
0
  6
Continuous
 62
     7
370
    15
100
AcDbLine
 10
316.5733489681
 20
139.5341031352
 30
0.0
 11
316.5424913778
 21
139.7166591014
 31
0.0
  0
LINE
  5
175
330
1F
100
AcDbEntity
  8
0
  6
Continuous
 62
     7
370
    15
100
AcDbLine
 10
309.5132034267
 20
123.6494934334
 30
0.0
 11
309.5132034267
 21
131.3994934334
 31
0.0
  0
LINE
  5
176
330
1F
100
AcDbEntity
  8
0
  6
Continuous
 62
     7
370
    15
100
AcDbLine
 10
309.6983489681
 20
123.6494934334
 30
0.0
 11
309.6983489681
 21
131.3994934334
 31
0.0
  0
LINE
  5
177
330
1F
100
AcDbEntity
  8
0
  6
Continuous
 62
     7
370
    15
100
AcDbLine
 10
317.0132034267
 20
167.5253737587
 30
0.0
 11
317.1983489681
 21
167.5253737587
 31
0.0
  0
ARC
  5
178
330
1F
100
AcDbEntity
  8
0
  6
Continuous
 62
     7
370
    15
100
AcDbCircle
 10
316.4483489681
 20
167.5253737587
 30
0.0
 40
0.5648544580694761
100
AcDbArc
 50
0.0
 51
80.4059317728
  0
ARC
  5
179
330
1F
100
AcDbEntity
  8
0
  6
Continuous
 62
     7
370
    15
100
AcDbCircle
 10
316.4483489681
 20
167.5253737587
 30
0.0
 40
0.7500000000005319
100
AcDbArc
 50
0.0
 51
80.405931773
  0
ARC
  5
17A
330
1F
100
AcDbEntity
  8
0
  6
Continuous
 62
     7
370
    15
100
AcDbCircle
 10
316.4483489681
 20
140.273613108
 30
0.0
 40
0.5648544580730225
100
AcDbArc
 50
279.5940682268
 51
0.0
  0
LINE
  5
17B
330
1F
100
AcDbEntity
  8
0
  6
Continuous
 62
     7
370
    15
100
AcDbLine
 10
317.1983489681
 20
140.273613108
 30
0.0
 11
317.0132034267
 21
140.273613108
 31
0.0
  0
ARC
  5
17C
330
1F
100
AcDbEntity
  8
0
  6
Continuous
 62
     7
370
    15
100
AcDbCircle
 10
316.4483489681
 20
140.273613108
 30
0.0
 40
0.7500000000000974
100
AcDbArc
 50
279.5940682268
 51
0.0
  0
LINE
  5
17D
330
1F
100
AcDbEntity
  8
0
  6
Continuous
 62
     7
370
    15
100
AcDbLine
 10
317.0132034267
 20
140.273613108
 30
0.0
 11
317.0132034267
 21
167.5253737587
 31
0.0
  0
LINE
  5
17E
330
1F
100
AcDbEntity
  8
0
  6
Continuous
 62
     7
370
    15
100
AcDbLine
 10
317.1983489681
 20
140.273613108
 30
0.0
 11
317.1983489681
 21
167.5253737587
 31
0.0
  0
ARC
  5
17F
330
1F
100
AcDbEntity
  8
0
  6
Continuous
 62
     7
370
    15
100
AcDbCircle
 10
308.9483489681
 20
184.1494934334
 30
0.0
 40
2.250000000000028
100
AcDbArc
 50
0.0
 51
90.0
  0
LINE
  5
180
330
1F
100
AcDbEntity
  8
0
  6
Continuous
 62
     7
370
    15
100
AcDbLine
 10
311.1983489681
 20
176.3994934334
 30
0.0
 11
311.1983489681
 21
184.1494934334
 31
0.0
  0
ARC
  5
181
330
1F
100
AcDbEntity
  8
0
  6
Continuous
 62
     7
370
    15
100
AcDbCircle
 10
317.9483489681
 20
176.3994934334
 30
0.0
 40
6.750000000000254
100
AcDbArc
 50
180.0
 51
260.4059317731
  0
ARC
  5
182
330
1F
100
AcDbEntity
  8
0
  6
Continuous
 62
     7
370
    15
100
AcDbCircle
 10
316.4483489681
 20
167.5253737587
 30
0.0
 40
2.250000000000303
100
AcDbArc
 50
0.0
 51
80.4059317731
  0
LINE
  5
183
330
1F
100
AcDbEntity
  8
0
  6
Continuous
 62
     7
370
    15
100
AcDbLine
 10
318.6983489681
 20
140.273613108
 30
0.0
 11
318.6983489681
 21
167.5253737587
 31
0.0
  0
ARC
  5
184
330
1F
100
AcDbEntity
  8
0
  6
Continuous
 62
     7
370
    15
100
AcDbCircle
 10
316.4483489681
 20
140.273613108
 30
0.0
 40
2.250000000000593
100
AcDbArc
 50
279.5940682269
 51
0.0
  0
ARC
  5
185
330
1F
100
AcDbEntity
  8
0
  6
Continuous
 62
     7
370
    15
100
AcDbCircle
 10
317.9483489681
 20
131.3994934334
 30
0.0
 40
6.750000000000057
100
AcDbArc
 50
99.5940682269
 51
180.0
  0
LINE
  5
186
330
1F
100
AcDbEntity
  8
0
  6
Continuous
 62
     7
370
    15
100
AcDbLine
 10
311.1983489681
 20
123.6494934334
 30
0.0
 11
311.1983489681
 21
131.3994934334
 31
0.0
  0
ARC
  5
187
330
1F
100
AcDbEntity
  8
0
  6
Continuous
 62
     7
370
    15
100
AcDbCircle
 10
308.9483489681
 20
123.6494934334
 30
0.0
 40
2.250000000000057
100
AcDbArc
 50
270.0
 51
0.0
  0
LINE
  5
188
330
1F
100
AcDbEntity
  8
0
  6
Continuous
 62
     7
370
    15
100
AcDbLine
 10
258.4483489681
 20
121.3994934334
 30
0.0
 11
308.9483489681
 21
121.3994934334
 31
0.0
  0
ARC
  5
189
330
1F
100
AcDbEntity
  8
0
  6
Continuous
 62
     7
370
    15
100
AcDbCircle
 10
258.4483489681
 20
123.6494934334
 30
0.0
 40
2.250000000000057
100
AcDbArc
 50
180.0
 51
270.0
  0
LINE
  5
18A
330
1F
100
AcDbEntity
  8
0
  6
Continuous
 62
     7
370
    15
100
AcDbLine
 10
256.1983489681
 20
131.3994934334
 30
0.0
 11
256.1983489681
 21
123.6494934334
 31
0.0
  0
ARC
  5
18B
330
1F
100
AcDbEntity
  8
0
  6
Continuous
 62
     7
370
    15
100
AcDbCircle
 10
249.4483489681
 20
131.3994934334
 30
0.0
 40
6.750000000000254
100
AcDbArc
 50
0.0
 51
80.4059317731
  0
ARC
  5
18C
330
1F
100
AcDbEntity
  8
0
  6
Continuous
 62
     7
370
    15
100
AcDbCircle
 10
250.9483489681
 20
140.273613108
 30
0.0
 40
2.250000000000303
100
AcDbArc
 50
180.0
 51
260.4059317731
  0
LINE
  5
18D
330
1F
100
AcDbEntity
  8
0
  6
Continuous
 62
     7
370
    15
100
AcDbLine
 10
248.6983489681
 20
167.5253737587
 30
0.0
 11
248.6983489681
 21
140.273613108
 31
0.0
  0
ARC
  5
18E
330
1F
100
AcDbEntity
  8
0
  6
Continuous
 62
     7
370
    15
100
AcDbCircle
 10
250.9483489681
 20
167.5253737587
 30
0.0
 40
2.250000000000593
100
AcDbArc
 50
99.5940682269
 51
180.0
  0
ARC
  5
18F
330
1F
100
AcDbEntity
  8
0
  6
Continuous
 62
     7
370
    15
100
AcDbCircle
 10
249.4483489681
 20
176.3994934334
 30
0.0
 40
6.749999999999972
100
AcDbArc
 50
279.5940682269
 51
0.0
  0
LINE
  5
190
330
1F
100
AcDbEntity
  8
0
  6
Continuous
 62
     7
370
    15
100
AcDbLine
 10
256.1983489681
 20
184.1494934334
 30
0.0
 11
256.1983489681
 21
176.3994934334
 31
0.0
  0
ARC
  5
191
330
1F
100
AcDbEntity
  8
0
  6
Continuous
 62
     7
370
    15
100
AcDbCircle
 10
258.4483489681
 20
184.1494934334
 30
0.0
 40
2.250000000000057
100
AcDbArc
 50
90.0
 51
180.0
  0
LINE
  5
192
330
1F
100
AcDbEntity
  8
0
  6
Continuous
 62
     7
370
    15
100
AcDbLine
 10
308.9483489681
 20
186.3994934334
 30
0.0
 11
258.4483489681
 21
186.3994934334
 31
0.0
  0
LINE
  5
193
330
1F
100
AcDbEntity
  8
0
  6
Continuous
 62
     7
370
    15
100
AcDbLine
 10
314.6983489681
 20
176.3994934334
 30
0.0
 11
314.6983489681
 21
184.1494934334
 31
0.0
  0
ARC
  5
194
330
1F
100
AcDbEntity
  8
0
  6
Continuous
 62
     7
370
    15
100
AcDbCircle
 10
308.9483489681
 20
184.1494934334
 30
0.0
 40
5.750000000000028
100
AcDbArc
 50
0.0
 51
90.0
  0
LINE
  5
195
330
1F
100
AcDbEntity
  8
0
  6
Continuous
 62
     7
370
    15
100
AcDbLine
 10
308.9483489681
 20
189.8994934334
 30
0.0
 11
258.4483489681
 21
189.8994934334
 31
0.0
  0
ARC
  5
196
330
1F
100
AcDbEntity
  8
0
  6
Continuous
 62
     7
370
    15
100
AcDbCircle
 10
258.4483489681
 20
184.1494934334
 30
0.0
 40
5.750000000000057
100
AcDbArc
 50
90.0
 51
180.0
  0
LINE
  5
197
330
1F
100
AcDbEntity
  8
0
  6
Continuous
 62
     7
370
    15
100
AcDbLine
 10
252.6983489681
 20
184.1494934334
 30
0.0
 11
252.6983489681
 21
176.3994934334
 31
0.0
  0
ARC
  5
198
330
1F
100
AcDbEntity
  8
0
  6
Continuous
 62
     7
370
    15
100
AcDbCircle
 10
249.4483489681
 20
176.3994934334
 30
0.0
 40
3.250000000000251
100
AcDbArc
 50
279.5940682269
 51
0.0
  0
ARC
  5
199
330
1F
100
AcDbEntity
  8
0
  6
Continuous
 62
     7
370
    15
100
AcDbCircle
 10
250.9483489681
 20
167.5253737587
 30
0.0
 40
5.750000000000306
100
AcDbArc
 50
99.5940682268
 51
180.0
  0
LINE
  5
19A
330
1F
100
AcDbEntity
  8
0
  6
Continuous
 62
     7
370
    15
100
AcDbLine
 10
245.1983489681
 20
167.5253737587
 30
0.0
 11
245.1983489681
 21
140.273613108
 31
0.0
  0
ARC
  5
19B
330
1F
100
AcDbEntity
  8
0
  6
Continuous
 62
     7
370
    15
100
AcDbCircle
 10
250.9483489681
 20
140.273613108
 30
0.0
 40
5.750000000000311
100
AcDbArc
 50
180.0
 51
260.4059317732
  0
ARC
  5
19C
330
1F
100
AcDbEntity
  8
0
  6
Continuous
 62
     7
370
    15
100
AcDbCircle
 10
249.4483489681
 20
131.3994934334
 30
0.0
 40
3.250000000000246
100
AcDbArc
 50
0.0
 51
80.4059317731
  0
LINE
  5
19D
330
1F
100
AcDbEntity
  8
0
  6
Continuous
 62
     7
370
    15
100
AcDbLine
 10
252.6983489681
 20
131.3994934334
 30
0.0
 11
252.6983489681
 21
123.6494934334
 31
0.0
  0
ARC
  5
19E
330
1F
100
AcDbEntity
  8
0
  6
Continuous
 62
     7
370
    15
100
AcDbCircle
 10
258.4483489681
 20
123.6494934334
 30
0.0
 40
5.750000000000057
100
AcDbArc
 50
180.0
 51
270.0
  0
LINE
  5
19F
330
1F
100
AcDbEntity
  8
0
  6
Continuous
 62
     7
370
    15
100
AcDbLine
 10
258.4483489681
 20
117.8994934334
 30
0.0
 11
308.9483489681
 21
117.8994934334
 31
0.0
  0
ARC
  5
1A0
330
1F
100
AcDbEntity
  8
0
  6
Continuous
 62
     7
370
    15
100
AcDbCircle
 10
308.9483489681
 20
123.6494934334
 30
0.0
 40
5.75
100
AcDbArc
 50
270.0
 51
0.0
  0
LINE
  5
1A1
330
1F
100
AcDbEntity
  8
0
  6
Continuous
 62
     7
370
    15
100
AcDbLine
 10
314.6983489681
 20
123.6494934334
 30
0.0
 11
314.6983489681
 21
131.3994934334
 31
0.0
  0
ARC
  5
1A2
330
1F
100
AcDbEntity
  8
0
  6
Continuous
 62
     7
370
    15
100
AcDbCircle
 10
317.9483489681
 20
131.3994934334
 30
0.0
 40
3.250000000000246
100
AcDbArc
 50
99.5940682269
 51
180.0
  0
ARC
  5
1A3
330
1F
100
AcDbEntity
  8
0
  6
Continuous
 62
     7
370
    15
100
AcDbCircle
 10
316.4483489681
 20
140.273613108
 30
0.0
 40
5.750000000000311
100
AcDbArc
 50
279.5940682268
 51
0.0
  0
LINE
  5
1A4
330
1F
100
AcDbEntity
  8
0
  6
Continuous
 62
     7
370
    15
100
AcDbLine
 10
322.1983489681
 20
140.273613108
 30
0.0
 11
322.1983489681
 21
167.5253737587
 31
0.0
  0
ARC
  5
1A5
330
1F
100
AcDbEntity
  8
0
  6
Continuous
 62
     7
370
    15
100
AcDbCircle
 10
316.4483489681
 20
167.5253737587
 30
0.0
 40
5.750000000000311
100
AcDbArc
 50
0.0
 51
80.4059317732
  0
ARC
  5
1A6
330
1F
100
AcDbEntity
  8
0
  6
Continuous
 62
     7
370
    15
100
AcDbCircle
 10
317.9483489681
 20
176.3994934334
 30
0.0
 40
3.250000000000246
100
AcDbArc
 50
180.0
 51
260.4059317731
  0
CIRCLE
  5
1A7
330
1F
100
AcDbEntity
  8
0
  6
Continuous
 62
     7
370
    15
100
AcDbCircle
 10
317.9483489681
 20
122.3994934334
 30
0.0
 40
2.299999999999997
  0
CIRCLE
  5
1A8
330
1F
100
AcDbEntity
  8
0
  6
Continuous
 62
     7
370
    15
100
AcDbCircle
 10
249.4483489681
 20
122.3994934334
 30
0.0
 40
2.299999999999997
  0
CIRCLE
  5
1A9
330
1F
100
AcDbEntity
  8
0
  6
Continuous
 62
     7
370
    15
100
AcDbCircle
 10
249.4483489681
 20
185.3994934334
 30
0.0
 40
2.299999999999983
  0
CIRCLE
  5
1AA
330
1F
100
AcDbEntity
  8
0
  6
Continuous
 62
     7
370
    15
100
AcDbCircle
 10
317.9483489681
 20
185.3994934334
 30
0.0
 40
2.299999999999983
  0
LINE
  5
1AB
330
1F
100
AcDbEntity
  8
0
  6
Continuous
 62
     7
370
    15
100
AcDbLine
 10
323.6983489681
 20
185.4004072625
 30
0.0
 11
323.6983489681
 21
122.3985796043
 31
0.0
  0
ELLIPSE
  5
1AC
330
1F
100
AcDbEntity
  8
0
  6
Continuous
 62
     7
370
    15
100
AcDbEllipse
 10
317.6974349998
 20
185.3985794651
 30
0.0
 11
4.243933135017471
 21
4.243933135017528
 31
0.0
210
0.0
220
0.0
230
1.0
 40
0.9996954599
 41
5.49793943702919
 42
7.068431177329987
  0
ELLIPSE
  5
1AD
330
1F
100
AcDbEntity
  8
0
  6
Continuous
 62
     7
370
    15
100
AcDbEllipse
 10
317.6974349998
 20
122.4004074017
 30
0.0
 11
4.243933135017471
 21
-4.2439331350175
 31
0.0
210
0.0
220
0.0
230
1.0
 40
0.9996954599
 41
5.497939437029203
 42
7.068431177329991
  0
LINE
  5
1AE
330
1F
100
AcDbEntity
  8
0
  6
Continuous
 62
     7
370
    15
100
AcDbLine
 10
317.6992627972
 20
116.3994934334
 30
0.0
 11
249.697435139
 21
116.3994934334
 31
0.0
  0
LINE
  5
1AF
330
1F
100
AcDbEntity
  8
0
  6
Continuous
 62
     7
370
    15
100
AcDbLine
 10
249.697435139
 20
191.3994934334
 30
0.0
 11
317.6992627972
 21
191.3994934334
 31
0.0
  0
ELLIPSE
  5
1B0
330
1F
100
AcDbEntity
  8
0
  6
Continuous
 62
     7
370
    15
100
AcDbEllipse
 10
249.6992629364
 20
122.4004074017
 30
0.0
 11
-4.243933135017471
 21
-4.2439331350175
 31
0.0
210
0.0
220
0.0
230
1.0
 40
0.9996954599
 41
5.497939437029191
 42
7.068431177329987
  0
LINE
  5
1B1
330
1F
100
AcDbEntity
  8
0
  6
Continuous
 62
     7
370
    15
100
AcDbLine
 10
243.6983489681
 20
122.3985796043
 30
0.0
 11
243.6983489681
 21
185.4004072625
 31
0.0
  0
ELLIPSE
  5
1B2
330
1F
100
AcDbEntity
  8
0
  6
Continuous
 62
     7
370
    15
100
AcDbEllipse
 10
249.6992629364
 20
185.3985794651
 30
0.0
 11
-4.243933135017471
 21
4.243933135017528
 31
0.0
210
0.0
220
0.0
230
1.0
 40
0.9996954599
 41
5.497939437029202
 42
7.068431177329993
  0
LINE
  5
1B3
330
1F
100
AcDbEntity
  8
0
  6
Continuous
 62
     7
370
    15
100
AcDbLine
 10
258.4483489681
 20
184.3144088139
 30
0.0
 11
258.4483489681
 21
184.7143478915
 31
0.0
  0
SPLINE
  5
1B4
330
1F
100
AcDbEntity
  8
0
  6
Continuous
 62
     7
370
    15
100
AcDbSpline
210
0.0
220
0.0
230
1.0
 70
     8
 71
     3
 72
    12
 73
     8
 74
     0
 42
0.000000001
 43
0.00000001
 40
0.0
 40
0.0
 40
0.0
 40
0.0
 40
0.1682239187789404
 40
0.3311334376109271
 40
0.5007629640963117
 40
0.74958654065728
 40
1.0
 40
1.0
 40
1.0
 40
1.0
 10
258.4483489681051
 20
184.3144085419758
 30
0.0
 10
258.4338152670761
 20
184.313442472037
 30
0.0
 10
258.4052070024615
 20
184.3115408514939
 30
0.0
 10
258.3648019261473
 20
184.2941995543367
 30
0.0
 10
258.3253283238925
 20
184.2632022802904
 30
0.0
 10
258.2899402536025
 20
184.2147118460809
 30
0.0
 10
258.2856070760928
 20
184.171279010057
 30
0.0
 10
258.2834335875651
 20
184.1494934333958
 30
0.0
  0
LINE
  5
1B5
330
1F
100
AcDbEntity
  8
0
  6
Continuous
 62
     7
370
    15
100
AcDbLine
 10
257.8834945095
 20
184.1494934334
 30
0.0
 11
258.2834335876
 21
184.1494934334
 31
0.0
  0
LINE
  5
1B6
330
1F
100
AcDbEntity
  8
0
  6
Continuous
 62
     7
370
    15
100
AcDbLine
 10
308.9483489681
 20
123.4845780529
 30
0.0
 11
308.9483489681
 21
123.0846389753
 31
0.0
  0
SPLINE
  5
1B7
330
1F
100
AcDbEntity
  8
0
  6
Continuous
 62
     7
370
    15
100
AcDbSpline
210
0.0
220
0.0
230
1.0
 70
     8
 71
     3
 72
    12
 73
     8
 74
     0
 42
0.000000001
 43
0.00000001
 40
0.0
 40
0.0
 40
0.0
 40
0.0
 40
0.1682239187789404
 40
0.3311334376109271
 40
0.5007629640963117
 40
0.74958654065728
 40
1.0
 40
1.0
 40
1.0
 40
1.0
 10
308.9483489681051
 20
123.4845783248158
 30
0.0
 10
308.9628826691341
 20
123.4855443947546
 30
0.0
 10
308.9914909337487
 20
123.4874460152978
 30
0.0
 10
309.0318960100629
 20
123.504787312455
 30
0.0
 10
309.0713696123177
 20
123.5357845865013
 30
0.0
 10
309.1067576826076
 20
123.5842750207107
 30
0.0
 10
309.1110908601173
 20
123.6277078567346
 30
0.0
 10
309.113264348645
 20
123.6494934333958
 30
0.0
  0
LINE
  5
1B8
330
1F
100
AcDbEntity
  8
0
  6
Continuous
 62
     7
370
    15
100
AcDbLine
 10
309.5132034267
 20
123.6494934334
 30
0.0
 11
309.1132643486
 21
123.6494934334
 31
0.0
  0
LINE
  5
1B9
330
1F
100
AcDbEntity
  8
0
  6
Continuous
 62
     7
370
    15
100
AcDbLine
 10
316.6132643486
 20
167.5253737587
 30
0.0
 11
317.0132034262
 21
167.5253737587
 31
0.0
  0
SPLINE
  5
1BA
330
1F
100
AcDbEntity
  8
0
  6
Continuous
 62
     7
370
    15
100
AcDbSpline
210
0.0
220
0.0
230
1.0
 70
     8
 71
     3
 72
    12
 73
     8
 74
     0
 42
0.000000001
 43
0.00000001
 40
0.0
 40
0.0
 40
0.0
 40
0.0
 40
0.1677617694051123
 40
0.3314715218294246
 40
0.5006113253426346
 40
0.7495290811361354
 40
0.9999999999999999
 40
0.9999999999999999
 40
0.9999999999999999
 40
0.9999999999999999
 10
316.6132640463751
 20
167.5253737587458
 30
0.0
 10
316.6124718009366
 20
167.5383151259655
 30
0.0
 10
316.6109064454799
 20
167.5638852823967
 30
0.0
 10
316.5970329483198
 20
167.6004643795447
 30
0.0
 10
316.5719906143642
 20
167.6376887436255
 30
0.0
 10
316.5322746634186
 20
167.6730584625316
 30
0.0
 10
316.4946870952417
 20
167.6829975092761
 30
0.0
 10
316.4758348600651
 20
167.6879824885058
 30
0.0
  0
LINE
  5
1BB
330
1F
100
AcDbEntity
  8
0
  6
Continuous
 62
     7
370
    15
100
AcDbLine
 10
316.5424913779
 20
168.0823277659
 30
0.0
 11
316.4758348625
 21
167.6879825027
 31
0.0
  0
LINE
  5
1BC
330
1F
100
AcDbEntity
  8
0
  6
Continuous
 62
     7
370
    15
100
AcDbLine
 10
250.7834335876
 20
140.273613108
 30
0.0
 11
250.38349451
 21
140.273613108
 31
0.0
  0
SPLINE
  5
1BD
330
1F
100
AcDbEntity
  8
0
  6
Continuous
 62
     7
370
    15
100
AcDbSpline
210
0.0
220
0.0
230
1.0
 70
     8
 71
     3
 72
    12
 73
     8
 74
     0
 42
0.000000001
 43
0.00000001
 40
0.0
 40
0.0
 40
0.0
 40
0.0
 40
0.167761769404809
 40
0.3314715218291171
 40
0.5006113253425678
 40
0.7495290811357633
 40
1.0
 40
1.0
 40
1.0
 40
1.0
 10
250.7834338898351
 20
140.2736131080458
 30
0.0
 10
250.7842261352736
 20
140.2606717408262
 30
0.0
 10
250.7857914907302
 20
140.235101584395
 30
0.0
 10
250.7996649878904
 20
140.198522487247
 30
0.0
 10
250.824707321846
 20
140.1612981231661
 30
0.0
 10
250.8644232727915
 20
140.12592840426
 30
0.0
 10
250.9020108409685
 20
140.1159893575155
 30
0.0
 10
250.9208630761451
 20
140.1110043782858
 30
0.0
  0
LINE
  5
1BE
330
1F
100
AcDbEntity
  8
0
  6
Continuous
 62
     7
370
    15
100
AcDbLine
 10
250.8542065583
 20
139.7166591009
 30
0.0
 11
250.9208630737
 21
140.1110043641
 31
0.0
  0
LINE
  5
1BF
330
1F
100
AcDbEntity
  8
0
  6
Continuous
 62
     7
370
    15
100
AcDbLine
 10
258.2834336163
 20
123.6494934334
 30
0.0
 11
257.88349451
 21
123.6494934334
 31
0.0
  0
SPLINE
  5
1C0
330
1F
100
AcDbEntity
  8
0
  6
Continuous
 62
     7
370
    15
100
AcDbSpline
210
0.0
220
0.0
230
1.0
 70
     8
 71
     3
 72
    12
 73
     8
 74
     0
 42
0.000000001
 43
0.00000001
 40
0.0
 40
0.0
 40
0.0
 40
0.0
 40
0.1682239187794475
 40
0.331133437611428
 40
0.5007629640963973
 40
0.7495865406578597
 40
1.0
 40
1.0
 40
1.0
 40
1.0
 10
258.2834338595251
 20
123.6494934333958
 30
0.0
 10
258.2843999294639
 20
123.6349597323668
 30
0.0
 10
258.286301550007
 20
123.6063514677521
 30
0.0
 10
258.3036428471642
 20
123.5659463914379
 30
0.0
 10
258.3346401212106
 20
123.5264727891832
 30
0.0
 10
258.3831305554201
 20
123.4910847188933
 30
0.0
 10
258.4265633914439
 20
123.4867515413836
 30
0.0
 10
258.4483489681051
 20
123.4845780528558
 30
0.0
  0
LINE
  5
1C1
330
1F
100
AcDbEntity
  8
0
  6
Continuous
 62
     7
370
    15
100
AcDbLine
 10
258.4483489681
 20
123.0846389753
 30
0.0
 11
258.4483489681
 21
123.4845780529
 31
0.0
  0
LINE
  5
1C2
330
1F
100
AcDbEntity
  8
0
  6
Continuous
 62
     7
370
    15
100
AcDbLine
 10
309.1132643487
 20
184.1494934334
 30
0.0
 11
309.5132034262
 21
184.1494934334
 31
0.0
  0
SPLINE
  5
1C3
330
1F
100
AcDbEntity
  8
0
  6
Continuous
 62
     7
370
    15
100
AcDbSpline
210
0.0
220
0.0
230
1.0
 70
     8
 71
     3
 72
    12
 73
     8
 74
     0
 42
0.000000001
 43
0.00000001
 40
0.0
 40
0.0
 40
0.0
 40
0.0
 40
0.1682239187794475
 40
0.331133437611428
 40
0.5007629640963973
 40
0.7495865406578597
 40
1.0
 40
1.0
 40
1.0
 40
1.0
 10
309.1132640766851
 20
184.1494934333958
 30
0.0
 10
309.1122980067463
 20
184.1640271344248
 30
0.0
 10
309.1103963862031
 20
184.1926353990395
 30
0.0
 10
309.093055089046
 20
184.2330404753537
 30
0.0
 10
309.0620578149995
 20
184.2725140776084
 30
0.0
 10
309.0135673807901
 20
184.3079021478983
 30
0.0
 10
308.9701345447663
 20
184.3122353254081
 30
0.0
 10
308.9483489681051
 20
184.3144088139358
 30
0.0
  0
LINE
  5
1C4
330
1F
100
AcDbEntity
  8
0
  6
Continuous
 62
     7
370
    15
100
AcDbLine
 10
308.9483489681
 20
184.7143478915
 30
0.0
 11
308.9483489681
 21
184.3144088139
 31
0.0
  0
SPLINE
  5
1C5
330
1F
100
AcDbEntity
  8
0
  6
Continuous
 62
     7
370
    15
100
AcDbSpline
210
0.0
220
0.0
230
1.0
 70
     8
 71
     3
 72
    25
 73
    21
 74
     0
 42
0.000000001
 43
0.00000001
 40
0.0
 40
0.0
 40
0.0
 40
0.0
 40
0.0236750030748448
 40
0.0473142652744247
 40
0.0709438635423425
 40
0.0945899067944785
 40
0.1182784495710332
 40
0.1801947850123702
 40
0.2421526465954929
 40
0.3060968729235737
 40
0.3700823034554232
 40
0.5000047358772698
 40
0.6299271682991168
 40
0.6938713966646585
 40
0.7578568292628919
 40
0.8197731603959489
 40
0.8817310199308723
 40
0.9211647755304481
 40
0.9605474393103113
 40
1.0
 40
1.0
 40
1.0
 40
1.0
 10
316.4758348600651
 20
167.6879824885058
 30
0.0
 10
316.3795601971404
 20
167.7052010634803
 30
0.0
 10
316.1871562119575
 20
167.7396122194753
 30
0.0
 10
315.9010313596449
 20
167.8032985316471
 30
0.0
 10
315.6171657770046
 20
167.8757514577088
 30
0.0
 10
315.3357013660381
 20
167.9578437053317
 30
0.0
 10
314.906821087788
 20
168.0984246356558
 30
0.0
 10
314.3391947826159
 20
168.3228833347572
 30
0.0
 10
313.6445495809427
 20
168.6704428923547
 30
0.0
 10
312.975645913041
 20
169.0821907559419
 30
0.0
 10
312.121592150442
 20
169.7205940383414
 30
0.0
 10
311.1627706792833
 20
170.6646326143342
 30
0.0
 10
310.3918361275868
 20
171.7672436477278
 30
0.0
 10
309.9046805904519
 20
172.7157368024988
 30
0.0
 10
309.6102069267882
 20
173.4437407088228
 30
0.0
 10
309.383257138965
 20
174.186762853325
 30
0.0
 10
309.2428582746727
 20
174.8475317548745
 30
0.0
 10
309.1630278020301
 20
175.4237175568448
 30
0.0
 10
309.1210204531561
 20
175.9108252698756
 30
0.0
 10
309.1158512445305
 20
176.2365077933109
 30
0.0
 10
309.1132643486551
 20
176.3994934333958
 30
0.0
  0
LINE
  5
1C6
330
1F
100
AcDbEntity
  8
0
  6
Continuous
 62
     7
370
    15
100
AcDbLine
 10
309.5132034262
 20
176.3994934337
 30
0.0
 11
309.1132643487
 21
176.3994934337
 31
0.0
  0
SPLINE
  5
1C7
330
1F
100
AcDbEntity
  8
0
  6
Continuous
 62
     7
370
    15
100
AcDbSpline
210
0.0
220
0.0
230
1.0
 70
     8
 71
     3
 72
    25
 73
    21
 74
     0
 42
0.000000001
 43
0.00000001
 40
0.0
 40
0.0
 40
0.0
 40
0.0
 40
0.023675003051557
 40
0.0473142652308213
 40
0.0709438634813172
 40
0.0945899067188408
 40
0.118278449483497
 40
0.180194784906787
 40
0.2421526464877599
 40
0.3060968728282549
 40
0.3700823033845713
 40
0.5000047358772548
 40
0.6299271683699387
 40
0.6938713967610564
 40
0.7578568293706007
 40
0.819773160503573
 40
0.8817310200183857
 40
0.9211647755977669
 40
0.9605474393485938
 40
1.0
 40
1.0
 40
1.0
 40
1.0
 10
250.9208630761451
 20
140.1110043782858
 30
0.0
 10
251.0171377390762
 20
140.0937858033107
 30
0.0
 10
251.2095417242843
 20
140.0593746473123
 30
0.0
 10
251.4956665766539
 20
139.9956883351401
 30
0.0
 10
251.7795321593887
 20
139.9232354090779
 30
0.0
 10
252.0609965704867
 20
139.8411431614547
 30
0.0
 10
252.4898768490377
 20
139.7005622311168
 30
0.0
 10
253.0575031547436
 20
139.476103531992
 30
0.0
 10
253.7521483572876
 20
139.1285439743933
 30
0.0
 10
254.4210520263207
 20
138.7167961108088
 30
0.0
 10
255.2751057908461
 20
138.0783928283839
 30
0.0
 10
256.233927264931
 20
137.1343542524512
 30
0.0
 10
257.0048618203324
 20
136.03174321915
 30
0.0
 10
257.4920173608282
 20
135.0832500643534
 30
0.0
 10
257.7864910271076
 20
134.3552461580406
 30
0.0
 10
258.0134408176486
 20
133.6122240135584
 30
0.0
 10
258.1538396844105
 20
132.9514551119826
 30
0.0
 10
258.2336701592253
 20
132.375269309986
 30
0.0
 10
258.2756775099535
 20
131.8881615969633
 30
0.0
 10
258.2808467198327
 20
131.5624790734838
 30
0.0
 10
258.2834336163351
 20
131.3994934333958
 30
0.0
  0
LINE
  5
1C8
330
1F
100
AcDbEntity
  8
0
  6
Continuous
 62
     7
370
    15
100
AcDbLine
 10
257.88349451
 20
131.3994934334
 30
0.0
 11
258.2834336163
 21
131.3994934334
 31
0.0
  0
LINE
  5
1C9
330
1F
100
AcDbEntity
  8
0
  6
Continuous
 62
     7
370
    15
100
AcDbLine
 10
250.9208630744
 20
167.687982499
 30
0.0
 11
250.8542065584
 21
168.0823277654
 31
0.0
  0
SPLINE
  5
1CA
330
1F
100
AcDbEntity
  8
0
  6
Continuous
 62
     7
370
    15
100
AcDbSpline
210
0.0
220
0.0
230
1.0
 70
     8
 71
     3
 72
    12
 73
     8
 74
     0
 42
0.000000001
 43
0.00000001
 40
0.0
 40
0.0
 40
0.0
 40
0.0
 40
0.1677617639931986
 40
0.3314715172793776
 40
0.500611325176646
 40
0.7495290866822497
 40
1.0
 40
1.0
 40
1.0
 40
1.0
 10
250.9208631214251
 20
167.6879822205858
 30
0.0
 10
250.9082348017773
 20
167.6850441614216
 30
0.0
 10
250.8832831788646
 20
167.6792390071012
 30
0.0
 10
250.8495279495831
 20
167.6594630380451
 30
0.0
 10
250.8169979490706
 20
167.6285669029943
 30
0.0
 10
250.7887422533339
 20
167.5835114950954
 30
0.0
 10
250.7852068080248
 20
167.5447931435907
 30
0.0
 10
250.783433587565
 20
167.5253737587458
 30
0.0
  0
LINE
  5
1CB
330
1F
100
AcDbEntity
  8
0
  6
Continuous
 62
     7
370
    15
100
AcDbLine
 10
250.38349451
 20
167.5253737587
 30
0.0
 11
250.7834335876
 21
167.5253737587
 31
0.0
  0
LINE
  5
1CC
330
1F
100
AcDbEntity
  8
0
  6
Continuous
 62
     7
370
    15
100
AcDbLine
 10
316.4758348618
 20
140.1110043678
 30
0.0
 11
316.5424913778
 21
139.7166591014
 31
0.0
  0
SPLINE
  5
1CD
330
1F
100
AcDbEntity
  8
0
  6
Continuous
 62
     7
370
    15
100
AcDbSpline
210
0.0
220
0.0
230
1.0
 70
     8
 71
     3
 72
    12
 73
     8
 74
     0
 42
0.000000001
 43
0.00000001
 40
0.0
 40
0.0
 40
0.0
 40
0.0
 40
0.1677617639931986
 40
0.3314715172793776
 40
0.500611325176646
 40
0.7495290866822497
 40
1.0
 40
1.0
 40
1.0
 40
1.0
 10
316.4758348147851
 20
140.1110046462058
 30
0.0
 10
316.4884631344328
 20
140.1139427053701
 30
0.0
 10
316.5134147573456
 20
140.1197478596904
 30
0.0
 10
316.547169986627
 20
140.1395238287465
 30
0.0
 10
316.5796999871396
 20
140.1704199637973
 30
0.0
 10
316.6079556828763
 20
140.2154753716962
 30
0.0
 10
316.6114911281854
 20
140.254193723201
 30
0.0
 10
316.6132643486451
 20
140.2736131080458
 30
0.0
  0
LINE
  5
1CE
330
1F
100
AcDbEntity
  8
0
  6
Continuous
 62
     7
370
    15
100
AcDbLine
 10
317.0132034262
 20
140.273613108
 30
0.0
 11
316.6132643486
 21
140.273613108
 31
0.0
  0
LINE
  5
1CF
330
1F
100
AcDbEntity
  8
0
  6
Continuous
 62
     7
370
    15
100
AcDbLine
 10
257.88349451
 20
176.3994934334
 30
0.0
 11
258.2834336057
 21
176.3994934334
 31
0.0
  0
SPLINE
  5
1D0
330
1F
100
AcDbEntity
  8
0
  6
Continuous
 62
     7
370
    15
100
AcDbSpline
210
0.0
220
0.0
230
1.0
 70
     8
 71
     3
 72
    25
 73
    21
 74
     0
 42
0.000000001
 43
0.00000001
 40
0.0
 40
0.0
 40
0.0
 40
0.0
 40
0.0236750028368179
 40
0.0473142648291085
 40
0.0709438629196983
 40
0.0945899060235927
 40
0.1182784486800212
 40
0.1801947839361671
 40
0.2421526454988852
 40
0.3060968719567035
 40
0.3700823027341982
 40
0.5000047358770202
 40
0.6299271690198566
 40
0.6938713976349938
 40
0.7578568303590879
 40
0.8197731614762337
 40
0.8817310208215032
 40
0.9211647762058984
 40
0.9605474396902375
 40
1.0
 40
1.0
 40
1.0
 40
1.0
 10
258.2834336239051
 20
176.3994934333958
 30
0.0
 10
258.2825016571799
 20
176.3016955729278
 30
0.0
 10
258.2806391306682
 20
176.1062474920217
 30
0.0
 10
258.2655310554832
 20
175.8135101968069
 30
0.0
 10
258.2414024375408
 20
175.521539468836
 30
0.0
 10
258.207369125141
 20
175.2303297740914
 30
0.0
 10
258.1402345052028
 20
174.7840179583577
 30
0.0
 10
258.0135196279788
 20
174.1869210845289
 30
0.0
 10
257.7865954841662
 20
173.4440650765327
 30
0.0
 10
257.4920905619305
 20
172.7158925095328
 30
0.0
 10
257.0049587328692
 20
171.7673835758513
 30
0.0
 10
256.2339277273302
 20
170.6646330627978
 30
0.0
 10
255.275227685153
 20
169.7207128002
 30
0.0
 10
254.4211934165006
 20
169.0822887360013
 30
0.0
 10
253.7524508324403
 20
168.6705997770121
 30
0.0
 10
253.0576460866731
 20
168.3229872167821
 30
0.0
 10
252.4295189775217
 20
168.0744238943898
 30
0.0
 10
251.8746971968361
 20
167.8996789978228
 30
0.0
 10
251.4014037422583
 20
167.7770745557225
 30
0.0
 10
251.0811379796308
 20
167.7176972139957
 30
0.0
 10
250.9208631214251
 20
167.6879822205858
 30
0.0
  0
LINE
  5
1D1
330
1F
100
AcDbEntity
  8
0
  6
Continuous
 62
     7
370
    15
100
AcDbLine
 10
309.5132034262
 20
131.3994934334
 30
0.0
 11
309.1132643305
 21
131.3994934334
 31
0.0
  0
SPLINE
  5
1D2
330
1F
100
AcDbEntity
  8
0
  6
Continuous
 62
     7
370
    15
100
AcDbSpline
210
0.0
220
0.0
230
1.0
 70
     8
 71
     3
 72
    25
 73
    21
 74
     0
 42
0.000000001
 43
0.00000001
 40
0.0
 40
0.0
 40
0.0
 40
0.0
 40
0.0236750028368179
 40
0.0473142648291085
 40
0.0709438629196983
 40
0.0945899060235927
 40
0.1182784486800212
 40
0.1801947839361671
 40
0.2421526454988852
 40
0.3060968719567035
 40
0.3700823027341982
 40
0.5000047358770202
 40
0.6299271690198566
 40
0.6938713976349938
 40
0.7578568303590879
 40
0.8197731614762337
 40
0.8817310208215032
 40
0.9211647762058984
 40
0.9605474396902375
 40
1.0
 40
1.0
 40
1.0
 40
1.0
 10
309.1132643123051
 20
131.3994934333958
 30
0.0
 10
309.1141962790302
 20
131.4972912938638
 30
0.0
 10
309.1160588055419
 20
131.6927393747699
 30
0.0
 10
309.1311668807269
 20
131.9854766699847
 30
0.0
 10
309.1552954986694
 20
132.2774473979557
 30
0.0
 10
309.1893288110691
 20
132.5686570927003
 30
0.0
 10
309.2564634310073
 20
133.014968908434
 30
0.0
 10
309.3831783082314
 20
133.6120657822628
 30
0.0
 10
309.610102452044
 20
134.3549217902589
 30
0.0
 10
309.9046073742797
 20
135.0830943572588
 30
0.0
 10
310.391739203341
 20
136.0316032909404
 30
0.0
 10
311.1627702088799
 20
137.1343538039939
 30
0.0
 10
312.1214702510571
 20
138.0782740665916
 30
0.0
 10
312.9755045197095
 20
138.7166981307903
 30
0.0
 10
313.6442471037699
 20
139.1283870897795
 30
0.0
 10
314.339051849537
 20
139.4759996500095
 30
0.0
 10
314.9671789586885
 20
139.7245629724019
 30
0.0
 10
315.5220007393741
 20
139.8993078689688
 30
0.0
 10
315.9952941939518
 20
140.0219123110691
 30
0.0
 10
316.3155599565794
 20
140.0812896527959
 30
0.0
 10
316.4758348147851
 20
140.1110046462058
 30
0.0
  0
LINE
  5
1D3
330
1F
100
AcDbEntity
  8
0
  6
Continuous
 62
     7
370
    15
100
AcDbLine
 10
309.1132643487
 20
176.3994934337
 30
0.0
 11
309.1132643487
 21
184.1494934334
 31
0.0
  0
LINE
  5
1D4
330
1F
100
AcDbEntity
  8
0
  6
Continuous
 62
     7
370
    15
100
AcDbLine
 10
258.2834335876
 20
184.1494934334
 30
0.0
 11
258.2834335876
 21
176.3994934334
 31
0.0
  0
LINE
  5
1D5
330
1F
100
AcDbEntity
  8
0
  6
Continuous
 62
     7
370
    15
100
AcDbLine
 10
309.1132643486
 20
123.6494934334
 30
0.0
 11
309.1132643486
 21
131.3994934334
 31
0.0
  0
LINE
  5
1D6
330
1F
100
AcDbEntity
  8
0
  6
Continuous
 62
     7
370
    15
100
AcDbLine
 10
258.2834336163
 20
131.3994934334
 30
0.0
 11
258.2834336163
 21
123.6494934334
 31
0.0
  0
LINE
  5
1D7
330
1F
100
AcDbEntity
  8
0
  6
Continuous
 62
     7
370
    15
100
AcDbLine
 10
250.7834335876
 20
167.5253737587
 30
0.0
 11
250.7834335876
 21
140.273613108
 31
0.0
  0
LINE
  5
1D8
330
1F
100
AcDbEntity
  8
0
  6
Continuous
 62
     7
370
    15
100
AcDbLine
 10
316.6132643486
 20
140.273613108
 30
0.0
 11
316.6132643486
 21
167.5253737587
 31
0.0
  0
LINE
  5
1D9
330
1F
100
AcDbEntity
  8
0
  6
Continuous
 62
     7
370
    15
100
AcDbLine
 10
258.4483489681
 20
123.4845780529
 30
0.0
 11
308.9483489681
 21
123.4845780529
 31
0.0
  0
LINE
  5
1DA
330
1F
100
AcDbEntity
  8
0
  6
Continuous
 62
     7
370
    15
100
AcDbLine
 10
308.9483489681
 20
184.3144088139
 30
0.0
 11
258.4483489681
 21
184.3144088139
 31
0.0
  0
ENDSEC
  0
SECTION
  2
OBJECTS
  0
DICTIONARY
  5
C
330
0
100
AcDbDictionary
281
     1
  3
ACAD_GROUP
350
D
  3
ACAD_LAYOUT
350
1A
  3
ACAD_MLINESTYLE
350
17
  3
ACAD_PLOTSETTINGS
350
19
  3
ACAD_PLOTSTYLENAME
350
E
  3
ACAD_SCALELIST
350
47
  0
DICTIONARY
  5
D
102
{ACAD_REACTORS
330
C
102
}
330
C
100
AcDbDictionary
281
     1
  0
DICTIONARY
  5
1A
102
{ACAD_REACTORS
330
C
102
}
330
C
100
AcDbDictionary
281
     1
  3
Layout1
350
1E
  3
Layout2
350
26
  3
Model
350
22
  0
DICTIONARY
  5
17
102
{ACAD_REACTORS
330
C
102
}
330
C
100
AcDbDictionary
281
     1
  3
Standard
350
18
  0
DICTIONARY
  5
19
102
{ACAD_REACTORS
330
C
102
}
330
C
100
AcDbDictionary
281
     1
  0
ACDBDICTIONARYWDFLT
  5
E
102
{ACAD_REACTORS
330
C
102
}
330
C
100
AcDbDictionary
281
     1
  3
Normal
350
F
100
AcDbDictionaryWithDefault
340
F
  0
DICTIONARY
  5
47
102
{ACAD_REACTORS
330
C
102
}
330
C
100
AcDbDictionary
281
     1
  3
A0
350
48
  3
A1
350
49
  3
A2
350
4A
  3
A3
350
4B
  3
A4
350
4C
  3
A5
350
4D
  3
A6
350
4E
  3
A7
350
4F
  3
A8
350
50
  3
A9
350
51
  3
B0
350
52
  3
B1
350
53
  3
B2
350
54
  3
B3
350
55
  3
B4
350
56
  3
B5
350
57
  3
B6
350
58
  3
B7
350
59
  3
B8
350
5A
  3
B9
350
5B
  3
C0
350
5C
  3
C1
350
5D
  3
C2
350
5E
  3
C3
350
5F
  3
C4
350
60
  3
C5
350
61
  3
C6
350
62
  3
C7
350
63
  3
C8
350
64
  3
C9
350
65
  3
D0
350
66
  3
D1
350
67
  3
D2
350
68
  0
LAYOUT
  5
1E
102
{ACAD_REACTORS
330
1A
102
}
330
1A
100
AcDbPlotSettings
  1

  2
none_device
  4

  6

 40
0.0
 41
0.0
 42
0.0
 43
0.0
 44
0.0
 45
0.0
 46
0.0
 47
0.0
 48
0.0
 49
0.0
140
0.0
141
0.0
142
1.0
143
1.0
 70
   688
 72
     1
 73
     0
 74
     5
  7

 75
    16
147
1.0
148
0.0
149
0.0
100
AcDbLayout
  1
Layout1
 70
     1
 71
     1
 10
0.0
 20
0.0
 11
420.0
 21
297.0
 12
0.0
 22
0.0
 32
0.0
 14
1.0000000000E+20
 24
1.0000000000E+20
 34
1.0000000000E+20
 15
-1.0000000000E+20
 25
-1.0000000000E+20
 35
-1.0000000000E+20
146
0.0
 13
0.0
 23
0.0
 33
0.0
 16
1.0
 26
0.0
 36
0.0
 17
0.0
 27
1.0
 37
0.0
 76
     0
330
1B
  0
LAYOUT
  5
26
102
{ACAD_REACTORS
330
1A
102
}
330
1A
100
AcDbPlotSettings
  1

  2
none_device
  4

  6

 40
0.0
 41
0.0
 42
0.0
 43
0.0
 44
0.0
 45
0.0
 46
0.0
 47
0.0
 48
0.0
 49
0.0
140
0.0
141
0.0
142
1.0
143
1.0
 70
   688
 72
     1
 73
     0
 74
     5
  7

 75
    16
147
1.0
148
0.0
149
0.0
100
AcDbLayout
  1
Layout2
 70
     1
 71
     2
 10
0.0
 20
0.0
 11
0.0
 21
0.0
 12
0.0
 22
0.0
 32
0.0
 14
0.0
 24
0.0
 34
0.0
 15
0.0
 25
0.0
 35
0.0
146
0.0
 13
0.0
 23
0.0
 33
0.0
 16
1.0
 26
0.0
 36
0.0
 17
0.0
 27
1.0
 37
0.0
 76
     0
330
23
  0
LAYOUT
  5
22
102
{ACAD_REACTORS
330
1A
102
}
330
1A
100
AcDbPlotSettings
  1

  2
none_device
  4
Letter_(8.50_x_11.00_Inches)
  6

 40
6.35
 41
6.35
 42
6.35000508
 43
6.35000508
 44
215.9
 45
279.4
 46
0.0
 47
0.0
 48
0.0
 49
0.0
140
0.0
141
0.0
142
1.0
143
1.0
 70
  1712
 72
     1
 73
     0
 74
     0
  7

 75
     0
147
1.0
148
0.0
149
0.0
100
AcDbLayout
  1
Model
 70
     1
 71
     0
 10
0.0
 20
0.0
 11
420.0
 21
297.0
 12
0.0
 22
0.0
 32
0.0
 14
0.0
 24
0.0
 34
0.0
 15
420.0
 25
297.0
 35
0.0
146
0.0
 13
0.0
 23
0.0
 33
0.0
 16
1.0
 26
0.0
 36
0.0
 17
0.0
 27
1.0
 37
0.0
 76
     0
330
1F
331
29
  0
MLINESTYLE
  5
18
102
{ACAD_REACTORS
330
17
102
}
330
17
100
AcDbMlineStyle
  2
Standard
 70
     0
  3

 62
   256
 51
90.0
 52
90.0
 71
     2
 49
0.5
 62
   256
  6
BYLAYER
 49
-0.5
 62
   256
  6
BYLAYER
  0
ACDBPLACEHOLDER
  5
F
102
{ACAD_REACTORS
330
E
102
}
330
E
  0
SCALE
  5
48
102
{ACAD_REACTORS
330
47
102
}
330
47
100
AcDbScale
 70
     0
300
1:1
140
1.0
141
1.0
290
     1
  0
SCALE
  5
49
102
{ACAD_REACTORS
330
47
102
}
330
47
100
AcDbScale
 70
     0
300
1:2
140
1.0
141
2.0
290
     0
  0
SCALE
  5
4A
102
{ACAD_REACTORS
330
47
102
}
330
47
100
AcDbScale
 70
     0
300
1:4
140
1.0
141
4.0
290
     0
  0
SCALE
  5
4B
102
{ACAD_REACTORS
330
47
102
}
330
47
100
AcDbScale
 70
     0
300
1:5
140
1.0
141
5.0
290
     0
  0
SCALE
  5
4C
102
{ACAD_REACTORS
330
47
102
}
330
47
100
AcDbScale
 70
     0
300
1:8
140
1.0
141
8.0
290
     0
  0
SCALE
  5
4D
102
{ACAD_REACTORS
330
47
102
}
330
47
100
AcDbScale
 70
     0
300
1:10
140
1.0
141
10.0
290
     0
  0
SCALE
  5
4E
102
{ACAD_REACTORS
330
47
102
}
330
47
100
AcDbScale
 70
     0
300
1:16
140
1.0
141
16.0
290
     0
  0
SCALE
  5
4F
102
{ACAD_REACTORS
330
47
102
}
330
47
100
AcDbScale
 70
     0
300
1:20
140
1.0
141
20.0
290
     0
  0
SCALE
  5
50
102
{ACAD_REACTORS
330
47
102
}
330
47
100
AcDbScale
 70
     0
300
1:30
140
1.0
141
30.0
290
     0
  0
SCALE
  5
51
102
{ACAD_REACTORS
330
47
102
}
330
47
100
AcDbScale
 70
     0
300
1:40
140
1.0
141
40.0
290
     0
  0
SCALE
  5
52
102
{ACAD_REACTORS
330
47
102
}
330
47
100
AcDbScale
 70
     0
300
1:50
140
1.0
141
50.0
290
     0
  0
SCALE
  5
53
102
{ACAD_REACTORS
330
47
102
}
330
47
100
AcDbScale
 70
     0
300
1:100
140
1.0
141
100.0
290
     0
  0
SCALE
  5
54
102
{ACAD_REACTORS
330
47
102
}
330
47
100
AcDbScale
 70
     0
300
2:1
140
2.0
141
1.0
290
     0
  0
SCALE
  5
55
102
{ACAD_REACTORS
330
47
102
}
330
47
100
AcDbScale
 70
     0
300
4:1
140
4.0
141
1.0
290
     0
  0
SCALE
  5
56
102
{ACAD_REACTORS
330
47
102
}
330
47
100
AcDbScale
 70
     0
300
8:1
140
8.0
141
1.0
290
     0
  0
SCALE
  5
57
102
{ACAD_REACTORS
330
47
102
}
330
47
100
AcDbScale
 70
     0
300
10:1
140
10.0
141
1.0
290
     0
  0
SCALE
  5
58
102
{ACAD_REACTORS
330
47
102
}
330
47
100
AcDbScale
 70
     0
300
100:1
140
100.0
141
1.0
290
     0
  0
SCALE
  5
59
102
{ACAD_REACTORS
330
47
102
}
330
47
100
AcDbScale
 70
     0
300
1/128" = 1'-0"
140
0.0078125
141
12.0
290
     0
  0
SCALE
  5
5A
102
{ACAD_REACTORS
330
47
102
}
330
47
100
AcDbScale
 70
     0
300
1/64" = 1'-0"
140
0.015625
141
12.0
290
     0
  0
SCALE
  5
5B
102
{ACAD_REACTORS
330
47
102
}
330
47
100
AcDbScale
 70
     0
300
1/32" = 1'-0"
140
0.03125
141
12.0
290
     0
  0
SCALE
  5
5C
102
{ACAD_REACTORS
330
47
102
}
330
47
100
AcDbScale
 70
     0
300
1/16" = 1'-0"
140
0.0625
141
12.0
290
     0
  0
SCALE
  5
5D
102
{ACAD_REACTORS
330
47
102
}
330
47
100
AcDbScale
 70
     0
300
3/32" = 1'-0"
140
0.09375
141
12.0
290
     0
  0
SCALE
  5
5E
102
{ACAD_REACTORS
330
47
102
}
330
47
100
AcDbScale
 70
     0
300
1/8" = 1'-0"
140
0.125
141
12.0
290
     0
  0
SCALE
  5
5F
102
{ACAD_REACTORS
330
47
102
}
330
47
100
AcDbScale
 70
     0
300
3/16" = 1'-0"
140
0.1875
141
12.0
290
     0
  0
SCALE
  5
60
102
{ACAD_REACTORS
330
47
102
}
330
47
100
AcDbScale
 70
     0
300
1/4" = 1'-0"
140
0.25
141
12.0
290
     0
  0
SCALE
  5
61
102
{ACAD_REACTORS
330
47
102
}
330
47
100
AcDbScale
 70
     0
300
3/8" = 1'-0"
140
0.375
141
12.0
290
     0
  0
SCALE
  5
62
102
{ACAD_REACTORS
330
47
102
}
330
47
100
AcDbScale
 70
     0
300
1/2" = 1'-0"
140
0.5
141
12.0
290
     0
  0
SCALE
  5
63
102
{ACAD_REACTORS
330
47
102
}
330
47
100
AcDbScale
 70
     0
300
3/4" = 1'-0"
140
0.75
141
12.0
290
     0
  0
SCALE
  5
64
102
{ACAD_REACTORS
330
47
102
}
330
47
100
AcDbScale
 70
     0
300
1" = 1'-0"
140
1.0
141
12.0
290
     0
  0
SCALE
  5
65
102
{ACAD_REACTORS
330
47
102
}
330
47
100
AcDbScale
 70
     0
300
1-1/2" = 1'-0"
140
1.5
141
12.0
290
     0
  0
SCALE
  5
66
102
{ACAD_REACTORS
330
47
102
}
330
47
100
AcDbScale
 70
     0
300
3" = 1'-0"
140
3.0
141
12.0
290
     0
  0
SCALE
  5
67
102
{ACAD_REACTORS
330
47
102
}
330
47
100
AcDbScale
 70
     0
300
6" = 1'-0"
140
6.0
141
12.0
290
     0
  0
SCALE
  5
68
102
{ACAD_REACTORS
330
47
102
}
330
47
100
AcDbScale
 70
     0
300
1'-0" = 1'-0"
140
12.0
141
12.0
290
     0
  0
ENDSEC
  0
EOF
