  0
SECTION
  2
HEADER
  9
$ACADVER
  1
AC1015
  9
$ACADMAINTVER
 70
     6
  9
$DWGCODEPAGE
  3
ANSI_1252
  9
$INSBASE
 10
0.0
 20
0.0
 30
0.0
  9
$EXTMIN
 10
0.0
 20
0.0
 30
0.0
  9
$EXTMAX
 10
420.0
 20
297.0
 30
0.0
  9
$LIMMIN
 10
0.0
 20
0.0
  9
$LIMMAX
 10
420.0
 20
297.0
  9
$ORTHOMODE
 70
     0
  9
$REGENMODE
 70
     1
  9
$FILLMODE
 70
     1
  9
$QTEXTMODE
 70
     0
  9
$MIRRTEXT
 70
     1
  9
$LTSCALE
 40
1.0
  9
$ATTMODE
 70
     1
  9
$TEXTSIZE
 40
3.5
  9
$TRACEWID
 40
1.0
  9
$TEXTSTYLE
  7
Standard
  9
$CLAYER
  8
0
  9
$CELTYPE
  6
ByLayer
  9
$CECOLOR
 62
   256
  9
$CELTSCALE
 40
1.0
  9
$DISPSILH
 70
     0
  9
$DIMSCALE
 40
1.0
  9
$DIMASZ
 40
6.0
  9
$DIMEXO
 40
1.0
  9
$DIMDLI
 40
3.75
  9
$DIMRND
 40
0.0
  9
$DIMDLE
 40
0.0
  9
$DIMEXE
 40
1.0
  9
$DIMTP
 40
0.0
  9
$DIMTM
 40
0.0
  9
$DIMTXT
 40
3.5
  9
$DIMCEN
 40
2.5
  9
$DIMTSZ
 40
0.0
  9
$DIMTOL
 70
     0
  9
$DIMLIM
 70
     0
  9
$DIMTIH
 70
     1
  9
$DIMTOH
 70
     1
  9
$DIMSE1
 70
     0
  9
$DIMSE2
 70
     0
  9
$DIMTAD
 70
     1
  9
$DIMZIN
 70
     0
  9
$DIMBLK
  1

  9
$DIMASO
 70
     1
  9
$DIMSHO
 70
     1
  9
$DIMPOST
  1

  9
$DIMAPOST
  1

  9
$DIMALT
 70
     0
  9
$DIMALTD
 70
     3
  9
$DIMALTF
 40
0.0393700787
  9
$DIMLFAC
 40
1.0
  9
$DIMTOFL
 70
     1
  9
$DIMTVP
 40
0.0
  9
$DIMTIX
 70
     0
  9
$DIMSOXD
 70
     0
  9
$DIMSAH
 70
     0
  9
$DIMBLK1
  1

  9
$DIMBLK2
  1

  9
$DIMSTYLE
  2
ISO-25
  9
$DIMCLRD
 70
     0
  9
$DIMCLRE
 70
     0
  9
$DIMCLRT
 70
     0
  9
$DIMTFAC
 40
1.0
  9
$DIMGAP
 40
1.524
  9
$DIMJUST
 70
     0
  9
$DIMSD1
 70
     0
  9
$DIMSD2
 70
     0
  9
$DIMTOLJ
 70
     0
  9
$DIMTZIN
 70
     0
  9
$DIMALTZ
 70
     0
  9
$DIMALTTZ
 70
     0
  9
$DIMUPT
 70
     0
  9
$DIMDEC
 70
     2
  9
$DIMTDEC
 70
     2
  9
$DIMALTU
 70
     2
  9
$DIMALTTD
 70
     3
  9
$DIMTXSTY
  7
Standard
  9
$DIMAUNIT
 70
     0
  9
$DIMADEC
 70
     2
  9
$DIMALTRND
 40
0.0
  9
$DIMAZIN
 70
     0
  9
$DIMDSEP
 70
    44
  9
$DIMATFIT
 70
     3
  9
$DIMFRAC
 70
     0
  9
$DIMLDRBLK
  1

  9
$DIMLUNIT
 70
     2
  9
$DIMLWD
 70
    -2
  9
$DIMLWE
 70
    -2
  9
$DIMTMOVE
 70
     0
  9
$LUNITS
 70
     2
  9
$LUPREC
 70
     2
  9
$SKETCHINC
 40
1.0
  9
$FILLETRAD
 40
10.0
  9
$AUNITS
 70
     0
  9
$AUPREC
 70
     2
  9
$MENU
  1
.
  9
$ELEVATION
 40
0.0
  9
$PELEVATION
 40
0.0
  9
$THICKNESS
 40
0.0
  9
$LIMCHECK
 70
     0
  9
$CHAMFERA
 40
0.0
  9
$CHAMFERB
 40
0.0
  9
$CHAMFERC
 40
0.0
  9
$CHAMFERD
 40
0.0
  9
$SKPOLY
 70
     0
  9
$TDCREATE
 40
2456937.329859155
  9
$TDUCREATE
 40
2456937.204859155
  9
$TDUPDATE
 40
2456937.329859931
  9
$TDUUPDATE
 40
2456937.204859931
  9
$TDINDWG
 40
0.0000000116
  9
$TDUSRTIMER
 40
0.0000000116
  9
$USRTIMER
 70
     1
  9
$ANGBASE
 50
0.0
  9
$ANGDIR
 70
     0
  9
$PDMODE
 70
     0
  9
$PDSIZE
 40
-1.0
  9
$PLINEWID
 40
0.0
  9
$SPLFRAME
 70
     0
  9
$SPLINETYPE
 70
     6
  9
$SPLINESEGS
 70
     8
  9
$HANDSEED
  5
1C7
  9
$SURFTAB1
 70
     6
  9
$SURFTAB2
 70
     6
  9
$SURFTYPE
 70
     6
  9
$SURFU
 70
     6
  9
$SURFV
 70
     6
  9
$UCSBASE
  2

  9
$UCSNAME
  2

  9
$UCSORG
 10
0.0
 20
0.0
 30
0.0
  9
$UCSXDIR
 10
1.0
 20
0.0
 30
0.0
  9
$UCSYDIR
 10
0.0
 20
1.0
 30
0.0
  9
$UCSORTHOREF
  2

  9
$UCSORTHOVIEW
 70
     0
  9
$UCSORGTOP
 10
0.0
 20
0.0
 30
0.0
  9
$UCSORGBOTTOM
 10
0.0
 20
0.0
 30
0.0
  9
$UCSORGLEFT
 10
0.0
 20
0.0
 30
0.0
  9
$UCSORGRIGHT
 10
0.0
 20
0.0
 30
0.0
  9
$UCSORGFRONT
 10
0.0
 20
0.0
 30
0.0
  9
$UCSORGBACK
 10
0.0
 20
0.0
 30
0.0
  9
$PUCSBASE
  2

  9
$PUCSNAME
  2

  9
$PUCSORG
 10
0.0
 20
0.0
 30
0.0
  9
$PUCSXDIR
 10
1.0
 20
0.0
 30
0.0
  9
$PUCSYDIR
 10
0.0
 20
1.0
 30
0.0
  9
$PUCSORTHOREF
  2

  9
$PUCSORTHOVIEW
 70
     0
  9
$PUCSORGTOP
 10
0.0
 20
0.0
 30
0.0
  9
$PUCSORGBOTTOM
 10
0.0
 20
0.0
 30
0.0
  9
$PUCSORGLEFT
 10
0.0
 20
0.0
 30
0.0
  9
$PUCSORGRIGHT
 10
0.0
 20
0.0
 30
0.0
  9
$PUCSORGFRONT
 10
0.0
 20
0.0
 30
0.0
  9
$PUCSORGBACK
 10
0.0
 20
0.0
 30
0.0
  9
$USERI1
 70
     0
  9
$USERI2
 70
     0
  9
$USERI3
 70
     0
  9
$USERI4
 70
     0
  9
$USERI5
 70
     0
  9
$USERR1
 40
0.0
  9
$USERR2
 40
0.0
  9
$USERR3
 40
0.0
  9
$USERR4
 40
0.0
  9
$USERR5
 40
0.0
  9
$WORLDVIEW
 70
     1
  9
$SHADEDGE
 70
     3
  9
$SHADEDIF
 70
    70
  9
$TILEMODE
 70
     1
  9
$MAXACTVP
 70
    64
  9
$PINSBASE
 10
0.0
 20
0.0
 30
0.0
  9
$PLIMCHECK
 70
     0
  9
$PEXTMIN
 10
1.0000000000E+20
 20
1.0000000000E+20
 30
1.0000000000E+20
  9
$PEXTMAX
 10
-1.0000000000E+20
 20
-1.0000000000E+20
 30
-1.0000000000E+20
  9
$PLIMMIN
 10
0.0
 20
0.0
  9
$PLIMMAX
 10
420.0
 20
297.0
  9
$UNITMODE
 70
     0
  9
$VISRETAIN
 70
     1
  9
$PLINEGEN
 70
     0
  9
$PSLTSCALE
 70
     1
  9
$TREEDEPTH
 70
  3020
  9
$CMLSTYLE
  2
Standard
  9
$CMLJUST
 70
     0
  9
$CMLSCALE
 40
20.0
  9
$PROXYGRAPHICS
 70
     1
  9
$MEASUREMENT
 70
     1
  9
$CELWEIGHT
370
    -1
  9
$ENDCAPS
280
     0
  9
$JOINSTYLE
280
     0
  9
$LWDISPLAY
290
     1
  9
$INSUNITS
 70
     4
  9
$HYPERLINKBASE
  1

  9
$STYLESHEET
  1

  9
$XEDIT
290
     1
  9
$CEPSNTYPE
380
     0
  9
$PSTYLEMODE
290
     1
  9
$FINGERPRINTGUID
  2
{05A67C95-4022-4AC8-A08A-4ECF41CAD9DF}
  9
$VERSIONGUID
  2
{FAEB1C32-E019-11D5-929B-00C0DF256EC4}
  9
$EXTNAMES
290
     1
  9
$PSVPSCALE
 40
0.0
  9
$OLESTARTUP
290
     0
  0
ENDSEC
  0
SECTION
  2
CLASSES
  0
CLASS
  1
ACDBDICTIONARYWDFLT
  2
AcDbDictionaryWithDefault
  3
ObjectDBX Classes
 90
        0
280
     0
281
     0
  0
CLASS
  1
VISUALSTYLE
  2
AcDbVisualStyle
  3
ObjectDBX Classes
 90
     4095
280
     0
281
     0
  0
CLASS
  1
MATERIAL
  2
AcDbMaterial
  3
ObjectDBX Classes
 90
     1153
280
     0
281
     0
  0
CLASS
  1
SCALE
  2
AcDbScale
  3
ObjectDBX Classes
 90
     1153
280
     0
281
     0
  0
CLASS
  1
SUN
  2
AcDbSun
  3
SCENEOE
 90
     1153
280
     0
281
     0
  0
CLASS
  1
ACDBPLACEHOLDER
  2
AcDbPlaceHolder
  3
ObjectDBX Classes
 90
        0
280
     0
281
     0
  0
CLASS
  1
LAYOUT
  2
AcDbLayout
  3
ObjectDBX Classes
 90
        0
280
     0
281
     0
  0
ENDSEC
  0
SECTION
  2
TABLES
  0
TABLE
  2
VPORT
  5
8
330
0
100
AcDbSymbolTable
 70
     1
  0
VPORT
  5
29
330
8
100
AcDbSymbolTableRecord
100
AcDbViewportTableRecord
  2
*Active
 70
     0
 10
0.0
 20
0.0
 11
1.0
 21
1.0
 12
210.0
 22
148.5
 13
0.0
 23
0.0
 14
10.0
 24
10.0
 15
10.0
 25
10.0
 16
0.0
 26
0.0
 36
1.0
 17
0.0
 27
0.0
 37
0.0
 40
297.0
 41
1.4141414141
 42
50.0
 43
0.0
 44
0.0
 50
0.0
 51
0.0
 71
     0
 72
  2000
 73
     1
 74
     3
 75
     0
 76
     0
 77
     0
 78
     0
281
     0
 65
     1
110
0.0
120
0.0
130
0.0
111
1.0
121
0.0
131
0.0
112
0.0
122
1.0
132
0.0
 79
     0
146
0.0
  0
ENDTAB
  0
TABLE
  2
LTYPE
  5
5
330
0
100
AcDbSymbolTable
 70
     6
  0
LTYPE
  5
14
330
5
100
AcDbSymbolTableRecord
100
AcDbLinetypeTableRecord
  2
ByBlock
 70
     0
  3

 72
    65
 73
     0
 40
0.0
  0
LTYPE
  5
15
330
5
100
AcDbSymbolTableRecord
100
AcDbLinetypeTableRecord
  2
ByLayer
 70
     0
  3

 72
    65
 73
     0
 40
0.0
  0
LTYPE
  5
16
330
5
100
AcDbSymbolTableRecord
100
AcDbLinetypeTableRecord
  2
Continuous
 70
     0
  3
Solid line
 72
    65
 73
     0
 40
0.0
  0
LTYPE
  5
6A
330
5
100
AcDbSymbolTableRecord
100
AcDbLinetypeTableRecord
  2
HIDDEN
 70
     0
  3
Hidden __ __ __ __ __ __ __ __ __ __ __ __ __ __
 72
    65
 73
     2
 40
1.905
 49
1.27
 74
     0
 49
-0.635
 74
     0
  0
LTYPE
  5
6B
330
5
100
AcDbSymbolTableRecord
100
AcDbLinetypeTableRecord
  2
PHANTOM
 70
     0
  3
Phantom ______  __  __  ______  __  __  ______
 72
    65
 73
     6
 40
12.7
 49
6.35
 74
     0
 49
-1.27
 74
     0
 49
1.27
 74
     0
 49
-1.27
 74
     0
 49
1.27
 74
     0
 49
-1.27
 74
     0
  0
LTYPE
  5
6C
330
5
100
AcDbSymbolTableRecord
100
AcDbLinetypeTableRecord
  2
CENTER
 70
     0
  3
Center ____ _ ____ _ ____ _ ____ _ ____ _ ____
 72
    65
 73
     4
 40
10.16
 49
6.35
 74
     0
 49
-1.27
 74
     0
 49
1.27
 74
     0
 49
-1.27
 74
     0
  0
LTYPE
  5
6D
330
5
100
AcDbSymbolTableRecord
100
AcDbLinetypeTableRecord
  2
CENTERX2
 70
     0
  3
Center (2x) ________  __  ________  __  _____
 72
    65
 73
     4
 40
20.32
 49
12.7
 74
     0
 49
-2.54
 74
     0
 49
2.54
 74
     0
 49
-2.54
 74
     0
  0
LTYPE
  5
6E
330
5
100
AcDbSymbolTableRecord
100
AcDbLinetypeTableRecord
  2
DOT2
 70
     0
  3
Dot (.5x) ........................................
 72
    65
 73
     2
 40
0.635
 49
0.0
 74
     0
 49
-0.635
 74
     0
  0
ENDTAB
  0
TABLE
  2
LAYER
  5
2
330
0
100
AcDbSymbolTable
 70
     1
  0
LAYER
  5
10
330
2
100
AcDbSymbolTableRecord
100
AcDbLayerTableRecord
  2
0
 70
     0
 62
     7
  6
Continuous
370
    -3
390
F
  0
ENDTAB
  0
TABLE
  2
STYLE
  5
3
330
0
100
AcDbSymbolTable
 70
     1
  0
STYLE
  5
11
330
3
100
AcDbSymbolTableRecord
100
AcDbTextStyleTableRecord
  2
Standard
 70
     0
 40
0.0
 41
1.0
 50
0.0
 71
     0
 42
3.5
  3
txt
  4

  0
ENDTAB
  0
TABLE
  2
VIEW
  5
6
330
0
100
AcDbSymbolTable
 70
     0
  0
ENDTAB
  0
TABLE
  2
UCS
  5
7
330
0
100
AcDbSymbolTable
 70
     0
  0
ENDTAB
  0
TABLE
  2
APPID
  5
9
330
0
100
AcDbSymbolTable
 70
     1
  0
APPID
  5
12
330
9
100
AcDbSymbolTableRecord
100
AcDbRegAppTableRecord
  2
ACAD
 70
     0
  0
ENDTAB
  0
TABLE
  2
DIMSTYLE
  5
A
330
0
100
AcDbSymbolTable
 70
     1
100
AcDbDimStyleTable
  0
DIMSTYLE
105
27
330
A
100
AcDbSymbolTableRecord
100
AcDbDimStyleTableRecord
  2
ISO-25
 70
     0
 41
2.5
 42
0.625
 43
3.75
 44
1.25
 73
     0
 74
     0
 77
     1
 78
     8
140
2.5
141
2.5
143
0.0393700787
147
0.625
171
     3
172
     1
178
     0
271
     2
272
     2
274
     3
278
    44
283
     0
284
     8
340
11
  0
ENDTAB
  0
TABLE
  2
BLOCK_RECORD
  5
1
330
0
100
AcDbSymbolTable
 70
     1
  0
BLOCK_RECORD
  5
1F
330
1
100
AcDbSymbolTableRecord
100
AcDbBlockTableRecord
  2
*Model_Space
340
22
  0
BLOCK_RECORD
  5
1B
330
1
100
AcDbSymbolTableRecord
100
AcDbBlockTableRecord
  2
*Paper_Space
340
1E
  0
BLOCK_RECORD
  5
23
330
1
100
AcDbSymbolTableRecord
100
AcDbBlockTableRecord
  2
*Paper_Space0
340
26
  0
ENDTAB
  0
ENDSEC
  0
SECTION
  2
BLOCKS
  0
BLOCK
  5
20
330
1F
100
AcDbEntity
  8
0
100
AcDbBlockBegin
  2
*Model_Space
 70
     0
 10
0.0
 20
0.0
 30
0.0
  3
*Model_Space
  1
*Model_Space
  0
ENDBLK
  5
21
330
1F
100
AcDbEntity
  8
0
100
AcDbBlockEnd
  0
BLOCK
  5
1C
330
1B
100
AcDbEntity
 67
     1
  8
0
100
AcDbBlockBegin
  2
*Paper_Space
 70
     0
 10
0.0
 20
0.0
 30
0.0
  3
*Paper_Space
  1
*Paper_Space
  0
ENDBLK
  5
1D
330
1B
100
AcDbEntity
 67
     1
  8
0
100
AcDbBlockEnd
  0
BLOCK
  5
24
330
23
100
AcDbEntity
  8
0
100
AcDbBlockBegin
  2
*Paper_Space0
 70
     0
 10
0.0
 20
0.0
 30
0.0
  3
*Paper_Space0
  1
*Paper_Space0
  0
ENDBLK
  5
25
330
23
100
AcDbEntity
  8
0
100
AcDbBlockEnd
  0
ENDSEC
  0
SECTION
  2
ENTITIES
  0
LINE
  5
6F
330
1F
100
AcDbEntity
  8
0
  6
Continuous
 62
     7
370
    15
100
AcDbLine
 10
133.7384899472
 20
174.1127657592
 30
0.0
 11
133.8656251673
 21
173.360623654
 31
0.0
  0
LINE
  5
70
330
1F
100
AcDbEntity
  8
0
  6
Continuous
 62
     7
370
    15
100
AcDbLine
 10
131.97620879
 20
171.1250360477
 30
0.0
 11
131.2133974696
 21
171.1250360477
 31
0.0
  0
ARC
  5
71
330
1F
100
AcDbEntity
  8
0
  6
Continuous
 62
     7
370
    15
100
AcDbCircle
 10
134.2435084428
 20
171.1250360477
 30
0.0
 40
3.030110973173084
100
AcDbArc
 50
99.5940682269
 51
179.9999999996
  0
ARC
  5
72
330
1F
100
AcDbEntity
  8
0
  6
Continuous
 62
     7
370
    15
100
AcDbCircle
 10
132.7435084428
 20
179.9991557223
 30
0.0
 40
5.969889026827531
100
AcDbArc
 50
279.5940682269
 51
0.0000000001
  0
LINE
  5
73
330
1F
100
AcDbEntity
  8
0
  6
Continuous
 62
     7
370
    15
100
AcDbLine
 10
139.47620879
 20
179.9991557223
 30
0.0
 11
138.7133974696
 21
179.9991557223
 31
0.0
  0
LINE
  5
74
330
1F
100
AcDbEntity
  8
0
  6
Continuous
 62
     7
370
    15
100
AcDbLine
 10
131.97620879
 20
143.873275397
 30
0.0
 11
131.2133974696
 21
143.873275397
 31
0.0
  0
LINE
  5
75
330
1F
100
AcDbEntity
  8
0
  6
Continuous
 62
     7
370
    15
100
AcDbLine
 10
133.8656251673
 20
141.6376877906
 30
0.0
 11
133.7384899472
 21
140.8855456855
 31
0.0
  0
ARC
  5
76
330
1F
100
AcDbEntity
  8
0
  6
Continuous
 62
     7
370
    15
100
AcDbCircle
 10
134.2435084428
 20
143.873275397
 30
0.0
 40
3.030110973172474
100
AcDbArc
 50
179.9999999998
 51
260.4059317731
  0
ARC
  5
77
330
1F
100
AcDbEntity
  8
0
  6
Continuous
 62
     7
370
    15
100
AcDbCircle
 10
201.2435084428
 20
179.9991557223
 30
0.0
 40
5.969889026829378
100
AcDbArc
 50
179.9999999999
 51
260.4059317732
  0
LINE
  5
78
330
1F
100
AcDbEntity
  8
0
  6
Continuous
 62
     7
370
    15
100
AcDbLine
 10
200.1213917182
 20
173.360623654
 30
0.0
 11
200.2485269383
 21
174.1127657592
 31
0.0
  0
LINE
  5
79
330
1F
100
AcDbEntity
  8
0
  6
Continuous
 62
     7
370
    15
100
AcDbLine
 10
195.2736194159
 20
179.9991557223
 30
0.0
 11
194.5108080956
 21
179.9991557223
 31
0.0
  0
LINE
  5
7A
330
1F
100
AcDbEntity
  8
0
  6
Continuous
 62
     7
370
    15
100
AcDbLine
 10
202.0108080956
 20
171.1250360477
 30
0.0
 11
202.7736194159
 21
171.1250360477
 31
0.0
  0
ARC
  5
7B
330
1F
100
AcDbEntity
  8
0
  6
Continuous
 62
     7
370
    15
100
AcDbCircle
 10
199.7435084428
 20
171.1250360477
 30
0.0
 40
3.030110973172605
100
AcDbArc
 50
0.0000000002
 51
80.4059317731
  0
ARC
  5
7C
330
1F
100
AcDbEntity
  8
0
  6
Continuous
 62
     7
370
    15
100
AcDbCircle
 10
132.7435084428
 20
134.9991557223
 30
0.0
 40
5.96988902682935
100
AcDbArc
 50
0.0000000001
 51
80.4059317732
  0
LINE
  5
7D
330
1F
100
AcDbEntity
  8
0
  6
Continuous
 62
     7
370
    15
100
AcDbLine
 10
138.7133974696
 20
134.9991557223
 30
0.0
 11
139.47620879
 21
134.9991557223
 31
0.0
  0
LINE
  5
7E
330
1F
100
AcDbEntity
  8
0
  6
Continuous
 62
     7
370
    15
100
AcDbLine
 10
200.2485269383
 20
140.8855456855
 30
0.0
 11
200.1213917182
 21
141.6376877906
 31
0.0
  0
LINE
  5
7F
330
1F
100
AcDbEntity
  8
0
  6
Continuous
 62
     7
370
    15
100
AcDbLine
 10
202.0108080956
 20
143.873275397
 30
0.0
 11
202.7736194159
 21
143.873275397
 31
0.0
  0
ARC
  5
80
330
1F
100
AcDbEntity
  8
0
  6
Continuous
 62
     7
370
    15
100
AcDbCircle
 10
199.7435084428
 20
143.873275397
 30
0.0
 40
3.030110973173505
100
AcDbArc
 50
279.5940682269
 51
0.0000000004
  0
ARC
  5
81
330
1F
100
AcDbEntity
  8
0
  6
Continuous
 62
     7
370
    15
100
AcDbCircle
 10
201.2435084428
 20
134.9991557223
 30
0.0
 40
5.969889026827559
100
AcDbArc
 50
99.5940682269
 51
179.9999999999
  0
LINE
  5
82
330
1F
100
AcDbEntity
  8
0
  6
Continuous
 62
     7
370
    15
100
AcDbLine
 10
194.5108080956
 20
134.9991557223
 30
0.0
 11
195.2736194159
 21
134.9991557223
 31
0.0
  0
LINE
  5
83
330
1F
100
AcDbEntity
  8
0
  6
Continuous
 62
     7
370
    15
100
AcDbLine
 10
139.47620879
 20
127.2491557223
 30
0.0
 11
138.7133974696
 21
127.2491557223
 31
0.0
  0
LINE
  5
84
330
1F
100
AcDbEntity
  8
0
  6
Continuous
 62
     7
370
    15
100
AcDbLine
 10
138.7133974696
 20
127.2491557223
 30
0.0
 11
138.7133974696
 21
134.9991557223
 31
0.0
  0
LINE
  5
85
330
1F
100
AcDbEntity
  8
0
  6
Continuous
 62
     7
370
    15
100
AcDbLine
 10
194.5108080956
 20
187.7491557223
 30
0.0
 11
195.2736194159
 21
187.7491557223
 31
0.0
  0
LINE
  5
86
330
1F
100
AcDbEntity
  8
0
  6
Continuous
 62
     7
370
    15
100
AcDbLine
 10
195.2736194159
 20
187.7491557223
 30
0.0
 11
195.2736194159
 21
179.9991557223
 31
0.0
  0
LINE
  5
87
330
1F
100
AcDbEntity
  8
0
  6
Continuous
 62
     7
370
    15
100
AcDbLine
 10
192.2435084428
 20
124.9818560695
 30
0.0
 11
192.2435084428
 21
124.2190447492
 31
0.0
  0
LINE
  5
88
330
1F
100
AcDbEntity
  8
0
  6
Continuous
 62
     7
370
    15
100
AcDbLine
 10
194.5108080956
 20
127.2491557223
 30
0.0
 11
195.2736194159
 21
127.2491557223
 31
0.0
  0
ARC
  5
89
330
1F
100
AcDbEntity
  8
0
  6
Continuous
 62
     7
370
    15
100
AcDbCircle
 10
192.2435084428
 20
127.2491557223
 30
0.0
 40
3.030110973172427
100
AcDbArc
 50
270.0
 51
0.0000000004
  0
LINE
  5
8A
330
1F
100
AcDbEntity
  8
0
  6
Continuous
 62
     7
370
    15
100
AcDbLine
 10
141.7435084428
 20
124.9818560695
 30
0.0
 11
141.7435084428
 21
124.2190447492
 31
0.0
  0
ARC
  5
8B
330
1F
100
AcDbEntity
  8
0
  6
Continuous
 62
     7
370
    15
100
AcDbCircle
 10
141.7435084428
 20
127.2491557223
 30
0.0
 40
3.030110973172441
100
AcDbArc
 50
179.9999999998
 51
270.0
  0
LINE
  5
8C
330
1F
100
AcDbEntity
  8
0
  6
Continuous
 62
     7
370
    15
100
AcDbLine
 10
195.2736194159
 20
134.9991557223
 30
0.0
 11
195.2736194159
 21
127.2491557223
 31
0.0
  0
LINE
  5
8D
330
1F
100
AcDbEntity
  8
0
  6
Continuous
 62
     7
370
    15
100
AcDbLine
 10
202.7736194159
 20
171.1250360477
 30
0.0
 11
202.7736194159
 21
143.873275397
 31
0.0
  0
LINE
  5
8E
330
1F
100
AcDbEntity
  8
0
  6
Continuous
 62
     7
370
    15
100
AcDbLine
 10
141.9935084428
 20
124.9818560695
 30
0.0
 11
191.9935084428
 21
124.9818560695
 31
0.0
  0
LINE
  5
8F
330
1F
100
AcDbEntity
  8
0
  6
Continuous
 62
     7
370
    15
100
AcDbLine
 10
192.2435084428
 20
124.2190447492
 30
0.0
 11
141.7435084428
 21
124.2190447492
 31
0.0
  0
LINE
  5
90
330
1F
100
AcDbEntity
  8
0
  6
Continuous
 62
     7
370
    15
100
AcDbLine
 10
131.2133974696
 20
143.873275397
 30
0.0
 11
131.2133974696
 21
171.1250360477
 31
0.0
  0
LINE
  5
91
330
1F
100
AcDbEntity
  8
0
  6
Continuous
 62
     7
370
    15
100
AcDbLine
 10
139.47620879
 20
187.7491557223
 30
0.0
 11
138.7133974696
 21
187.7491557223
 31
0.0
  0
LINE
  5
92
330
1F
100
AcDbEntity
  8
0
  6
Continuous
 62
     7
370
    15
100
AcDbLine
 10
138.7133974696
 20
179.9991557223
 30
0.0
 11
138.7133974696
 21
187.7491557223
 31
0.0
  0
LINE
  5
93
330
1F
100
AcDbEntity
  8
0
  6
Continuous
 62
     7
370
    15
100
AcDbLine
 10
192.2435084428
 20
190.0164553751
 30
0.0
 11
192.2435084428
 21
190.7792666955
 31
0.0
  0
ARC
  5
94
330
1F
100
AcDbEntity
  8
0
  6
Continuous
 62
     7
370
    15
100
AcDbCircle
 10
192.2435084428
 20
187.7491557223
 30
0.0
 40
3.030110973172441
100
AcDbArc
 50
0.0000000002
 51
90.0
  0
LINE
  5
95
330
1F
100
AcDbEntity
  8
0
  6
Continuous
 62
     7
370
    15
100
AcDbLine
 10
191.9935084428
 20
190.0164553751
 30
0.0
 11
141.9935084428
 21
190.0164553751
 31
0.0
  0
LINE
  5
96
330
1F
100
AcDbEntity
  8
0
  6
Continuous
 62
     7
370
    15
100
AcDbLine
 10
141.7435084428
 20
190.7792666955
 30
0.0
 11
141.7435084428
 21
190.0164553751
 31
0.0
  0
LINE
  5
97
330
1F
100
AcDbEntity
  8
0
  6
Continuous
 62
     7
370
    15
100
AcDbLine
 10
141.7435084428
 20
190.7792666955
 30
0.0
 11
192.2435084428
 21
190.7792666955
 31
0.0
  0
ARC
  5
98
330
1F
100
AcDbEntity
  8
0
  6
Continuous
 62
     7
370
    15
100
AcDbCircle
 10
141.7435084428
 20
187.7491557223
 30
0.0
 40
3.030110973171759
100
AcDbArc
 50
90.0
 51
179.9999999996
  0
LINE
  5
99
330
1F
100
AcDbEntity
  8
0
  6
Continuous
 62
     7
370
    15
100
AcDbLine
 10
196.9435084428
 20
187.7491557223
 30
0.0
 11
196.9435084428
 21
179.9991557223
 31
0.0
  0
ARC
  5
9A
330
1F
100
AcDbEntity
  8
0
  6
Continuous
 62
     7
370
    15
100
AcDbCircle
 10
201.2435084428
 20
179.9991557223
 30
0.0
 40
4.30000000000029
100
AcDbArc
 50
180.0
 51
260.4059317731
  0
ARC
  5
9B
330
1F
100
AcDbEntity
  8
0
  6
Continuous
 62
     7
370
    15
100
AcDbCircle
 10
199.7435084428
 20
171.1250360477
 30
0.0
 40
4.700000000000295
100
AcDbArc
 50
0.0
 51
80.4059317732
  0
LINE
  5
9C
330
1F
100
AcDbEntity
  8
0
  6
Continuous
 62
     7
370
    15
100
AcDbLine
 10
204.4435084428
 20
171.1250360477
 30
0.0
 11
204.4435084428
 21
143.873275397
 31
0.0
  0
ARC
  5
9D
330
1F
100
AcDbEntity
  8
0
  6
Continuous
 62
     7
370
    15
100
AcDbCircle
 10
199.7435084428
 20
143.873275397
 30
0.0
 40
4.700000000000295
100
AcDbArc
 50
279.5940682268
 51
0.0
  0
ARC
  5
9E
330
1F
100
AcDbEntity
  8
0
  6
Continuous
 62
     7
370
    15
100
AcDbCircle
 10
201.2435084428
 20
134.9991557223
 30
0.0
 40
4.30000000000029
100
AcDbArc
 50
99.5940682269
 51
180.0
  0
LINE
  5
9F
330
1F
100
AcDbEntity
  8
0
  6
Continuous
 62
     7
370
    15
100
AcDbLine
 10
196.9435084428
 20
134.9991557223
 30
0.0
 11
196.9435084428
 21
127.2491557223
 31
0.0
  0
ARC
  5
A0
330
1F
100
AcDbEntity
  8
0
  6
Continuous
 62
     7
370
    15
100
AcDbCircle
 10
192.2435084428
 20
127.2491557223
 30
0.0
 40
4.699999999999989
100
AcDbArc
 50
270.0
 51
0.0
  0
LINE
  5
A1
330
1F
100
AcDbEntity
  8
0
  6
Continuous
 62
     7
370
    15
100
AcDbLine
 10
192.2435084428
 20
122.5491557223
 30
0.0
 11
141.7435084428
 21
122.5491557223
 31
0.0
  0
ARC
  5
A2
330
1F
100
AcDbEntity
  8
0
  6
Continuous
 62
     7
370
    15
100
AcDbCircle
 10
141.7435084428
 20
127.2491557223
 30
0.0
 40
4.699999999999989
100
AcDbArc
 50
180.0
 51
270.0
  0
LINE
  5
A3
330
1F
100
AcDbEntity
  8
0
  6
Continuous
 62
     7
370
    15
100
AcDbLine
 10
137.0435084428
 20
127.2491557223
 30
0.0
 11
137.0435084428
 21
134.9991557223
 31
0.0
  0
ARC
  5
A4
330
1F
100
AcDbEntity
  8
0
  6
Continuous
 62
     7
370
    15
100
AcDbCircle
 10
132.7435084428
 20
134.9991557223
 30
0.0
 40
4.300000000000286
100
AcDbArc
 50
0.0
 51
80.4059317731
  0
ARC
  5
A5
330
1F
100
AcDbEntity
  8
0
  6
Continuous
 62
     7
370
    15
100
AcDbCircle
 10
134.2435084428
 20
143.873275397
 30
0.0
 40
4.700000000000299
100
AcDbArc
 50
180.0
 51
260.4059317732
  0
LINE
  5
A6
330
1F
100
AcDbEntity
  8
0
  6
Continuous
 62
     7
370
    15
100
AcDbLine
 10
129.5435084428
 20
143.873275397
 30
0.0
 11
129.5435084428
 21
171.1250360477
 31
0.0
  0
ARC
  5
A7
330
1F
100
AcDbEntity
  8
0
  6
Continuous
 62
     7
370
    15
100
AcDbCircle
 10
134.2435084428
 20
171.1250360477
 30
0.0
 40
4.700000000000299
100
AcDbArc
 50
99.5940682268
 51
180.0
  0
ARC
  5
A8
330
1F
100
AcDbEntity
  8
0
  6
Continuous
 62
     7
370
    15
100
AcDbCircle
 10
132.7435084428
 20
179.9991557223
 30
0.0
 40
4.300000000000286
100
AcDbArc
 50
279.5940682269
 51
0.0
  0
LINE
  5
A9
330
1F
100
AcDbEntity
  8
0
  6
Continuous
 62
     7
370
    15
100
AcDbLine
 10
137.0435084428
 20
179.9991557223
 30
0.0
 11
137.0435084428
 21
187.7491557223
 31
0.0
  0
ARC
  5
AA
330
1F
100
AcDbEntity
  8
0
  6
Continuous
 62
     7
370
    15
100
AcDbCircle
 10
141.7435084428
 20
187.7491557223
 30
0.0
 40
4.699999999999989
100
AcDbArc
 50
90.0
 51
180.0
  0
LINE
  5
AB
330
1F
100
AcDbEntity
  8
0
  6
Continuous
 62
     7
370
    15
100
AcDbLine
 10
141.7435084428
 20
192.4491557223
 30
0.0
 11
192.2435084428
 21
192.4491557223
 31
0.0
  0
ARC
  5
AC
330
1F
100
AcDbEntity
  8
0
  6
Continuous
 62
     7
370
    15
100
AcDbCircle
 10
192.2435084428
 20
187.7491557223
 30
0.0
 40
4.699999999999989
100
AcDbArc
 50
0.0
 51
90.0
  0
CIRCLE
  5
AD
330
1F
100
AcDbEntity
  8
0
  6
Continuous
 62
     7
370
    15
100
AcDbCircle
 10
132.7435084428
 20
188.9991557223
 30
0.0
 40
3.500000000000028
  0
CIRCLE
  5
AE
330
1F
100
AcDbEntity
  8
0
  6
Continuous
 62
     7
370
    15
100
AcDbCircle
 10
201.2435084428
 20
188.9991557223
 30
0.0
 40
3.500000000000028
  0
CIRCLE
  5
AF
330
1F
100
AcDbEntity
  8
0
  6
Continuous
 62
     7
370
    15
100
AcDbCircle
 10
201.2435084428
 20
125.9991557223
 30
0.0
 40
3.500000000000014
  0
CIRCLE
  5
B0
330
1F
100
AcDbEntity
  8
0
  6
Continuous
 62
     7
370
    15
100
AcDbCircle
 10
132.7435084428
 20
125.9991557223
 30
0.0
 40
3.500000000000014
  0
CIRCLE
  5
B1
330
1F
100
AcDbEntity
  8
0
  6
Continuous
 62
     7
370
    15
100
AcDbCircle
 10
132.7435084428
 20
179.9991557223
 30
0.0
 40
3.75
  0
CIRCLE
  5
B2
330
1F
100
AcDbEntity
  8
0
  6
Continuous
 62
     7
370
    15
100
AcDbCircle
 10
201.2435084428
 20
179.9991557223
 30
0.0
 40
3.75
  0
CIRCLE
  5
B3
330
1F
100
AcDbEntity
  8
0
  6
Continuous
 62
     7
370
    15
100
AcDbCircle
 10
201.2435084428
 20
134.9991557223
 30
0.0
 40
3.75
  0
CIRCLE
  5
B4
330
1F
100
AcDbEntity
  8
0
  6
Continuous
 62
     7
370
    15
100
AcDbCircle
 10
132.7435084428
 20
134.9991557223
 30
0.0
 40
3.75
  0
ELLIPSE
  5
B5
330
1F
100
AcDbEntity
  8
0
  6
Continuous
 62
     7
370
    15
100
AcDbEllipse
 10
200.9925944745
 20
188.9982417541
 30
0.0
 11
-4.243933135017471
 21
-4.243933135017471
 31
0.0
210
0.0
220
0.0
230
1.0
 40
0.9996954599
 41
2.356346783439771
 42
3.926838523739839
  0
ELLIPSE
  5
B6
330
1F
100
AcDbEntity
  8
0
  6
Continuous
 62
     7
370
    15
100
AcDbEllipse
 10
200.9925944745
 20
126.0000696906
 30
0.0
 11
-4.243933135017471
 21
4.243933135017471
 31
0.0
210
0.0
220
0.0
230
1.0
 40
0.9996954599
 41
2.35634678343976
 42
3.926838523739838
  0
LINE
  5
B7
330
1F
100
AcDbEntity
  8
0
  6
Continuous
 62
     7
370
    15
100
AcDbLine
 10
126.9935084428
 20
125.9982418933
 30
0.0
 11
126.9935084428
 21
189.0000695514
 31
0.0
  0
ELLIPSE
  5
B8
330
1F
100
AcDbEntity
  8
0
  6
Continuous
 62
     7
370
    15
100
AcDbEllipse
 10
132.994422411
 20
126.0000696906
 30
0.0
 11
4.243933135017471
 21
4.243933135017471
 31
0.0
210
0.0
220
0.0
230
1.0
 40
0.9996954599
 41
2.356346783439768
 42
3.926838523739835
  0
LINE
  5
B9
330
1F
100
AcDbEntity
  8
0
  6
Continuous
 62
     7
370
    15
100
AcDbLine
 10
206.9935084428
 20
189.0000695514
 30
0.0
 11
206.9935084428
 21
125.9982418933
 31
0.0
  0
LINE
  5
BA
330
1F
100
AcDbEntity
  8
0
  6
Continuous
 62
     7
370
    15
100
AcDbLine
 10
200.9944222718
 20
119.9991557223
 30
0.0
 11
132.9925946137
 21
119.9991557223
 31
0.0
  0
ELLIPSE
  5
BB
330
1F
100
AcDbEntity
  8
0
  6
Continuous
 62
     7
370
    15
100
AcDbEllipse
 10
132.994422411
 20
188.9982417541
 30
0.0
 11
4.243933135017471
 21
-4.243933135017471
 31
0.0
210
0.0
220
0.0
230
1.0
 40
0.9996954599
 41
2.35634678343993
 42
3.926838523739831
  0
LINE
  5
BC
330
1F
100
AcDbEntity
  8
0
  6
Continuous
 62
     7
370
    15
100
AcDbLine
 10
132.9925946137
 20
194.9991557223
 30
0.0
 11
200.9944222718
 21
194.9991557223
 31
0.0
  0
CIRCLE
  5
BD
330
1F
100
AcDbEntity
  8
0
  6
Continuous
 62
     7
370
    15
100
AcDbCircle
 10
201.2435084428
 20
188.9991557223
 30
0.0
 40
2.250000000046384
  0
CIRCLE
  5
BE
330
1F
100
AcDbEntity
  8
0
  6
Continuous
 62
     7
370
    15
100
AcDbCircle
 10
201.2435084428
 20
188.9991557223
 30
0.0
 40
1.649999999969623
  0
CIRCLE
  5
BF
330
1F
100
AcDbEntity
  8
0
  6
Continuous
 62
     7
370
    15
100
AcDbCircle
 10
132.7435084428
 20
125.9991557223
 30
0.0
 40
2.250000000046398
  0
CIRCLE
  5
C0
330
1F
100
AcDbEntity
  8
0
  6
Continuous
 62
     7
370
    15
100
AcDbCircle
 10
132.7435084428
 20
125.9991557223
 30
0.0
 40
1.649999999969623
  0
CIRCLE
  5
C1
330
1F
100
AcDbEntity
  8
0
  6
Continuous
 62
     7
370
    15
100
AcDbCircle
 10
132.7435084428
 20
188.9991557223
 30
0.0
 40
2.24999999996092
  0
CIRCLE
  5
C2
330
1F
100
AcDbEntity
  8
0
  6
Continuous
 62
     7
370
    15
100
AcDbCircle
 10
201.2435084428
 20
125.9991557223
 30
0.0
 40
2.249999999960906
  0
CIRCLE
  5
C3
330
1F
100
AcDbEntity
  8
0
  6
Continuous
 62
     7
370
    15
100
AcDbCircle
 10
201.2435084428
 20
125.9991557223
 30
0.0
 40
1.649999999997817
  0
CIRCLE
  5
C4
330
1F
100
AcDbEntity
  8
0
  6
Continuous
 62
     7
370
    15
100
AcDbCircle
 10
132.7435084428
 20
188.9991557223
 30
0.0
 40
1.649999999997817
  0
LINE
  5
C5
330
1F
100
AcDbEntity
  8
0
  6
Continuous
 62
     7
370
    15
100
AcDbLine
 10
141.9935084428
 20
124.9818560695
 30
0.0
 11
141.9935084428
 21
190.0164553751
 31
0.0
  0
LINE
  5
C6
330
1F
100
AcDbEntity
  8
0
  6
Continuous
 62
     7
370
    15
100
AcDbLine
 10
141.7435084428
 20
124.9818560695
 30
0.0
 11
141.9935084428
 21
124.9818560695
 31
0.0
  0
ARC
  5
C7
330
1F
100
AcDbEntity
  8
0
  6
Continuous
 62
     7
370
    15
100
AcDbCircle
 10
141.7435084428
 20
127.2491557223
 30
0.0
 40
2.267299652790484
100
AcDbArc
 50
180.0
 51
270.0
  0
LINE
  5
C8
330
1F
100
AcDbEntity
  8
0
  6
Continuous
 62
     7
370
    15
100
AcDbLine
 10
139.47620879
 20
127.2491557223
 30
0.0
 11
139.47620879
 21
134.9991557223
 31
0.0
  0
ARC
  5
C9
330
1F
100
AcDbEntity
  8
0
  6
Continuous
 62
     7
370
    15
100
AcDbCircle
 10
132.7435084428
 20
134.9991557223
 30
0.0
 40
6.732700347209487
100
AcDbArc
 50
0.0
 51
80.4059317732
  0
ARC
  5
CA
330
1F
100
AcDbEntity
  8
0
  6
Continuous
 62
     7
370
    15
100
AcDbCircle
 10
134.2435084428
 20
143.873275397
 30
0.0
 40
2.267299652791311
100
AcDbArc
 50
180.0
 51
260.4059317731
  0
LINE
  5
CB
330
1F
100
AcDbEntity
  8
0
  6
Continuous
 62
     7
370
    15
100
AcDbLine
 10
131.97620879
 20
143.873275397
 30
0.0
 11
131.97620879
 21
171.1250360477
 31
0.0
  0
ARC
  5
CC
330
1F
100
AcDbEntity
  8
0
  6
Continuous
 62
     7
370
    15
100
AcDbCircle
 10
134.2435084428
 20
171.1250360477
 30
0.0
 40
2.267299652791311
100
AcDbArc
 50
99.5940682269
 51
180.0
  0
ARC
  5
CD
330
1F
100
AcDbEntity
  8
0
  6
Continuous
 62
     7
370
    15
100
AcDbCircle
 10
132.7435084428
 20
179.9991557223
 30
0.0
 40
6.732700347209999
100
AcDbArc
 50
279.5940682268
 51
0.0
  0
LINE
  5
CE
330
1F
100
AcDbEntity
  8
0
  6
Continuous
 62
     7
370
    15
100
AcDbLine
 10
139.47620879
 20
179.9991557223
 30
0.0
 11
139.47620879
 21
187.7491557223
 31
0.0
  0
ARC
  5
CF
330
1F
100
AcDbEntity
  8
0
  6
Continuous
 62
     7
370
    15
100
AcDbCircle
 10
141.7435084428
 20
187.7491557223
 30
0.0
 40
2.267299652790513
100
AcDbArc
 50
90.0
 51
180.0
  0
LINE
  5
D0
330
1F
100
AcDbEntity
  8
0
  6
Continuous
 62
     7
370
    15
100
AcDbLine
 10
141.7435084428
 20
190.0164553751
 30
0.0
 11
141.9935084428
 21
190.0164553751
 31
0.0
  0
CIRCLE
  5
D1
330
1F
100
AcDbEntity
  8
0
  6
Continuous
 62
     7
370
    15
100
AcDbCircle
 10
137.4935084428
 20
157.4991557223
 30
0.0
 40
2.250000000019099
  0
ARC
  5
D2
330
1F
100
AcDbEntity
  8
0
  6
Continuous
 62
     7
370
    15
100
AcDbCircle
 10
201.2435084428
 20
179.9991557223
 30
0.0
 40
6.732700347209516
100
AcDbArc
 50
180.0
 51
260.4059317732
  0
ARC
  5
D3
330
1F
100
AcDbEntity
  8
0
  6
Continuous
 62
     7
370
    15
100
AcDbCircle
 10
199.7435084428
 20
171.1250360477
 30
0.0
 40
2.267299652791306
100
AcDbArc
 50
0.0
 51
80.4059317731
  0
LINE
  5
D4
330
1F
100
AcDbEntity
  8
0
  6
Continuous
 62
     7
370
    15
100
AcDbLine
 10
202.0108080956
 20
171.1250360477
 30
0.0
 11
202.0108080956
 21
143.873275397
 31
0.0
  0
ARC
  5
D5
330
1F
100
AcDbEntity
  8
0
  6
Continuous
 62
     7
370
    15
100
AcDbCircle
 10
199.7435084428
 20
143.873275397
 30
0.0
 40
2.267299652791306
100
AcDbArc
 50
279.5940682269
 51
0.0
  0
ARC
  5
D6
330
1F
100
AcDbEntity
  8
0
  6
Continuous
 62
     7
370
    15
100
AcDbCircle
 10
201.2435084428
 20
134.9991557223
 30
0.0
 40
6.732700347210027
100
AcDbArc
 50
99.5940682268
 51
180.0
  0
LINE
  5
D7
330
1F
100
AcDbEntity
  8
0
  6
Continuous
 62
     7
370
    15
100
AcDbLine
 10
194.5108080956
 20
134.9991557223
 30
0.0
 11
194.5108080956
 21
127.2491557223
 31
0.0
  0
ARC
  5
D8
330
1F
100
AcDbEntity
  8
0
  6
Continuous
 62
     7
370
    15
100
AcDbCircle
 10
192.2435084428
 20
127.2491557223
 30
0.0
 40
2.267299652790484
100
AcDbArc
 50
270.0
 51
0.0
  0
LINE
  5
D9
330
1F
100
AcDbEntity
  8
0
  6
Continuous
 62
     7
370
    15
100
AcDbLine
 10
191.9935084428
 20
124.9818560695
 30
0.0
 11
191.9935084428
 21
190.0164553751
 31
0.0
  0
LINE
  5
DA
330
1F
100
AcDbEntity
  8
0
  6
Continuous
 62
     7
370
    15
100
AcDbLine
 10
192.2435084428
 20
190.0164553751
 30
0.0
 11
191.9935084428
 21
190.0164553751
 31
0.0
  0
ARC
  5
DB
330
1F
100
AcDbEntity
  8
0
  6
Continuous
 62
     7
370
    15
100
AcDbCircle
 10
192.2435084428
 20
187.7491557223
 30
0.0
 40
2.267299652790513
100
AcDbArc
 50
0.0
 51
90.0
  0
LINE
  5
DC
330
1F
100
AcDbEntity
  8
0
  6
Continuous
 62
     7
370
    15
100
AcDbLine
 10
194.5108080956
 20
187.7491557223
 30
0.0
 11
194.5108080956
 21
179.9991557223
 31
0.0
  0
CIRCLE
  5
DD
330
1F
100
AcDbEntity
  8
0
  6
Continuous
 62
     7
370
    15
100
AcDbCircle
 10
196.4935084428
 20
157.4991557223
 30
0.0
 40
2.25000000004502
  0
LINE
  5
DE
330
1F
100
AcDbEntity
  8
0
  6
Continuous
 62
     7
370
    15
100
AcDbLine
 10
192.2435084428
 20
124.9818560695
 30
0.0
 11
191.9935084428
 21
124.9818560695
 31
0.0
  0
CIRCLE
  5
DF
330
1F
100
AcDbEntity
  8
0
  6
Continuous
 62
     7
370
    15
100
AcDbCircle
 10
137.4935084428
 20
157.4991557223
 30
0.0
 40
1.64999999999921
  0
CIRCLE
  5
E0
330
1F
100
AcDbEntity
  8
0
  6
Continuous
 62
     7
370
    15
100
AcDbCircle
 10
196.4935084428
 20
157.4991557223
 30
0.0
 40
1.650000000025102
  0
CIRCLE
  5
E1
330
1F
100
AcDbEntity
  8
0
  6
Continuous
 62
     7
370
    15
100
AcDbCircle
 10
132.7435084428
 20
179.9991557223
 30
0.0
 40
2.25
  0
CIRCLE
  5
E2
330
1F
100
AcDbEntity
  8
0
  6
Continuous
 62
     7
370
    15
100
AcDbCircle
 10
201.2435084428
 20
179.9991557223
 30
0.0
 40
2.25
  0
CIRCLE
  5
E3
330
1F
100
AcDbEntity
  8
0
  6
Continuous
 62
     7
370
    15
100
AcDbCircle
 10
201.2435084428
 20
134.9991557223
 30
0.0
 40
2.25
  0
CIRCLE
  5
E4
330
1F
100
AcDbEntity
  8
0
  6
Continuous
 62
     7
370
    15
100
AcDbCircle
 10
132.7435084428
 20
134.9991557223
 30
0.0
 40
2.25
  0
SPLINE
  5
E5
330
1F
100
AcDbEntity
  8
0
  6
Continuous
 62
     7
370
    15
100
AcDbSpline
210
0.0
220
0.0
230
1.0
 70
     8
 71
     3
 72
    13
 73
     9
 74
     0
 42
0.000000001
 43
0.00000001
 40
0.0
 40
0.0
 40
0.0
 40
0.0
 40
0.2399054980011638
 40
0.3688593783329199
 40
0.5004513471589431
 40
0.631977448839577
 40
0.760741716421259
 40
1.0
 40
1.0
 40
1.0
 40
1.0
 10
98.25978735917707
 20
192.2622402805934
 30
0.0
 10
98.2332840817519
 20
192.5082482896896
 30
0.0
 10
98.19253477622836
 20
192.8864903977537
 30
0.0
 10
97.9453323643985
 20
193.341812279641
 30
0.0
 10
97.68978993797646
 20
193.655225763802
 30
0.0
 10
97.37263912498004
 20
193.9083518510507
 30
0.0
 10
96.91161310248324
 20
194.1541230254682
 30
0.0
 10
96.52757214248365
 20
194.1973278555242
 30
0.0
 10
96.27789999434025
 20
194.225416116553
 30
0.0
  0
LINE
  5
E6
330
1F
100
AcDbEntity
  8
0
  6
Continuous
 62
     7
370
    15
100
AcDbLine
 10
98.7597873593
 20
184.7491557223
 30
0.0
 11
98.2597873593
 21
184.7491557223
 31
0.0
  0
LINE
  5
E7
330
1F
100
AcDbEntity
  8
0
  6
Continuous
 62
     7
370
    15
100
AcDbLine
 10
98.2597873593
 20
175.2491557223
 30
0.0
 11
98.7597873593
 21
175.2491557223
 31
0.0
  0
LINE
  5
E8
330
1F
100
AcDbEntity
  8
0
  6
Continuous
 62
     7
370
    15
100
AcDbLine
 10
98.7597873593
 20
139.7491557223
 30
0.0
 11
98.2597873593
 21
139.7491557223
 31
0.0
  0
LINE
  5
E9
330
1F
100
AcDbEntity
  8
0
  6
Continuous
 62
     7
370
    15
100
AcDbLine
 10
98.2597873593
 20
130.2491557223
 30
0.0
 11
98.7597873593
 21
130.2491557223
 31
0.0
  0
LINE
  5
EA
330
1F
100
AcDbEntity
  8
0
  6
Continuous
 62
     7
370
    15
100
AcDbLine
 10
58.2597873593
 20
189.0000695514
 30
0.0
 11
58.2597873593
 21
125.9982418933
 31
0.0
  0
LINE
  5
EB
330
1F
100
AcDbEntity
  8
0
  6
Continuous
 62
     7
370
    15
100
AcDbLine
 10
96.2946921722
 20
188.3361678174
 30
0.0
 11
58.2597873593
 21
189.0000695514
 31
0.0
  0
LINE
  5
EC
330
1F
100
AcDbEntity
  8
0
  6
Continuous
 62
     7
370
    15
100
AcDbLine
 10
96.2946921722
 20
188.3361678183
 30
0.0
 11
96.2946921722
 21
126.6623425677
 31
0.0
  0
LINE
  5
ED
330
1F
100
AcDbEntity
  8
0
  6
Continuous
 62
     7
370
    15
100
AcDbLine
 10
58.2597873593
 20
125.9982418933
 30
0.0
 11
96.2946914732
 21
126.6623425677
 31
0.0
  0
LINE
  5
EE
330
1F
100
AcDbEntity
  8
0
  6
Continuous
 62
     7
370
    15
100
AcDbLine
 10
58.2597873593
 20
125.9982418933
 30
0.0
 11
58.2597873593
 21
119.9991557223
 31
0.0
  0
SPLINE
  5
EF
330
1F
100
AcDbEntity
  8
0
  6
Continuous
 62
     7
370
    15
100
AcDbSpline
210
0.0
220
0.0
230
1.0
 70
     8
 71
     3
 72
    47
 73
    43
 74
     0
 42
0.000000001
 43
0.00000001
 40
0.0
 40
0.0
 40
0.0
 40
0.0
 40
0.0249848393114296
 40
0.0499821073990724
 40
0.0749864403608052
 40
0.0999925582988892
 40
0.1249956633178778
 40
0.149994470184454
 40
0.1749903145699112
 40
0.199984411014835
 40
0.2249779227617578
 40
0.2499721210542589
 40
0.2749679069531793
 40
0.299965091367376
 40
0.3249631853007808
 40
0.3499616670725762
 40
0.3749601642924383
 40
0.3999586684054524
 40
0.424957374174704
 40
0.4499562560084119
 40
0.4749551815218018
 40
0.4999540901649986
 40
0.5249531621511166
 40
0.5499526575418403
 40
0.5749525802650483
 40
0.5999528022280252
 40
0.624953242060117
 40
0.6499540306494259
 40
0.6749552933121362
 40
0.6999567528516829
 40
0.7249579173841415
 40
0.7499582665618995
 40
0.7749574460917551
 40
0.799955956108227
 40
0.8249550795090241
 40
0.8499560007663022
 40
0.8749598999246178
 40
0.8999681179271434
 40
0.924980805323419
 40
0.9499938457451468
 40
0.9750020327353263
 40
1.0
 40
1.0
 40
1.0
 40
1.0
 10
96.29469117201498
 20
126.6623425690344
 30
0.0
 10
96.29514117479584
 20
126.5838636813635
 30
0.0
 10
96.29604140421267
 20
126.426866866486
 30
0.0
 10
96.29730464510793
 20
126.1916937108041
 30
0.0
 10
96.29850465618824
 20
125.9571768798428
 30
0.0
 10
96.29963509152932
 20
125.7237253325172
 30
0.0
 10
96.30069766973494
 20
125.4917403414234
 30
0.0
 10
96.30169185616617
 20
125.2615973145764
 30
0.0
 10
96.30261766536111
 20
125.0336408827959
 30
0.0
 10
96.30347503690261
 20
124.8082080426817
 30
0.0
 10
96.30426394689307
 20
124.5856345213894
 30
0.0
 10
96.30498435463716
 20
124.3662601910501
 30
0.0
 10
96.30563622229597
 20
124.1504228177711
 30
0.0
 10
96.30621954070162
 20
123.9384423814719
 30
0.0
 10
96.30673428900819
 20
123.7306443311795
 30
0.0
 10
96.30718044877274
 20
123.5273534698846
 30
0.0
 10
96.30755800345342
 20
123.3288953590669
 30
0.0
 10
96.30786693553611
 20
123.1355943183893
 30
0.0
 10
96.30810722992473
 20
122.9477306392005
 30
0.0
 10
96.30827887894725
 20
122.7655841228058
 30
0.0
 10
96.30838187645605
 20
122.5894345049391
 30
0.0
 10
96.30841621812253
 20
122.4195602843873
 30
0.0
 10
96.3083819015661
 20
122.2562463613902
 30
0.0
 10
96.30827892892354
 20
122.0997291595145
 30
0.0
 10
96.3081073048561
 20
121.9502342644264
 30
0.0
 10
96.30786703570352
 20
121.8079903574457
 30
0.0
 10
96.30755812932111
 20
121.6732232087893
 30
0.0
 10
96.30718059851557
 20
121.5461686473301
 30
0.0
 10
96.30673446277729
 20
121.4270171960084
 30
0.0
 10
96.30621973891432
 20
121.3159271464979
 30
0.0
 10
96.30563644566014
 20
121.2130646048967
 30
0.0
 10
96.30498460455168
 20
121.1185922475355
 30
0.0
 10
96.30426422902005
 20
121.0326789511158
 30
0.0
 10
96.30347534360821
 20
120.955467340858
 30
0.0
 10
96.3026179975453
 20
120.8870475527675
 30
0.0
 10
96.30169221351245
 20
120.8275185880679
 30
0.0
 10
96.30069805665383
 20
120.7769710161203
 30
0.0
 10
96.29963546765728
 20
120.7355202811719
 30
0.0
 10
96.29850504028053
 20
120.7031966311389
 30
0.0
 10
96.29730505272902
 20
120.6802347292869
 30
0.0
 10
96.29604182650138
 20
120.6658114864938
 30
0.0
 10
96.29514166976973
 20
120.6639940107169
 30
0.0
 10
96.29469168338615
 20
120.6630854585466
 30
0.0
  0
LINE
  5
F0
330
1F
100
AcDbEntity
  8
0
  6
Continuous
 62
     7
370
    15
100
AcDbLine
 10
58.2597873593
 20
119.9991557223
 30
0.0
 11
96.2946921722
 21
120.6630574554
 31
0.0
  0
LINE
  5
F1
330
1F
100
AcDbEntity
  8
0
  6
Continuous
 62
     7
370
    15
100
AcDbLine
 10
58.2597873593
 20
194.9991557223
 30
0.0
 11
58.2597873593
 21
189.0000695514
 31
0.0
  0
LINE
  5
F2
330
1F
100
AcDbEntity
  8
0
  6
Continuous
 62
     7
370
    15
100
AcDbLine
 10
58.2597873593
 20
194.9991557223
 30
0.0
 11
96.2946914732
 21
194.3352540015
 31
0.0
  0
SPLINE
  5
F3
330
1F
100
AcDbEntity
  8
0
  6
Continuous
 62
     7
370
    15
100
AcDbSpline
210
0.0
220
0.0
230
1.0
 70
     8
 71
     3
 72
    10
 73
     6
 74
     0
 42
0.000000001
 43
0.00000001
 40
0.0
 40
0.0
 40
0.0
 40
0.0
 40
0.3584413386198033
 40
0.7136956373954865
 40
1.0
 40
1.0
 40
1.0
 40
1.0
 10
96.29469147311882
 20
194.3352539981835
 30
0.0
 10
96.29547762431433
 20
194.3323599636869
 30
0.0
 10
96.29704293673264
 20
194.326597626668
 30
0.0
 10
96.29906934141708
 20
194.2878207094531
 30
0.0
 10
96.30023525641978
 20
194.2430337290394
 30
0.0
 10
96.30075556200023
 20
194.2230469240094
 30
0.0
  0
SPLINE
  5
F4
330
1F
100
AcDbEntity
  8
0
  6
Continuous
 62
     7
370
    15
100
AcDbSpline
210
0.0
220
0.0
230
1.0
 70
     8
 71
     3
 72
    14
 73
    10
 74
     0
 42
0.000000001
 43
0.00000001
 40
0.0
 40
0.0
 40
0.0
 40
0.0
 40
0.25
 40
0.25
 40
0.5
 40
0.5
 40
0.75
 40
0.75
 40
1.0
 40
1.0
 40
1.0
 40
1.0
 10
96.29469147317737
 20
126.6623425677464
 30
0.0
 10
96.5535426084408
 20
126.6623259892939
 30
0.0
 10
96.81140818896122
 20
126.6623094108414
 30
0.0
 10
97.28714099167891
 20
126.6622762539364
 30
0.0
 10
97.50482918560276
 20
126.6622596754839
 30
0.0
 10
97.86774683960272
 20
126.6622265185789
 30
0.0
 10
98.01283972612192
 20
126.6622099401264
 30
0.0
 10
98.20889687618687
 20
126.6621767832214
 30
0.0
 10
98.25978735929772
 20
126.6621602047689
 30
0.0
 10
98.25978735929772
 20
126.6621436263164
 30
0.0
  0
SPLINE
  5
F5
330
1F
100
AcDbEntity
  8
0
  6
Continuous
 62
     7
370
    15
100
AcDbSpline
210
0.0
220
0.0
230
1.0
 70
    24
 71
     3
 72
    14
 73
    10
 74
     0
 42
0.000000001
 43
0.00000001
 40
0.0
 40
0.0
 40
0.0
 40
0.0
 40
0.25
 40
0.25
 40
0.5
 40
0.5
 40
0.75
 40
0.75
 40
1.0
 40
1.0
 40
1.0
 40
1.0
 10
98.25978735917708
 20
126.6621436266527
 30
0.0
 10
98.2597873591771
 20
126.138980800992
 30
0.0
 10
98.25978735917708
 20
125.6151506133638
 30
0.0
 10
98.25978735917707
 20
124.6479288636913
 30
0.0
 10
98.25978735917708
 20
124.2042393259138
 30
0.0
 10
98.2597873591771
 20
123.4638975385981
 30
0.0
 10
98.25978735917708
 20
123.167517992195
 30
0.0
 10
98.25978735917708
 20
122.7668071974277
 30
0.0
 10
98.25978735917704
 20
122.6628304798867
 30
0.0
 10
98.25978735917708
 20
122.6627528456862
 30
0.0
  0
SPLINE
  5
F6
330
1F
100
AcDbEntity
  8
0
  6
Continuous
 62
     7
370
    15
100
AcDbSpline
210
0.0
220
0.0
230
1.0
 70
     8
 71
     3
 72
    14
 73
    10
 74
     0
 42
0.000000001
 43
0.00000001
 40
0.0
 40
0.0
 40
0.0
 40
0.0
 40
0.25
 40
0.25
 40
0.5
 40
0.5
 40
0.75
 40
0.75
 40
1.0
 40
1.0
 40
1.0
 40
1.0
 10
98.25978735917707
 20
122.6627528456863
 30
0.0
 10
98.25978483517275
 20
122.429117861813
 30
0.0
 10
98.21759487132805
 20
122.1774707245169
 30
0.0
 10
98.02673343905653
 20
121.689929675604
 30
0.0
 10
97.87744531953089
 20
121.455480094982
 30
0.0
 10
97.49511293016744
 20
121.0664221454094
 30
0.0
 10
97.26330205966596
 20
120.9130688390492
 30
0.0
 10
96.77916352299155
 20
120.7137349031268
 30
0.0
 10
96.52829070095055
 20
120.6671628743882
 30
0.0
 10
96.29469168338615
 20
120.6630854585466
 30
0.0
  0
SPLINE
  5
F7
330
1F
100
AcDbEntity
  8
0
  6
Continuous
 62
     7
370
    15
100
AcDbSpline
210
0.0
220
0.0
230
1.0
 70
     8
 71
     3
 72
    26
 73
    22
 74
     0
 42
0.000000001
 43
0.00000001
 40
0.0
 40
0.0
 40
0.0
 40
0.0
 40
0.1249999999999989
 40
0.1249999999999989
 40
0.2499999999999979
 40
0.2499999999999979
 40
0.3749999999999968
 40
0.3749999999999968
 40
0.4374999999999972
 40
0.4374999999999972
 40
0.4999999999999976
 40
0.4999999999999976
 40
0.6249999999999982
 40
0.6249999999999982
 40
0.749999999999999
 40
0.749999999999999
 40
0.8749999999999997
 40
0.8749999999999997
 40
0.9374999999999999
 40
0.9374999999999999
 40
1.0
 40
1.0
 40
1.0
 40
1.0
 10
98.25978735927568
 20
138.6097733032942
 30
0.0
 10
98.25978609110012
 20
138.3788946910192
 30
0.0
 10
98.20702114440529
 20
138.1243714614578
 30
0.0
 10
98.04889413763833
 20
137.5725968859609
 30
0.0
 10
97.94546809085261
 20
137.285076622906
 30
0.0
 10
97.72882454315588
 20
136.6803698013511
 30
0.0
 10
97.61359887649854
 20
136.3610816000013
 30
0.0
 10
97.47836579488937
 20
135.8656336747914
 30
0.0
 10
97.43960972707703
 20
135.6970771216244
 30
0.0
 10
97.38496284781624
 20
135.3502825505975
 30
0.0
 10
97.36973437695251
 20
135.1729515563591
 30
0.0
 10
97.37036566060935
 20
134.6402939497256
 30
0.0
 10
97.43320079976213
 20
134.2974622317498
 30
0.0
 10
97.6154049420241
 20
133.6313042244828
 30
0.0
 10
97.7286460926895
 20
133.3184429745171
 30
0.0
 10
97.9448807063247
 20
132.714871140616
 30
0.0
 10
98.05006376945322
 20
132.4217718681021
 30
0.0
 10
98.1672384181016
 20
132.0126897568703
 30
0.0
 10
98.19980039518958
 20
131.8809699303738
 30
0.0
 10
98.2461088513364
 20
131.6266636223305
 30
0.0
 10
98.25978672639677
 20
131.5037573693542
 30
0.0
 10
98.25978735927568
 20
131.3885381413587
 30
0.0
  0
LINE
  5
F8
330
1F
100
AcDbEntity
  8
0
  6
Continuous
 62
     7
370
    15
100
AcDbLine
 10
98.2597873593
 20
126.6621436263
 30
0.0
 11
98.2597873593
 21
131.388549127
 31
0.0
  0
SPLINE
  5
F9
330
1F
100
AcDbEntity
  8
0
  6
Continuous
 62
     7
370
    15
100
AcDbSpline
210
0.0
220
0.0
230
1.0
 70
    24
 71
     3
 72
    14
 73
    10
 74
     0
 42
0.000000001
 43
0.00000001
 40
0.0
 40
0.0
 40
0.0
 40
0.0
 40
0.25
 40
0.25
 40
0.5
 40
0.5
 40
0.75
 40
0.75
 40
1.0
 40
1.0
 40
1.0
 40
1.0
 10
96.29469217217701
 20
188.3361678183364
 30
0.0
 10
96.55354324761112
 20
188.3361678183364
 30
0.0
 10
96.81140875103041
 20
188.3361678183364
 30
0.0
 10
97.28714139310861
 20
188.3361678183364
 30
0.0
 10
97.50482950371509
 20
188.3361678183364
 30
0.0
 10
97.8677470115004
 20
188.3361678183364
 30
0.0
 10
98.01283983529989
 20
188.3361678183364
 30
0.0
 10
98.20889689936672
 20
188.3361678183364
 30
0.0
 10
98.25978735929772
 20
188.3361678183364
 30
0.0
 10
98.25978735929772
 20
188.3361678183364
 30
0.0
  0
LINE
  5
FA
330
1F
100
AcDbEntity
  8
0
  6
Continuous
 62
     7
370
    15
100
AcDbLine
 10
98.2597873593
 20
183.6097623176
 30
0.0
 11
98.2597873593
 21
188.3361678183
 31
0.0
  0
SPLINE
  5
FB
330
1F
100
AcDbEntity
  8
0
  6
Continuous
 62
     7
370
    15
100
AcDbSpline
210
0.0
220
0.0
230
1.0
 70
     8
 71
     3
 72
    26
 73
    22
 74
     0
 42
0.000000001
 43
0.00000001
 40
0.0
 40
0.0
 40
0.0
 40
0.0
 40
0.1249999999999993
 40
0.1249999999999993
 40
0.2499999999999985
 40
0.2499999999999985
 40
0.3749999999999978
 40
0.3749999999999978
 40
0.4374999999999981
 40
0.4374999999999981
 40
0.4999999999999983
 40
0.4999999999999983
 40
0.6249999999999989
 40
0.6249999999999989
 40
0.7499999999999994
 40
0.7499999999999994
 40
0.8750000000000001
 40
0.8750000000000001
 40
0.9375
 40
0.9375
 40
1.0
 40
1.0
 40
1.0
 40
1.0
 10
98.25978735927568
 20
176.3885381413607
 30
0.0
 10
98.25978609109978
 20
176.6194167536357
 30
0.0
 10
98.20702114440424
 20
176.8739399831995
 30
0.0
 10
98.04889413763686
 20
177.4257145586963
 30
0.0
 10
97.94546809085107
 20
177.7132348217511
 30
0.0
 10
97.72882454315445
 20
178.3179416433058
 30
0.0
 10
97.61359887649724
 20
178.6372298446555
 30
0.0
 10
97.47836579488846
 20
179.1326777698651
 30
0.0
 10
97.4396097270763
 20
179.301234323032
 30
0.0
 10
97.3849628478159
 20
179.6480288940587
 30
0.0
 10
97.36973437695232
 20
179.8253598882972
 30
0.0
 10
97.3703656606097
 20
180.3580174949301
 30
0.0
 10
97.4332007997627
 20
180.7008492129056
 30
0.0
 10
97.61540494202477
 20
181.3670072201719
 30
0.0
 10
97.72864609269011
 20
181.6798684701374
 30
0.0
 10
97.94488070632508
 20
182.2834403040379
 30
0.0
 10
98.05006376945346
 20
182.5765395765516
 30
0.0
 10
98.16723841810172
 20
182.985621687783
 30
0.0
 10
98.19980039518965
 20
183.1173415142794
 30
0.0
 10
98.24610885133643
 20
183.3716478223225
 30
0.0
 10
98.25978672639658
 20
183.4945540752965
 30
0.0
 10
98.25978735927568
 20
183.6097733032921
 30
0.0
  0
LINE
  5
FC
330
1F
100
AcDbEntity
  8
0
  6
Continuous
 62
     7
370
    15
100
AcDbLine
 10
98.2597873593
 20
138.6097623176
 30
0.0
 11
98.2597873593
 21
176.388549127
 31
0.0
  0
SPLINE
  5
FD
330
1F
100
AcDbEntity
  8
0
  6
Continuous
 62
     7
370
    15
100
AcDbSpline
210
0.0
220
0.0
230
1.0
 70
    24
 71
     3
 72
    15
 73
    11
 74
     0
 42
0.000000001
 43
0.00000001
 40
0.0
 40
0.0
 40
0.0
 40
0.0
 40
0.1424118857779136
 40
0.2849508626302576
 40
0.4275152092871514
 40
0.5700854667265425
 40
0.7126665703264846
 40
0.8552464799302258
 40
0.9977544653494642
 40
1.0
 40
1.0
 40
1.0
 40
1.0
 10
98.25978735929772
 20
188.3361678183364
 30
0.0
 10
98.25978735929772
 20
188.5977724899631
 30
0.0
 10
98.25978735929772
 20
189.1212152941993
 30
0.0
 10
98.25978735929772
 20
189.8758677009478
 30
0.0
 10
98.25978735929773
 20
190.5723939725988
 30
0.0
 10
98.25978735929772
 20
191.1815125240779
 30
0.0
 10
98.25978735929772
 20
191.6863284246798
 30
0.0
 10
98.25978735929776
 20
192.0432377276182
 30
0.0
 10
98.25978735929763
 20
192.2348436324696
 30
0.0
 10
98.25978735929772
 20
192.2602510432437
 30
0.0
 10
98.25978735929772
 20
192.2606451837195
 30
0.0
  0
LINE
  5
FE
330
1F
100
AcDbEntity
  8
0
  6
Continuous
 62
     7
370
    15
100
AcDbLine
 10
98.7597873593
 20
175.2491557223
 30
0.0
 11
98.7597873593
 21
184.7491557223
 31
0.0
  0
LINE
  5
FF
330
1F
100
AcDbEntity
  8
0
  6
Continuous
 62
     7
370
    15
100
AcDbLine
 10
98.7597873593
 20
130.2491557223
 30
0.0
 11
98.7597873593
 21
139.7491557223
 31
0.0
  0
LINE
  5
100
330
1F
100
AcDbEntity
  8
0
  6
Continuous
 62
     7
370
    15
100
AcDbLine
 10
56.7597873593
 20
171.1250360477
 30
0.0
 11
56.7597873593
 21
143.873275397
 31
0.0
  0
LINE
  5
101
330
1F
100
AcDbEntity
  8
0
  6
Continuous
 62
     7
370
    15
100
AcDbLine
 10
58.2597873593
 20
171.1250360477
 30
0.0
 11
56.7597873593
 21
171.1250360477
 31
0.0
  0
LINE
  5
102
330
1F
100
AcDbEntity
  8
0
  6
Continuous
 62
     7
370
    15
100
AcDbLine
 10
58.2597873593
 20
143.873275397
 30
0.0
 11
56.7597873593
 21
143.873275397
 31
0.0
  0
LINE
  5
103
330
1F
100
AcDbEntity
  8
0
  6
Continuous
 62
     7
370
    15
100
AcDbLine
 10
56.7597873593
 20
175.7592985444
 30
0.0
 11
56.7597873593
 21
171.1250360477
 31
0.0
  0
LINE
  5
104
330
1F
100
AcDbEntity
  8
0
  6
Continuous
 62
     7
370
    15
100
AcDbLine
 10
58.2597873593
 20
175.7592985444
 30
0.0
 11
56.7597873593
 21
175.7592985444
 31
0.0
  0
LINE
  5
105
330
1F
100
AcDbEntity
  8
0
  6
Continuous
 62
     7
370
    15
100
AcDbLine
 10
56.7597873593
 20
143.873275397
 30
0.0
 11
56.7597873593
 21
139.2390129002
 31
0.0
  0
LINE
  5
106
330
1F
100
AcDbEntity
  8
0
  6
Continuous
 62
     7
370
    15
100
AcDbLine
 10
56.7597873593
 20
139.2390129002
 30
0.0
 11
58.2597873593
 21
139.2390129002
 31
0.0
  0
LINE
  5
107
330
1F
100
AcDbEntity
  8
0
  6
Continuous
 62
     7
370
    15
100
AcDbLine
 10
56.7597873593
 20
179.9991557223
 30
0.0
 11
58.2597873593
 21
179.9991557223
 31
0.0
  0
LINE
  5
108
330
1F
100
AcDbEntity
  8
0
  6
Continuous
 62
     7
370
    15
100
AcDbLine
 10
56.7597873593
 20
175.7592985444
 30
0.0
 11
56.7597873593
 21
179.9991557223
 31
0.0
  0
LINE
  5
109
330
1F
100
AcDbEntity
  8
0
  6
Continuous
 62
     7
370
    15
100
AcDbLine
 10
58.2597873593
 20
134.9991557223
 30
0.0
 11
56.7597873593
 21
134.9991557223
 31
0.0
  0
LINE
  5
10A
330
1F
100
AcDbEntity
  8
0
  6
Continuous
 62
     7
370
    15
100
AcDbLine
 10
56.7597873593
 20
134.9991557223
 30
0.0
 11
56.7597873593
 21
139.2390129002
 31
0.0
  0
LINE
  5
10B
330
1F
100
AcDbEntity
  8
0
  6
Continuous
 62
     7
370
    15
100
AcDbLine
 10
58.2597873593
 20
187.7491557223
 30
0.0
 11
56.7597873593
 21
187.7491557223
 31
0.0
  0
LINE
  5
10C
330
1F
100
AcDbEntity
  8
0
  6
Continuous
 62
     7
370
    15
100
AcDbLine
 10
56.7597873593
 20
187.7491557223
 30
0.0
 11
56.7597873593
 21
179.9991557223
 31
0.0
  0
LINE
  5
10D
330
1F
100
AcDbEntity
  8
0
  6
Continuous
 62
     7
370
    15
100
AcDbLine
 10
58.2597873593
 20
127.2491557223
 30
0.0
 11
56.7597873593
 21
127.2491557223
 31
0.0
  0
LINE
  5
10E
330
1F
100
AcDbEntity
  8
0
  6
Continuous
 62
     7
370
    15
100
AcDbLine
 10
56.7597873593
 20
134.9991557223
 30
0.0
 11
56.7597873593
 21
127.2491557223
 31
0.0
  0
LINE
  5
10F
330
1F
100
AcDbEntity
  8
0
  6
Continuous
 62
     7
370
    15
100
AcDbLine
 10
56.7597873593
 20
192.4491557223
 30
0.0
 11
58.2597873593
 21
192.4491557223
 31
0.0
  0
LINE
  5
110
330
1F
100
AcDbEntity
  8
0
  6
Continuous
 62
     7
370
    15
100
AcDbLine
 10
56.7597873593
 20
192.4491557223
 30
0.0
 11
56.7597873593
 21
187.7491557223
 31
0.0
  0
LINE
  5
111
330
1F
100
AcDbEntity
  8
0
  6
Continuous
 62
     7
370
    15
100
AcDbLine
 10
58.2597873593
 20
122.5491557223
 30
0.0
 11
56.7597873593
 21
122.5491557223
 31
0.0
  0
LINE
  5
112
330
1F
100
AcDbEntity
  8
0
  6
Continuous
 62
     7
370
    15
100
AcDbLine
 10
56.7597873593
 20
127.2491557223
 30
0.0
 11
56.7597873593
 21
122.5491557223
 31
0.0
  0
SPLINE
  5
113
330
1F
100
AcDbEntity
  8
0
  6
Continuous
 62
     8
370
    15
100
AcDbSpline
210
0.0
220
0.0
230
1.0
 70
     8
 71
     3
 72
    15
 73
    11
 74
     0
 42
0.000000001
 43
0.00000001
 40
0.0
 40
0.0
 40
0.0
 40
0.0
 40
0.0091697025609831
 40
0.1535251428339085
 40
0.2939535321647285
 40
0.4304550887273479
 40
0.566987045395829
 40
0.7074217167220896
 40
0.8517593336886253
 40
1.0
 40
1.0
 40
1.0
 40
1.0
 10
96.30075556200023
 20
194.2230469240094
 30
0.0
 10
96.30087774249677
 20
194.2188346675604
 30
0.0
 10
96.3029233680835
 20
194.1483103219034
 30
0.0
 10
96.30595952008069
 20
193.8881091635071
 30
0.0
 10
96.30862944340352
 20
193.3343222545207
 30
0.0
 10
96.30939695827288
 20
192.6027331360979
 30
0.0
 10
96.30862444019638
 20
191.7209965159653
 30
0.0
 10
96.30597487228287
 20
190.6968040424426
 30
0.0
 10
96.30141054280205
 20
189.5518790648467
 30
0.0
 10
96.2969514573981
 20
188.7449929042566
 30
0.0
 10
96.29469217217701
 20
188.3361678173664
 30
0.0
  0
SPLINE
  5
114
330
1F
100
AcDbEntity
  8
0
  6
Continuous
 62
     7
370
    15
100
AcDbSpline
210
0.0
220
0.0
230
1.0
 70
     8
 71
     3
 72
    13
 73
     9
 74
     0
 42
0.000000001
 43
0.00000001
 40
0.0
 40
0.0
 40
0.0
 40
0.0
 40
0.2399054980009875
 40
0.3688593783327386
 40
0.500451347158795
 40
0.6319774488394795
 40
0.7607417164212067
 40
1.0
 40
1.0
 40
1.0
 40
1.0
 10
204.2565930021815
 20
214.297154479472
 30
0.0
 10
204.5026010112412
 20
214.3236577568972
 30
0.0
 10
204.8808431192494
 20
214.3644070624208
 30
0.0
 10
205.3361650009994
 20
214.6116094742506
 30
0.0
 10
205.6495784850262
 20
214.8671519006726
 30
0.0
 10
205.9027045721108
 20
215.184302713669
 30
0.0
 10
206.1484757462869
 20
215.6453287361658
 30
0.0
 10
206.1916805761196
 20
216.0293696961654
 30
0.0
 10
206.2197688370033
 20
216.2790418443089
 30
0.0
  0
LINE
  5
115
330
1F
100
AcDbEntity
  8
0
  6
Continuous
 62
     7
370
    15
100
AcDbLine
 10
137.4935084428
 20
213.7971544794
 30
0.0
 11
137.4935084428
 21
214.2971544794
 31
0.0
  0
LINE
  5
116
330
1F
100
AcDbEntity
  8
0
  6
Continuous
 62
     7
370
    15
100
AcDbLine
 10
127.9935084428
 20
215.18699926
 30
0.0
 11
127.9935084428
 21
213.7971544794
 31
0.0
  0
LINE
  5
117
330
1F
100
AcDbEntity
  8
0
  6
Continuous
 62
     7
370
    15
100
AcDbLine
 10
205.9935084428
 20
213.7971544794
 30
0.0
 11
205.9935084428
 21
215.18699926
 31
0.0
  0
LINE
  5
118
330
1F
100
AcDbEntity
  8
0
  6
Continuous
 62
     7
370
    15
100
AcDbLine
 10
196.4935084428
 20
214.2971544794
 30
0.0
 11
196.4935084428
 21
213.7971544794
 31
0.0
  0
LINE
  5
119
330
1F
100
AcDbEntity
  8
0
  6
Continuous
 62
     7
370
    15
100
AcDbLine
 10
200.9944222718
 20
254.2971544794
 30
0.0
 11
132.9925946137
 21
254.2971544794
 31
0.0
  0
LINE
  5
11A
330
1F
100
AcDbEntity
  8
0
  6
Continuous
 62
     7
370
    15
100
AcDbLine
 10
200.9944222718
 20
254.2971544794
 30
0.0
 11
200.3305205378
 21
216.2622496665
 31
0.0
  0
LINE
  5
11B
330
1F
100
AcDbEntity
  8
0
  6
Continuous
 62
     7
370
    15
100
AcDbLine
 10
200.3305205388
 20
216.2622496665
 30
0.0
 11
133.6566952882
 21
216.2622496665
 31
0.0
  0
LINE
  5
11C
330
1F
100
AcDbEntity
  8
0
  6
Continuous
 62
     7
370
    15
100
AcDbLine
 10
132.9925946137
 20
254.2971544794
 30
0.0
 11
133.6566952882
 21
216.2622503655
 31
0.0
  0
LINE
  5
11D
330
1F
100
AcDbEntity
  8
0
  6
Continuous
 62
     7
370
    15
100
AcDbLine
 10
206.9935084428
 20
254.2971544794
 30
0.0
 11
200.9944222718
 21
254.2971544794
 31
0.0
  0
LINE
  5
11E
330
1F
100
AcDbEntity
  8
0
  6
Continuous
 62
     7
370
    15
100
AcDbLine
 10
206.9935084428
 20
254.2971544794
 30
0.0
 11
206.3296067219
 21
216.2622503655
 31
0.0
  0
LINE
  5
11F
330
1F
100
AcDbEntity
  8
0
  6
Continuous
 62
     7
370
    15
100
AcDbLine
 10
206.3296067186
 20
216.2622503655
 30
0.0
 11
206.2122644646
 21
216.2562187488
 31
0.0
  0
LINE
  5
120
330
1F
100
AcDbEntity
  8
0
  6
Continuous
 62
     7
370
    15
100
AcDbLine
 10
132.9925946137
 20
254.2971544794
 30
0.0
 11
126.9935084428
 21
254.2971544794
 31
0.0
  0
SPLINE
  5
121
330
1F
100
AcDbEntity
  8
0
  6
Continuous
 62
     7
370
    15
100
AcDbSpline
210
0.0
220
0.0
230
1.0
 70
     8
 71
     3
 72
    47
 73
    43
 74
     0
 42
0.000000001
 43
0.00000001
 40
0.0
 40
0.0
 40
0.0
 40
0.0
 40
0.0249848393114469
 40
0.049982107399106
 40
0.0749864403608563
 40
0.0999925582989545
 40
0.1249956633179588
 40
0.1499944701845462
 40
0.174990314570015
 40
0.19998441101495
 40
0.2249779227618835
 40
0.2499721210543956
 40
0.2749679069533238
 40
0.29996509136753
 40
0.3249631853009413
 40
0.3499616670727435
 40
0.3749601642926117
 40
0.399958668405629
 40
0.4249573741748828
 40
0.4499562560085927
 40
0.4749551815219854
 40
0.4999540901651826
 40
0.5249531621513002
 40
0.5499526575420215
 40
0.5749525802652278
 40
0.5999528022282015
 40
0.624953242060289
 40
0.6499540306495937
 40
0.6749552933122958
 40
0.699956752851837
 40
0.7249579173842873
 40
0.7499582665620358
 40
0.774957446091882
 40
0.7999559561083445
 40
0.8249550795091303
 40
0.8499560007663947
 40
0.8749598999246975
 40
0.8999681179272084
 40
0.9249808053234664
 40
0.949993845745182
 40
0.9750020327353429
 40
1.0
 40
1.0
 40
1.0
 40
1.0
 10
133.6566952894847
 20
216.2622506666341
 30
0.0
 10
133.5782164018138
 20
216.2618006638532
 30
0.0
 10
133.4212195869362
 20
216.2609004344364
 30
0.0
 10
133.1860464312541
 20
216.2596371935412
 30
0.0
 10
132.9515296002926
 20
216.2584371824608
 30
0.0
 10
132.718078052967
 20
216.2573067471198
 30
0.0
 10
132.486093061873
 20
216.2562441689141
 30
0.0
 10
132.2559500350259
 20
216.2552499824829
 30
0.0
 10
132.0279936032453
 20
216.254324173288
 30
0.0
 10
131.8025607631309
 20
216.2534668017464
 30
0.0
 10
131.5799872418386
 20
216.252677891756
 30
0.0
 10
131.3606129114992
 20
216.2519574840119
 30
0.0
 10
131.1447755382202
 20
216.2513056163531
 30
0.0
 10
130.932795101921
 20
216.2507222979474
 30
0.0
 10
130.7249970516285
 20
216.2502075496409
 30
0.0
 10
130.5217061903335
 20
216.2497613898763
 30
0.0
 10
130.323248079516
 20
216.2493838351957
 30
0.0
 10
130.1299470388382
 20
216.2490749031129
 30
0.0
 10
129.9420833596495
 20
216.2488346087243
 30
0.0
 10
129.7599368432549
 20
216.2486629597018
 30
0.0
 10
129.5837872253882
 20
216.248559962193
 30
0.0
 10
129.4139130048364
 20
216.2485256205266
 30
0.0
 10
129.2505990818394
 20
216.2485599370829
 30
0.0
 10
129.0940818799637
 20
216.2486629097256
 30
0.0
 10
128.9445869848757
 20
216.248834533793
 30
0.0
 10
128.8023430778951
 20
216.2490748029455
 30
0.0
 10
128.6675759292388
 20
216.249383709328
 30
0.0
 10
128.5405213677796
 20
216.2497612401335
 30
0.0
 10
128.4213699164581
 20
216.2502073758718
 30
0.0
 10
128.3102798669476
 20
216.2507220997348
 30
0.0
 10
128.2074173253465
 20
216.2513053929889
 30
0.0
 10
128.1129449679853
 20
216.2519572340974
 30
0.0
 10
128.0270316715658
 20
216.252677609629
 30
0.0
 10
127.949820061308
 20
216.2534664950408
 30
0.0
 10
127.8814002732175
 20
216.2543238411038
 30
0.0
 10
127.8218713085181
 20
216.2552496251366
 30
0.0
 10
127.7713237365706
 20
216.2562437819953
 30
0.0
 10
127.7298730016221
 20
216.2573063709918
 30
0.0
 10
127.6975493515891
 20
216.2584367983685
 30
0.0
 10
127.6745874497373
 20
216.2596367859201
 30
0.0
 10
127.6601642069441
 20
216.2609000121477
 30
0.0
 10
127.6583467311672
 20
216.2618001688793
 30
0.0
 10
127.657438178997
 20
216.2622501552629
 30
0.0
  0
LINE
  5
122
330
1F
100
AcDbEntity
  8
0
  6
Continuous
 62
     7
370
    15
100
AcDbLine
 10
126.9935084428
 20
254.2971544794
 30
0.0
 11
127.6574101758
 21
216.2622496665
 31
0.0
  0
SPLINE
  5
123
330
1F
100
AcDbEntity
  8
0
  6
Continuous
 62
     7
370
    15
100
AcDbSpline
210
0.0
220
0.0
230
1.0
 70
     8
 71
     3
 72
    14
 73
    10
 74
     0
 42
0.000000001
 43
0.00000001
 40
0.0
 40
0.0
 40
0.0
 40
0.0
 40
0.25
 40
0.25
 40
0.5
 40
0.5
 40
0.75
 40
0.75
 40
1.0
 40
1.0
 40
1.0
 40
1.0
 10
133.6566952881968
 20
216.2622503654717
 30
0.0
 10
133.6566787097443
 20
216.0033992302083
 30
0.0
 10
133.6566621312917
 20
215.7455336496878
 30
0.0
 10
133.6566289743868
 20
215.2698008469702
 30
0.0
 10
133.6566123959343
 20
215.0521126530463
 30
0.0
 10
133.6565792390293
 20
214.6891949990464
 30
0.0
 10
133.6565626605768
 20
214.5441021125271
 30
0.0
 10
133.6565295036718
 20
214.3480449624622
 30
0.0
 10
133.6565129252192
 20
214.2971544793513
 30
0.0
 10
133.6564963467668
 20
214.2971544793513
 30
0.0
  0
SPLINE
  5
124
330
1F
100
AcDbEntity
  8
0
  6
Continuous
 62
     7
370
    15
100
AcDbSpline
210
0.0
220
0.0
230
1.0
 70
    24
 71
     3
 72
    14
 73
    10
 74
     0
 42
0.000000001
 43
0.00000001
 40
0.0
 40
0.0
 40
0.0
 40
0.0
 40
0.25
 40
0.25
 40
0.5
 40
0.5
 40
0.75
 40
0.75
 40
1.0
 40
1.0
 40
1.0
 40
1.0
 10
133.656496347103
 20
214.297154479472
 30
0.0
 10
133.1333335214423
 20
214.297154479472
 30
0.0
 10
132.6095033338141
 20
214.297154479472
 30
0.0
 10
131.6422815841416
 20
214.297154479472
 30
0.0
 10
131.1985920463641
 20
214.297154479472
 30
0.0
 10
130.4582502590485
 20
214.297154479472
 30
0.0
 10
130.1618707126453
 20
214.297154479472
 30
0.0
 10
129.761159917878
 20
214.297154479472
 30
0.0
 10
129.657183200337
 20
214.297154479472
 30
0.0
 10
129.6571055661365
 20
214.297154479472
 30
0.0
  0
SPLINE
  5
125
330
1F
100
AcDbEntity
  8
0
  6
Continuous
 62
     7
370
    15
100
AcDbSpline
210
0.0
220
0.0
230
1.0
 70
     8
 71
     3
 72
    14
 73
    10
 74
     0
 42
0.000000001
 43
0.00000001
 40
0.0
 40
0.0
 40
0.0
 40
0.0
 40
0.25
 40
0.25
 40
0.5
 40
0.5
 40
0.75
 40
0.75
 40
1.0
 40
1.0
 40
1.0
 40
1.0
 10
129.6571055661366
 20
214.297154479472
 30
0.0
 10
129.4234705822633
 20
214.2971570034763
 30
0.0
 10
129.1718234449672
 20
214.339346967321
 30
0.0
 10
128.6842823960543
 20
214.5302083995926
 30
0.0
 10
128.4498328154324
 20
214.6794965191182
 30
0.0
 10
128.0607748658598
 20
215.0618289084817
 30
0.0
 10
127.9074215594996
 20
215.2936397789831
 30
0.0
 10
127.7080876235772
 20
215.7777783156575
 30
0.0
 10
127.6615155948385
 20
216.0286511376985
 30
0.0
 10
127.6574381789969
 20
216.2622501552629
 30
0.0
  0
SPLINE
  5
126
330
1F
100
AcDbEntity
  8
0
  6
Continuous
 62
     7
370
    15
100
AcDbSpline
210
0.0
220
0.0
230
1.0
 70
     8
 71
     3
 72
    14
 73
    10
 74
     0
 42
0.000000001
 43
0.00000001
 40
0.0
 40
0.0
 40
0.0
 40
0.0
 40
0.25
 40
0.25
 40
0.5
 40
0.5
 40
0.75
 40
0.75
 40
1.0
 40
1.0
 40
1.0
 40
1.0
 10
200.330520430927
 20
214.297154479472
 30
0.0
 10
200.3305204430741
 20
214.2971570034763
 30
0.0
 10
200.3305204561574
 20
214.339346967321
 30
0.0
 10
200.3305204815049
 20
214.5302083995925
 30
0.0
 10
200.3305204936939
 20
214.6794965191182
 30
0.0
 10
200.330520513921
 20
215.0618289084816
 30
0.0
 10
200.3305205218938
 20
215.2936397789831
 30
0.0
 10
200.3305205322574
 20
215.7777783156575
 30
0.0
 10
200.330520534679
 20
216.0286511376985
 30
0.0
 10
200.3305205348914
 20
216.2622501552629
 30
0.0
  0
LINE
  5
127
330
1F
100
AcDbEntity
  8
0
  6
Continuous
 62
     7
370
    15
100
AcDbLine
 10
133.6564963468
 20
214.2971544794
 30
0.0
 11
200.3305205388
 21
214.2971544794
 31
0.0
  0
SPLINE
  5
128
330
1F
100
AcDbEntity
  8
0
  6
Continuous
 62
     7
370
    15
100
AcDbSpline
210
0.0
220
0.0
230
1.0
 70
    24
 71
     3
 72
    15
 73
    11
 74
     0
 42
0.000000001
 43
0.00000001
 40
0.0
 40
0.0
 40
0.0
 40
0.0
 40
0.142411885623182
 40
0.2849508623237297
 40
0.4275152088272931
 40
0.5700854661133502
 40
0.7126665695599432
 40
0.8552464790103395
 40
0.9977544642767452
 40
1.0
 40
1.0
 40
1.0
 40
1.0
 10
200.3305205387867
 20
214.2971544793513
 30
0.0
 10
200.5921252104104
 20
214.2971544793513
 30
0.0
 10
201.115568014646
 20
214.2971544793513
 30
0.0
 10
201.8702204213967
 20
214.2971544793513
 30
0.0
 10
202.5667466930461
 20
214.2971544793513
 30
0.0
 10
203.1758652445397
 20
214.2971544793513
 30
0.0
 10
203.6806811450877
 20
214.2971544793513
 30
0.0
 10
204.0375904482273
 20
214.2971544793514
 30
0.0
 10
204.2291963532924
 20
214.2971544793513
 30
0.0
 10
204.2546037640823
 20
214.2971544793513
 30
0.0
 10
204.2549979047441
 20
214.2971544793513
 30
0.0
  0
LINE
  5
129
330
1F
100
AcDbEntity
  8
0
  6
Continuous
 62
     7
370
    15
100
AcDbLine
 10
192.2435084428
 20
255.7971544794
 30
0.0
 11
141.7435084428
 21
255.7971544794
 31
0.0
  0
LINE
  5
12A
330
1F
100
AcDbEntity
  8
0
  6
Continuous
 62
     7
370
    15
100
AcDbLine
 10
192.2435084428
 20
254.2971544794
 30
0.0
 11
192.2435084428
 21
255.7971544794
 31
0.0
  0
LINE
  5
12B
330
1F
100
AcDbEntity
  8
0
  6
Continuous
 62
     7
370
    15
100
AcDbLine
 10
141.7435084428
 20
254.2971544794
 30
0.0
 11
141.7435084428
 21
255.7971544794
 31
0.0
  0
LINE
  5
12C
330
1F
100
AcDbEntity
  8
0
  6
Continuous
 62
     7
370
    15
100
AcDbLine
 10
196.9435084428
 20
254.2971544794
 30
0.0
 11
196.9435084428
 21
255.7971544794
 31
0.0
  0
LINE
  5
12D
330
1F
100
AcDbEntity
  8
0
  6
Continuous
 62
     7
370
    15
100
AcDbLine
 10
196.9435084428
 20
255.7971544794
 30
0.0
 11
192.2435084428
 21
255.7971544794
 31
0.0
  0
LINE
  5
12E
330
1F
100
AcDbEntity
  8
0
  6
Continuous
 62
     7
370
    15
100
AcDbLine
 10
137.0435084428
 20
254.2971544794
 30
0.0
 11
137.0435084428
 21
255.7971544794
 31
0.0
  0
LINE
  5
12F
330
1F
100
AcDbEntity
  8
0
  6
Continuous
 62
     7
370
    15
100
AcDbLine
 10
141.7435084428
 20
255.7971544794
 30
0.0
 11
137.0435084428
 21
255.7971544794
 31
0.0
  0
LINE
  5
130
330
1F
100
AcDbEntity
  8
0
  6
Continuous
 62
     7
370
    15
100
AcDbLine
 10
127.9935084428
 20
213.7971544794
 30
0.0
 11
137.4935084428
 21
213.7971544794
 31
0.0
  0
LINE
  5
131
330
1F
100
AcDbEntity
  8
0
  6
Continuous
 62
     7
370
    15
100
AcDbLine
 10
196.4935084428
 20
213.7971544794
 30
0.0
 11
205.9935084428
 21
213.7971544794
 31
0.0
  0
LINE
  5
132
330
1F
100
AcDbEntity
  8
0
  6
Continuous
 62
     7
370
    15
100
AcDbLine
 10
200.5268417761
 20
255.7971544794
 30
0.0
 11
200.5268417761
 21
254.2971544794
 31
0.0
  0
LINE
  5
133
330
1F
100
AcDbEntity
  8
0
  6
Continuous
 62
     7
370
    15
100
AcDbLine
 10
196.9435084428
 20
255.7971544794
 30
0.0
 11
200.5268417761
 21
255.7971544794
 31
0.0
  0
LINE
  5
134
330
1F
100
AcDbEntity
  8
0
  6
Continuous
 62
     7
370
    15
100
AcDbLine
 10
133.4601751094
 20
254.2971544794
 30
0.0
 11
133.4601751094
 21
255.7971544794
 31
0.0
  0
LINE
  5
135
330
1F
100
AcDbEntity
  8
0
  6
Continuous
 62
     7
370
    15
100
AcDbLine
 10
133.4601751094
 20
255.7971544794
 30
0.0
 11
137.0435084428
 21
255.7971544794
 31
0.0
  0
LINE
  5
136
330
1F
100
AcDbEntity
  8
0
  6
Continuous
 62
     7
370
    15
100
AcDbLine
 10
129.5435084428
 20
254.2971544794
 30
0.0
 11
129.5435084428
 21
255.7971544794
 31
0.0
  0
LINE
  5
137
330
1F
100
AcDbEntity
  8
0
  6
Continuous
 62
     7
370
    15
100
AcDbLine
 10
133.4601751094
 20
255.7971544794
 30
0.0
 11
129.5435084428
 21
255.7971544794
 31
0.0
  0
LINE
  5
138
330
1F
100
AcDbEntity
  8
0
  6
Continuous
 62
     7
370
    15
100
AcDbLine
 10
204.4435084428
 20
254.2971544794
 30
0.0
 11
204.4435084428
 21
255.7971544794
 31
0.0
  0
LINE
  5
139
330
1F
100
AcDbEntity
  8
0
  6
Continuous
 62
     7
370
    15
100
AcDbLine
 10
204.4435084428
 20
255.7971544794
 30
0.0
 11
200.5268417761
 21
255.7971544794
 31
0.0
  0
SPLINE
  5
13A
330
1F
100
AcDbEntity
  8
0
  6
Continuous
 62
     8
370
    15
100
AcDbSpline
210
0.0
220
0.0
230
1.0
 70
     8
 71
     3
 72
    15
 73
    11
 74
     0
 42
0.000000001
 43
0.00000001
 40
0.0
 40
0.0
 40
0.0
 40
0.0
 40
0.0091628389910937
 40
0.1535202971874911
 40
0.2939503892370292
 40
0.4304533331738484
 40
0.5669857106856189
 40
0.7074208148848181
 40
0.8517588767546493
 40
1.0
 40
1.0
 40
1.0
 40
1.0
 10
206.2122644645755
 20
216.2562187488318
 30
0.0
 10
206.2098244810929
 20
216.256085412855
 30
0.0
 10
206.1689433753831
 20
216.2538514132396
 30
0.0
 10
205.871135761534
 20
216.2510544053591
 30
0.0
 10
205.3315884023591
 20
216.2482939081424
 30
0.0
 10
204.5963187072584
 20
216.2475497708559
 30
0.0
 10
203.7155616587141
 20
216.2483160474176
 30
0.0
 10
202.69109771634
 20
216.2509673419104
 30
0.0
 10
201.546247186583
 20
216.2555311978927
 30
0.0
 10
200.7393508039238
 20
216.2599903483105
 30
0.0
 10
200.3305205378168
 20
216.2622496664721
 30
0.0
  0
SPLINE
  5
13B
330
1F
100
AcDbEntity
  8
0
  6
Continuous
 62
     7
370
    15
100
AcDbSpline
210
0.0
220
0.0
230
1.0
 70
     8
 71
     3
 72
    13
 73
     9
 74
     0
 42
0.000000001
 43
0.00000001
 40
0.0
 40
0.0
 40
0.0
 40
0.0
 40
0.2399054980011469
 40
0.3688593783328958
 40
0.5004513471589169
 40
0.6319774488395515
 40
0.7607417164212406
 40
1.0
 40
1.0
 40
1.0
 40
1.0
 10
129.7304238832729
 20
92.17564101771366
 30
0.0
 10
129.4844158742162
 20
92.1491377402885
 30
0.0
 10
129.1061737662126
 20
92.10838843476492
 30
0.0
 10
128.6508518844744
 20
91.86118602293507
 30
0.0
 10
128.3374384004593
 20
91.60564359651303
 30
0.0
 10
128.0843123133892
 20
91.28849278351662
 30
0.0
 10
127.8385411392343
 20
90.82746676101979
 30
0.0
 10
127.7953363094212
 20
90.4434258010202
 30
0.0
 10
127.7672480485502
 20
90.19375365287681
 30
0.0
  0
LINE
  5
13C
330
1F
100
AcDbEntity
  8
0
  6
Continuous
 62
     7
370
    15
100
AcDbLine
 10
196.4935084428
 20
92.6756410178
 30
0.0
 11
196.4935084428
 21
92.1756410178
 31
0.0
  0
LINE
  5
13D
330
1F
100
AcDbEntity
  8
0
  6
Continuous
 62
     7
370
    15
100
AcDbLine
 10
205.9935084428
 20
91.2857962372
 30
0.0
 11
205.9935084428
 21
92.6756410178
 31
0.0
  0
LINE
  5
13E
330
1F
100
AcDbEntity
  8
0
  6
Continuous
 62
     7
370
    15
100
AcDbLine
 10
127.9935084428
 20
92.6756410178
 30
0.0
 11
127.9935084428
 21
91.2857962372
 31
0.0
  0
LINE
  5
13F
330
1F
100
AcDbEntity
  8
0
  6
Continuous
 62
     7
370
    15
100
AcDbLine
 10
137.4935084428
 20
92.1756410178
 30
0.0
 11
137.4935084428
 21
92.6756410178
 31
0.0
  0
LINE
  5
140
330
1F
100
AcDbEntity
  8
0
  6
Continuous
 62
     7
370
    15
100
AcDbLine
 10
132.9925946137
 20
52.1756410178
 30
0.0
 11
200.9944222718
 21
52.1756410178
 31
0.0
  0
LINE
  5
141
330
1F
100
AcDbEntity
  8
0
  6
Continuous
 62
     7
370
    15
100
AcDbLine
 10
132.9925946137
 20
52.1756410178
 30
0.0
 11
133.6564963468
 21
90.2105458307
 31
0.0
  0
LINE
  5
142
330
1F
100
AcDbEntity
  8
0
  6
Continuous
 62
     7
370
    15
100
AcDbLine
 10
133.6564963468
 20
90.2105458307
 30
0.0
 11
200.3303215974
 21
90.2105458307
 31
0.0
  0
LINE
  5
143
330
1F
100
AcDbEntity
  8
0
  6
Continuous
 62
     7
370
    15
100
AcDbLine
 10
200.9944222718
 20
52.1756410178
 30
0.0
 11
200.3303215974
 21
90.2105451317
 31
0.0
  0
LINE
  5
144
330
1F
100
AcDbEntity
  8
0
  6
Continuous
 62
     7
370
    15
100
AcDbLine
 10
200.9944222718
 20
52.1756410178
 30
0.0
 11
206.9935084428
 21
52.1756410178
 31
0.0
  0
SPLINE
  5
145
330
1F
100
AcDbEntity
  8
0
  6
Continuous
 62
     7
370
    15
100
AcDbSpline
210
0.0
220
0.0
230
1.0
 70
     8
 71
     3
 72
    47
 73
    43
 74
     0
 42
0.000000001
 43
0.00000001
 40
0.0
 40
0.0
 40
0.0
 40
0.0
 40
0.0249848393114469
 40
0.049982107399106
 40
0.0749864403608563
 40
0.0999925582989545
 40
0.1249956633179588
 40
0.1499944701845462
 40
0.174990314570015
 40
0.19998441101495
 40
0.2249779227618835
 40
0.2499721210543956
 40
0.2749679069533238
 40
0.29996509136753
 40
0.3249631853009413
 40
0.3499616670727435
 40
0.3749601642926117
 40
0.399958668405629
 40
0.4249573741748828
 40
0.4499562560085927
 40
0.4749551815219854
 40
0.4999540901651826
 40
0.5249531621513002
 40
0.5499526575420215
 40
0.5749525802652278
 40
0.5999528022282015
 40
0.624953242060289
 40
0.6499540306495937
 40
0.6749552933122958
 40
0.699956752851837
 40
0.7249579173842873
 40
0.7499582665620358
 40
0.774957446091882
 40
0.7999559561083445
 40
0.8249550795091303
 40
0.8499560007663947
 40
0.8749598999246975
 40
0.8999681179272084
 40
0.9249808053234664
 40
0.949993845745182
 40
0.9750020327353429
 40
1.0
 40
1.0
 40
1.0
 40
1.0
 10
200.3303215960688
 20
90.21054483055154
 30
0.0
 10
200.4088004837397
 20
90.21099483333242
 30
0.0
 10
200.5657972986173
 20
90.21189506274925
 30
0.0
 10
200.8009704542994
 20
90.21315830364448
 30
0.0
 10
201.0354872852609
 20
90.21435831472482
 30
0.0
 10
201.2689388325865
 20
90.21548875006586
 30
0.0
 10
201.5009238236806
 20
90.21655132827154
 30
0.0
 10
201.7310668505276
 20
90.21754551470273
 30
0.0
 10
201.9590232823082
 20
90.21847132389767
 30
0.0
 10
202.1844561224226
 20
90.21932869543919
 30
0.0
 10
202.4070296437149
 20
90.22011760542962
 30
0.0
 10
202.6264039740543
 20
90.22083801317375
 30
0.0
 10
202.8422413473333
 20
90.2214898808325
 30
0.0
 10
203.0542217836326
 20
90.22207319923822
 30
0.0
 10
203.262019833925
 20
90.22258794754477
 30
0.0
 10
203.46531069522
 20
90.22303410730935
 30
0.0
 10
203.6637688060376
 20
90.22341166198997
 30
0.0
 10
203.8570698467153
 20
90.22372059407273
 30
0.0
 10
204.044933525904
 20
90.2239608884613
 30
0.0
 10
204.2270800422986
 20
90.22413253748378
 30
0.0
 10
204.4032296601653
 20
90.22423553499266
 30
0.0
 10
204.573103880717
 20
90.22426987665906
 30
0.0
 10
204.7364178037141
 20
90.22423556010268
 30
0.0
 10
204.8929350055898
 20
90.2241325874601
 30
0.0
 10
205.0424299006778
 20
90.22396096339261
 30
0.0
 10
205.1846738076584
 20
90.22372069424013
 30
0.0
 10
205.3194409563147
 20
90.22341178785766
 30
0.0
 10
205.4464955177739
 20
90.22303425705216
 30
0.0
 10
205.5656469690954
 20
90.2225881213138
 30
0.0
 10
205.6767370186059
 20
90.22207339745088
 30
0.0
 10
205.7795995602071
 20
90.22149010419668
 30
0.0
 10
205.8740719175682
 20
90.22083826308827
 30
0.0
 10
205.9599852139877
 20
90.22011788755661
 30
0.0
 10
206.0371968242455
 20
90.2193290021448
 30
0.0
 10
206.105616612336
 20
90.21847165608187
 30
0.0
 10
206.1651455770354
 20
90.21754587204904
 30
0.0
 10
206.215693148983
 20
90.21655171519036
 30
0.0
 10
206.2571438839314
 20
90.21548912619386
 30
0.0
 10
206.2894675339644
 20
90.21435869881715
 30
0.0
 10
206.3124294358162
 20
90.21315871126555
 30
0.0
 10
206.3268526786093
 20
90.21189548503797
 30
0.0
 10
206.3286701543863
 20
90.21099532830632
 30
0.0
 10
206.3295787065566
 20
90.21054534192272
 30
0.0
  0
LINE
  5
146
330
1F
100
AcDbEntity
  8
0
  6
Continuous
 62
     7
370
    15
100
AcDbLine
 10
206.3296067097
 20
90.2105458307
 30
0.0
 11
206.9935084428
 21
52.1756410178
 31
0.0
  0
LINE
  5
147
330
1F
100
AcDbEntity
  8
0
  6
Continuous
 62
     7
370
    15
100
AcDbLine
 10
126.9935084428
 20
52.1756410178
 30
0.0
 11
132.9925946137
 21
52.1756410178
 31
0.0
  0
LINE
  5
148
330
1F
100
AcDbEntity
  8
0
  6
Continuous
 62
     7
370
    15
100
AcDbLine
 10
126.9935084428
 20
52.1756410178
 30
0.0
 11
127.6574101697
 21
90.2105454811
 31
0.0
  0
LINE
  5
149
330
1F
100
AcDbEntity
  8
0
  6
Continuous
 62
     7
370
    15
100
AcDbLine
 10
127.6574101669
 20
90.2105451317
 30
0.0
 11
127.774752421
 21
90.2165767484
 31
0.0
  0
SPLINE
  5
14A
330
1F
100
AcDbEntity
  8
0
  6
Continuous
 62
     7
370
    15
100
AcDbSpline
210
0.0
220
0.0
230
1.0
 70
     8
 71
     3
 72
    14
 73
    10
 74
     0
 42
0.000000001
 43
0.00000001
 40
0.0
 40
0.0
 40
0.0
 40
0.0
 40
0.25
 40
0.25
 40
0.5
 40
0.5
 40
0.75
 40
0.75
 40
1.0
 40
1.0
 40
1.0
 40
1.0
 10
200.3303215973567
 20
90.21054513171393
 30
0.0
 10
200.3303381758093
 20
90.46939626697737
 30
0.0
 10
200.3303547542617
 20
90.7272618474978
 30
0.0
 10
200.3303879111668
 20
91.20299465021549
 30
0.0
 10
200.3304044896192
 20
91.42068284413934
 30
0.0
 10
200.3304376465242
 20
91.7836004981393
 30
0.0
 10
200.3304542249768
 20
91.9286933846585
 30
0.0
 10
200.3304873818817
 20
92.12475053472345
 30
0.0
 10
200.3305039603343
 20
92.1756410178343
 30
0.0
 10
200.3305205387867
 20
92.1756410178343
 30
0.0
  0
SPLINE
  5
14B
330
1F
100
AcDbEntity
  8
0
  6
Continuous
 62
     7
370
    15
100
AcDbSpline
210
0.0
220
0.0
230
1.0
 70
    24
 71
     3
 72
    14
 73
    10
 74
     0
 42
0.000000001
 43
0.00000001
 40
0.0
 40
0.0
 40
0.0
 40
0.0
 40
0.25
 40
0.25
 40
0.5
 40
0.5
 40
0.75
 40
0.75
 40
1.0
 40
1.0
 40
1.0
 40
1.0
 10
200.3305205384505
 20
92.17564101771366
 30
0.0
 10
200.8536833641112
 20
92.17564101771366
 30
0.0
 10
201.3775135517394
 20
92.17564101771366
 30
0.0
 10
202.3447353014119
 20
92.17564101771364
 30
0.0
 10
202.7884248391894
 20
92.17564101771366
 30
0.0
 10
203.528766626505
 20
92.17564101771366
 30
0.0
 10
203.8251461729082
 20
92.17564101771367
 30
0.0
 10
204.2258569676755
 20
92.17564101771367
 30
0.0
 10
204.3298336852165
 20
92.17564101771364
 30
0.0
 10
204.329911319417
 20
92.17564101771366
 30
0.0
  0
SPLINE
  5
14C
330
1F
100
AcDbEntity
  8
0
  6
Continuous
 62
     7
370
    15
100
AcDbSpline
210
0.0
220
0.0
230
1.0
 70
     8
 71
     3
 72
    14
 73
    10
 74
     0
 42
0.000000001
 43
0.00000001
 40
0.0
 40
0.0
 40
0.0
 40
0.0
 40
0.25
 40
0.25
 40
0.5
 40
0.5
 40
0.75
 40
0.75
 40
1.0
 40
1.0
 40
1.0
 40
1.0
 10
206.3296067097295
 20
90.21054583071358
 30
0.0
 10
206.3250884474004
 20
90.4693969061477
 30
0.0
 10
206.2696891763197
 20
90.72726240956699
 30
0.0
 10
206.0652983031067
 20
91.20299505164519
 30
0.0
 10
205.9163836174959
 20
91.42068316225166
 30
0.0
 10
205.5470760785336
 20
91.78360067003698
 30
0.0
 10
205.3268222032627
 20
91.92869349383646
 30
0.0
 10
204.8475949049783
 20
92.1247505579033
 30
0.0
 10
204.5888018251289
 20
92.1756410178343
 30
0.0
 10
204.3299113194167
 20
92.1756410178343
 30
0.0
  0
SPLINE
  5
14D
330
1F
100
AcDbEntity
  8
0
  6
Continuous
 62
     7
370
    15
100
AcDbSpline
210
0.0
220
0.0
230
1.0
 70
     8
 71
     3
 72
    14
 73
    10
 74
     0
 42
0.000000001
 43
0.00000001
 40
0.0
 40
0.0
 40
0.0
 40
0.0
 40
0.25
 40
0.25
 40
0.5
 40
0.5
 40
0.75
 40
0.75
 40
1.0
 40
1.0
 40
1.0
 40
1.0
 10
133.6564964546265
 20
92.17564101771364
 30
0.0
 10
133.6564964424794
 20
92.17563849370933
 30
0.0
 10
133.6564964293961
 20
92.13344852986462
 30
0.0
 10
133.6564964040486
 20
91.9425870975931
 30
0.0
 10
133.6564963918596
 20
91.79329897806747
 30
0.0
 10
133.6564963716326
 20
91.41096658870401
 30
0.0
 10
133.6564963636597
 20
91.17915571820254
 30
0.0
 10
133.6564963532961
 20
90.69501718152813
 30
0.0
 10
133.6564963508745
 20
90.44414435948713
 30
0.0
 10
133.6564963506621
 20
90.21054534192272
 30
0.0
  0
LINE
  5
14E
330
1F
100
AcDbEntity
  8
0
  6
Continuous
 62
     7
370
    15
100
AcDbLine
 10
200.3305205388
 20
92.1756410178
 30
0.0
 11
133.6564963468
 21
92.1756410178
 31
0.0
  0
SPLINE
  5
14F
330
1F
100
AcDbEntity
  8
0
  6
Continuous
 62
     7
370
    15
100
AcDbSpline
210
0.0
220
0.0
230
1.0
 70
    24
 71
     3
 72
    15
 73
    11
 74
     0
 42
0.000000001
 43
0.00000001
 40
0.0
 40
0.0
 40
0.0
 40
0.0
 40
0.1424118856098692
 40
0.2849508622970922
 40
0.4275152087873285
 40
0.5700854660600579
 40
0.7126665694933224
 40
0.8552464789303901
 40
0.9977544641834739
 40
1.0
 40
1.0
 40
1.0
 40
1.0
 10
133.6564963467668
 20
92.1756410178343
 30
0.0
 10
133.3948916751431
 20
92.1756410178343
 30
0.0
 10
132.8714488709075
 20
92.1756410178343
 30
0.0
 10
132.1167964641567
 20
92.1756410178343
 30
0.0
 10
131.4202701925077
 20
92.17564101783431
 30
0.0
 10
130.8111516410129
 20
92.17564101783431
 30
0.0
 10
130.3063357404695
 20
92.17564101783431
 30
0.0
 10
129.9494264373124
 20
92.17564101783428
 30
0.0
 10
129.7578205322287
 20
92.17564101783434
 30
0.0
 10
129.7324131214374
 20
92.1756410178343
 30
0.0
 10
129.7320189807594
 20
92.1756410178343
 30
0.0
  0
LINE
  5
150
330
1F
100
AcDbEntity
  8
0
  6
Continuous
 62
     7
370
    15
100
AcDbLine
 10
141.7435084428
 20
50.6756410178
 30
0.0
 11
192.2435084428
 21
50.6756410178
 31
0.0
  0
LINE
  5
151
330
1F
100
AcDbEntity
  8
0
  6
Continuous
 62
     7
370
    15
100
AcDbLine
 10
141.7435084428
 20
52.1756410178
 30
0.0
 11
141.7435084428
 21
50.6756410178
 31
0.0
  0
LINE
  5
152
330
1F
100
AcDbEntity
  8
0
  6
Continuous
 62
     7
370
    15
100
AcDbLine
 10
192.2435084428
 20
50.6756410178
 30
0.0
 11
192.2435084428
 21
52.1756410178
 31
0.0
  0
LINE
  5
153
330
1F
100
AcDbEntity
  8
0
  6
Continuous
 62
     7
370
    15
100
AcDbLine
 10
137.0435084428
 20
50.6756410178
 30
0.0
 11
141.7435084428
 21
50.6756410178
 31
0.0
  0
LINE
  5
154
330
1F
100
AcDbEntity
  8
0
  6
Continuous
 62
     7
370
    15
100
AcDbLine
 10
137.0435084428
 20
52.1756410178
 30
0.0
 11
137.0435084428
 21
50.6756410178
 31
0.0
  0
LINE
  5
155
330
1F
100
AcDbEntity
  8
0
  6
Continuous
 62
     7
370
    15
100
AcDbLine
 10
192.2435084428
 20
50.6756410178
 30
0.0
 11
196.9435084428
 21
50.6756410178
 31
0.0
  0
LINE
  5
156
330
1F
100
AcDbEntity
  8
0
  6
Continuous
 62
     7
370
    15
100
AcDbLine
 10
196.9435084428
 20
52.1756410178
 30
0.0
 11
196.9435084428
 21
50.6756410178
 31
0.0
  0
LINE
  5
157
330
1F
100
AcDbEntity
  8
0
  6
Continuous
 62
     7
370
    15
100
AcDbLine
 10
201.2435084428
 20
92.6756410178
 30
0.0
 11
196.4935084428
 21
92.6756410178
 31
0.0
  0
LINE
  5
158
330
1F
100
AcDbEntity
  8
0
  6
Continuous
 62
     7
370
    15
100
AcDbLine
 10
205.9935084428
 20
92.6756410178
 30
0.0
 11
201.2435084428
 21
92.6756410178
 31
0.0
  0
LINE
  5
159
330
1F
100
AcDbEntity
  8
0
  6
Continuous
 62
     7
370
    15
100
AcDbLine
 10
132.7435084428
 20
92.6756410178
 30
0.0
 11
127.9935084428
 21
92.6756410178
 31
0.0
  0
LINE
  5
15A
330
1F
100
AcDbEntity
  8
0
  6
Continuous
 62
     7
370
    15
100
AcDbLine
 10
137.4935084428
 20
92.6756410178
 30
0.0
 11
132.7435084428
 21
92.6756410178
 31
0.0
  0
LINE
  5
15B
330
1F
100
AcDbEntity
  8
0
  6
Continuous
 62
     7
370
    15
100
AcDbLine
 10
133.4601751094
 20
50.6756410178
 30
0.0
 11
133.4601751094
 21
52.1756410178
 31
0.0
  0
LINE
  5
15C
330
1F
100
AcDbEntity
  8
0
  6
Continuous
 62
     7
370
    15
100
AcDbLine
 10
137.0435084428
 20
50.6756410178
 30
0.0
 11
133.4601751094
 21
50.6756410178
 31
0.0
  0
LINE
  5
15D
330
1F
100
AcDbEntity
  8
0
  6
Continuous
 62
     7
370
    15
100
AcDbLine
 10
200.5268417761
 20
52.1756410178
 30
0.0
 11
200.5268417761
 21
50.6756410178
 31
0.0
  0
LINE
  5
15E
330
1F
100
AcDbEntity
  8
0
  6
Continuous
 62
     7
370
    15
100
AcDbLine
 10
200.5268417761
 20
50.6756410178
 30
0.0
 11
196.9435084428
 21
50.6756410178
 31
0.0
  0
LINE
  5
15F
330
1F
100
AcDbEntity
  8
0
  6
Continuous
 62
     7
370
    15
100
AcDbLine
 10
129.5435084428
 20
52.1756410178
 30
0.0
 11
129.5435084428
 21
50.6756410178
 31
0.0
  0
LINE
  5
160
330
1F
100
AcDbEntity
  8
0
  6
Continuous
 62
     7
370
    15
100
AcDbLine
 10
129.5435084428
 20
50.6756410178
 30
0.0
 11
133.4601751094
 21
50.6756410178
 31
0.0
  0
LINE
  5
161
330
1F
100
AcDbEntity
  8
0
  6
Continuous
 62
     7
370
    15
100
AcDbLine
 10
204.4435084428
 20
52.1756410178
 30
0.0
 11
204.4435084428
 21
50.6756410178
 31
0.0
  0
LINE
  5
162
330
1F
100
AcDbEntity
  8
0
  6
Continuous
 62
     7
370
    15
100
AcDbLine
 10
200.5268417761
 20
50.6756410178
 30
0.0
 11
204.4435084428
 21
50.6756410178
 31
0.0
  0
SPLINE
  5
163
330
1F
100
AcDbEntity
  8
0
  6
Continuous
 62
     8
370
    15
100
AcDbSpline
210
0.0
220
0.0
230
1.0
 70
     8
 71
     3
 72
    15
 73
    11
 74
     0
 42
0.000000001
 43
0.00000001
 40
0.0
 40
0.0
 40
0.0
 40
0.0
 40
0.0091628389928954
 40
0.1535202972061413
 40
0.2939503892720691
 40
0.4304533332248197
 40
0.5669857107011297
 40
0.7074208148800178
 40
0.851758876744682
 40
1.0
 40
1.0
 40
1.0
 40
1.0
 10
127.7747524209774
 20
90.21657674835377
 30
0.0
 10
127.7771924044602
 20
90.21671008433059
 30
0.0
 10
127.8180735101701
 20
90.21894408394601
 30
0.0
 10
128.1158811240194
 20
90.2217410918265
 30
0.0
 10
128.6554284831943
 20
90.2245015890433
 30
0.0
 10
129.3906981782042
 20
90.22524572632938
 30
0.0
 10
130.2714552265309
 20
90.22447944976943
 30
0.0
 10
131.2959191685805
 20
90.22182815528171
 30
0.0
 10
132.440769698109
 20
90.21726429930534
 30
0.0
 10
133.2476660806795
 20
90.21280514889074
 30
0.0
 10
133.6564963467624
 20
90.2105458307306
 30
0.0
  0
SPLINE
  5
164
330
1F
100
AcDbEntity
  8
0
  6
Continuous
 62
     7
370
    15
100
AcDbSpline
210
0.0
220
0.0
230
1.0
 70
     8
 71
     3
 72
    13
 73
     9
 74
     0
 42
0.000000001
 43
0.00000001
 40
0.0
 40
0.0
 40
0.0
 40
0.0
 40
0.2399054980011638
 40
0.3688593783329199
 40
0.5004513471589431
 40
0.631977448839577
 40
0.760741716421259
 40
1.0
 40
1.0
 40
1.0
 40
1.0
 10
228.7173608584589
 20
122.7360711640594
 30
0.0
 10
228.7438641358841
 20
122.4900631549633
 30
0.0
 10
228.7846134414076
 20
122.1118210468991
 30
0.0
 10
229.0318158532375
 20
121.6564991650118
 30
0.0
 10
229.2873582796595
 20
121.3430856808508
 30
0.0
 10
229.6045090926559
 20
121.0899595936021
 30
0.0
 10
230.0655351151527
 20
120.8441884191846
 30
0.0
 10
230.4495760751523
 20
120.8009835891287
 30
0.0
 10
230.6992482232957
 20
120.7728953280998
 30
0.0
  0
LINE
  5
165
330
1F
100
AcDbEntity
  8
0
  6
Continuous
 62
     7
370
    15
100
AcDbLine
 10
228.2173608583
 20
175.2491557223
 30
0.0
 11
228.7173608583
 21
175.2491557223
 31
0.0
  0
LINE
  5
166
330
1F
100
AcDbEntity
  8
0
  6
Continuous
 62
     7
370
    15
100
AcDbLine
 10
228.7173608583
 20
184.7491557223
 30
0.0
 11
228.2173608583
 21
184.7491557223
 31
0.0
  0
LINE
  5
167
330
1F
100
AcDbEntity
  8
0
  6
Continuous
 62
     7
370
    15
100
AcDbLine
 10
228.2173608583
 20
130.2491557223
 30
0.0
 11
228.7173608583
 21
130.2491557223
 31
0.0
  0
LINE
  5
168
330
1F
100
AcDbEntity
  8
0
  6
Continuous
 62
     7
370
    15
100
AcDbLine
 10
228.7173608583
 20
139.7491557223
 30
0.0
 11
228.2173608583
 21
139.7491557223
 31
0.0
  0
LINE
  5
169
330
1F
100
AcDbEntity
  8
0
  6
Continuous
 62
     7
370
    15
100
AcDbLine
 10
268.7173608583
 20
125.9982418933
 30
0.0
 11
268.7173608583
 21
189.0000695514
 31
0.0
  0
LINE
  5
16A
330
1F
100
AcDbEntity
  8
0
  6
Continuous
 62
     7
370
    15
100
AcDbLine
 10
268.7173608583
 20
125.9982418933
 30
0.0
 11
230.6824560455
 21
126.6621436273
 31
0.0
  0
LINE
  5
16B
330
1F
100
AcDbEntity
  8
0
  6
Continuous
 62
     7
370
    15
100
AcDbLine
 10
230.6824560455
 20
126.6621436263
 30
0.0
 11
230.6824560455
 21
188.3359688769
 31
0.0
  0
LINE
  5
16C
330
1F
100
AcDbEntity
  8
0
  6
Continuous
 62
     7
370
    15
100
AcDbLine
 10
268.7173608583
 20
189.0000695514
 30
0.0
 11
230.6824563951
 21
188.3359688708
 31
0.0
  0
LINE
  5
16D
330
1F
100
AcDbEntity
  8
0
  6
Continuous
 62
     7
370
    15
100
AcDbLine
 10
268.7173608583
 20
119.9991557223
 30
0.0
 11
268.7173608583
 21
125.9982418933
 31
0.0
  0
LINE
  5
16E
330
1F
100
AcDbEntity
  8
0
  6
Continuous
 62
     7
370
    15
100
AcDbLine
 10
268.7173608583
 20
119.9991557223
 30
0.0
 11
230.6824567445
 21
120.6630574432
 31
0.0
  0
LINE
  5
16F
330
1F
100
AcDbEntity
  8
0
  6
Continuous
 62
     7
370
    15
100
AcDbLine
 10
230.6824567445
 20
120.6630574465
 30
0.0
 11
230.6764251278
 21
120.7803997005
 31
0.0
  0
LINE
  5
170
330
1F
100
AcDbEntity
  8
0
  6
Continuous
 62
     7
370
    15
100
AcDbLine
 10
268.7173608583
 20
189.0000695514
 30
0.0
 11
268.7173608583
 21
194.9991557223
 31
0.0
  0
SPLINE
  5
171
330
1F
100
AcDbEntity
  8
0
  6
Continuous
 62
     7
370
    15
100
AcDbSpline
210
0.0
220
0.0
230
1.0
 70
     8
 71
     3
 72
    47
 73
    43
 74
     0
 42
0.000000001
 43
0.00000001
 40
0.0
 40
0.0
 40
0.0
 40
0.0
 40
0.0249848393114296
 40
0.0499821073990695
 40
0.0749864403608034
 40
0.0999925582988874
 40
0.1249956633178758
 40
0.1499944701844494
 40
0.1749903145699056
 40
0.1999844110148295
 40
0.2249779227617519
 40
0.2499721210542527
 40
0.2749679069531734
 40
0.2999650913673697
 40
0.3249631853007754
 40
0.3499616670725695
 40
0.3749601642924316
 40
0.3999586684054471
 40
0.424957374174698
 40
0.4499562560084056
 40
0.4749551815217949
 40
0.4999540901649929
 40
0.5249531621511108
 40
0.5499526575418333
 40
0.5749525802650429
 40
0.5999528022280203
 40
0.6249532420601115
 40
0.6499540306494208
 40
0.6749552933121298
 40
0.6999567528516782
 40
0.7249579173841364
 40
0.7499582665618932
 40
0.7749574460917513
 40
0.7999559561082227
 40
0.82495507950902
 40
0.8499560007662994
 40
0.8749598999246145
 40
0.899968117927141
 40
0.9249808053234151
 40
0.9499938457451452
 40
0.9750020327353256
 40
1.0
 40
1.0
 40
1.0
 40
1.0
 10
230.682457045621
 20
188.3359688756184
 30
0.0
 10
230.6820070428401
 20
188.4144477632892
 30
0.0
 10
230.6811068134233
 20
188.5714445781668
 30
0.0
 10
230.679843572528
 20
188.8066177338487
 30
0.0
 10
230.6786435614477
 20
189.04113456481
 30
0.0
 10
230.6775131261066
 20
189.2745861121356
 30
0.0
 10
230.676450547901
 20
189.5065711032294
 30
0.0
 10
230.6754563614698
 20
189.7367141300764
 30
0.0
 10
230.6745305522748
 20
189.9646705618569
 30
0.0
 10
230.6736731807333
 20
190.1901034019711
 30
0.0
 10
230.6728842707429
 20
190.4126769232634
 30
0.0
 10
230.6721638629988
 20
190.6320512536027
 30
0.0
 10
230.67151199534
 20
190.8478886268816
 30
0.0
 10
230.6709286769344
 20
191.0598690631809
 30
0.0
 10
230.6704139286277
 20
191.2676671134733
 30
0.0
 10
230.6699677688632
 20
191.4709579747682
 30
0.0
 10
230.6695902141825
 20
191.6694160855858
 30
0.0
 10
230.6692812820998
 20
191.8627171262635
 30
0.0
 10
230.6690409877112
 20
192.0505808054523
 30
0.0
 10
230.6688693386887
 20
192.2327273218469
 30
0.0
 10
230.6687663411799
 20
192.4088769397137
 30
0.0
 10
230.6687319995135
 20
192.5787511602654
 30
0.0
 10
230.6687663160698
 20
192.7420650832626
 30
0.0
 10
230.6688692887124
 20
192.8985822851383
 30
0.0
 10
230.6690409127799
 20
193.0480771802264
 30
0.0
 10
230.6692811819323
 20
193.1903210872071
 30
0.0
 10
230.6695900883149
 20
193.3250882358635
 30
0.0
 10
230.6699676191204
 20
193.4521427973227
 30
0.0
 10
230.6704137548587
 20
193.5712942486444
 30
0.0
 10
230.6709284787217
 20
193.6823842981549
 30
0.0
 10
230.6715117719758
 20
193.7852468397561
 30
0.0
 10
230.6721636130842
 20
193.8797191971174
 30
0.0
 10
230.672883988616
 20
193.965632493537
 30
0.0
 10
230.6736728740277
 20
194.0428441037948
 30
0.0
 10
230.6745302200907
 20
194.1112638918854
 30
0.0
 10
230.6754560041235
 20
194.1707928565849
 30
0.0
 10
230.6764501609821
 20
194.2213404285325
 30
0.0
 10
230.6775127499787
 20
194.262791163481
 30
0.0
 10
230.6786431773554
 20
194.2951148135139
 30
0.0
 10
230.6798431649069
 20
194.3180767153659
 30
0.0
 10
230.6811063911346
 20
194.332499958159
 30
0.0
 10
230.6820065478662
 20
194.3343174339359
 30
0.0
 10
230.6824565342498
 20
194.3352259861062
 30
0.0
  0
LINE
  5
172
330
1F
100
AcDbEntity
  8
0
  6
Continuous
 62
     7
370
    15
100
AcDbLine
 10
268.7173608583
 20
194.9991557223
 30
0.0
 11
230.6824560454
 21
194.3352539893
 31
0.0
  0
SPLINE
  5
173
330
1F
100
AcDbEntity
  8
0
  6
Continuous
 62
     7
370
    15
100
AcDbSpline
210
0.0
220
0.0
230
1.0
 70
     8
 71
     3
 72
    14
 73
    10
 74
     0
 42
0.000000001
 43
0.00000001
 40
0.0
 40
0.0
 40
0.0
 40
0.0
 40
0.25
 40
0.25
 40
0.5
 40
0.5
 40
0.75
 40
0.75
 40
1.0
 40
1.0
 40
1.0
 40
1.0
 10
230.6824567444586
 20
188.3359688769064
 30
0.0
 10
230.4236056091952
 20
188.3359854553589
 30
0.0
 10
230.1657400286747
 20
188.3360020338114
 30
0.0
 10
229.6900072259571
 20
188.3360351907164
 30
0.0
 10
229.4723190320332
 20
188.3360517691689
 30
0.0
 10
229.1094013780332
 20
188.3360849260739
 30
0.0
 10
228.964308491514
 20
188.3361015045264
 30
0.0
 10
228.7682513414491
 20
188.3361346614314
 30
0.0
 10
228.7173608583383
 20
188.3361512398839
 30
0.0
 10
228.7173608583383
 20
188.3361678183364
 30
0.0
  0
SPLINE
  5
174
330
1F
100
AcDbEntity
  8
0
  6
Continuous
 62
     7
370
    15
100
AcDbSpline
210
0.0
220
0.0
230
1.0
 70
    24
 71
     3
 72
    14
 73
    10
 74
     0
 42
0.000000001
 43
0.00000001
 40
0.0
 40
0.0
 40
0.0
 40
0.0
 40
0.25
 40
0.25
 40
0.5
 40
0.5
 40
0.75
 40
0.75
 40
1.0
 40
1.0
 40
1.0
 40
1.0
 10
228.7173608584589
 20
188.3361678180001
 30
0.0
 10
228.7173608584589
 20
188.8593306436608
 30
0.0
 10
228.7173608584589
 20
189.383160831289
 30
0.0
 10
228.7173608584589
 20
190.3503825809615
 30
0.0
 10
228.7173608584589
 20
190.794072118739
 30
0.0
 10
228.7173608584589
 20
191.5344139060547
 30
0.0
 10
228.7173608584589
 20
191.8307934524578
 30
0.0
 10
228.7173608584589
 20
192.2315042472251
 30
0.0
 10
228.7173608584589
 20
192.3354809647662
 30
0.0
 10
228.7173608584589
 20
192.3355585989667
 30
0.0
  0
SPLINE
  5
175
330
1F
100
AcDbEntity
  8
0
  6
Continuous
 62
     7
370
    15
100
AcDbSpline
210
0.0
220
0.0
230
1.0
 70
     8
 71
     3
 72
    14
 73
    10
 74
     0
 42
0.000000001
 43
0.00000001
 40
0.0
 40
0.0
 40
0.0
 40
0.0
 40
0.25
 40
0.25
 40
0.5
 40
0.5
 40
0.75
 40
0.75
 40
1.0
 40
1.0
 40
1.0
 40
1.0
 10
228.7173608584589
 20
192.3355585989665
 30
0.0
 10
228.7173633824632
 20
192.5691935828398
 30
0.0
 10
228.7595533463079
 20
192.8208407201359
 30
0.0
 10
228.9504147785794
 20
193.3083817690488
 30
0.0
 10
229.0997028981051
 20
193.5428313496708
 30
0.0
 10
229.4820352874685
 20
193.9318892992434
 30
0.0
 10
229.71384615797
 20
194.0852426056036
 30
0.0
 10
230.1979846946444
 20
194.284576541526
 30
0.0
 10
230.4488575166854
 20
194.3311485702646
 30
0.0
 10
230.6824565342498
 20
194.3352259861062
 30
0.0
  0
LINE
  5
176
330
1F
100
AcDbEntity
  8
0
  6
Continuous
 62
     7
370
    15
100
AcDbLine
 10
228.7173608583
 20
131.388549127
 30
0.0
 11
228.7173608583
 21
126.6621436263
 31
0.0
  0
SPLINE
  5
177
330
1F
100
AcDbEntity
  8
0
  6
Continuous
 62
     7
370
    15
100
AcDbSpline
210
0.0
220
0.0
230
1.0
 70
     8
 71
     3
 72
    26
 73
    22
 74
     0
 42
0.000000001
 43
0.00000001
 40
0.0
 40
0.0
 40
0.0
 40
0.0
 40
0.1249999999999993
 40
0.1249999999999993
 40
0.2499999999999985
 40
0.2499999999999985
 40
0.3749999999999978
 40
0.3749999999999978
 40
0.4374999999999981
 40
0.4374999999999981
 40
0.4999999999999983
 40
0.4999999999999983
 40
0.6249999999999989
 40
0.6249999999999989
 40
0.7499999999999994
 40
0.7499999999999994
 40
0.8750000000000001
 40
0.8750000000000001
 40
0.9375
 40
0.9375
 40
1.0
 40
1.0
 40
1.0
 40
1.0
 10
228.7173608583603
 20
138.6097733032921
 30
0.0
 10
228.7173621265362
 20
138.3788946910171
 30
0.0
 10
228.7701270732317
 20
138.1243714614533
 30
0.0
 10
228.9282540799991
 20
137.5725968859566
 30
0.0
 10
229.0316801267849
 20
137.2850766229017
 30
0.0
 10
229.2483236744815
 20
136.680369801347
 30
0.0
 10
229.3635493411387
 20
136.3610815999974
 30
0.0
 10
229.4987824227475
 20
135.8656336747877
 30
0.0
 10
229.5375384905597
 20
135.6970771216208
 30
0.0
 10
229.5921853698201
 20
135.3502825505941
 30
0.0
 10
229.6074138406836
 20
135.1729515563557
 30
0.0
 10
229.6067825570262
 20
134.6402939497227
 30
0.0
 10
229.5439474178733
 20
134.2974622317472
 30
0.0
 10
229.3617432756112
 20
133.6313042244809
 30
0.0
 10
229.2485021249458
 20
133.3184429745154
 30
0.0
 10
229.0322675113109
 20
132.7148711406149
 30
0.0
 10
228.9270844481825
 20
132.4217718681012
 30
0.0
 10
228.8099097995342
 20
132.0126897568698
 30
0.0
 10
228.7773478224463
 20
131.8809699303734
 30
0.0
 10
228.7310393662995
 20
131.6266636223303
 30
0.0
 10
228.7173614912394
 20
131.5037573693563
 30
0.0
 10
228.7173608583603
 20
131.3885381413608
 30
0.0
  0
LINE
  5
178
330
1F
100
AcDbEntity
  8
0
  6
Continuous
 62
     7
370
    15
100
AcDbLine
 10
228.7173608583
 20
176.388549127
 30
0.0
 11
228.7173608583
 21
138.6097623176
 31
0.0
  0
SPLINE
  5
179
330
1F
100
AcDbEntity
  8
0
  6
Continuous
 62
     7
370
    15
100
AcDbSpline
210
0.0
220
0.0
230
1.0
 70
     8
 71
     3
 72
    26
 73
    22
 74
     0
 42
0.000000001
 43
0.00000001
 40
0.0
 40
0.0
 40
0.0
 40
0.0
 40
0.1250000000000015
 40
0.1250000000000015
 40
0.2500000000000031
 40
0.2500000000000031
 40
0.3750000000000046
 40
0.3750000000000046
 40
0.4375000000000042
 40
0.4375000000000042
 40
0.5000000000000038
 40
0.5000000000000038
 40
0.625000000000003
 40
0.625000000000003
 40
0.7500000000000021
 40
0.7500000000000021
 40
0.8750000000000013
 40
0.8750000000000013
 40
0.9375000000000007
 40
0.9375000000000007
 40
1.0
 40
1.0
 40
1.0
 40
1.0
 10
228.7173608583603
 20
183.6097733032921
 30
0.0
 10
228.7173621265362
 20
183.3788946910171
 30
0.0
 10
228.7701270732317
 20
183.1243714614534
 30
0.0
 10
228.9282540799991
 20
182.5725968859566
 30
0.0
 10
229.0316801267849
 20
182.2850766229017
 30
0.0
 10
229.2483236744815
 20
181.680369801347
 30
0.0
 10
229.3635493411387
 20
181.3610815999974
 30
0.0
 10
229.4987824227475
 20
180.8656336747877
 30
0.0
 10
229.5375384905597
 20
180.6970771216208
 30
0.0
 10
229.5921853698201
 20
180.3502825505941
 30
0.0
 10
229.6074138406836
 20
180.1729515563557
 30
0.0
 10
229.6067825570262
 20
179.6402939497227
 30
0.0
 10
229.5439474178733
 20
179.2974622317472
 30
0.0
 10
229.3617432756112
 20
178.6313042244809
 30
0.0
 10
229.2485021249459
 20
178.3184429745154
 30
0.0
 10
229.0322675113109
 20
177.7148711406149
 30
0.0
 10
228.9270844481825
 20
177.4217718681012
 30
0.0
 10
228.8099097995342
 20
177.0126897568698
 30
0.0
 10
228.7773478224463
 20
176.8809699303734
 30
0.0
 10
228.7310393662995
 20
176.6266636223303
 30
0.0
 10
228.7173614912394
 20
176.5037573693563
 30
0.0
 10
228.7173608583603
 20
176.3885381413607
 30
0.0
  0
LINE
  5
17A
330
1F
100
AcDbEntity
  8
0
  6
Continuous
 62
     7
370
    15
100
AcDbLine
 10
228.7173608583
 20
188.3361678183
 30
0.0
 11
228.7173608583
 21
183.6097623176
 31
0.0
  0
SPLINE
  5
17B
330
1F
100
AcDbEntity
  8
0
  6
Continuous
 62
     7
370
    15
100
AcDbSpline
210
0.0
220
0.0
230
1.0
 70
     8
 71
     3
 72
    14
 73
    10
 74
     0
 42
0.000000001
 43
0.00000001
 40
0.0
 40
0.0
 40
0.0
 40
0.0
 40
0.25
 40
0.25
 40
0.5
 40
0.5
 40
0.75
 40
0.75
 40
1.0
 40
1.0
 40
1.0
 40
1.0
 10
228.7173608584589
 20
126.6621437341762
 30
0.0
 10
228.7173633824632
 20
126.6621437220291
 30
0.0
 10
228.7595533463079
 20
126.6621437089457
 30
0.0
 10
228.9504147785794
 20
126.6621436835983
 30
0.0
 10
229.0997028981051
 20
126.6621436714093
 30
0.0
 10
229.4820352874686
 20
126.6621436511822
 30
0.0
 10
229.71384615797
 20
126.6621436432094
 30
0.0
 10
230.1979846946444
 20
126.6621436328457
 30
0.0
 10
230.4488575166854
 20
126.6621436304242
 30
0.0
 10
230.6824565342498
 20
126.6621436302117
 30
0.0
  0
SPLINE
  5
17C
330
1F
100
AcDbEntity
  8
0
  6
Continuous
 62
     7
370
    15
100
AcDbSpline
210
0.0
220
0.0
230
1.0
 70
    24
 71
     3
 72
    15
 73
    11
 74
     0
 42
0.000000001
 43
0.00000001
 40
0.0
 40
0.0
 40
0.0
 40
0.0
 40
0.1424118857779136
 40
0.2849508626302576
 40
0.4275152092871514
 40
0.5700854667265425
 40
0.7126665703264846
 40
0.8552464799302258
 40
0.9977544653494642
 40
1.0
 40
1.0
 40
1.0
 40
1.0
 10
228.7173608583383
 20
126.6621436263164
 30
0.0
 10
228.7173608583383
 20
126.4005389546897
 30
0.0
 10
228.7173608583383
 20
125.8770961504536
 30
0.0
 10
228.7173608583383
 20
125.122443743705
 30
0.0
 10
228.7173608583383
 20
124.425917472054
 30
0.0
 10
228.7173608583383
 20
123.8167989205749
 30
0.0
 10
228.7173608583383
 20
123.311983019973
 30
0.0
 10
228.7173608583382
 20
122.9550737170346
 30
0.0
 10
228.7173608583383
 20
122.7634678121833
 30
0.0
 10
228.7173608583383
 20
122.7380604014091
 30
0.0
 10
228.7173608583383
 20
122.7376662609334
 30
0.0
  0
LINE
  5
17D
330
1F
100
AcDbEntity
  8
0
  6
Continuous
 62
     7
370
    15
100
AcDbLine
 10
228.2173608583
 20
184.7491557223
 30
0.0
 11
228.2173608583
 21
175.2491557223
 31
0.0
  0
LINE
  5
17E
330
1F
100
AcDbEntity
  8
0
  6
Continuous
 62
     7
370
    15
100
AcDbLine
 10
228.2173608583
 20
139.7491557223
 30
0.0
 11
228.2173608583
 21
130.2491557223
 31
0.0
  0
LINE
  5
17F
330
1F
100
AcDbEntity
  8
0
  6
Continuous
 62
     7
370
    15
100
AcDbLine
 10
270.2173608583
 20
139.2390129002
 30
0.0
 11
270.2173608583
 21
143.873275397
 31
0.0
  0
LINE
  5
180
330
1F
100
AcDbEntity
  8
0
  6
Continuous
 62
     7
370
    15
100
AcDbLine
 10
268.7173608583
 20
139.2390129002
 30
0.0
 11
270.2173608583
 21
139.2390129002
 31
0.0
  0
LINE
  5
181
330
1F
100
AcDbEntity
  8
0
  6
Continuous
 62
     7
370
    15
100
AcDbLine
 10
268.7173608583
 20
143.873275397
 30
0.0
 11
270.2173608583
 21
143.873275397
 31
0.0
  0
LINE
  5
182
330
1F
100
AcDbEntity
  8
0
  6
Continuous
 62
     7
370
    15
100
AcDbLine
 10
270.2173608583
 20
171.1250360477
 30
0.0
 11
270.2173608583
 21
175.7592985444
 31
0.0
  0
LINE
  5
183
330
1F
100
AcDbEntity
  8
0
  6
Continuous
 62
     7
370
    15
100
AcDbLine
 10
268.7173608583
 20
171.1250360477
 30
0.0
 11
270.2173608583
 21
171.1250360477
 31
0.0
  0
LINE
  5
184
330
1F
100
AcDbEntity
  8
0
  6
Continuous
 62
     7
370
    15
100
AcDbLine
 10
270.2173608583
 20
175.7592985444
 30
0.0
 11
268.7173608583
 21
175.7592985444
 31
0.0
  0
LINE
  5
185
330
1F
100
AcDbEntity
  8
0
  6
Continuous
 62
     7
370
    15
100
AcDbLine
 10
270.2173608583
 20
143.873275397
 30
0.0
 11
270.2173608583
 21
171.1250360477
 31
0.0
  0
LINE
  5
186
330
1F
100
AcDbEntity
  8
0
  6
Continuous
 62
     7
370
    15
100
AcDbLine
 10
270.2173608583
 20
134.9991557223
 30
0.0
 11
268.7173608583
 21
134.9991557223
 31
0.0
  0
LINE
  5
187
330
1F
100
AcDbEntity
  8
0
  6
Continuous
 62
     7
370
    15
100
AcDbLine
 10
270.2173608583
 20
139.2390129002
 30
0.0
 11
270.2173608583
 21
134.9991557223
 31
0.0
  0
LINE
  5
188
330
1F
100
AcDbEntity
  8
0
  6
Continuous
 62
     7
370
    15
100
AcDbLine
 10
268.7173608583
 20
179.9991557223
 30
0.0
 11
270.2173608583
 21
179.9991557223
 31
0.0
  0
LINE
  5
189
330
1F
100
AcDbEntity
  8
0
  6
Continuous
 62
     7
370
    15
100
AcDbLine
 10
270.2173608583
 20
179.9991557223
 30
0.0
 11
270.2173608583
 21
175.7592985444
 31
0.0
  0
LINE
  5
18A
330
1F
100
AcDbEntity
  8
0
  6
Continuous
 62
     7
370
    15
100
AcDbLine
 10
268.7173608583
 20
127.2491557223
 30
0.0
 11
270.2173608583
 21
127.2491557223
 31
0.0
  0
LINE
  5
18B
330
1F
100
AcDbEntity
  8
0
  6
Continuous
 62
     7
370
    15
100
AcDbLine
 10
270.2173608583
 20
127.2491557223
 30
0.0
 11
270.2173608583
 21
134.9991557223
 31
0.0
  0
LINE
  5
18C
330
1F
100
AcDbEntity
  8
0
  6
Continuous
 62
     7
370
    15
100
AcDbLine
 10
268.7173608583
 20
122.5491557223
 30
0.0
 11
270.2173608583
 21
122.5491557223
 31
0.0
  0
LINE
  5
18D
330
1F
100
AcDbEntity
  8
0
  6
Continuous
 62
     7
370
    15
100
AcDbLine
 10
270.2173608583
 20
122.5491557223
 30
0.0
 11
270.2173608583
 21
127.2491557223
 31
0.0
  0
LINE
  5
18E
330
1F
100
AcDbEntity
  8
0
  6
Continuous
 62
     7
370
    15
100
AcDbLine
 10
268.7173608583
 20
187.7491557223
 30
0.0
 11
270.2173608583
 21
187.7491557223
 31
0.0
  0
LINE
  5
18F
330
1F
100
AcDbEntity
  8
0
  6
Continuous
 62
     7
370
    15
100
AcDbLine
 10
270.2173608583
 20
179.9991557223
 30
0.0
 11
270.2173608583
 21
187.7491557223
 31
0.0
  0
LINE
  5
190
330
1F
100
AcDbEntity
  8
0
  6
Continuous
 62
     7
370
    15
100
AcDbLine
 10
268.7173608583
 20
192.4491557223
 30
0.0
 11
270.2173608583
 21
192.4491557223
 31
0.0
  0
LINE
  5
191
330
1F
100
AcDbEntity
  8
0
  6
Continuous
 62
     7
370
    15
100
AcDbLine
 10
270.2173608583
 20
187.7491557223
 30
0.0
 11
270.2173608583
 21
192.4491557223
 31
0.0
  0
SPLINE
  5
192
330
1F
100
AcDbEntity
  8
0
  6
Continuous
 62
     8
370
    15
100
AcDbSpline
210
0.0
220
0.0
230
1.0
 70
     8
 71
     3
 72
    15
 73
    11
 74
     0
 42
0.000000001
 43
0.00000001
 40
0.0
 40
0.0
 40
0.0
 40
0.0
 40
0.0091628389827188
 40
0.1535202971803373
 40
0.2939503892310615
 40
0.4304533331690332
 40
0.5669857106819589
 40
0.707420814882344
 40
0.8517588767533961
 40
1.0
 40
1.0
 40
1.0
 40
1.0
 10
230.6764251278184
 20
120.7803997005348
 30
0.0
 10
230.6762917918417
 20
120.7828396840153
 30
0.0
 10
230.6740577922263
 20
120.8237207897248
 30
0.0
 10
230.6712607843461
 20
121.1215284035708
 30
0.0
 10
230.6685002871293
 20
121.6610757627436
 30
0.0
 10
230.6677561498428
 20
122.3963454578449
 30
0.0
 10
230.6685224264045
 20
123.2771025063891
 30
0.0
 10
230.6711737208973
 20
124.3015664487632
 30
0.0
 10
230.6757375768796
 20
125.4464169785201
 30
0.0
 10
230.6801967272973
 20
126.2533133611794
 30
0.0
 10
230.682456045459
 20
126.6621436272864
 30
0.0
  0
CIRCLE
  5
193
330
1F
100
AcDbEntity
  8
0
  6
Continuous
 62
     7
370
    15
100
AcDbCircle
 10
308.7480487805
 20
179.9991557223
 30
0.0
 40
4.75
  0
CIRCLE
  5
194
330
1F
100
AcDbEntity
  8
0
  6
Continuous
 62
     7
370
    15
100
AcDbCircle
 10
308.7480487805
 20
179.9991557223
 30
0.0
 40
2.25
  0
CIRCLE
  5
195
330
1F
100
AcDbEntity
  8
0
  6
Continuous
 62
     7
370
    15
100
AcDbCircle
 10
308.7480487805
 20
134.9991557223
 30
0.0
 40
4.75
  0
CIRCLE
  5
196
330
1F
100
AcDbEntity
  8
0
  6
Continuous
 62
     7
370
    15
100
AcDbCircle
 10
308.7480487805
 20
134.9991557223
 30
0.0
 40
2.25
  0
CIRCLE
  5
197
330
1F
100
AcDbEntity
  8
0
  6
Continuous
 62
     7
370
    15
100
AcDbCircle
 10
377.2480487805
 20
179.9991557223
 30
0.0
 40
2.25
  0
CIRCLE
  5
198
330
1F
100
AcDbEntity
  8
0
  6
Continuous
 62
     7
370
    15
100
AcDbCircle
 10
377.2480487805
 20
179.9991557223
 30
0.0
 40
4.75
  0
CIRCLE
  5
199
330
1F
100
AcDbEntity
  8
0
  6
Continuous
 62
     7
370
    15
100
AcDbCircle
 10
377.2480487805
 20
134.9991557223
 30
0.0
 40
2.25
  0
CIRCLE
  5
19A
330
1F
100
AcDbEntity
  8
0
  6
Continuous
 62
     7
370
    15
100
AcDbCircle
 10
377.2480487805
 20
134.9991557223
 30
0.0
 40
4.75
  0
SPLINE
  5
19B
330
1F
100
AcDbEntity
  8
0
  6
Continuous
 62
     7
370
    15
100
AcDbSpline
210
0.0
220
0.0
230
1.0
 70
     8
 71
     3
 72
    14
 73
    10
 74
     0
 42
0.000000001
 43
0.00000001
 40
0.0
 40
0.0
 40
0.0
 40
0.0
 40
0.25
 40
0.25
 40
0.5
 40
0.5
 40
0.75
 40
0.75
 40
1.0
 40
1.0
 40
1.0
 40
1.0
 10
303.6619505013339
 20
126.6623425677464
 30
0.0
 10
303.6664686741975
 20
126.6623259892939
 30
0.0
 10
303.7218678793317
 20
126.6623094108414
 30
0.0
 10
303.9262586738189
 20
126.6622762539364
 30
0.0
 10
304.0751733466112
 20
126.6622596754839
 30
0.0
 10
304.4444809052501
 20
126.6622265185789
 30
0.0
 10
304.6647348128845
 20
126.6622099401264
 30
0.0
 10
305.1439622018776
 20
126.6621767832214
 30
0.0
 10
305.4027553398766
 20
126.6621602047689
 30
0.0
 10
305.6616459038476
 20
126.6621436263164
 30
0.0
  0
LINE
  5
19C
330
1F
100
AcDbEntity
  8
0
  6
Continuous
 62
     7
370
    15
100
AcDbLine
 10
303.6619505135
 20
188.3361678183
 30
0.0
 11
303.6619505135
 21
126.6623425677
 31
0.0
  0
SPLINE
  5
19D
330
1F
100
AcDbEntity
  8
0
  6
Continuous
 62
     7
370
    15
100
AcDbSpline
210
0.0
220
0.0
230
1.0
 70
    24
 71
     3
 72
    14
 73
    10
 74
     0
 42
0.000000001
 43
0.00000001
 40
0.0
 40
0.0
 40
0.0
 40
0.0
 40
0.25
 40
0.25
 40
0.5
 40
0.5
 40
0.75
 40
0.75
 40
1.0
 40
1.0
 40
1.0
 40
1.0
 10
303.6619505135349
 20
188.3361678183364
 30
0.0
 10
303.6664687758639
 20
188.3361678183364
 30
0.0
 10
303.7218680469446
 20
188.3361678183364
 30
0.0
 10
303.9262589201576
 20
188.3361678183364
 30
0.0
 10
304.0751736057684
 20
188.3361678183364
 30
0.0
 10
304.4444811447307
 20
188.3361678183364
 30
0.0
 10
304.6647350200016
 20
188.3361678183364
 30
0.0
 10
305.143962318286
 20
188.3361678183364
 30
0.0
 10
305.4027553981354
 20
188.3361678183364
 30
0.0
 10
305.6616459038476
 20
188.3361678183364
 30
0.0
  0
SPLINE
  5
19E
330
1F
100
AcDbEntity
  8
0
  6
Continuous
 62
     7
370
    15
100
AcDbSpline
210
0.0
220
0.0
230
1.0
 70
     8
 71
     3
 72
    14
 73
    10
 74
     0
 42
0.000000001
 43
0.00000001
 40
0.0
 40
0.0
 40
0.0
 40
0.0
 40
0.25
 40
0.25
 40
0.5
 40
0.5
 40
0.75
 40
0.75
 40
1.0
 40
1.0
 40
1.0
 40
1.0
 10
309.6610366848138
 20
192.3355663327676
 30
0.0
 10
309.1378738591531
 20
192.3354899011713
 30
0.0
 10
308.6140436715249
 20
192.2315031568507
 30
0.0
 10
307.6468219218524
 20
191.8308222136545
 30
0.0
 10
307.2031323840749
 20
191.5344166460688
 30
0.0
 10
306.4627905967593
 20
190.7941098518292
 30
0.0
 10
306.1664110503561
 20
190.350409344468
 30
0.0
 10
305.7657002555888
 20
189.3831792977758
 30
0.0
 10
305.6617235380479
 20
188.8594455072666
 30
0.0
 10
305.6616459038473
 20
188.3361678183591
 30
0.0
  0
LINE
  5
19F
330
1F
100
AcDbEntity
  8
0
  6
Continuous
 62
     7
370
    15
100
AcDbLine
 10
309.6610366845
 20
192.335558599
 30
0.0
 11
376.3350608765
 21
192.335558599
 31
0.0
  0
SPLINE
  5
1A0
330
1F
100
AcDbEntity
  8
0
  6
Continuous
 62
     7
370
    15
100
AcDbSpline
210
0.0
220
0.0
230
1.0
 70
     8
 71
     3
 72
    14
 73
    10
 74
     0
 42
0.000000001
 43
0.00000001
 40
0.0
 40
0.0
 40
0.0
 40
0.0
 40
0.25
 40
0.25
 40
0.5
 40
0.5
 40
0.75
 40
0.75
 40
1.0
 40
1.0
 40
1.0
 40
1.0
 10
380.3344593909288
 20
188.3361678180001
 30
0.0
 10
380.3343829593324
 20
188.8593306436608
 30
0.0
 10
380.2303962150119
 20
189.383160831289
 30
0.0
 10
379.8297152718156
 20
190.3503825809615
 30
0.0
 10
379.5333097042299
 20
190.794072118739
 30
0.0
 10
378.7930029099903
 20
191.5344139060547
 30
0.0
 10
378.3493024026291
 20
191.8307934524578
 30
0.0
 10
377.3820723559369
 20
192.2315042472251
 30
0.0
 10
376.8583385654278
 20
192.3354809647662
 30
0.0
 10
376.3350608765202
 20
192.3355585989667
 30
0.0
  0
SPLINE
  5
1A1
330
1F
100
AcDbEntity
  8
0
  6
Continuous
 62
     7
370
    15
100
AcDbSpline
210
0.0
220
0.0
230
1.0
 70
     8
 71
     3
 72
    14
 73
    10
 74
     0
 42
0.000000001
 43
0.00000001
 40
0.0
 40
0.0
 40
0.0
 40
0.0
 40
0.25
 40
0.25
 40
0.5
 40
0.5
 40
0.75
 40
0.75
 40
1.0
 40
1.0
 40
1.0
 40
1.0
 10
376.3350608761613
 20
122.6627451118852
 30
0.0
 10
376.858223701822
 20
122.6628215434815
 30
0.0
 10
377.3820538894502
 20
122.7668082878021
 30
0.0
 10
378.3492756391228
 20
123.1674892309983
 30
0.0
 10
378.7929651769002
 20
123.4638947985841
 30
0.0
 10
379.5333069642159
 20
124.2042015928236
 30
0.0
 10
379.829686510619
 20
124.6479021001848
 30
0.0
 10
380.2303973053862
 20
125.615132146877
 30
0.0
 10
380.3343740229272
 20
126.1388659373862
 30
0.0
 10
380.3344516571278
 20
126.6621436262937
 30
0.0
  0
LINE
  5
1A2
330
1F
100
AcDbEntity
  8
0
  6
Continuous
 62
     7
370
    15
100
AcDbLine
 10
376.3350608765
 20
122.6627528457
 30
0.0
 11
309.6610366845
 21
122.6627528457
 31
0.0
  0
SPLINE
  5
1A3
330
1F
100
AcDbEntity
  8
0
  6
Continuous
 62
     7
370
    15
100
AcDbSpline
210
0.0
220
0.0
230
1.0
 70
     8
 71
     3
 72
    14
 73
    10
 74
     0
 42
0.000000001
 43
0.00000001
 40
0.0
 40
0.0
 40
0.0
 40
0.0
 40
0.25
 40
0.25
 40
0.5
 40
0.5
 40
0.75
 40
0.75
 40
1.0
 40
1.0
 40
1.0
 40
1.0
 10
305.6616381700463
 20
126.6621436266527
 30
0.0
 10
305.6617146016426
 20
126.138980800992
 30
0.0
 10
305.765701345964
 20
125.6151506133638
 30
0.0
 10
306.16638228916
 20
124.6479288636913
 30
0.0
 10
306.4627878567452
 20
124.2042393259138
 30
0.0
 10
307.2030946509848
 20
123.4638975385981
 30
0.0
 10
307.646795158346
 20
123.167517992195
 30
0.0
 10
308.6140252050382
 20
122.7668071974277
 30
0.0
 10
309.1377589955474
 20
122.6628304798867
 30
0.0
 10
309.6610366844549
 20
122.6627528456862
 30
0.0
  0
SPLINE
  5
1A4
330
1F
100
AcDbEntity
  8
0
  6
Continuous
 62
     7
370
    15
100
AcDbSpline
210
0.0
220
0.0
230
1.0
 70
     8
 71
     3
 72
    14
 73
    10
 74
     0
 42
0.000000001
 43
0.00000001
 40
0.0
 40
0.0
 40
0.0
 40
0.0
 40
0.25
 40
0.25
 40
0.5
 40
0.5
 40
0.75
 40
0.75
 40
1.0
 40
1.0
 40
1.0
 40
1.0
 10
382.3341470596412
 20
188.3359688769064
 30
0.0
 10
382.3296288867776
 20
188.3359854553589
 30
0.0
 10
382.2742296816434
 20
188.3360020338114
 30
0.0
 10
382.0698388871561
 20
188.3360351907164
 30
0.0
 10
381.920924214364
 20
188.3360517691689
 30
0.0
 10
381.5516166557249
 20
188.3360849260739
 30
0.0
 10
381.3313627480907
 20
188.3361015045264
 30
0.0
 10
380.8521353590975
 20
188.3361346614314
 30
0.0
 10
380.5933422210985
 20
188.3361512398839
 30
0.0
 10
380.3344516571275
 20
188.3361678183364
 30
0.0
  0
LINE
  5
1A5
330
1F
100
AcDbEntity
  8
0
  6
Continuous
 62
     7
370
    15
100
AcDbLine
 10
382.3341470474
 20
126.6621436263
 30
0.0
 11
382.3341470474
 21
188.3359688769
 31
0.0
  0
SPLINE
  5
1A6
330
1F
100
AcDbEntity
  8
0
  6
Continuous
 62
     7
370
    15
100
AcDbSpline
210
0.0
220
0.0
230
1.0
 70
    24
 71
     3
 72
    14
 73
    10
 74
     0
 42
0.000000001
 43
0.00000001
 40
0.0
 40
0.0
 40
0.0
 40
0.0
 40
0.25
 40
0.25
 40
0.5
 40
0.5
 40
0.75
 40
0.75
 40
1.0
 40
1.0
 40
1.0
 40
1.0
 10
380.3344516571277
 20
126.6621437341762
 30
0.0
 10
380.5680866410009
 20
126.6621437220291
 30
0.0
 10
380.8197337782971
 20
126.6621437089457
 30
0.0
 10
381.30727482721
 20
126.6621436835983
 30
0.0
 10
381.541724407832
 20
126.6621436714093
 30
0.0
 10
381.9307823574046
 20
126.6621436511822
 30
0.0
 10
382.0841356637648
 20
126.6621436432094
 30
0.0
 10
382.2834695996872
 20
126.6621436328457
 30
0.0
 10
382.3300416284258
 20
126.6621436304242
 30
0.0
 10
382.3341190442674
 20
126.6621436302117
 30
0.0
  0
LINE
  5
1A7
330
1F
100
AcDbEntity
  8
0
  6
Continuous
 62
     7
370
    15
100
AcDbLine
 10
376.3350608765
 20
194.3352539893
 30
0.0
 11
309.6612356259
 21
194.3352539893
 31
0.0
  0
SPLINE
  5
1A8
330
1F
100
AcDbEntity
  8
0
  6
Continuous
 62
     7
370
    15
100
AcDbSpline
210
0.0
220
0.0
230
1.0
 70
    24
 71
     3
 72
    14
 73
    10
 74
     0
 42
0.000000001
 43
0.00000001
 40
0.0
 40
0.0
 40
0.0
 40
0.0
 40
0.25
 40
0.25
 40
0.5
 40
0.5
 40
0.75
 40
0.75
 40
1.0
 40
1.0
 40
1.0
 40
1.0
 10
376.3350607686378
 20
192.3355585989665
 30
0.0
 10
376.3350607807849
 20
192.5691935828398
 30
0.0
 10
376.3350607938683
 20
192.8208407201359
 30
0.0
 10
376.3350608192157
 20
193.3083817690488
 30
0.0
 10
376.3350608314047
 20
193.5428313496708
 30
0.0
 10
376.3350608516317
 20
193.9318892992434
 30
0.0
 10
376.3350608596046
 20
194.0852426056036
 30
0.0
 10
376.3350608699682
 20
194.284576541526
 30
0.0
 10
376.3350608723898
 20
194.3311485702646
 30
0.0
 10
376.3350608726022
 20
194.3352259861062
 30
0.0
  0
SPLINE
  5
1A9
330
1F
100
AcDbEntity
  8
0
  6
Continuous
 62
     7
370
    15
100
AcDbSpline
210
0.0
220
0.0
230
1.0
 70
     8
 71
     3
 72
    14
 73
    10
 74
     0
 42
0.000000001
 43
0.00000001
 40
0.0
 40
0.0
 40
0.0
 40
0.0
 40
0.25
 40
0.25
 40
0.5
 40
0.5
 40
0.75
 40
0.75
 40
1.0
 40
1.0
 40
1.0
 40
1.0
 10
309.6612356259075
 20
194.3352540014801
 30
0.0
 10
309.661219047455
 20
194.3307358286165
 30
0.0
 10
309.6612024690025
 20
194.2753366234822
 30
0.0
 10
309.6611693120975
 20
194.070945828995
 30
0.0
 10
309.6611527336451
 20
193.9220311562028
 30
0.0
 10
309.66111957674
 20
193.5527235975638
 30
0.0
 10
309.6611029982875
 20
193.3324696899295
 30
0.0
 10
309.6610698413825
 20
192.8532423009364
 30
0.0
 10
309.66105326293
 20
192.5944491629374
 30
0.0
 10
309.6610366844776
 20
192.3355585989664
 30
0.0
  0
LINE
  5
1AA
330
1F
100
AcDbEntity
  8
0
  6
Continuous
 62
     7
370
    15
100
AcDbLine
 10
309.6610366845
 20
120.6630574554
 30
0.0
 11
376.3348619351
 21
120.6630574554
 31
0.0
  0
SPLINE
  5
1AB
330
1F
100
AcDbEntity
  8
0
  6
Continuous
 62
     7
370
    15
100
AcDbSpline
210
0.0
220
0.0
230
1.0
 70
    24
 71
     3
 72
    14
 73
    10
 74
     0
 42
0.000000001
 43
0.00000001
 40
0.0
 40
0.0
 40
0.0
 40
0.0
 40
0.25
 40
0.25
 40
0.5
 40
0.5
 40
0.75
 40
0.75
 40
1.0
 40
1.0
 40
1.0
 40
1.0
 10
309.6610367923373
 20
122.6627528456863
 30
0.0
 10
309.6610367801903
 20
122.429117861813
 30
0.0
 10
309.6610367671069
 20
122.1774707245169
 30
0.0
 10
309.6610367417595
 20
121.689929675604
 30
0.0
 10
309.6610367295704
 20
121.455480094982
 30
0.0
 10
309.6610367093433
 20
121.0664221454094
 30
0.0
 10
309.6610367013705
 20
120.9130688390492
 30
0.0
 10
309.6610366910069
 20
120.7137349031268
 30
0.0
 10
309.6610366885853
 20
120.6671628743882
 30
0.0
 10
309.6610366883729
 20
120.6630854585466
 30
0.0
  0
SPLINE
  5
1AC
330
1F
100
AcDbEntity
  8
0
  6
Continuous
 62
     7
370
    15
100
AcDbSpline
210
0.0
220
0.0
230
1.0
 70
     8
 71
     3
 72
    14
 73
    10
 74
     0
 42
0.000000001
 43
0.00000001
 40
0.0
 40
0.0
 40
0.0
 40
0.0
 40
0.25
 40
0.25
 40
0.5
 40
0.5
 40
0.75
 40
0.75
 40
1.0
 40
1.0
 40
1.0
 40
1.0
 10
376.3348619350675
 20
120.6630574431727
 30
0.0
 10
376.33487851352
 20
120.6675756160364
 30
0.0
 10
376.3348950919726
 20
120.7229748211706
 30
0.0
 10
376.3349282488775
 20
120.9273656156578
 30
0.0
 10
376.33494482733
 20
121.07628028845
 30
0.0
 10
376.334977984235
 20
121.4455878470891
 30
0.0
 10
376.3349945626875
 20
121.6658417547233
 30
0.0
 10
376.3350277195925
 20
122.1450691437165
 30
0.0
 10
376.335044298045
 20
122.4038622817155
 30
0.0
 10
376.3350608764976
 20
122.6627528456864
 30
0.0
  0
SPLINE
  5
1AD
330
1F
100
AcDbEntity
  8
0
  6
Continuous
 62
     7
370
    15
100
AcDbSpline
210
0.0
220
0.0
230
1.0
 70
     8
 71
     3
 72
    47
 73
    43
 74
     0
 42
0.000000001
 43
0.00000001
 40
0.0
 40
0.0
 40
0.0
 40
0.0
 40
0.0249848393114469
 40
0.049982107399106
 40
0.0749864403608563
 40
0.0999925582989545
 40
0.1249956633179588
 40
0.1499944701845462
 40
0.174990314570015
 40
0.19998441101495
 40
0.2249779227618835
 40
0.2499721210543956
 40
0.2749679069533238
 40
0.29996509136753
 40
0.3249631853009413
 40
0.3499616670727435
 40
0.3749601642926117
 40
0.399958668405629
 40
0.4249573741748828
 40
0.4499562560085927
 40
0.4749551815219854
 40
0.4999540901651826
 40
0.5249531621513002
 40
0.5499526575420215
 40
0.5749525802652278
 40
0.5999528022282015
 40
0.624953242060289
 40
0.6499540306495937
 40
0.6749552933122958
 40
0.699956752851837
 40
0.7249579173842873
 40
0.7499582665620358
 40
0.774957446091882
 40
0.7999559561083445
 40
0.8249550795091303
 40
0.8499560007663947
 40
0.8749598999246975
 40
0.8999681179272084
 40
0.9249808053234664
 40
0.949993845745182
 40
0.9750020327353429
 40
1.0
 40
1.0
 40
1.0
 40
1.0
 10
309.6612356271955
 20
194.3352367474178
 30
0.0
 10
309.5827567395246
 20
194.3343309900286
 30
0.0
 10
309.425759924647
 20
194.3325190246789
 30
0.0
 10
309.1905867689649
 20
194.3181056607447
 30
0.0
 10
308.9560699380034
 20
194.2951610314338
 30
0.0
 10
308.7226183906778
 20
194.2628677008317
 30
0.0
 10
308.4906333995838
 20
194.221462885068
 30
0.0
 10
308.2604903727367
 20
194.1709507444033
 30
0.0
 10
308.0325339409561
 20
194.1114574686158
 30
0.0
 10
307.8071011008417
 20
194.0430761456187
 30
0.0
 10
307.5845275795494
 20
193.9659094013554
 30
0.0
 10
307.36515324921
 20
193.8800528623416
 30
0.0
 10
307.1493158759311
 20
193.7856277731574
 30
0.0
 10
306.9373354396317
 20
193.6828082590761
 30
0.0
 10
306.7295373893393
 20
193.5717605198439
 30
0.0
 10
306.5262465280443
 20
193.4526533433475
 30
0.0
 10
306.3277884172268
 20
193.3256535020637
 30
0.0
 10
306.134487376549
 20
193.1909328607249
 30
0.0
 10
305.9466236973603
 20
193.0487267530626
 30
0.0
 10
305.7644771809657
 20
192.899265672584
 30
0.0
 10
305.588327563099
 20
192.7427805115014
 30
0.0
 10
305.4184533425473
 20
192.5795030618854
 30
0.0
 10
305.2551394195502
 20
192.4096612703586
 30
0.0
 10
305.0986222176745
 20
192.2335325286802
 30
0.0
 10
304.9491273225865
 20
192.0514010589717
 30
0.0
 10
304.8068834156059
 20
191.8635483510492
 30
0.0
 10
304.6721162669496
 20
191.6702579125699
 30
0.0
 10
304.5450617054904
 20
191.4718085944718
 30
0.0
 10
304.4259102541689
 20
191.2685127524504
 30
0.0
 10
304.3148202046584
 20
191.0607012270178
 30
0.0
 10
304.2119576630573
 20
190.8487000674026
 30
0.0
 10
304.1174853056961
 20
190.6328371464538
 30
0.0
 10
304.0315720092765
 20
190.413435954341
 30
0.0
 10
303.9543603990188
 20
190.1908279194323
 30
0.0
 10
303.8859406109283
 20
189.9653571484599
 30
0.0
 10
303.8264116462288
 20
189.7373606595365
 30
0.0
 10
303.7758640742813
 20
189.5071763944579
 30
0.0
 10
303.7344133393329
 20
189.2751460557622
 30
0.0
 10
303.7020896892999
 20
189.0416337861237
 30
0.0
 10
303.6791277874481
 20
188.8070358386366
 30
0.0
 10
303.664704544655
 20
188.5717601843637
 30
0.0
 10
303.662887068878
 20
188.4146879041618
 30
0.0
 10
303.6619785167077
 20
188.3361678144411
 30
0.0
  0
SPLINE
  5
1AE
330
1F
100
AcDbEntity
  8
0
  6
Continuous
 62
     7
370
    15
100
AcDbSpline
210
0.0
220
0.0
230
1.0
 70
     8
 71
     3
 72
    47
 73
    43
 74
     0
 42
0.000000001
 43
0.00000001
 40
0.0
 40
0.0
 40
0.0
 40
0.0
 40
0.0249848393114296
 40
0.0499821073990724
 40
0.0749864403608052
 40
0.0999925582988892
 40
0.1249956633178778
 40
0.149994470184454
 40
0.1749903145699112
 40
0.199984411014835
 40
0.2249779227617578
 40
0.2499721210542589
 40
0.2749679069531793
 40
0.299965091367376
 40
0.3249631853007808
 40
0.3499616670725762
 40
0.3749601642924383
 40
0.3999586684054524
 40
0.424957374174704
 40
0.4499562560084119
 40
0.4749551815218018
 40
0.4999540901649986
 40
0.5249531621511166
 40
0.5499526575418403
 40
0.5749525802650483
 40
0.5999528022280252
 40
0.624953242060117
 40
0.6499540306494259
 40
0.6749552933121362
 40
0.6999567528516829
 40
0.7249579173841415
 40
0.7499582665618995
 40
0.7749574460917551
 40
0.799955956108227
 40
0.8249550795090241
 40
0.8499560007663022
 40
0.8749598999246178
 40
0.8999681179271434
 40
0.924980805323419
 40
0.9499938457451468
 40
0.9750020327353263
 40
1.0
 40
1.0
 40
1.0
 40
1.0
 10
303.6619677553962
 20
126.6623425690344
 30
0.0
 10
303.6628735127853
 20
126.5838636813635
 30
0.0
 10
303.6646854781351
 20
126.426866866486
 30
0.0
 10
303.6790988420692
 20
126.1916937108041
 30
0.0
 10
303.7020434713801
 20
125.9571768798428
 30
0.0
 10
303.7343368019821
 20
125.7237253325172
 30
0.0
 10
303.7757416177458
 20
125.4917403414234
 30
0.0
 10
303.8262537584104
 20
125.2615973145764
 30
0.0
 10
303.8857470341979
 20
125.0336408827959
 30
0.0
 10
303.9541283571949
 20
124.8082080426817
 30
0.0
 10
304.0312951014581
 20
124.5856345213894
 30
0.0
 10
304.1171516404719
 20
124.3662601910501
 30
0.0
 10
304.211576729656
 20
124.1504228177711
 30
0.0
 10
304.3143962437372
 20
123.9384423814719
 30
0.0
 10
304.4254439829693
 20
123.7306443311795
 30
0.0
 10
304.5445511594657
 20
123.5273534698846
 30
0.0
 10
304.6715510007493
 20
123.3288953590669
 30
0.0
 10
304.8062716420881
 20
123.1355943183893
 30
0.0
 10
304.9484777497503
 20
122.9477306392005
 30
0.0
 10
305.0979388302288
 20
122.7655841228058
 30
0.0
 10
305.2544239913114
 20
122.5894345049391
 30
0.0
 10
305.4177014409273
 20
122.4195602843873
 30
0.0
 10
305.5875432324542
 20
122.2562463613902
 30
0.0
 10
305.7636719741325
 20
122.0997291595145
 30
0.0
 10
305.9458034438409
 20
121.9502342644264
 30
0.0
 10
306.1336561517634
 20
121.8079903574457
 30
0.0
 10
306.3269465902428
 20
121.6732232087893
 30
0.0
 10
306.5253959083409
 20
121.5461686473301
 30
0.0
 10
306.7286917503622
 20
121.4270171960084
 30
0.0
 10
306.9365032757948
 20
121.3159271464979
 30
0.0
 10
307.1485044354101
 20
121.2130646048967
 30
0.0
 10
307.364367356359
 20
121.1185922475355
 30
0.0
 10
307.5837685484719
 20
121.0326789511158
 30
0.0
 10
307.8063765833805
 20
120.955467340858
 30
0.0
 10
308.0318473543531
 20
120.8870475527675
 30
0.0
 10
308.2598438432766
 20
120.8275185880679
 30
0.0
 10
308.4900281083553
 20
120.7769710161203
 30
0.0
 10
308.7220584470512
 20
120.7355202811719
 30
0.0
 10
308.9555707166897
 20
120.7031966311389
 30
0.0
 10
309.190168664177
 20
120.6802347292869
 30
0.0
 10
309.42544431845
 20
120.6658114864938
 30
0.0
 10
309.5825165986521
 20
120.6639940107169
 30
0.0
 10
309.6610366883729
 20
120.6630854585466
 30
0.0
  0
SPLINE
  5
1AF
330
1F
100
AcDbEntity
  8
0
  6
Continuous
 62
     7
370
    15
100
AcDbSpline
210
0.0
220
0.0
230
1.0
 70
     8
 71
     3
 72
    47
 73
    43
 74
     0
 42
0.000000001
 43
0.00000001
 40
0.0
 40
0.0
 40
0.0
 40
0.0
 40
0.0249848393114296
 40
0.0499821073990695
 40
0.0749864403608034
 40
0.0999925582988874
 40
0.1249956633178758
 40
0.1499944701844494
 40
0.1749903145699056
 40
0.1999844110148295
 40
0.2249779227617519
 40
0.2499721210542527
 40
0.2749679069531734
 40
0.2999650913673697
 40
0.3249631853007754
 40
0.3499616670725695
 40
0.3749601642924316
 40
0.3999586684054471
 40
0.424957374174698
 40
0.4499562560084056
 40
0.4749551815217949
 40
0.4999540901649929
 40
0.5249531621511108
 40
0.5499526575418333
 40
0.5749525802650429
 40
0.5999528022280203
 40
0.6249532420601115
 40
0.6499540306494208
 40
0.6749552933121298
 40
0.6999567528516782
 40
0.7249579173841364
 40
0.7499582665618932
 40
0.7749574460917513
 40
0.7999559561082227
 40
0.82495507950902
 40
0.8499560007662994
 40
0.8749598999246145
 40
0.899968117927141
 40
0.9249808053234151
 40
0.9499938457451452
 40
0.9750020327353256
 40
1.0
 40
1.0
 40
1.0
 40
1.0
 10
382.3341298055789
 20
188.3359688756184
 30
0.0
 10
382.3332240481898
 20
188.4144477632892
 30
0.0
 10
382.3314120828401
 20
188.5714445781668
 30
0.0
 10
382.3169987189059
 20
188.8066177338487
 30
0.0
 10
382.294054089595
 20
189.04113456481
 30
0.0
 10
382.261760758993
 20
189.2745861121356
 30
0.0
 10
382.2203559432293
 20
189.5065711032294
 30
0.0
 10
382.1698438025646
 20
189.7367141300764
 30
0.0
 10
382.1103505267772
 20
189.9646705618569
 30
0.0
 10
382.0419692037802
 20
190.1901034019711
 30
0.0
 10
381.964802459517
 20
190.4126769232634
 30
0.0
 10
381.8789459205033
 20
190.6320512536027
 30
0.0
 10
381.7845208313191
 20
190.8478886268816
 30
0.0
 10
381.6817013172379
 20
191.0598690631809
 30
0.0
 10
381.5706535780058
 20
191.2676671134733
 30
0.0
 10
381.4515464015094
 20
191.4709579747682
 30
0.0
 10
381.3245465602258
 20
191.6694160855858
 30
0.0
 10
381.189825918887
 20
191.8627171262635
 30
0.0
 10
381.0476198112248
 20
192.0505808054523
 30
0.0
 10
380.8981587307464
 20
192.2327273218469
 30
0.0
 10
380.7416735696637
 20
192.4088769397137
 30
0.0
 10
380.5783961200478
 20
192.5787511602654
 30
0.0
 10
380.408554328521
 20
192.7420650832626
 30
0.0
 10
380.2324255868427
 20
192.8985822851383
 30
0.0
 10
380.0502941171342
 20
193.0480771802264
 30
0.0
 10
379.8624414092118
 20
193.1903210872071
 30
0.0
 10
379.6691509707324
 20
193.3250882358635
 30
0.0
 10
379.4707016526343
 20
193.4521427973227
 30
0.0
 10
379.267405810613
 20
193.5712942486444
 30
0.0
 10
379.0595942851803
 20
193.6823842981549
 30
0.0
 10
378.847593125565
 20
193.7852468397561
 30
0.0
 10
378.6317302046161
 20
193.8797191971174
 30
0.0
 10
378.4123290125033
 20
193.965632493537
 30
0.0
 10
378.1897209775946
 20
194.0428441037948
 30
0.0
 10
377.9642502066221
 20
194.1112638918854
 30
0.0
 10
377.7362537176986
 20
194.1707928565849
 30
0.0
 10
377.5060694526198
 20
194.2213404285325
 30
0.0
 10
377.274039113924
 20
194.262791163481
 30
0.0
 10
377.0405268442854
 20
194.2951148135139
 30
0.0
 10
376.8059288967981
 20
194.3180767153659
 30
0.0
 10
376.5706532425251
 20
194.332499958159
 30
0.0
 10
376.413580962323
 20
194.3343174339359
 30
0.0
 10
376.3350608726022
 20
194.3352259861062
 30
0.0
  0
SPLINE
  5
1B0
330
1F
100
AcDbEntity
  8
0
  6
Continuous
 62
     7
370
    15
100
AcDbSpline
210
0.0
220
0.0
230
1.0
 70
     8
 71
     3
 72
    47
 73
    43
 74
     0
 42
0.000000001
 43
0.00000001
 40
0.0
 40
0.0
 40
0.0
 40
0.0
 40
0.0249848393114469
 40
0.049982107399106
 40
0.0749864403608563
 40
0.0999925582989545
 40
0.1249956633179588
 40
0.1499944701845462
 40
0.174990314570015
 40
0.19998441101495
 40
0.2249779227618835
 40
0.2499721210543956
 40
0.2749679069533238
 40
0.29996509136753
 40
0.3249631853009413
 40
0.3499616670727435
 40
0.3749601642926117
 40
0.399958668405629
 40
0.4249573741748828
 40
0.4499562560085927
 40
0.4749551815219854
 40
0.4999540901651826
 40
0.5249531621513002
 40
0.5499526575420215
 40
0.5749525802652278
 40
0.5999528022282015
 40
0.624953242060289
 40
0.6499540306495937
 40
0.6749552933122958
 40
0.699956752851837
 40
0.7249579173842873
 40
0.7499582665620358
 40
0.774957446091882
 40
0.7999559561083445
 40
0.8249550795091303
 40
0.8499560007663947
 40
0.8749598999246975
 40
0.8999681179272084
 40
0.9249808053234664
 40
0.949993845745182
 40
0.9750020327353429
 40
1.0
 40
1.0
 40
1.0
 40
1.0
 10
376.3348619337796
 20
120.6630746972351
 30
0.0
 10
376.4133408214504
 20
120.6639804546242
 30
0.0
 10
376.5703376363281
 20
120.6657924199739
 30
0.0
 10
376.8055107920101
 20
120.6802057839081
 30
0.0
 10
377.0400276229716
 20
120.703150413219
 30
0.0
 10
377.2734791702973
 20
120.7354437438211
 30
0.0
 10
377.5054641613913
 20
120.7768485595848
 30
0.0
 10
377.7356071882384
 20
120.8273607002495
 30
0.0
 10
377.963563620019
 20
120.886853976037
 30
0.0
 10
378.1889964601334
 20
120.9552352990341
 30
0.0
 10
378.4115699814257
 20
121.0324020432974
 30
0.0
 10
378.6309443117651
 20
121.1182585823112
 30
0.0
 10
378.8467816850441
 20
121.2126836714955
 30
0.0
 10
379.0587621213434
 20
121.3155031855767
 30
0.0
 10
379.2665601716358
 20
121.426550924809
 30
0.0
 10
379.4698510329308
 20
121.5456581013053
 30
0.0
 10
379.6683091437484
 20
121.6726579425891
 30
0.0
 10
379.8616101844261
 20
121.8073785839279
 30
0.0
 10
380.0494738636148
 20
121.9495846915902
 30
0.0
 10
380.2316203800094
 20
122.0990457720688
 30
0.0
 10
380.4077699978761
 20
122.2555309331514
 30
0.0
 10
380.5776442184278
 20
122.4188083827674
 30
0.0
 10
380.7409581414249
 20
122.5886501742943
 30
0.0
 10
380.8974753433005
 20
122.7647789159726
 30
0.0
 10
381.0469702383886
 20
122.9469103856811
 30
0.0
 10
381.1892141453692
 20
123.1347630936036
 30
0.0
 10
381.3239812940255
 20
123.3280535320829
 30
0.0
 10
381.4510358554847
 20
123.5265028501811
 30
0.0
 10
381.5701873068062
 20
123.7297986922024
 30
0.0
 10
381.6812773563167
 20
123.937610217635
 30
0.0
 10
381.7841398979178
 20
124.1496113772503
 30
0.0
 10
381.878612255279
 20
124.365474298199
 30
0.0
 10
381.9645255516986
 20
124.5848754903119
 30
0.0
 10
382.0417371619563
 20
124.8074835252205
 30
0.0
 10
382.1101569500468
 20
125.0329542961929
 30
0.0
 10
382.1696859147462
 20
125.2609507851163
 30
0.0
 10
382.2202334866938
 20
125.4911350501949
 30
0.0
 10
382.2616842216422
 20
125.7231653888906
 30
0.0
 10
382.2940078716751
 20
125.9566776585291
 30
0.0
 10
382.316969773527
 20
126.1912756060162
 30
0.0
 10
382.3313930163201
 20
126.4265512602891
 30
0.0
 10
382.3332104920971
 20
126.583623540491
 30
0.0
 10
382.3341190442674
 20
126.6621436302117
 30
0.0
  0
ELLIPSE
  5
1B1
330
1F
100
AcDbEntity
  8
0
  6
Continuous
 62
     7
370
    15
100
AcDbEllipse
 10
376.9971348122
 20
188.9982417541
 30
0.0
 11
-4.243933135017471
 21
-4.243933135017471
 31
0.0
210
0.0
220
0.0
230
1.0
 40
0.9996954599
 41
2.356346783439763
 42
3.926838523739681
  0
LINE
  5
1B2
330
1F
100
AcDbEntity
  8
0
  6
Continuous
 62
     7
370
    15
100
AcDbLine
 10
382.9980487805
 20
189.0000695514
 30
0.0
 11
382.3341470535
 21
188.3359688708
 31
0.0
  0
LINE
  5
1B3
330
1F
100
AcDbEntity
  8
0
  6
Continuous
 62
     7
370
    15
100
AcDbLine
 10
376.9989626095
 20
194.9991557223
 30
0.0
 11
376.3350608765
 21
194.3352539893
 31
0.0
  0
ELLIPSE
  5
1B4
330
1F
100
AcDbEntity
  8
0
  6
Continuous
 62
     7
370
    15
100
AcDbEllipse
 10
308.9989627488
 20
126.0000696906
 30
0.0
 11
4.243933135017528
 21
4.243933135017471
 31
0.0
210
0.0
220
0.0
230
1.0
 40
0.9996954599
 41
2.356346783439768
 42
3.926838523739852
  0
LINE
  5
1B5
330
1F
100
AcDbEntity
  8
0
  6
Continuous
 62
     7
370
    15
100
AcDbLine
 10
302.9980487805
 20
125.9982418933
 30
0.0
 11
303.6619505013
 21
126.6623425677
 31
0.0
  0
LINE
  5
1B6
330
1F
100
AcDbEntity
  8
0
  6
Continuous
 62
     7
370
    15
100
AcDbLine
 10
308.9971349514
 20
119.9991557223
 30
0.0
 11
309.6610366854
 21
120.6630574554
 31
0.0
  0
ELLIPSE
  5
1B7
330
1F
100
AcDbEntity
  8
0
  6
Continuous
 62
     7
370
    15
100
AcDbEllipse
 10
308.9989627488
 20
188.9982417541
 30
0.0
 11
4.243933135017528
 21
-4.243933135017471
 31
0.0
210
0.0
220
0.0
230
1.0
 40
0.9996954599
 41
2.356346783439755
 42
3.926838523739823
  0
LINE
  5
1B8
330
1F
100
AcDbEntity
  8
0
  6
Continuous
 62
     7
370
    15
100
AcDbLine
 10
308.9971349514
 20
194.9991557223
 30
0.0
 11
309.6612356259
 21
194.3352540015
 31
0.0
  0
LINE
  5
1B9
330
1F
100
AcDbEntity
  8
0
  6
Continuous
 62
     7
370
    15
100
AcDbLine
 10
303.6619505135
 20
188.3361678174
 30
0.0
 11
302.9980487805
 21
189.0000695514
 31
0.0
  0
ELLIPSE
  5
1BA
330
1F
100
AcDbEntity
  8
0
  6
Continuous
 62
     7
370
    15
100
AcDbEllipse
 10
376.9971348122
 20
126.0000696906
 30
0.0
 11
-4.243933135017471
 21
4.243933135017471
 31
0.0
210
0.0
220
0.0
230
1.0
 40
0.9996954599
 41
2.35634678343976
 42
3.926838523739832
  0
LINE
  5
1BB
330
1F
100
AcDbEntity
  8
0
  6
Continuous
 62
     7
370
    15
100
AcDbLine
 10
376.9989626095
 20
119.9991557223
 30
0.0
 11
376.3348619351
 21
120.6630574432
 31
0.0
  0
LINE
  5
1BC
330
1F
100
AcDbEntity
  8
0
  6
Continuous
 62
     7
370
    15
100
AcDbLine
 10
382.9980487805
 20
125.9982418933
 30
0.0
 11
382.3341470474
 21
126.6621436273
 31
0.0
  0
LINE
  5
1BD
330
1F
100
AcDbEntity
  8
0
  6
Continuous
 62
     7
370
    15
100
AcDbLine
 10
376.9989626095
 20
194.9991557223
 30
0.0
 11
308.9971349514
 21
194.9991557223
 31
0.0
  0
LINE
  5
1BE
330
1F
100
AcDbEntity
  8
0
  6
Continuous
 62
     7
370
    15
100
AcDbLine
 10
308.9971349514
 20
119.9991557223
 30
0.0
 11
376.9989626095
 21
119.9991557223
 31
0.0
  0
LINE
  5
1BF
330
1F
100
AcDbEntity
  8
0
  6
Continuous
 62
     7
370
    15
100
AcDbLine
 10
382.9980487805
 20
125.9982418933
 30
0.0
 11
382.9980487805
 21
189.0000695514
 31
0.0
  0
LINE
  5
1C0
330
1F
100
AcDbEntity
  8
0
  6
Continuous
 62
     7
370
    15
100
AcDbLine
 10
302.9980487805
 20
189.0000695514
 30
0.0
 11
302.9980487805
 21
125.9982418933
 31
0.0
  0
LINE
  5
1C1
330
1F
100
AcDbEntity
  8
0
  6
Continuous
 62
     8
370
    15
100
AcDbLine
 10
305.6616459038
 20
126.6621436263
 30
0.0
 11
305.6616459038
 21
131.3885301141
 31
0.0
  0
LINE
  5
1C2
330
1F
100
AcDbEntity
  8
0
  6
Continuous
 62
     8
370
    15
100
AcDbLine
 10
305.6616459038
 20
183.6097813306
 30
0.0
 11
305.6616459038
 21
188.3361678183
 31
0.0
  0
LINE
  5
1C3
330
1F
100
AcDbEntity
  8
0
  6
Continuous
 62
     8
370
    15
100
AcDbLine
 10
305.6616459038
 20
138.6097813306
 30
0.0
 11
305.6616459038
 21
176.3885301141
 31
0.0
  0
LINE
  5
1C4
330
1F
100
AcDbEntity
  8
0
  6
Continuous
 62
     8
370
    15
100
AcDbLine
 10
380.3344516571
 20
188.3361678183
 30
0.0
 11
380.3344516571
 21
183.6097813306
 31
0.0
  0
LINE
  5
1C5
330
1F
100
AcDbEntity
  8
0
  6
Continuous
 62
     8
370
    15
100
AcDbLine
 10
380.3344516571
 20
176.3885301141
 30
0.0
 11
380.3344516571
 21
138.6097813306
 31
0.0
  0
LINE
  5
1C6
330
1F
100
AcDbEntity
  8
0
  6
Continuous
 62
     8
370
    15
100
AcDbLine
 10
380.3344516571
 20
131.3885301141
 30
0.0
 11
380.3344516571
 21
126.6621436263
 31
0.0
  0
ENDSEC
  0
SECTION
  2
OBJECTS
  0
DICTIONARY
  5
C
330
0
100
AcDbDictionary
281
     1
  3
ACAD_GROUP
350
D
  3
ACAD_LAYOUT
350
1A
  3
ACAD_MLINESTYLE
350
17
  3
ACAD_PLOTSETTINGS
350
19
  3
ACAD_PLOTSTYLENAME
350
E
  3
ACAD_SCALELIST
350
47
  0
DICTIONARY
  5
D
102
{ACAD_REACTORS
330
C
102
}
330
C
100
AcDbDictionary
281
     1
  0
DICTIONARY
  5
1A
102
{ACAD_REACTORS
330
C
102
}
330
C
100
AcDbDictionary
281
     1
  3
Layout1
350
1E
  3
Layout2
350
26
  3
Model
350
22
  0
DICTIONARY
  5
17
102
{ACAD_REACTORS
330
C
102
}
330
C
100
AcDbDictionary
281
     1
  3
Standard
350
18
  0
DICTIONARY
  5
19
102
{ACAD_REACTORS
330
C
102
}
330
C
100
AcDbDictionary
281
     1
  0
ACDBDICTIONARYWDFLT
  5
E
102
{ACAD_REACTORS
330
C
102
}
330
C
100
AcDbDictionary
281
     1
  3
Normal
350
F
100
AcDbDictionaryWithDefault
340
F
  0
DICTIONARY
  5
47
102
{ACAD_REACTORS
330
C
102
}
330
C
100
AcDbDictionary
281
     1
  3
A0
350
48
  3
A1
350
49
  3
A2
350
4A
  3
A3
350
4B
  3
A4
350
4C
  3
A5
350
4D
  3
A6
350
4E
  3
A7
350
4F
  3
A8
350
50
  3
A9
350
51
  3
B0
350
52
  3
B1
350
53
  3
B2
350
54
  3
B3
350
55
  3
B4
350
56
  3
B5
350
57
  3
B6
350
58
  3
B7
350
59
  3
B8
350
5A
  3
B9
350
5B
  3
C0
350
5C
  3
C1
350
5D
  3
C2
350
5E
  3
C3
350
5F
  3
C4
350
60
  3
C5
350
61
  3
C6
350
62
  3
C7
350
63
  3
C8
350
64
  3
C9
350
65
  3
D0
350
66
  3
D1
350
67
  3
D2
350
68
  0
LAYOUT
  5
1E
102
{ACAD_REACTORS
330
1A
102
}
330
1A
100
AcDbPlotSettings
  1

  2
none_device
  4

  6

 40
0.0
 41
0.0
 42
0.0
 43
0.0
 44
0.0
 45
0.0
 46
0.0
 47
0.0
 48
0.0
 49
0.0
140
0.0
141
0.0
142
1.0
143
1.0
 70
   688
 72
     1
 73
     0
 74
     5
  7

 75
    16
147
1.0
148
0.0
149
0.0
100
AcDbLayout
  1
Layout1
 70
     1
 71
     1
 10
0.0
 20
0.0
 11
420.0
 21
297.0
 12
0.0
 22
0.0
 32
0.0
 14
1.0000000000E+20
 24
1.0000000000E+20
 34
1.0000000000E+20
 15
-1.0000000000E+20
 25
-1.0000000000E+20
 35
-1.0000000000E+20
146
0.0
 13
0.0
 23
0.0
 33
0.0
 16
1.0
 26
0.0
 36
0.0
 17
0.0
 27
1.0
 37
0.0
 76
     0
330
1B
  0
LAYOUT
  5
26
102
{ACAD_REACTORS
330
1A
102
}
330
1A
100
AcDbPlotSettings
  1

  2
none_device
  4

  6

 40
0.0
 41
0.0
 42
0.0
 43
0.0
 44
0.0
 45
0.0
 46
0.0
 47
0.0
 48
0.0
 49
0.0
140
0.0
141
0.0
142
1.0
143
1.0
 70
   688
 72
     1
 73
     0
 74
     5
  7

 75
    16
147
1.0
148
0.0
149
0.0
100
AcDbLayout
  1
Layout2
 70
     1
 71
     2
 10
0.0
 20
0.0
 11
0.0
 21
0.0
 12
0.0
 22
0.0
 32
0.0
 14
0.0
 24
0.0
 34
0.0
 15
0.0
 25
0.0
 35
0.0
146
0.0
 13
0.0
 23
0.0
 33
0.0
 16
1.0
 26
0.0
 36
0.0
 17
0.0
 27
1.0
 37
0.0
 76
     0
330
23
  0
LAYOUT
  5
22
102
{ACAD_REACTORS
330
1A
102
}
330
1A
100
AcDbPlotSettings
  1

  2
none_device
  4
Letter_(8.50_x_11.00_Inches)
  6

 40
6.35
 41
6.35
 42
6.35000508
 43
6.35000508
 44
215.9
 45
279.4
 46
0.0
 47
0.0
 48
0.0
 49
0.0
140
0.0
141
0.0
142
1.0
143
1.0
 70
  1712
 72
     1
 73
     0
 74
     0
  7

 75
     0
147
1.0
148
0.0
149
0.0
100
AcDbLayout
  1
Model
 70
     1
 71
     0
 10
0.0
 20
0.0
 11
420.0
 21
297.0
 12
0.0
 22
0.0
 32
0.0
 14
0.0
 24
0.0
 34
0.0
 15
420.0
 25
297.0
 35
0.0
146
0.0
 13
0.0
 23
0.0
 33
0.0
 16
1.0
 26
0.0
 36
0.0
 17
0.0
 27
1.0
 37
0.0
 76
     0
330
1F
331
29
  0
MLINESTYLE
  5
18
102
{ACAD_REACTORS
330
17
102
}
330
17
100
AcDbMlineStyle
  2
Standard
 70
     0
  3

 62
   256
 51
90.0
 52
90.0
 71
     2
 49
0.5
 62
   256
  6
BYLAYER
 49
-0.5
 62
   256
  6
BYLAYER
  0
ACDBPLACEHOLDER
  5
F
102
{ACAD_REACTORS
330
E
102
}
330
E
  0
SCALE
  5
48
102
{ACAD_REACTORS
330
47
102
}
330
47
100
AcDbScale
 70
     0
300
1:1
140
1.0
141
1.0
290
     1
  0
SCALE
  5
49
102
{ACAD_REACTORS
330
47
102
}
330
47
100
AcDbScale
 70
     0
300
1:2
140
1.0
141
2.0
290
     0
  0
SCALE
  5
4A
102
{ACAD_REACTORS
330
47
102
}
330
47
100
AcDbScale
 70
     0
300
1:4
140
1.0
141
4.0
290
     0
  0
SCALE
  5
4B
102
{ACAD_REACTORS
330
47
102
}
330
47
100
AcDbScale
 70
     0
300
1:5
140
1.0
141
5.0
290
     0
  0
SCALE
  5
4C
102
{ACAD_REACTORS
330
47
102
}
330
47
100
AcDbScale
 70
     0
300
1:8
140
1.0
141
8.0
290
     0
  0
SCALE
  5
4D
102
{ACAD_REACTORS
330
47
102
}
330
47
100
AcDbScale
 70
     0
300
1:10
140
1.0
141
10.0
290
     0
  0
SCALE
  5
4E
102
{ACAD_REACTORS
330
47
102
}
330
47
100
AcDbScale
 70
     0
300
1:16
140
1.0
141
16.0
290
     0
  0
SCALE
  5
4F
102
{ACAD_REACTORS
330
47
102
}
330
47
100
AcDbScale
 70
     0
300
1:20
140
1.0
141
20.0
290
     0
  0
SCALE
  5
50
102
{ACAD_REACTORS
330
47
102
}
330
47
100
AcDbScale
 70
     0
300
1:30
140
1.0
141
30.0
290
     0
  0
SCALE
  5
51
102
{ACAD_REACTORS
330
47
102
}
330
47
100
AcDbScale
 70
     0
300
1:40
140
1.0
141
40.0
290
     0
  0
SCALE
  5
52
102
{ACAD_REACTORS
330
47
102
}
330
47
100
AcDbScale
 70
     0
300
1:50
140
1.0
141
50.0
290
     0
  0
SCALE
  5
53
102
{ACAD_REACTORS
330
47
102
}
330
47
100
AcDbScale
 70
     0
300
1:100
140
1.0
141
100.0
290
     0
  0
SCALE
  5
54
102
{ACAD_REACTORS
330
47
102
}
330
47
100
AcDbScale
 70
     0
300
2:1
140
2.0
141
1.0
290
     0
  0
SCALE
  5
55
102
{ACAD_REACTORS
330
47
102
}
330
47
100
AcDbScale
 70
     0
300
4:1
140
4.0
141
1.0
290
     0
  0
SCALE
  5
56
102
{ACAD_REACTORS
330
47
102
}
330
47
100
AcDbScale
 70
     0
300
8:1
140
8.0
141
1.0
290
     0
  0
SCALE
  5
57
102
{ACAD_REACTORS
330
47
102
}
330
47
100
AcDbScale
 70
     0
300
10:1
140
10.0
141
1.0
290
     0
  0
SCALE
  5
58
102
{ACAD_REACTORS
330
47
102
}
330
47
100
AcDbScale
 70
     0
300
100:1
140
100.0
141
1.0
290
     0
  0
SCALE
  5
59
102
{ACAD_REACTORS
330
47
102
}
330
47
100
AcDbScale
 70
     0
300
1/128" = 1'-0"
140
0.0078125
141
12.0
290
     0
  0
SCALE
  5
5A
102
{ACAD_REACTORS
330
47
102
}
330
47
100
AcDbScale
 70
     0
300
1/64" = 1'-0"
140
0.015625
141
12.0
290
     0
  0
SCALE
  5
5B
102
{ACAD_REACTORS
330
47
102
}
330
47
100
AcDbScale
 70
     0
300
1/32" = 1'-0"
140
0.03125
141
12.0
290
     0
  0
SCALE
  5
5C
102
{ACAD_REACTORS
330
47
102
}
330
47
100
AcDbScale
 70
     0
300
1/16" = 1'-0"
140
0.0625
141
12.0
290
     0
  0
SCALE
  5
5D
102
{ACAD_REACTORS
330
47
102
}
330
47
100
AcDbScale
 70
     0
300
3/32" = 1'-0"
140
0.09375
141
12.0
290
     0
  0
SCALE
  5
5E
102
{ACAD_REACTORS
330
47
102
}
330
47
100
AcDbScale
 70
     0
300
1/8" = 1'-0"
140
0.125
141
12.0
290
     0
  0
SCALE
  5
5F
102
{ACAD_REACTORS
330
47
102
}
330
47
100
AcDbScale
 70
     0
300
3/16" = 1'-0"
140
0.1875
141
12.0
290
     0
  0
SCALE
  5
60
102
{ACAD_REACTORS
330
47
102
}
330
47
100
AcDbScale
 70
     0
300
1/4" = 1'-0"
140
0.25
141
12.0
290
     0
  0
SCALE
  5
61
102
{ACAD_REACTORS
330
47
102
}
330
47
100
AcDbScale
 70
     0
300
3/8" = 1'-0"
140
0.375
141
12.0
290
     0
  0
SCALE
  5
62
102
{ACAD_REACTORS
330
47
102
}
330
47
100
AcDbScale
 70
     0
300
1/2" = 1'-0"
140
0.5
141
12.0
290
     0
  0
SCALE
  5
63
102
{ACAD_REACTORS
330
47
102
}
330
47
100
AcDbScale
 70
     0
300
3/4" = 1'-0"
140
0.75
141
12.0
290
     0
  0
SCALE
  5
64
102
{ACAD_REACTORS
330
47
102
}
330
47
100
AcDbScale
 70
     0
300
1" = 1'-0"
140
1.0
141
12.0
290
     0
  0
SCALE
  5
65
102
{ACAD_REACTORS
330
47
102
}
330
47
100
AcDbScale
 70
     0
300
1-1/2" = 1'-0"
140
1.5
141
12.0
290
     0
  0
SCALE
  5
66
102
{ACAD_REACTORS
330
47
102
}
330
47
100
AcDbScale
 70
     0
300
3" = 1'-0"
140
3.0
141
12.0
290
     0
  0
SCALE
  5
67
102
{ACAD_REACTORS
330
47
102
}
330
47
100
AcDbScale
 70
     0
300
6" = 1'-0"
140
6.0
141
12.0
290
     0
  0
SCALE
  5
68
102
{ACAD_REACTORS
330
47
102
}
330
47
100
AcDbScale
 70
     0
300
1'-0" = 1'-0"
140
12.0
141
12.0
290
     0
  0
ENDSEC
  0
EOF
