  0
SECTION
  2
HEADER
  9
$ACADVER
  1
AC1009
  9
$INSBASE
 10
0.0
 20
0.0
 30
0.0
  9
$EXTMIN
 10
-5519.6954432000493
 20
-230.0825739545605
 30
-0.0015258207003583
  9
$EXTMAX
 10
-5133.2696867959203
 20
13.72267254398821
 30
0.0000000349246037
  9
$LIMMIN
 10
0.0
 20
0.0
  9
$LIMMAX
 10
420.0
 20
297.0
  9
$ORTHOMODE
 70
     1
  9
$REGENMODE
 70
     1
  9
$FILLMODE
 70
     1
  9
$QTEXTMODE
 70
     0
  9
$MIRRTEXT
 70
     1
  9
$DRAGMODE
 70
     2
  9
$LTSCALE
 40
1.0
  9
$OSMODE
 70
    37
  9
$ATTMODE
 70
     1
  9
$TEXTSIZE
 40
5.0
  9
$TRACEWID
 40
1.0
  9
$TEXTSTYLE
  7
ACANSTS
  9
$CLAYER
  8
AM_VIS
  9
$CELTYPE
  6
BYLAYER
  9
$CECOLOR
 62
   256
  9
$DIMSCALE
 40
1.0
  9
$DIMASZ
 40
3.5
  9
$DIMEXO
 40
0.1
  9
$DIMDLI
 40
0.38
  9
$DIMRND
 40
0.0
  9
$DIMDLE
 40
0.0
  9
$DIMEXE
 40
0.18
  9
$DIMTP
 40
0.0
  9
$DIMTM
 40
0.0
  9
$DIMTXT
 40
5.0
  9
$DIMCEN
 40
1.0
  9
$DIMTSZ
 40
0.0
  9
$DIMTOL
 70
     0
  9
$DIMLIM
 70
     0
  9
$DIMTIH
 70
     0
  9
$DIMTOH
 70
     0
  9
$DIMSE1
 70
     0
  9
$DIMSE2
 70
     0
  9
$DIMTAD
 70
     1
  9
$DIMZIN
 70
     8
  9
$DIMBLK
  1

  9
$DIMASO
 70
     1
  9
$DIMSHO
 70
     1
  9
$DIMPOST
  1

  9
$DIMAPOST
  1

  9
$DIMALT
 70
     0
  9
$DIMALTD
 70
     2
  9
$DIMALTF
 40
25.399999999999999
  9
$DIMLFAC
 40
1.0
  9
$DIMTOFL
 70
     1
  9
$DIMTVP
 40
0.0
  9
$DIMTIX
 70
     0
  9
$DIMSOXD
 70
     0
  9
$DIMSAH
 70
     0
  9
$DIMBLK1
  1

  9
$DIMBLK2
  1

  9
$DIMSTYLE
  2
FIBOX
  9
$DIMCLRD
 70
     1
  9
$DIMCLRE
 70
     1
  9
$DIMCLRT
 70
     3
  9
$DIMTFAC
 40
1.0
  9
$DIMGAP
 40
1.0
  9
$LUNITS
 70
     2
  9
$LUPREC
 70
     4
  9
$SKETCHINC
 40
1.0
  9
$FILLETRAD
 40
2.0
  9
$AUNITS
 70
     0
  9
$AUPREC
 70
     0
  9
$MENU
  1
.
  9
$ELEVATION
 40
0.0
  9
$PELEVATION
 40
0.0
  9
$THICKNESS
 40
0.0
  9
$LIMCHECK
 70
     0
  9
$BLIPMODE
 70
     0
  9
$CHAMFERA
 40
10.0
  9
$CHAMFERB
 40
10.0
  9
$SKPOLY
 70
     0
  9
$TDCREATE
 40
2450519.5332191898
  9
$TDUPDATE
 40
2453553.355038634
  9
$TDINDWG
 40
0.9690748611
  9
$TDUSRTIMER
 40
0.9690745139
  9
$USRTIMER
 70
     1
  9
$ANGBASE
 50
0.0
  9
$ANGDIR
 70
     0
  9
$PDMODE
 70
     0
  9
$PDSIZE
 40
0.0
  9
$PLINEWID
 40
0.0
  9
$COORDS
 70
     2
  9
$SPLFRAME
 70
     0
  9
$SPLINETYPE
 70
     6
  9
$SPLINESEGS
 70
     8
  9
$ATTDIA
 70
     0
  9
$ATTREQ
 70
     1
  9
$HANDLING
 70
-16383
  9
$HANDSEED
  5
112BB
  9
$SURFTAB1
 70
     6
  9
$SURFTAB2
 70
     6
  9
$SURFTYPE
 70
     6
  9
$SURFU
 70
     6
  9
$SURFV
 70
     6
  9
$UCSNAME
  2

  9
$UCSORG
 10
0.0
 20
0.0
 30
0.0
  9
$UCSXDIR
 10
1.0
 20
0.0
 30
0.0
  9
$UCSYDIR
 10
0.0
 20
1.0
 30
0.0
  9
$PUCSNAME
  2

  9
$PUCSORG
 10
0.0
 20
0.0
 30
0.0
  9
$PUCSXDIR
 10
1.0
 20
0.0
 30
0.0
  9
$PUCSYDIR
 10
0.0
 20
1.0
 30
0.0
  9
$USERI1
 70
     0
  9
$USERI2
 70
     0
  9
$USERI3
 70
     0
  9
$USERI4
 70
     0
  9
$USERI5
 70
     0
  9
$USERR1
 40
0.0
  9
$USERR2
 40
0.0
  9
$USERR3
 40
0.0
  9
$USERR4
 40
0.0
  9
$USERR5
 40
0.0
  9
$WORLDVIEW
 70
     1
  9
$SHADEDGE
 70
     3
  9
$SHADEDIF
 70
    70
  9
$TILEMODE
 70
     1
  9
$MAXACTVP
 70
    16
  9
$PLIMCHECK
 70
     0
  9
$PEXTMIN
 10
-5552.4819698781121
 20
-307.98559333653731
 30
0.0
  9
$PEXTMAX
 10
0.0
 20
286.0144066634623
 30
0.0
  9
$PLIMMIN
 10
-4345.5275299496152
 20
-326.3203699241713
  9
$PLIMMAX
 10
-3446.4652188092109
 20
309.71430877427122
  9
$UNITMODE
 70
     0
  9
$VISRETAIN
 70
     0
  9
$PLINEGEN
 70
     0
  9
$PSLTSCALE
 70
     1
  0
ENDSEC
  0
SECTION
  2
TABLES
  0
TABLE
  2
VPORT
 70
     2
  0
VPORT
  2
*ACTIVE
 70
     0
 10
0.0
 20
0.0
 11
1.0
 21
1.0
 12
-5326.4825649979839
 22
-108.1799507052861
 13
0.0
 23
0.0
 14
10.0
 24
10.0
 15
10.0
 25
10.0
 16
0.0
 26
0.0
 36
1.0
 17
0.0
 27
0.0
 37
0.0
 40
249.43149009881151
 41
1.5552208835341359
 42
50.0
 43
0.0
 44
0.0
 50
0.0
 51
0.0
 71
     0
 72
 10000
 73
     1
 74
     1
 75
     0
 76
     0
 77
     0
 78
     0
  0
ENDTAB
  0
TABLE
  2
LTYPE
 70
     3
  0
LTYPE
  2
CONTINUOUS
 70
     0
  3
Solid line
 72
    65
 73
     0
 40
0.0
  0
LTYPE
  2
HIDDEN
 70
     0
  3
__ __ __ __ __ __ __ __ __ __ __ __ __ __ __ __
 72
    65
 73
     2
 40
0.375
 49
0.25
 49
-0.125
  0
LTYPE
  2
DASHDOT
 70
     0
  3
Dash dot __ . __ . __ . __ . __ . __ . __ . __
 72
    65
 73
     4
 40
25.399999999999999
 49
12.699999999999999
 49
-6.349999999999997
 49
0.0
 49
-6.349999999999997
  0
ENDTAB
  0
TABLE
  2
LAYER
 70
     5
  0
LAYER
  2
0
 70
     0
 62
     7
  6
CONTINUOUS
  0
LAYER
  2
AM_VIS
 70
     0
 62
     7
  6
CONTINUOUS
  0
LAYER
  2
AM_HID
 70
     0
 62
     1
  6
HIDDEN
  0
LAYER
  2
L2
 70
     0
 62
     1
  6
DASHDOT
  0
ENDTAB
  0
TABLE
  2
STYLE
 70
     2
  0
STYLE
  2
STANDARD
 70
     0
 40
0.0
 41
1.0
 50
0.0
 71
     0
 42
2.5
  3
ISOCP
  4

  0
STYLE
  2
ACANSTS
 70
     0
 40
0.0
 41
1.0
 50
0.0
 71
     0
 42
5.0
  3
simplex.shx
  4

  0
ENDTAB
  0
TABLE
  2
VIEW
 70
     0
  0
ENDTAB
  0
TABLE
  2
UCS
 70
     0
  0
ENDTAB
  0
TABLE
  2
APPID
 70
     1
  0
APPID
  2
ACAD
 70
     0
  0
ENDTAB
  0
TABLE
  2
DIMSTYLE
 70
     1
  0
DIMSTYLE
  2
FIBOX
 70
     0
  3

  4

  5

  6

  7

 40
1.0
 41
3.5
 42
0.1
 43
0.38
 44
0.18
 45
0.0
 46
0.0
 47
0.0
 48
0.0
140
5.0
141
1.0
142
0.0
143
25.399999999999999
144
1.0
145
0.0
146
1.0
147
1.0
 71
     0
 72
     0
 73
     0
 74
     0
 75
     0
 76
     0
 77
     1
 78
     8
170
     0
171
     2
172
     1
173
     0
174
     0
175
     0
176
     1
177
     1
178
     3
  0
ENDTAB
  0
ENDSEC
  0
SECTION
  2
BLOCKS
  0
BLOCK
  8
0
  2
$MODEL_SPACE
 70
     0
 10
0.0
 20
0.0
 30
0.0
  3
$MODEL_SPACE
  1

  0
ENDBLK
  5
8A55
  8
0
  0
BLOCK
 67
     1
  8
0
  2
$PAPER_SPACE
 70
     0
 10
0.0
 20
0.0
 30
0.0
  3
$PAPER_SPACE
  1

  0
ENDBLK
  5
8A51
 67
     1
  8
0
  0
ENDSEC
  0
SECTION
  2
ENTITIES
  0
LINE
  5
9024
  8
AM_VIS
 10
-5246.5343982216964
 20
-58.163811671226249
 30
0.0
 11
-5153.5001967031612
 21
-58.163811671226249
 31
0.0
  0
POLYLINE
  5
9025
  8
AM_VIS
 66
     1
 10
0.0
 20
0.0
 30
0.0
 70
     8
  0
VERTEX
  5
9026
  8
0
 10
-5250.0299999999979
 20
-61.706000000000003
 30
0.0
 70
    32
  0
VERTEX
  5
9027
  8
0
 10
-5250.0299999999979
 20
-61.706299999999999
 30
0.0
 70
    32
  0
VERTEX
  5
9028
  8
0
 10
-5250.0299999999979
 20
-61.706600000000002
 30
0.0
 70
    32
  0
VERTEX
  5
9029
  8
0
 10
-5250.0299999999979
 20
-61.707000000000001
 30
0.0
 70
    32
  0
VERTEX
  5
902A
  8
0
 10
-5250.0299999999979
 20
-61.707299999999982
 30
0.0
 70
    32
  0
VERTEX
  5
902B
  8
0
 10
-5250.0299999999979
 20
-61.707599999999999
 30
0.0
 70
    32
  0
VERTEX
  5
902C
  8
0
 10
-5250.0299999999979
 20
-61.707900000000002
 30
0.0
 70
    32
  0
VERTEX
  5
902D
  8
0
 10
-5250.0299999999979
 20
-61.708300000000001
 30
0.0
 70
    32
  0
VERTEX
  5
902E
  8
0
 10
-5250.0299999999979
 20
-61.708599999999997
 30
0.0
 70
    32
  0
VERTEX
  5
902F
  8
0
 10
-5250.0299999999979
 20
-61.708899999999993
 30
0.0
 70
    32
  0
VERTEX
  5
9030
  8
0
 10
-5250.0299999999979
 20
-61.709200000000003
 30
0.0
 70
    32
  0
VERTEX
  5
9031
  8
0
 10
-5250.0299999999979
 20
-61.709600000000002
 30
0.0
 70
    32
  0
VERTEX
  5
9032
  8
0
 10
-5250.0299999999979
 20
-61.70989999999999
 30
0.0
 70
    32
  0
VERTEX
  5
9033
  8
0
 10
-5250.0299999999979
 20
-61.7102
 30
0.0
 70
    32
  0
VERTEX
  5
9034
  8
0
 10
-5250.0299999999979
 20
-61.710599999999999
 30
0.0
 70
    32
  0
VERTEX
  5
9035
  8
0
 10
-5250.0299999999979
 20
-61.710900000000002
 30
0.0
 70
    32
  0
VERTEX
  5
9036
  8
0
 10
-5250.0299999999979
 20
-61.711199999999998
 30
0.0
 70
    32
  0
VERTEX
  5
9037
  8
0
 10
-5250.0299999999979
 20
-61.711500000000001
 30
0.0
 70
    32
  0
VERTEX
  5
9038
  8
0
 10
-5250.0299999999979
 20
-61.7119
 30
0.0
 70
    32
  0
VERTEX
  5
9039
  8
0
 10
-5250.0299999999979
 20
-61.712200000000003
 30
0.0
 70
    32
  0
VERTEX
  5
903A
  8
0
 10
-5250.0299999999979
 20
-61.712499999999999
 30
0.0
 70
    32
  0
VERTEX
  5
903B
  8
0
 10
-5250.0299999999979
 20
-61.712800000000001
 30
0.0
 70
    32
  0
VERTEX
  5
903C
  8
0
 10
-5250.0299999999979
 20
-61.713200000000001
 30
0.0
 70
    32
  0
VERTEX
  5
903D
  8
0
 10
-5250.0299999999979
 20
-61.713500000000003
 30
0.0
 70
    32
  0
VERTEX
  5
903E
  8
0
 10
-5250.0299999999979
 20
-61.713799999999999
 30
0.0
 70
    32
  0
VERTEX
  5
903F
  8
0
 10
-5250.0299999999979
 20
-61.714199999999998
 30
0.0
 70
    32
  0
VERTEX
  5
9040
  8
0
 10
-5250.0299999999979
 20
-61.714500000000001
 30
0.0
 70
    32
  0
VERTEX
  5
9041
  8
0
 10
-5250.0299999999979
 20
-61.714799999999983
 30
0.0
 70
    32
  0
VERTEX
  5
9042
  8
0
 10
-5250.0299999999979
 20
-61.7151
 30
0.0
 70
    32
  0
VERTEX
  5
9043
  8
0
 10
-5250.0299999999979
 20
-61.715499999999992
 30
0.0
 70
    32
  0
VERTEX
  5
9044
  8
0
 10
-5250.0299999999979
 20
-61.715800000000002
 30
0.0
 70
    32
  0
VERTEX
  5
9045
  8
0
 10
-5250.0299999999979
 20
-61.716099999999997
 30
0.0
 70
    32
  0
VERTEX
  5
9046
  8
0
 10
-5250.0299999999979
 20
-61.7164
 30
0.0
 70
    32
  0
VERTEX
  5
9047
  8
0
 10
-5250.0299999999979
 20
-61.716799999999999
 30
0.0
 70
    32
  0
VERTEX
  5
9048
  8
0
 10
-5250.0299999999979
 20
-61.717100000000002
 30
0.0
 70
    32
  0
VERTEX
  5
9049
  8
0
 10
-5250.0299999999979
 20
-61.717399999999991
 30
0.0
 70
    32
  0
VERTEX
  5
904A
  8
0
 10
-5250.0299999999979
 20
-61.717799999999997
 30
0.0
 70
    32
  0
VERTEX
  5
904B
  8
0
 10
-5250.0299999999979
 20
-61.7181
 30
0.0
 70
    32
  0
VERTEX
  5
904C
  8
0
 10
-5250.0299999999979
 20
-61.718400000000003
 30
0.0
 70
    32
  0
VERTEX
  5
904D
  8
0
 10
-5250.0299999999979
 20
-61.718699999999998
 30
0.0
 70
    32
  0
VERTEX
  5
904E
  8
0
 10
-5250.0299999999979
 20
-61.719099999999997
 30
0.0
 70
    32
  0
VERTEX
  5
904F
  8
0
 10
-5250.0299999999979
 20
-61.7194
 30
0.0
 70
    32
  0
VERTEX
  5
9050
  8
0
 10
-5250.0299999999979
 20
-61.719700000000003
 30
0.0
 70
    32
  0
VERTEX
  5
9051
  8
0
 10
-5250.0299999999979
 20
-61.719999999999999
 30
0.0
 70
    32
  0
VERTEX
  5
9052
  8
0
 10
-5250.0299999999979
 20
-61.720399999999991
 30
0.0
 70
    32
  0
VERTEX
  5
9053
  8
0
 10
-5250.0299999999979
 20
-61.720700000000001
 30
0.0
 70
    32
  0
VERTEX
  5
9054
  8
0
 10
-5250.0299999999979
 20
-61.720999999999997
 30
0.0
 70
    32
  0
VERTEX
  5
9055
  8
0
 10
-5250.0299999999979
 20
-61.721299999999999
 30
0.0
 70
    32
  0
VERTEX
  5
9056
  8
0
 10
-5250.0299999999979
 20
-61.721699999999998
 30
0.0
 70
    32
  0
VERTEX
  5
9057
  8
0
 10
-5250.0299999999979
 20
-61.722000000000001
 30
0.0
 70
    32
  0
VERTEX
  5
9058
  8
0
 10
-5250.0299999999979
 20
-61.722299999999983
 30
0.0
 70
    32
  0
VERTEX
  5
9059
  8
0
 10
-5250.0299999999979
 20
-61.72270000000001
 30
0.0
 70
    32
  0
VERTEX
  5
905A
  8
0
 10
-5250.0299999999979
 20
-61.722999999999992
 30
0.0
 70
    32
  0
VERTEX
  5
905B
  8
0
 10
-5250.0299999999979
 20
-61.723300000000002
 30
0.0
 70
    32
  0
VERTEX
  5
905C
  8
0
 10
-5250.0299999999979
 20
-61.723599999999998
 30
0.0
 70
    32
  0
VERTEX
  5
905D
  8
0
 10
-5250.0299999999979
 20
-61.72399999999999
 30
0.0
 70
    32
  0
VERTEX
  5
905E
  8
0
 10
-5250.0299999999979
 20
-61.724299999999999
 30
0.0
 70
    32
  0
VERTEX
  5
905F
  8
0
 10
-5250.0299999999979
 20
-61.724600000000002
 30
0.0
 70
    32
  0
VERTEX
  5
9060
  8
0
 10
-5250.0299999999979
 20
-61.724899999999991
 30
0.0
 70
    32
  0
VERTEX
  5
9061
  8
0
 10
-5250.0299999999979
 20
-61.725299999999997
 30
0.0
 70
    32
  0
VERTEX
  5
9062
  8
0
 10
-5250.0299999999979
 20
-61.7256
 30
0.0
 70
    32
  0
VERTEX
  5
9063
  8
0
 10
-5250.0299999999979
 20
-61.725900000000003
 30
0.0
 70
    32
  0
VERTEX
  5
9064
  8
0
 10
-5250.0299999999979
 20
-61.726300000000002
 30
0.0
 70
    32
  0
VERTEX
  5
9065
  8
0
 10
-5250.0299999999979
 20
-61.726599999999998
 30
0.0
 70
    32
  0
VERTEX
  5
9066
  8
0
 10
-5250.0299999999979
 20
-61.726900000000001
 30
0.0
 70
    32
  0
VERTEX
  5
9067
  8
0
 10
-5250.0299999999979
 20
-61.727200000000003
 30
0.0
 70
    32
  0
VERTEX
  5
9068
  8
0
 10
-5250.0299999999979
 20
-61.727600000000002
 30
0.0
 70
    32
  0
VERTEX
  5
9069
  8
0
 10
-5250.0299999999979
 20
-61.727899999999991
 30
0.0
 70
    32
  0
VERTEX
  5
906A
  8
0
 10
-5250.0299999999979
 20
-61.728200000000001
 30
0.0
 70
    32
  0
VERTEX
  5
906B
  8
0
 10
-5250.0299999999979
 20
-61.728499999999997
 30
0.0
 70
    32
  0
VERTEX
  5
906C
  8
0
 10
-5250.0299999999979
 20
-61.728900000000003
 30
0.0
 70
    32
  0
VERTEX
  5
906D
  8
0
 10
-5250.0299999999979
 20
-61.729199999999999
 30
0.0
 70
    32
  0
VERTEX
  5
906E
  8
0
 10
-5250.0299999999979
 20
-61.729500000000002
 30
0.0
 70
    32
  0
VERTEX
  5
906F
  8
0
 10
-5250.0299999999979
 20
-61.729900000000001
 30
0.0
 70
    32
  0
VERTEX
  5
9070
  8
0
 10
-5250.0299999999979
 20
-61.730200000000011
 30
0.0
 70
    32
  0
VERTEX
  5
9071
  8
0
 10
-5250.0299999999979
 20
-61.730499999999992
 30
0.0
 70
    32
  0
VERTEX
  5
9072
  8
0
 10
-5250.0299999999979
 20
-61.730800000000002
 30
0.0
 70
    32
  0
VERTEX
  5
9073
  8
0
 10
-5250.0299999999979
 20
-61.731200000000001
 30
0.0
 70
    32
  0
VERTEX
  5
9074
  8
0
 10
-5250.0299999999979
 20
-61.73149999999999
 30
0.0
 70
    32
  0
VERTEX
  5
9075
  8
0
 10
-5250.0299999999979
 20
-61.7318
 30
0.0
 70
    32
  0
VERTEX
  5
9076
  8
0
 10
-5250.0299999999979
 20
-61.732100000000003
 30
0.0
 70
    32
  0
VERTEX
  5
9077
  8
0
 10
-5250.0299999999979
 20
-61.732500000000002
 30
0.0
 70
    32
  0
VERTEX
  5
9078
  8
0
 10
-5250.0299999999979
 20
-61.732799999999997
 30
0.0
 70
    32
  0
VERTEX
  5
9079
  8
0
 10
-5250.0299999999979
 20
-61.7331
 30
0.0
 70
    32
  0
VERTEX
  5
907A
  8
0
 10
-5250.0299999999979
 20
-61.733400000000003
 30
0.0
 70
    32
  0
VERTEX
  5
907B
  8
0
 10
-5250.0299999999979
 20
-61.733800000000002
 30
0.0
 70
    32
  0
VERTEX
  5
907C
  8
0
 10
-5250.0299999999979
 20
-61.734099999999998
 30
0.0
 70
    32
  0
VERTEX
  5
907D
  8
0
 10
-5250.0299999999979
 20
-61.734400000000001
 30
0.0
 70
    32
  0
VERTEX
  5
907E
  8
0
 10
-5250.0299999999979
 20
-61.7348
 30
0.0
 70
    32
  0
VERTEX
  5
907F
  8
0
 10
-5250.0299999999979
 20
-61.735100000000003
 30
0.0
 70
    32
  0
VERTEX
  5
9080
  8
0
 10
-5250.0299999999979
 20
-61.735399999999998
 30
0.0
 70
    32
  0
VERTEX
  5
9081
  8
0
 10
-5250.0299999999979
 20
-61.735700000000001
 30
0.0
 70
    32
  0
VERTEX
  5
9082
  8
0
 10
-5250.0299999999979
 20
-61.7361
 30
0.0
 70
    32
  0
VERTEX
  5
9083
  8
0
 10
-5250.0299999999979
 20
-61.736400000000003
 30
0.0
 70
    32
  0
VERTEX
  5
9084
  8
0
 10
-5250.0299999999979
 20
-61.736699999999999
 30
0.0
 70
    32
  0
VERTEX
  5
9085
  8
0
 10
-5250.0299999999979
 20
-61.737000000000002
 30
0.0
 70
    32
  0
VERTEX
  5
9086
  8
0
 10
-5250.0299999999979
 20
-61.737400000000001
 30
0.0
 70
    32
  0
VERTEX
  5
9087
  8
0
 10
-5250.0299999999979
 20
-61.737699999999997
 30
0.0
 70
    32
  0
VERTEX
  5
9088
  8
0
 10
-5250.0299999999979
 20
-61.737999999999992
 30
0.0
 70
    32
  0
VERTEX
  5
9089
  8
0
 10
-5250.0299999999979
 20
-61.738399999999999
 30
0.0
 70
    32
  0
VERTEX
  5
908A
  8
0
 10
-5250.0299999999979
 20
-61.738700000000001
 30
0.0
 70
    32
  0
VERTEX
  5
908B
  8
0
 10
-5250.0299999999979
 20
-61.73899999999999
 30
0.0
 70
    32
  0
VERTEX
  5
908C
  8
0
 10
-5250.0299999999979
 20
-61.7393
 30
0.0
 70
    32
  0
VERTEX
  5
908D
  8
0
 10
-5250.0299999999979
 20
-61.739699999999999
 30
0.0
 70
    32
  0
VERTEX
  5
908E
  8
0
 10
-5250.0299999999979
 20
-61.740000000000002
 30
0.0
 70
    32
  0
VERTEX
  5
908F
  8
0
 10
-5250.0299999999979
 20
-61.740299999999998
 30
0.0
 70
    32
  0
VERTEX
  5
9090
  8
0
 10
-5250.0299999999979
 20
-61.740600000000001
 30
0.0
 70
    32
  0
VERTEX
  5
9091
  8
0
 10
-5250.0299999999979
 20
-61.741000000000007
 30
0.0
 70
    32
  0
VERTEX
  5
9092
  8
0
 10
-5250.0299999999979
 20
-61.741300000000003
 30
0.0
 70
    32
  0
VERTEX
  5
9093
  8
0
 10
-5250.0299999999979
 20
-61.741599999999998
 30
0.0
 70
    32
  0
VERTEX
  5
9094
  8
0
 10
-5250.0299999999979
 20
-61.741900000000001
 30
0.0
 70
    32
  0
VERTEX
  5
9095
  8
0
 10
-5250.0299999999979
 20
-61.7423
 30
0.0
 70
    32
  0
VERTEX
  5
9096
  8
0
 10
-5250.0299999999979
 20
-61.742600000000003
 30
0.0
 70
    32
  0
VERTEX
  5
9097
  8
0
 10
-5250.0299999999979
 20
-61.742899999999999
 30
0.0
 70
    32
  0
VERTEX
  5
9098
  8
0
 10
-5250.0299999999979
 20
-61.743299999999998
 30
0.0
 70
    32
  0
VERTEX
  5
9099
  8
0
 10
-5250.0299999999979
 20
-61.743600000000001
 30
0.0
 70
    32
  0
VERTEX
  5
909A
  8
0
 10
-5250.0299999999979
 20
-61.743899999999982
 30
0.0
 70
    32
  0
VERTEX
  5
909B
  8
0
 10
-5250.0299999999979
 20
-61.744199999999999
 30
0.0
 70
    32
  0
VERTEX
  5
909C
  8
0
 10
-5250.0299999999979
 20
-61.744599999999991
 30
0.0
 70
    32
  0
VERTEX
  5
909D
  8
0
 10
-5250.0299999999979
 20
-61.744900000000001
 30
0.0
 70
    32
  0
VERTEX
  5
909E
  8
0
 10
-5250.0299999999979
 20
-61.745199999999997
 30
0.0
 70
    32
  0
VERTEX
  5
909F
  8
0
 10
-5250.0299999999979
 20
-61.745499999999993
 30
0.0
 70
    32
  0
VERTEX
  5
90A0
  8
0
 10
-5250.0299999999979
 20
-61.745899999999999
 30
0.0
 70
    32
  0
VERTEX
  5
90A1
  8
0
 10
-5250.0299999999979
 20
-61.746200000000002
 30
0.0
 70
    32
  0
VERTEX
  5
90A2
  8
0
 10
-5250.0299999999979
 20
-61.74649999999999
 30
0.0
 70
    32
  0
VERTEX
  5
90A3
  8
0
 10
-5250.0299999999979
 20
-61.746899999999997
 30
0.0
 70
    32
  0
VERTEX
  5
90A4
  8
0
 10
-5250.0299999999979
 20
-61.747199999999999
 30
0.0
 70
    32
  0
VERTEX
  5
90A5
  8
0
 10
-5250.0299999999979
 20
-61.747500000000002
 30
0.0
 70
    32
  0
VERTEX
  5
90A6
  8
0
 10
-5250.0299999999979
 20
-61.747799999999998
 30
0.0
 70
    32
  0
SEQEND
  5
90A7
  8
0
  0
LINE
  5
936D
  8
AM_VIS
 10
-5250.0296015933382
 20
-154.6932165614034
 30
0.0
 11
-5250.0296015933382
 21
-61.659015042867217
 31
0.0
  0
ARC
  5
98A2
  8
AM_VIS
 10
-5241.7672974624302
 20
-66.426115802135499
 30
0.0
 40
5.7825462644184791
 50
117.0165228096394
 51
152.9834771903586
  0
ARC
  5
9B0C
  8
AM_VIS
 10
-5241.7672974624302
 20
-66.426115802135499
 30
0.0
 40
8.8000000000000007
 50
322.88513754492232
 51
0.0
  0
LINE
  5
9B0D
  8
AM_VIS
 10
-5232.96729746243
 20
-66.426115802135499
 30
0.0
 11
-5232.96729746243
 21
-61.725841662115968
 31
0.0
  0
LINE
  5
9B91
  8
AM_VIS
 10
-5232.1675716024492
 20
-60.926115802135477
 30
0.0
 11
-5167.8670233224093
 21
-60.926115802135477
 31
0.0
  0
LINE
  5
A029
  8
AM_VIS
 10
-5152.7672974624293
 20
-76.025841662115951
 30
0.0
 11
-5152.7672974624293
 21
-140.32638994215469
 31
0.0
  0
LINE
  5
A688
  8
AM_VIS
 10
-5167.8670233224093
 20
-155.42611580213531
 30
0.0
 11
-5232.1675716024492
 21
-155.42611580213531
 31
0.0
  0
LINE
  5
A959
  8
AM_VIS
 10
-5247.2672974624293
 20
-140.32638994215469
 30
0.0
 11
-5247.2672974624293
 21
-76.025841662115923
 31
0.0
  0
LINE
  5
A9DD
  8
AM_VIS
 10
-5246.4675716024476
 20
-75.226115802135368
 30
0.0
 11
-5241.7672974624302
 21
-75.226115802135368
 31
0.0
  0
ARC
  5
A9DE
  8
AM_VIS
 10
-5241.7672974624302
 20
-66.426115802135499
 30
0.0
 40
8.8000000000000007
 50
270.0
 51
307.11486245507132
  0
LINE
  5
AB21
  8
AM_VIS
 10
-5234.9792454150647
 20
-74.379420632894053
 30
0.0
 11
-5236.0833849765213
 21
-73.452937534107136
 31
0.0
  0
LINE
  5
ABA5
  8
AM_VIS
 10
-5233.831673257002
 20
-73.619120746809472
 30
0.0
 11
-5234.5742925177556
 21
-74.361740007563853
 31
0.0
  0
LINE
  5
AC29
  8
AM_VIS
 10
-5234.7404757304575
 20
-72.110028288042486
 30
0.0
 11
-5233.8139926316699
 21
-73.214167849499631
 31
0.0
  0
ARC
  5
AC2A
  8
AM_VIS
 10
-5241.7672974624302
 20
-66.426115802135499
 30
0.0
 40
7.399999999999971
 50
270.0
 51
0.0
  0
LINE
  5
AC2B
  8
AM_VIS
 10
-5241.7672974624302
 20
-73.826115802135519
 30
0.0
 11
-5245.2672974624293
 21
-73.826115802135519
 31
0.0
  0
ARC
  5
AC2C
  8
AM_VIS
 10
-5245.2672974624293
 20
-76.02611580213545
 30
0.0
 40
2.200000000000021
 50
90.0
 51
180.0
  0
LINE
  5
AC2D
  8
AM_VIS
 10
-5247.4672974624291
 20
-76.02611580213545
 30
0.0
 11
-5247.4672974624291
 21
-140.32611580213489
 31
0.0
  0
LINE
  5
AC33
  8
AM_VIS
 10
-5232.1672974624289
 20
-155.6261158021349
 30
0.0
 11
-5167.8672974624296
 21
-155.6261158021349
 31
0.0
  0
LINE
  5
AC39
  8
AM_VIS
 10
-5152.5672974624295
 20
-140.3261158021354
 30
0.0
 11
-5152.5672974624295
 21
-76.026115802135692
 31
0.0
  0
LINE
  5
AC3F
  8
AM_VIS
 10
-5167.8672974624296
 20
-60.726115802135681
 30
0.0
 11
-5232.1672974624289
 21
-60.726115802135602
 31
0.0
  0
ARC
  5
AC40
  8
AM_VIS
 10
-5232.1672974624289
 20
-62.926115802135662
 30
0.0
 40
2.200000000000021
 50
90.0
 51
180.0
  0
LINE
  5
AC41
  8
AM_VIS
 10
-5234.3672974624296
 20
-62.926115802135662
 30
0.0
 11
-5234.3672974624296
 21
-66.426115802135499
 31
0.0
  0
LINE
  5
AD4A
  8
AM_VIS
 10
-5235.3672974624287
 20
-63.660152795572557
 30
0.0
 11
-5238.9695587522237
 21
-60.057891505775927
 31
0.0
  0
LINE
  5
AE51
  8
AM_VIS
 10
-5248.1355217587889
 20
-69.223854512338775
 30
0.0
 11
-5244.533260468992
 21
-72.826115802135391
 31
0.0
  0
LINE
  5
B07A
  8
AM_VIS
 10
-5150.7242733622043
 20
-148.6261158021351
 30
0.0
 11
-5150.7242733622043
 21
-67.726115802135496
 31
0.0
  0
LINE
  5
B07D
  8
AM_VIS
 10
-5151.5672974624276
 20
-76.026115802135692
 30
0.0
 11
-5151.5672974624276
 21
-140.3261158021354
 31
0.0
  0
LINE
  5
B44B
  8
AM_VIS
 10
-5150.0049933315213
 20
-61.659015042867217
 30
0.0
 11
-5150.0049933315213
 21
-154.6932165614034
 31
0.0
  0
LINE
  5
B556
  8
AM_VIS
 10
-5167.8672974624296
 20
-156.62611580213479
 30
0.0
 11
-5232.1672974624289
 21
-156.62611580213479
 31
0.0
  0
LINE
  5
B559
  8
AM_VIS
 10
-5240.4672974624291
 20
-157.4691399023603
 30
0.0
 11
-5159.5672974624295
 21
-157.46913990236041
 31
0.0
  0
LINE
  5
B7B2
  8
AM_VIS
 10
-5248.4672974624291
 20
-140.32611580213489
 30
0.0
 11
-5248.4672974624291
 21
-76.02611580213545
 31
0.0
  0
ARC
  5
B7B3
  8
AM_VIS
 10
-5245.2672974624293
 20
-76.02611580213545
 30
0.0
 40
3.2000000000000108
 50
159.63586519368599
 51
180.0
  0
LINE
  5
B7B4
  8
AM_VIS
 10
-5248.2672974624302
 20
-74.91256292956966
 30
0.0
 11
-5248.2672974624302
 21
-67.72611580213561
 31
0.0
  0
LINE
  5
B7B5
  8
AM_VIS
 10
-5249.3103215626552
 20
-67.72611580213561
 30
0.0
 11
-5249.3103215626552
 21
-148.6261158021349
 31
0.0
  0
LINE
  5
BB9E
  8
AM_VIS
 10
-5240.9716608963236
 20
-59.921752368240099
 30
0.0
 11
-5240.4672976285756
 21
-59.926115635989269
 31
0.0
  0
LINE
  5
BBA1
  8
AM_VIS
 10
-5240.9716608963236
 20
-58.630479236030901
 30
0.0
 11
-5240.9716608963236
 21
-59.921752368240149
 31
0.0
  0
LINE
  5
BBA2
  8
AM_VIS
 10
-5240.9716608963236
 20
-59.921752368240149
 30
0.0
 11
-5245.667297462428
 21
-59.921752368240149
 31
0.0
  0
LINE
  5
BBA5
  8
AM_VIS
 10
-5241.1039693974708
 20
-60.044801204089822
 30
0.0
 11
-5245.4880314408283
 21
-60.044801204089822
 31
0.0
  0
LINE
  5
BBA7
  8
AM_VIS
 10
-5240.4672974624291
 20
-59.926115802135428
 30
0.0
 11
-5233.2808503349952
 21
-59.926115802135428
 31
0.0
  0
LINE
  5
BBA8
  8
AM_VIS
 10
-5246.2672974624311
 20
-58.630479236030901
 30
0.0
 11
-5240.9716608963236
 21
-58.630479236030901
 31
0.0
  0
ARC
  5
BBA9
  8
AM_VIS
 10
-5246.2672974624311
 20
-61.926115802135541
 30
0.0
 40
3.2956365661046321
 50
90.0
 51
180.0
  0
LINE
  5
BBAA
  8
AM_VIS
 10
-5249.5629340285341
 20
-67.221752368240203
 30
0.0
 11
-5249.5629340285341
 21
-61.926115802135541
 31
0.0
  0
LINE
  5
BBAB
  8
AM_VIS
 10
-5248.2716608963246
 20
-67.221752368240175
 30
0.0
 11
-5249.5629340285341
 21
-67.221752368240175
 31
0.0
  0
LINE
  5
BBAC
  8
AM_VIS
 10
-5248.2716608963246
 20
-62.52611580213545
 30
0.0
 11
-5248.2716608963246
 21
-67.221752368240175
 31
0.0
  0
ARC
  5
BBAD
  8
AM_VIS
 10
-5245.667297462428
 20
-62.52611580213545
 30
0.0
 40
2.6043634338953439
 50
90.0
 51
180.0
  0
LINE
  5
BBB0
  8
AM_VIS
 10
-5248.2672976285758
 20
-67.726115635989402
 30
0.0
 11
-5248.2716608963246
 21
-67.221752368240175
 31
0.0
  0
ARC
  5
BBB2
  8
AM_VIS
 10
-5232.1672974624289
 20
-62.926115802135662
 30
0.0
 40
3.2000000000000108
 50
90.0
 51
110.3641348063088
  0
LINE
  5
BBB3
  8
AM_VIS
 10
-5232.1672974624289
 20
-59.72611580213561
 30
0.0
 11
-5167.8672974624296
 21
-59.726115802135709
 31
0.0
  0
LINE
  5
BBB5
  8
AM_VIS
 10
-5159.5672974624295
 20
-58.88309170191058
 30
0.0
 11
-5240.4672974624291
 21
-58.88309170191058
 31
0.0
  0
LINE
  5
BF87
  8
AM_VIS
 10
-5248.148612060475
 20
-62.705381823736388
 30
0.0
 11
-5248.148612060475
 21
-67.089443867092996
 31
0.0
  0
LINE
  5
C412
  8
AM_VIS
 10
-5245.4880314408283
 20
-60.044801204089822
 30
0.0
 11
-5243.6984600886362
 21
-61.834372556281672
 31
0.0
  0
LINE
  5
C478
  8
AM_VIS
 10
-5246.359040708282
 20
-64.494953175928231
 30
0.0
 11
-5248.148612060475
 21
-62.705381823736317
 31
0.0
  0
ARC
  5
C4DC
  8
AM_VIS
 10
-5241.7672974624302
 20
-66.426115802135499
 30
0.0
 40
4.9813145980456772
 50
87.35159765872406
 51
112.8103011797179
  0
LINE
  5
C4DD
  8
AM_VIS
 10
-5236.7913034484454
 20
-66.195944784202524
 30
0.0
 11
-5241.5371264444939
 21
-61.45012178815012
 31
0.0
  0
ARC
  5
C4DE
  8
AM_VIS
 10
-5241.7672974624302
 20
-66.426115802135499
 30
0.0
 40
4.9813145980456772
 50
267.35159765869952
 51
2.6484023412756081
  0
LINE
  5
C4DF
  8
AM_VIS
 10
-5246.7432914764131
 20
-66.656286820070633
 30
0.0
 11
-5241.9974684803638
 21
-71.40210981611871
 31
0.0
  0
ARC
  5
C4E0
  8
AM_VIS
 10
-5241.7672974624302
 20
-66.426115802135499
 30
0.0
 40
4.9813145980456772
 50
157.18969882028
 51
182.6484023413021
  0
ARC
  5
CA7C
  8
AM_VIS
 10
-5245.2672974624293
 20
-76.02611580213545
 30
0.0
 40
3.2000000000000108
 50
90.0
 51
159.63586519368599
  0
LINE
  5
CA80
  8
AM_VIS
 10
-5235.3672974624287
 20
-66.426115802135499
 30
0.0
 11
-5235.3672974624287
 21
-62.926115802135662
 31
0.0
  0
LINE
  5
CA84
  8
AM_VIS
 10
-5153.5001967031612
 20
-158.1884199330444
 30
0.0
 11
-5246.5343982216964
 21
-158.1884199330444
 31
0.0
  0
LINE
  5
CBCF
  8
AM_VIS
 10
-5245.2672974624293
 20
-72.826115802135519
 30
0.0
 11
-5241.7672974624302
 21
-72.826115802135519
 31
0.0
  0
ARC
  5
CBD0
  8
AM_VIS
 10
-5241.7672974624302
 20
-66.426115802135499
 30
0.0
 40
6.3999999999999782
 50
270.0
 51
0.0
  0
ARC
  5
CBD1
  8
AM_VIS
 10
-5232.1672974624289
 20
-62.926115802135662
 30
0.0
 40
3.2000000000000108
 50
110.3641348063088
 51
180.0
  0
LINE
  5
D3DB
  8
AM_VIS
 10
-5352.4401846840274
 20
-58.163811671226249
 30
0.0
 11
-5445.4743862025643
 21
-58.163811671226249
 31
0.0
  0
POLYLINE
  5
D725
  8
AM_VIS
 66
     1
 10
0.0
 20
0.0
 30
0.0
 70
     8
  0
VERTEX
  5
D726
  8
0
 10
-5352.5299999999997
 20
-158.18700000000001
 30
0.0
 70
    32
  0
VERTEX
  5
D727
  8
0
 10
-5352.5299999999997
 20
-158.18700000000001
 30
0.0
 70
    32
  0
VERTEX
  5
D728
  8
0
 10
-5352.5299999999997
 20
-158.18700000000001
 30
0.0
 70
    32
  0
VERTEX
  5
D729
  8
0
 10
-5352.5299999999997
 20
-158.18700000000001
 30
0.0
 70
    32
  0
VERTEX
  5
D72A
  8
0
 10
-5352.5299999999997
 20
-158.18700000000001
 30
0.0
 70
    32
  0
VERTEX
  5
D72B
  8
0
 10
-5352.5299999999997
 20
-158.18700000000001
 30
0.0
 70
    32
  0
VERTEX
  5
D72C
  8
0
 10
-5352.5299999999997
 20
-158.18700000000001
 30
0.0
 70
    32
  0
VERTEX
  5
D72D
  8
0
 10
-5352.5299999999997
 20
-158.18700000000001
 30
0.0
 70
    32
  0
VERTEX
  5
D72E
  8
0
 10
-5352.5299999999997
 20
-158.18700000000001
 30
0.0
 70
    32
  0
VERTEX
  5
D72F
  8
0
 10
-5352.5299999999997
 20
-158.18700000000001
 30
0.0
 70
    32
  0
VERTEX
  5
D730
  8
0
 10
-5352.5299999999997
 20
-158.18700000000001
 30
0.0
 70
    32
  0
VERTEX
  5
D731
  8
0
 10
-5352.5299999999997
 20
-158.18700000000001
 30
0.0
 70
    32
  0
VERTEX
  5
D732
  8
0
 10
-5352.5299999999997
 20
-158.18700000000001
 30
0.0
 70
    32
  0
VERTEX
  5
D733
  8
0
 10
-5352.5200000000013
 20
-158.18700000000001
 30
0.0
 70
    32
  0
VERTEX
  5
D734
  8
0
 10
-5352.5200000000013
 20
-158.18700000000001
 30
0.0
 70
    32
  0
VERTEX
  5
D735
  8
0
 10
-5352.5200000000013
 20
-158.18700000000001
 30
0.0
 70
    32
  0
VERTEX
  5
D736
  8
0
 10
-5352.5200000000013
 20
-158.18700000000001
 30
0.0
 70
    32
  0
VERTEX
  5
D737
  8
0
 10
-5352.5200000000013
 20
-158.18700000000001
 30
0.0
 70
    32
  0
VERTEX
  5
D738
  8
0
 10
-5352.5200000000013
 20
-158.18700000000001
 30
0.0
 70
    32
  0
VERTEX
  5
D739
  8
0
 10
-5352.5200000000013
 20
-158.18700000000001
 30
0.0
 70
    32
  0
VERTEX
  5
D73A
  8
0
 10
-5352.5200000000013
 20
-158.1879999999999
 30
0.0
 70
    32
  0
VERTEX
  5
D73B
  8
0
 10
-5352.5200000000013
 20
-158.1879999999999
 30
0.0
 70
    32
  0
VERTEX
  5
D73C
  8
0
 10
-5352.5200000000013
 20
-158.1879999999999
 30
0.0
 70
    32
  0
VERTEX
  5
D73D
  8
0
 10
-5352.5200000000013
 20
-158.1879999999999
 30
0.0
 70
    32
  0
VERTEX
  5
D73E
  8
0
 10
-5352.5200000000013
 20
-158.1879999999999
 30
0.0
 70
    32
  0
VERTEX
  5
D73F
  8
0
 10
-5352.5200000000013
 20
-158.1879999999999
 30
0.0
 70
    32
  0
VERTEX
  5
D740
  8
0
 10
-5352.5200000000013
 20
-158.1879999999999
 30
0.0
 70
    32
  0
VERTEX
  5
D741
  8
0
 10
-5352.5200000000013
 20
-158.1879999999999
 30
0.0
 70
    32
  0
VERTEX
  5
D742
  8
0
 10
-5352.5200000000013
 20
-158.1879999999999
 30
0.0
 70
    32
  0
VERTEX
  5
D743
  8
0
 10
-5352.5200000000013
 20
-158.1879999999999
 30
0.0
 70
    32
  0
VERTEX
  5
D744
  8
0
 10
-5352.5200000000013
 20
-158.1879999999999
 30
0.0
 70
    32
  0
VERTEX
  5
D745
  8
0
 10
-5352.5200000000013
 20
-158.1879999999999
 30
0.0
 70
    32
  0
VERTEX
  5
D746
  8
0
 10
-5352.5200000000013
 20
-158.1879999999999
 30
0.0
 70
    32
  0
VERTEX
  5
D747
  8
0
 10
-5352.5200000000013
 20
-158.1879999999999
 30
0.0
 70
    32
  0
VERTEX
  5
D748
  8
0
 10
-5352.5200000000013
 20
-158.1879999999999
 30
0.0
 70
    32
  0
VERTEX
  5
D749
  8
0
 10
-5352.5200000000013
 20
-158.1879999999999
 30
0.0
 70
    32
  0
VERTEX
  5
D74A
  8
0
 10
-5352.5200000000013
 20
-158.1879999999999
 30
0.0
 70
    32
  0
VERTEX
  5
D74B
  8
0
 10
-5352.5200000000013
 20
-158.1879999999999
 30
0.0
 70
    32
  0
VERTEX
  5
D74C
  8
0
 10
-5352.5200000000013
 20
-158.1879999999999
 30
0.0
 70
    32
  0
VERTEX
  5
D74D
  8
0
 10
-5352.5200000000013
 20
-158.1879999999999
 30
0.0
 70
    32
  0
VERTEX
  5
D74E
  8
0
 10
-5352.5200000000013
 20
-158.1879999999999
 30
0.0
 70
    32
  0
VERTEX
  5
D74F
  8
0
 10
-5352.5200000000013
 20
-158.1879999999999
 30
0.0
 70
    32
  0
VERTEX
  5
D750
  8
0
 10
-5352.5200000000013
 20
-158.1879999999999
 30
0.0
 70
    32
  0
VERTEX
  5
D751
  8
0
 10
-5352.5100000000002
 20
-158.1879999999999
 30
0.0
 70
    32
  0
VERTEX
  5
D752
  8
0
 10
-5352.5100000000002
 20
-158.1879999999999
 30
0.0
 70
    32
  0
VERTEX
  5
D753
  8
0
 10
-5352.5100000000002
 20
-158.1879999999999
 30
0.0
 70
    32
  0
VERTEX
  5
D754
  8
0
 10
-5352.5100000000002
 20
-158.1879999999999
 30
0.0
 70
    32
  0
VERTEX
  5
D755
  8
0
 10
-5352.5100000000002
 20
-158.1879999999999
 30
0.0
 70
    32
  0
VERTEX
  5
D756
  8
0
 10
-5352.5100000000002
 20
-158.1879999999999
 30
0.0
 70
    32
  0
VERTEX
  5
D757
  8
0
 10
-5352.5100000000002
 20
-158.1879999999999
 30
0.0
 70
    32
  0
VERTEX
  5
D758
  8
0
 10
-5352.5100000000002
 20
-158.1879999999999
 30
0.0
 70
    32
  0
VERTEX
  5
D759
  8
0
 10
-5352.5100000000002
 20
-158.1879999999999
 30
0.0
 70
    32
  0
VERTEX
  5
D75A
  8
0
 10
-5352.5100000000002
 20
-158.1879999999999
 30
0.0
 70
    32
  0
VERTEX
  5
D75B
  8
0
 10
-5352.5100000000002
 20
-158.1879999999999
 30
0.0
 70
    32
  0
VERTEX
  5
D75C
  8
0
 10
-5352.5100000000002
 20
-158.1879999999999
 30
0.0
 70
    32
  0
VERTEX
  5
D75D
  8
0
 10
-5352.5100000000002
 20
-158.1879999999999
 30
0.0
 70
    32
  0
VERTEX
  5
D75E
  8
0
 10
-5352.5100000000002
 20
-158.1879999999999
 30
0.0
 70
    32
  0
VERTEX
  5
D75F
  8
0
 10
-5352.5100000000002
 20
-158.1879999999999
 30
0.0
 70
    32
  0
VERTEX
  5
D760
  8
0
 10
-5352.5100000000002
 20
-158.1879999999999
 30
0.0
 70
    32
  0
VERTEX
  5
D761
  8
0
 10
-5352.5100000000002
 20
-158.1879999999999
 30
0.0
 70
    32
  0
VERTEX
  5
D762
  8
0
 10
-5352.5100000000002
 20
-158.1879999999999
 30
0.0
 70
    32
  0
VERTEX
  5
D763
  8
0
 10
-5352.5100000000002
 20
-158.1879999999999
 30
0.0
 70
    32
  0
VERTEX
  5
D764
  8
0
 10
-5352.5100000000002
 20
-158.1879999999999
 30
0.0
 70
    32
  0
VERTEX
  5
D765
  8
0
 10
-5352.5100000000002
 20
-158.1879999999999
 30
0.0
 70
    32
  0
VERTEX
  5
D766
  8
0
 10
-5352.5100000000002
 20
-158.1879999999999
 30
0.0
 70
    32
  0
VERTEX
  5
D767
  8
0
 10
-5352.5100000000002
 20
-158.1879999999999
 30
0.0
 70
    32
  0
VERTEX
  5
D768
  8
0
 10
-5352.5100000000002
 20
-158.1879999999999
 30
0.0
 70
    32
  0
VERTEX
  5
D769
  8
0
 10
-5352.5100000000002
 20
-158.1879999999999
 30
0.0
 70
    32
  0
VERTEX
  5
D76A
  8
0
 10
-5352.5100000000002
 20
-158.1879999999999
 30
0.0
 70
    32
  0
VERTEX
  5
D76B
  8
0
 10
-5352.5100000000002
 20
-158.1879999999999
 30
0.0
 70
    32
  0
VERTEX
  5
D76C
  8
0
 10
-5352.5100000000002
 20
-158.1879999999999
 30
0.0
 70
    32
  0
VERTEX
  5
D76D
  8
0
 10
-5352.5100000000002
 20
-158.1879999999999
 30
0.0
 70
    32
  0
VERTEX
  5
D76E
  8
0
 10
-5352.5100000000002
 20
-158.1879999999999
 30
0.0
 70
    32
  0
VERTEX
  5
D76F
  8
0
 10
-5352.5100000000002
 20
-158.1879999999999
 30
0.0
 70
    32
  0
VERTEX
  5
D770
  8
0
 10
-5352.5
 20
-158.1879999999999
 30
0.0
 70
    32
  0
VERTEX
  5
D771
  8
0
 10
-5352.5
 20
-158.1879999999999
 30
0.0
 70
    32
  0
VERTEX
  5
D772
  8
0
 10
-5352.5
 20
-158.1879999999999
 30
0.0
 70
    32
  0
VERTEX
  5
D773
  8
0
 10
-5352.5
 20
-158.1879999999999
 30
0.0
 70
    32
  0
VERTEX
  5
D774
  8
0
 10
-5352.5
 20
-158.1879999999999
 30
0.0
 70
    32
  0
VERTEX
  5
D775
  8
0
 10
-5352.5
 20
-158.1879999999999
 30
0.0
 70
    32
  0
VERTEX
  5
D776
  8
0
 10
-5352.5
 20
-158.1879999999999
 30
0.0
 70
    32
  0
VERTEX
  5
D777
  8
0
 10
-5352.5
 20
-158.1879999999999
 30
0.0
 70
    32
  0
VERTEX
  5
D778
  8
0
 10
-5352.5
 20
-158.1879999999999
 30
0.0
 70
    32
  0
VERTEX
  5
D779
  8
0
 10
-5352.5
 20
-158.1879999999999
 30
0.0
 70
    32
  0
VERTEX
  5
D77A
  8
0
 10
-5352.5
 20
-158.1879999999999
 30
0.0
 70
    32
  0
VERTEX
  5
D77B
  8
0
 10
-5352.5
 20
-158.1879999999999
 30
0.0
 70
    32
  0
VERTEX
  5
D77C
  8
0
 10
-5352.5
 20
-158.1879999999999
 30
0.0
 70
    32
  0
VERTEX
  5
D77D
  8
0
 10
-5352.5
 20
-158.1879999999999
 30
0.0
 70
    32
  0
VERTEX
  5
D77E
  8
0
 10
-5352.5
 20
-158.1879999999999
 30
0.0
 70
    32
  0
VERTEX
  5
D77F
  8
0
 10
-5352.5
 20
-158.1879999999999
 30
0.0
 70
    32
  0
VERTEX
  5
D780
  8
0
 10
-5352.5
 20
-158.1879999999999
 30
0.0
 70
    32
  0
VERTEX
  5
D781
  8
0
 10
-5352.5
 20
-158.1879999999999
 30
0.0
 70
    32
  0
VERTEX
  5
D782
  8
0
 10
-5352.5
 20
-158.1879999999999
 30
0.0
 70
    32
  0
VERTEX
  5
D783
  8
0
 10
-5352.5
 20
-158.1879999999999
 30
0.0
 70
    32
  0
VERTEX
  5
D784
  8
0
 10
-5352.5
 20
-158.1879999999999
 30
0.0
 70
    32
  0
VERTEX
  5
D785
  8
0
 10
-5352.5
 20
-158.1879999999999
 30
0.0
 70
    32
  0
VERTEX
  5
D786
  8
0
 10
-5352.5
 20
-158.1879999999999
 30
0.0
 70
    32
  0
VERTEX
  5
D787
  8
0
 10
-5352.5
 20
-158.1879999999999
 30
0.0
 70
    32
  0
VERTEX
  5
D788
  8
0
 10
-5352.5
 20
-158.1879999999999
 30
0.0
 70
    32
  0
VERTEX
  5
D789
  8
0
 10
-5352.5
 20
-158.1879999999999
 30
0.0
 70
    32
  0
VERTEX
  5
D78A
  8
0
 10
-5352.5
 20
-158.1879999999999
 30
0.0
 70
    32
  0
VERTEX
  5
D78B
  8
0
 10
-5352.5
 20
-158.1879999999999
 30
0.0
 70
    32
  0
VERTEX
  5
D78C
  8
0
 10
-5352.5
 20
-158.1879999999999
 30
0.0
 70
    32
  0
VERTEX
  5
D78D
  8
0
 10
-5352.5
 20
-158.1879999999999
 30
0.0
 70
    32
  0
VERTEX
  5
D78E
  8
0
 10
-5352.4899999999998
 20
-158.1879999999999
 30
0.0
 70
    32
  0
VERTEX
  5
D78F
  8
0
 10
-5352.4899999999998
 20
-158.1879999999999
 30
0.0
 70
    32
  0
VERTEX
  5
D790
  8
0
 10
-5352.4899999999998
 20
-158.1879999999999
 30
0.0
 70
    32
  0
VERTEX
  5
D791
  8
0
 10
-5352.4899999999998
 20
-158.1879999999999
 30
0.0
 70
    32
  0
VERTEX
  5
D792
  8
0
 10
-5352.4899999999998
 20
-158.1879999999999
 30
0.0
 70
    32
  0
VERTEX
  5
D793
  8
0
 10
-5352.4899999999998
 20
-158.1879999999999
 30
0.0
 70
    32
  0
VERTEX
  5
D794
  8
0
 10
-5352.4899999999998
 20
-158.1879999999999
 30
0.0
 70
    32
  0
VERTEX
  5
D795
  8
0
 10
-5352.4899999999998
 20
-158.1879999999999
 30
0.0
 70
    32
  0
VERTEX
  5
D796
  8
0
 10
-5352.4899999999998
 20
-158.1879999999999
 30
0.0
 70
    32
  0
VERTEX
  5
D797
  8
0
 10
-5352.4899999999998
 20
-158.1879999999999
 30
0.0
 70
    32
  0
VERTEX
  5
D798
  8
0
 10
-5352.4899999999998
 20
-158.1879999999999
 30
0.0
 70
    32
  0
VERTEX
  5
D799
  8
0
 10
-5352.4899999999998
 20
-158.1879999999999
 30
0.0
 70
    32
  0
VERTEX
  5
D79A
  8
0
 10
-5352.4899999999998
 20
-158.1879999999999
 30
0.0
 70
    32
  0
VERTEX
  5
D79B
  8
0
 10
-5352.4899999999998
 20
-158.1879999999999
 30
0.0
 70
    32
  0
VERTEX
  5
D79C
  8
0
 10
-5352.4899999999998
 20
-158.1879999999999
 30
0.0
 70
    32
  0
VERTEX
  5
D79D
  8
0
 10
-5352.4899999999998
 20
-158.1879999999999
 30
0.0
 70
    32
  0
VERTEX
  5
D79E
  8
0
 10
-5352.4899999999998
 20
-158.1879999999999
 30
0.0
 70
    32
  0
VERTEX
  5
D79F
  8
0
 10
-5352.4899999999998
 20
-158.1879999999999
 30
0.0
 70
    32
  0
VERTEX
  5
D7A0
  8
0
 10
-5352.4899999999998
 20
-158.1879999999999
 30
0.0
 70
    32
  0
VERTEX
  5
D7A1
  8
0
 10
-5352.4899999999998
 20
-158.1879999999999
 30
0.0
 70
    32
  0
VERTEX
  5
D7A2
  8
0
 10
-5352.4899999999998
 20
-158.1879999999999
 30
0.0
 70
    32
  0
VERTEX
  5
D7A3
  8
0
 10
-5352.4899999999998
 20
-158.1879999999999
 30
0.0
 70
    32
  0
VERTEX
  5
D7A4
  8
0
 10
-5352.4899999999998
 20
-158.1879999999999
 30
0.0
 70
    32
  0
VERTEX
  5
D7A5
  8
0
 10
-5352.4899999999998
 20
-158.1879999999999
 30
0.0
 70
    32
  0
VERTEX
  5
D7A6
  8
0
 10
-5352.4899999999998
 20
-158.1879999999999
 30
0.0
 70
    32
  0
SEQEND
  5
D7A7
  8
0
  0
LINE
  5
DA6D
  8
AM_VIS
 10
-5433.0072854432947
 20
-140.2261158021353
 30
0.0
 11
-5433.0072854432947
 21
-76.126115802135416
 31
0.0
  0
ARC
  5
DA6E
  8
AM_VIS
 10
-5431.0072854432956
 20
-76.126115802135416
 30
0.0
 40
2.0
 50
90.0
 51
180.0
  0
LINE
  5
DA6F
  8
AM_VIS
 10
-5431.0072854432956
 20
-74.126115802135345
 30
0.0
 11
-5366.9072854432961
 21
-74.126115802135345
 31
0.0
  0
ARC
  5
DA70
  8
AM_VIS
 10
-5366.9072854432961
 20
-76.126115802135359
 30
0.0
 40
2.0
 50
0.0
 51
90.0
  0
LINE
  5
DA71
  8
AM_VIS
 10
-5364.907285443297
 20
-76.126115802135359
 30
0.0
 11
-5364.907285443297
 21
-140.2261158021353
 31
0.0
  0
ARC
  5
DA72
  8
AM_VIS
 10
-5366.9072854432961
 20
-140.2261158021353
 30
0.0
 40
2.0
 50
270.0
 51
0.0
  0
LINE
  5
DA73
  8
AM_VIS
 10
-5366.9072854432961
 20
-142.2261158021353
 30
0.0
 11
-5431.0072854432956
 21
-142.2261158021353
 31
0.0
  0
ARC
  5
DA74
  8
AM_VIS
 10
-5431.0072854432956
 20
-140.2261158021353
 30
0.0
 40
2.0
 50
180.0
 51
270.0
  0
POLYLINE
  5
DA75
  8
0
 66
     1
 10
0.0
 20
0.0
 30
0.0
 70
     8
  0
VERTEX
  5
DA76
  8
0
 10
-5443.2200000000003
 20
-155.05799999999999
 30
0.0
 70
    32
  0
VERTEX
  5
DA77
  8
0
 10
-5443.2200000000003
 20
-155.05899999999991
 30
0.0
 70
    32
  0
VERTEX
  5
DA78
  8
0
 10
-5443.2200000000003
 20
-155.05899999999991
 30
0.0
 70
    32
  0
VERTEX
  5
DA79
  8
0
 10
-5443.2200000000003
 20
-155.05899999999991
 30
0.0
 70
    32
  0
VERTEX
  5
DA7A
  8
0
 10
-5443.2200000000003
 20
-155.05899999999991
 30
0.0
 70
    32
  0
VERTEX
  5
DA7B
  8
0
 10
-5443.2200000000003
 20
-155.06
 30
0.0
 70
    32
  0
VERTEX
  5
DA7C
  8
0
 10
-5443.2200000000003
 20
-155.06
 30
0.0
 70
    32
  0
VERTEX
  5
DA7D
  8
0
 10
-5443.2200000000003
 20
-155.06
 30
0.0
 70
    32
  0
VERTEX
  5
DA7E
  8
0
 10
-5443.2299999999987
 20
-155.06
 30
0.0
 70
    32
  0
VERTEX
  5
DA7F
  8
0
 10
-5443.2299999999987
 20
-155.06
 30
0.0
 70
    32
  0
VERTEX
  5
DA80
  8
0
 10
-5443.2299999999987
 20
-155.06099999999981
 30
0.0
 70
    32
  0
VERTEX
  5
DA81
  8
0
 10
-5443.2299999999987
 20
-155.06099999999981
 30
0.0
 70
    32
  0
VERTEX
  5
DA82
  8
0
 10
-5443.2299999999987
 20
-155.06099999999981
 30
0.0
 70
    32
  0
VERTEX
  5
DA83
  8
0
 10
-5443.2299999999987
 20
-155.06099999999981
 30
0.0
 70
    32
  0
VERTEX
  5
DA84
  8
0
 10
-5443.2299999999987
 20
-155.06099999999981
 30
0.0
 70
    32
  0
VERTEX
  5
DA85
  8
0
 10
-5443.2299999999987
 20
-155.06200000000001
 30
0.0
 70
    32
  0
VERTEX
  5
DA86
  8
0
 10
-5443.2399999999998
 20
-155.06200000000001
 30
0.0
 70
    32
  0
VERTEX
  5
DA87
  8
0
 10
-5443.2399999999998
 20
-155.06200000000001
 30
0.0
 70
    32
  0
VERTEX
  5
DA88
  8
0
 10
-5443.2399999999998
 20
-155.06200000000001
 30
0.0
 70
    32
  0
VERTEX
  5
DA89
  8
0
 10
-5443.2399999999998
 20
-155.06200000000001
 30
0.0
 70
    32
  0
VERTEX
  5
DA8A
  8
0
 10
-5443.2399999999998
 20
-155.0629999999999
 30
0.0
 70
    32
  0
VERTEX
  5
DA8B
  8
0
 10
-5443.2399999999998
 20
-155.0629999999999
 30
0.0
 70
    32
  0
VERTEX
  5
DA8C
  8
0
 10
-5443.2399999999998
 20
-155.0629999999999
 30
0.0
 70
    32
  0
VERTEX
  5
DA8D
  8
0
 10
-5443.2399999999998
 20
-155.0629999999999
 30
0.0
 70
    32
  0
VERTEX
  5
DA8E
  8
0
 10
-5443.25
 20
-155.0629999999999
 30
0.0
 70
    32
  0
VERTEX
  5
DA8F
  8
0
 10
-5443.25
 20
-155.06399999999999
 30
0.0
 70
    32
  0
VERTEX
  5
DA90
  8
0
 10
-5443.25
 20
-155.06399999999999
 30
0.0
 70
    32
  0
VERTEX
  5
DA91
  8
0
 10
-5443.25
 20
-155.06399999999999
 30
0.0
 70
    32
  0
VERTEX
  5
DA92
  8
0
 10
-5443.25
 20
-155.06399999999999
 30
0.0
 70
    32
  0
VERTEX
  5
DA93
  8
0
 10
-5443.25
 20
-155.06399999999999
 30
0.0
 70
    32
  0
VERTEX
  5
DA94
  8
0
 10
-5443.25
 20
-155.065
 30
0.0
 70
    32
  0
VERTEX
  5
DA95
  8
0
 10
-5443.25
 20
-155.065
 30
0.0
 70
    32
  0
VERTEX
  5
DA96
  8
0
 10
-5443.2600000000002
 20
-155.065
 30
0.0
 70
    32
  0
VERTEX
  5
DA97
  8
0
 10
-5443.2600000000002
 20
-155.065
 30
0.0
 70
    32
  0
VERTEX
  5
DA98
  8
0
 10
-5443.2600000000002
 20
-155.065
 30
0.0
 70
    32
  0
VERTEX
  5
DA99
  8
0
 10
-5443.2600000000002
 20
-155.066
 30
0.0
 70
    32
  0
VERTEX
  5
DA9A
  8
0
 10
-5443.2600000000002
 20
-155.066
 30
0.0
 70
    32
  0
VERTEX
  5
DA9B
  8
0
 10
-5443.2600000000002
 20
-155.066
 30
0.0
 70
    32
  0
VERTEX
  5
DA9C
  8
0
 10
-5443.2600000000002
 20
-155.066
 30
0.0
 70
    32
  0
VERTEX
  5
DA9D
  8
0
 10
-5443.2600000000002
 20
-155.066
 30
0.0
 70
    32
  0
VERTEX
  5
DA9E
  8
0
 10
-5443.2700000000004
 20
-155.06700000000001
 30
0.0
 70
    32
  0
VERTEX
  5
DA9F
  8
0
 10
-5443.2700000000004
 20
-155.06700000000001
 30
0.0
 70
    32
  0
VERTEX
  5
DAA0
  8
0
 10
-5443.2700000000004
 20
-155.06700000000001
 30
0.0
 70
    32
  0
VERTEX
  5
DAA1
  8
0
 10
-5443.2700000000004
 20
-155.06700000000001
 30
0.0
 70
    32
  0
VERTEX
  5
DAA2
  8
0
 10
-5443.2700000000004
 20
-155.06700000000001
 30
0.0
 70
    32
  0
VERTEX
  5
DAA3
  8
0
 10
-5443.2700000000004
 20
-155.06799999999981
 30
0.0
 70
    32
  0
VERTEX
  5
DAA4
  8
0
 10
-5443.2700000000004
 20
-155.06799999999981
 30
0.0
 70
    32
  0
VERTEX
  5
DAA5
  8
0
 10
-5443.2700000000004
 20
-155.06799999999981
 30
0.0
 70
    32
  0
VERTEX
  5
DAA6
  8
0
 10
-5443.2799999999997
 20
-155.06799999999981
 30
0.0
 70
    32
  0
VERTEX
  5
DAA7
  8
0
 10
-5443.2799999999997
 20
-155.06799999999981
 30
0.0
 70
    32
  0
VERTEX
  5
DAA8
  8
0
 10
-5443.2799999999997
 20
-155.0689999999999
 30
0.0
 70
    32
  0
VERTEX
  5
DAA9
  8
0
 10
-5443.2799999999997
 20
-155.0689999999999
 30
0.0
 70
    32
  0
VERTEX
  5
DAAA
  8
0
 10
-5443.2799999999997
 20
-155.0689999999999
 30
0.0
 70
    32
  0
VERTEX
  5
DAAB
  8
0
 10
-5443.2799999999997
 20
-155.0689999999999
 30
0.0
 70
    32
  0
VERTEX
  5
DAAC
  8
0
 10
-5443.2799999999997
 20
-155.0689999999999
 30
0.0
 70
    32
  0
VERTEX
  5
DAAD
  8
0
 10
-5443.2799999999997
 20
-155.06999999999991
 30
0.0
 70
    32
  0
VERTEX
  5
DAAE
  8
0
 10
-5443.2900000000009
 20
-155.06999999999991
 30
0.0
 70
    32
  0
VERTEX
  5
DAAF
  8
0
 10
-5443.2900000000009
 20
-155.06999999999991
 30
0.0
 70
    32
  0
VERTEX
  5
DAB0
  8
0
 10
-5443.2900000000009
 20
-155.06999999999991
 30
0.0
 70
    32
  0
VERTEX
  5
DAB1
  8
0
 10
-5443.2900000000009
 20
-155.06999999999991
 30
0.0
 70
    32
  0
VERTEX
  5
DAB2
  8
0
 10
-5443.2900000000009
 20
-155.071
 30
0.0
 70
    32
  0
VERTEX
  5
DAB3
  8
0
 10
-5443.2900000000009
 20
-155.071
 30
0.0
 70
    32
  0
VERTEX
  5
DAB4
  8
0
 10
-5443.2900000000009
 20
-155.071
 30
0.0
 70
    32
  0
VERTEX
  5
DAB5
  8
0
 10
-5443.2900000000009
 20
-155.071
 30
0.0
 70
    32
  0
VERTEX
  5
DAB6
  8
0
 10
-5443.3000000000002
 20
-155.071
 30
0.0
 70
    32
  0
VERTEX
  5
DAB7
  8
0
 10
-5443.3000000000002
 20
-155.072
 30
0.0
 70
    32
  0
VERTEX
  5
DAB8
  8
0
 10
-5443.3000000000002
 20
-155.072
 30
0.0
 70
    32
  0
VERTEX
  5
DAB9
  8
0
 10
-5443.3000000000002
 20
-155.072
 30
0.0
 70
    32
  0
VERTEX
  5
DABA
  8
0
 10
-5443.3000000000002
 20
-155.072
 30
0.0
 70
    32
  0
VERTEX
  5
DABB
  8
0
 10
-5443.3000000000002
 20
-155.072
 30
0.0
 70
    32
  0
VERTEX
  5
DABC
  8
0
 10
-5443.3000000000002
 20
-155.07299999999989
 30
0.0
 70
    32
  0
VERTEX
  5
DABD
  8
0
 10
-5443.3000000000002
 20
-155.07299999999989
 30
0.0
 70
    32
  0
VERTEX
  5
DABE
  8
0
 10
-5443.3100000000004
 20
-155.07299999999989
 30
0.0
 70
    32
  0
VERTEX
  5
DABF
  8
0
 10
-5443.3100000000004
 20
-155.07299999999989
 30
0.0
 70
    32
  0
VERTEX
  5
DAC0
  8
0
 10
-5443.3100000000004
 20
-155.07299999999989
 30
0.0
 70
    32
  0
VERTEX
  5
DAC1
  8
0
 10
-5443.3100000000004
 20
-155.0739999999999
 30
0.0
 70
    32
  0
VERTEX
  5
DAC2
  8
0
 10
-5443.3100000000004
 20
-155.0739999999999
 30
0.0
 70
    32
  0
VERTEX
  5
DAC3
  8
0
 10
-5443.3100000000004
 20
-155.0739999999999
 30
0.0
 70
    32
  0
VERTEX
  5
DAC4
  8
0
 10
-5443.3100000000004
 20
-155.0739999999999
 30
0.0
 70
    32
  0
VERTEX
  5
DAC5
  8
0
 10
-5443.3100000000004
 20
-155.0739999999999
 30
0.0
 70
    32
  0
VERTEX
  5
DAC6
  8
0
 10
-5443.3199999999988
 20
-155.07499999999979
 30
0.0
 70
    32
  0
VERTEX
  5
DAC7
  8
0
 10
-5443.3199999999988
 20
-155.07499999999979
 30
0.0
 70
    32
  0
VERTEX
  5
DAC8
  8
0
 10
-5443.3199999999988
 20
-155.07499999999979
 30
0.0
 70
    32
  0
VERTEX
  5
DAC9
  8
0
 10
-5443.3199999999988
 20
-155.07499999999979
 30
0.0
 70
    32
  0
VERTEX
  5
DACA
  8
0
 10
-5443.3199999999988
 20
-155.07499999999979
 30
0.0
 70
    32
  0
VERTEX
  5
DACB
  8
0
 10
-5443.3199999999988
 20
-155.07599999999991
 30
0.0
 70
    32
  0
VERTEX
  5
DACC
  8
0
 10
-5443.3199999999988
 20
-155.07599999999991
 30
0.0
 70
    32
  0
VERTEX
  5
DACD
  8
0
 10
-5443.3199999999988
 20
-155.07599999999991
 30
0.0
 70
    32
  0
VERTEX
  5
DACE
  8
0
 10
-5443.3299999999999
 20
-155.07599999999991
 30
0.0
 70
    32
  0
VERTEX
  5
DACF
  8
0
 10
-5443.3299999999999
 20
-155.07599999999991
 30
0.0
 70
    32
  0
VERTEX
  5
DAD0
  8
0
 10
-5443.3299999999999
 20
-155.07699999999991
 30
0.0
 70
    32
  0
VERTEX
  5
DAD1
  8
0
 10
-5443.3299999999999
 20
-155.07699999999991
 30
0.0
 70
    32
  0
VERTEX
  5
DAD2
  8
0
 10
-5443.3299999999999
 20
-155.07699999999991
 30
0.0
 70
    32
  0
VERTEX
  5
DAD3
  8
0
 10
-5443.3299999999999
 20
-155.07699999999991
 30
0.0
 70
    32
  0
VERTEX
  5
DAD4
  8
0
 10
-5443.3299999999999
 20
-155.07699999999991
 30
0.0
 70
    32
  0
VERTEX
  5
DAD5
  8
0
 10
-5443.3299999999999
 20
-155.078
 30
0.0
 70
    32
  0
SEQEND
  5
DAD6
  8
0
  0
ARC
  5
DAD7
  8
AM_VIS
 10
-5440.7072854432963
 20
-149.92611580213531
 30
0.0
 40
5.7825462644184791
 50
207.01652280963901
 51
242.98347719035891
  0
POLYLINE
  5
DAD8
  8
0
 66
     1
 10
0.0
 20
0.0
 30
0.0
 70
     8
  0
VERTEX
  5
DAD9
  8
0
 10
-5445.8599999999988
 20
-152.553
 30
0.0
 70
    32
  0
VERTEX
  5
DADA
  8
0
 10
-5445.8599999999988
 20
-152.55199999999999
 30
0.0
 70
    32
  0
VERTEX
  5
DADB
  8
0
 10
-5445.8599999999988
 20
-152.55000000000001
 30
0.0
 70
    32
  0
VERTEX
  5
DADC
  8
0
 10
-5445.8599999999988
 20
-152.54900000000001
 30
0.0
 70
    32
  0
VERTEX
  5
DADD
  8
0
 10
-5445.8599999999988
 20
-152.54799999999989
 30
0.0
 70
    32
  0
VERTEX
  5
DADE
  8
0
 10
-5445.8599999999988
 20
-152.547
 30
0.0
 70
    32
  0
VERTEX
  5
DADF
  8
0
 10
-5445.8599999999988
 20
-152.54499999999999
 30
0.0
 70
    32
  0
VERTEX
  5
DAE0
  8
0
 10
-5445.8599999999988
 20
-152.54399999999981
 30
0.0
 70
    32
  0
VERTEX
  5
DAE1
  8
0
 10
-5445.8599999999988
 20
-152.54300000000001
 30
0.0
 70
    32
  0
VERTEX
  5
DAE2
  8
0
 10
-5445.8599999999988
 20
-152.54199999999989
 30
0.0
 70
    32
  0
VERTEX
  5
DAE3
  8
0
 10
-5445.8599999999988
 20
-152.53999999999991
 30
0.0
 70
    32
  0
VERTEX
  5
DAE4
  8
0
 10
-5445.8599999999988
 20
-152.5389999999999
 30
0.0
 70
    32
  0
VERTEX
  5
DAE5
  8
0
 10
-5445.8599999999988
 20
-152.53800000000001
 30
0.0
 70
    32
  0
VERTEX
  5
DAE6
  8
0
 10
-5445.8599999999988
 20
-152.53700000000001
 30
0.0
 70
    32
  0
VERTEX
  5
DAE7
  8
0
 10
-5445.8599999999988
 20
-152.53499999999991
 30
0.0
 70
    32
  0
VERTEX
  5
DAE8
  8
0
 10
-5445.8599999999988
 20
-152.53399999999991
 30
0.0
 70
    32
  0
VERTEX
  5
DAE9
  8
0
 10
-5445.8599999999988
 20
-152.53299999999979
 30
0.0
 70
    32
  0
VERTEX
  5
DAEA
  8
0
 10
-5445.8599999999988
 20
-152.53200000000001
 30
0.0
 70
    32
  0
VERTEX
  5
DAEB
  8
0
 10
-5445.8599999999988
 20
-152.53
 30
0.0
 70
    32
  0
VERTEX
  5
DAEC
  8
0
 10
-5445.8599999999988
 20
-152.529
 30
0.0
 70
    32
  0
VERTEX
  5
DAED
  8
0
 10
-5445.8500000000004
 20
-152.52799999999991
 30
0.0
 70
    32
  0
VERTEX
  5
DAEE
  8
0
 10
-5445.8500000000004
 20
-152.52699999999999
 30
0.0
 70
    32
  0
VERTEX
  5
DAEF
  8
0
 10
-5445.8500000000004
 20
-152.52499999999981
 30
0.0
 70
    32
  0
VERTEX
  5
DAF0
  8
0
 10
-5445.8500000000004
 20
-152.524
 30
0.0
 70
    32
  0
VERTEX
  5
DAF1
  8
0
 10
-5445.8500000000004
 20
-152.523
 30
0.0
 70
    32
  0
VERTEX
  5
DAF2
  8
0
 10
-5445.8500000000004
 20
-152.52199999999999
 30
0.0
 70
    32
  0
VERTEX
  5
DAF3
  8
0
 10
-5445.8500000000004
 20
-152.52000000000001
 30
0.0
 70
    32
  0
VERTEX
  5
DAF4
  8
0
 10
-5445.8500000000004
 20
-152.51900000000001
 30
0.0
 70
    32
  0
VERTEX
  5
DAF5
  8
0
 10
-5445.8500000000004
 20
-152.51799999999989
 30
0.0
 70
    32
  0
VERTEX
  5
DAF6
  8
0
 10
-5445.8500000000004
 20
-152.51699999999991
 30
0.0
 70
    32
  0
VERTEX
  5
DAF7
  8
0
 10
-5445.8500000000004
 20
-152.51499999999999
 30
0.0
 70
    32
  0
VERTEX
  5
DAF8
  8
0
 10
-5445.8500000000004
 20
-152.51400000000001
 30
0.0
 70
    32
  0
VERTEX
  5
DAF9
  8
0
 10
-5445.8500000000004
 20
-152.51300000000001
 30
0.0
 70
    32
  0
VERTEX
  5
DAFA
  8
0
 10
-5445.8500000000004
 20
-152.512
 30
0.0
 70
    32
  0
VERTEX
  5
DAFB
  8
0
 10
-5445.8500000000004
 20
-152.51099999999991
 30
0.0
 70
    32
  0
VERTEX
  5
DAFC
  8
0
 10
-5445.8500000000004
 20
-152.50899999999979
 30
0.0
 70
    32
  0
VERTEX
  5
DAFD
  8
0
 10
-5445.8500000000004
 20
-152.5079999999999
 30
0.0
 70
    32
  0
VERTEX
  5
DAFE
  8
0
 10
-5445.8500000000004
 20
-152.50700000000001
 30
0.0
 70
    32
  0
VERTEX
  5
DAFF
  8
0
 10
-5445.8500000000004
 20
-152.506
 30
0.0
 70
    32
  0
VERTEX
  5
DB00
  8
0
 10
-5445.8500000000004
 20
-152.50399999999991
 30
0.0
 70
    32
  0
VERTEX
  5
DB01
  8
0
 10
-5445.8500000000004
 20
-152.5029999999999
 30
0.0
 70
    32
  0
VERTEX
  5
DB02
  8
0
 10
-5445.8500000000004
 20
-152.50200000000001
 30
0.0
 70
    32
  0
VERTEX
  5
DB03
  8
0
 10
-5445.8500000000004
 20
-152.50099999999981
 30
0.0
 70
    32
  0
VERTEX
  5
DB04
  8
0
 10
-5445.8500000000004
 20
-152.499
 30
0.0
 70
    32
  0
VERTEX
  5
DB05
  8
0
 10
-5445.8500000000004
 20
-152.49799999999999
 30
0.0
 70
    32
  0
VERTEX
  5
DB06
  8
0
 10
-5445.8500000000004
 20
-152.49700000000001
 30
0.0
 70
    32
  0
VERTEX
  5
DB07
  8
0
 10
-5445.8500000000004
 20
-152.49600000000001
 30
0.0
 70
    32
  0
VERTEX
  5
DB08
  8
0
 10
-5445.8500000000004
 20
-152.49399999999989
 30
0.0
 70
    32
  0
VERTEX
  5
DB09
  8
0
 10
-5445.8500000000004
 20
-152.49299999999991
 30
0.0
 70
    32
  0
VERTEX
  5
DB0A
  8
0
 10
-5445.8500000000004
 20
-152.49199999999999
 30
0.0
 70
    32
  0
VERTEX
  5
DB0B
  8
0
 10
-5445.8500000000004
 20
-152.49100000000001
 30
0.0
 70
    32
  0
VERTEX
  5
DB0C
  8
0
 10
-5445.8500000000004
 20
-152.489
 30
0.0
 70
    32
  0
VERTEX
  5
DB0D
  8
0
 10
-5445.8500000000004
 20
-152.488
 30
0.0
 70
    32
  0
VERTEX
  5
DB0E
  8
0
 10
-5445.8500000000004
 20
-152.48699999999991
 30
0.0
 70
    32
  0
VERTEX
  5
DB0F
  8
0
 10
-5445.8500000000004
 20
-152.48599999999979
 30
0.0
 70
    32
  0
VERTEX
  5
DB10
  8
0
 10
-5445.8500000000004
 20
-152.48400000000001
 30
0.0
 70
    32
  0
VERTEX
  5
DB11
  8
0
 10
-5445.8500000000004
 20
-152.483
 30
0.0
 70
    32
  0
VERTEX
  5
DB12
  8
0
 10
-5445.8500000000004
 20
-152.482
 30
0.0
 70
    32
  0
VERTEX
  5
DB13
  8
0
 10
-5445.8500000000004
 20
-152.48099999999991
 30
0.0
 70
    32
  0
VERTEX
  5
DB14
  8
0
 10
-5445.8500000000004
 20
-152.47899999999979
 30
0.0
 70
    32
  0
VERTEX
  5
DB15
  8
0
 10
-5445.8500000000004
 20
-152.47799999999981
 30
0.0
 70
    32
  0
VERTEX
  5
DB16
  8
0
 10
-5445.8500000000004
 20
-152.477
 30
0.0
 70
    32
  0
VERTEX
  5
DB17
  8
0
 10
-5445.8500000000004
 20
-152.476
 30
0.0
 70
    32
  0
VERTEX
  5
DB18
  8
0
 10
-5445.8500000000004
 20
-152.47499999999999
 30
0.0
 70
    32
  0
VERTEX
  5
DB19
  8
0
 10
-5445.8500000000004
 20
-152.4729999999999
 30
0.0
 70
    32
  0
VERTEX
  5
DB1A
  8
0
 10
-5445.8500000000004
 20
-152.47200000000001
 30
0.0
 70
    32
  0
VERTEX
  5
DB1B
  8
0
 10
-5445.8500000000004
 20
-152.47099999999989
 30
0.0
 70
    32
  0
VERTEX
  5
DB1C
  8
0
 10
-5445.8500000000004
 20
-152.46999999999991
 30
0.0
 70
    32
  0
VERTEX
  5
DB1D
  8
0
 10
-5445.8500000000004
 20
-152.46799999999999
 30
0.0
 70
    32
  0
VERTEX
  5
DB1E
  8
0
 10
-5445.8400000000001
 20
-152.46700000000001
 30
0.0
 70
    32
  0
VERTEX
  5
DB1F
  8
0
 10
-5445.8400000000001
 20
-152.46600000000001
 30
0.0
 70
    32
  0
VERTEX
  5
DB20
  8
0
 10
-5445.8400000000001
 20
-152.465
 30
0.0
 70
    32
  0
VERTEX
  5
DB21
  8
0
 10
-5445.8400000000001
 20
-152.46299999999991
 30
0.0
 70
    32
  0
VERTEX
  5
DB22
  8
0
 10
-5445.8400000000001
 20
-152.46199999999999
 30
0.0
 70
    32
  0
VERTEX
  5
DB23
  8
0
 10
-5445.8400000000001
 20
-152.46100000000001
 30
0.0
 70
    32
  0
VERTEX
  5
DB24
  8
0
 10
-5445.8400000000001
 20
-152.46000000000001
 30
0.0
 70
    32
  0
VERTEX
  5
DB25
  8
0
 10
-5445.8400000000001
 20
-152.458
 30
0.0
 70
    32
  0
VERTEX
  5
DB26
  8
0
 10
-5445.8400000000001
 20
-152.45699999999991
 30
0.0
 70
    32
  0
VERTEX
  5
DB27
  8
0
 10
-5445.8400000000001
 20
-152.45599999999999
 30
0.0
 70
    32
  0
VERTEX
  5
DB28
  8
0
 10
-5445.8400000000001
 20
-152.45500000000001
 30
0.0
 70
    32
  0
VERTEX
  5
DB29
  8
0
 10
-5445.8400000000001
 20
-152.453
 30
0.0
 70
    32
  0
VERTEX
  5
DB2A
  8
0
 10
-5445.8400000000001
 20
-152.452
 30
0.0
 70
    32
  0
VERTEX
  5
DB2B
  8
0
 10
-5445.8400000000001
 20
-152.45099999999999
 30
0.0
 70
    32
  0
VERTEX
  5
DB2C
  8
0
 10
-5445.8400000000001
 20
-152.4499999999999
 30
0.0
 70
    32
  0
VERTEX
  5
DB2D
  8
0
 10
-5445.8400000000001
 20
-152.4489999999999
 30
0.0
 70
    32
  0
VERTEX
  5
DB2E
  8
0
 10
-5445.8400000000001
 20
-152.44699999999989
 30
0.0
 70
    32
  0
VERTEX
  5
DB2F
  8
0
 10
-5445.8400000000001
 20
-152.44599999999991
 30
0.0
 70
    32
  0
VERTEX
  5
DB30
  8
0
 10
-5445.8400000000001
 20
-152.44499999999991
 30
0.0
 70
    32
  0
VERTEX
  5
DB31
  8
0
 10
-5445.8400000000001
 20
-152.44399999999999
 30
0.0
 70
    32
  0
VERTEX
  5
DB32
  8
0
 10
-5445.8400000000001
 20
-152.44200000000001
 30
0.0
 70
    32
  0
VERTEX
  5
DB33
  8
0
 10
-5445.8400000000001
 20
-152.441
 30
0.0
 70
    32
  0
VERTEX
  5
DB34
  8
0
 10
-5445.8400000000001
 20
-152.43999999999991
 30
0.0
 70
    32
  0
VERTEX
  5
DB35
  8
0
 10
-5445.8400000000001
 20
-152.43899999999991
 30
0.0
 70
    32
  0
VERTEX
  5
DB36
  8
0
 10
-5445.8400000000001
 20
-152.43700000000001
 30
0.0
 70
    32
  0
VERTEX
  5
DB37
  8
0
 10
-5445.8400000000001
 20
-152.43600000000001
 30
0.0
 70
    32
  0
VERTEX
  5
DB38
  8
0
 10
-5445.8400000000001
 20
-152.435
 30
0.0
 70
    32
  0
SEQEND
  5
DB39
  8
0
  0
ARC
  5
DB3A
  8
AM_VIS
 10
-5440.7072854432963
 20
-149.92611580213531
 30
0.0
 40
5.7127313220924094
 50
243.94962886567029
 51
206.05037113432789
  0
POLYLINE
  5
DB3B
  8
0
 66
     1
 10
0.0
 20
0.0
 30
0.0
 70
     8
  0
VERTEX
  5
DB3C
  8
0
 10
-5352.0699999999997
 20
-152.435
 30
0.0
 70
    32
  0
VERTEX
  5
DB3D
  8
0
 10
-5352.0699999999997
 20
-152.43600000000001
 30
0.0
 70
    32
  0
VERTEX
  5
DB3E
  8
0
 10
-5352.0699999999997
 20
-152.43700000000001
 30
0.0
 70
    32
  0
VERTEX
  5
DB3F
  8
0
 10
-5352.0699999999997
 20
-152.43899999999991
 30
0.0
 70
    32
  0
VERTEX
  5
DB40
  8
0
 10
-5352.0699999999997
 20
-152.43999999999991
 30
0.0
 70
    32
  0
VERTEX
  5
DB41
  8
0
 10
-5352.0699999999997
 20
-152.441
 30
0.0
 70
    32
  0
VERTEX
  5
DB42
  8
0
 10
-5352.0699999999997
 20
-152.44200000000001
 30
0.0
 70
    32
  0
VERTEX
  5
DB43
  8
0
 10
-5352.0699999999997
 20
-152.44399999999999
 30
0.0
 70
    32
  0
VERTEX
  5
DB44
  8
0
 10
-5352.0699999999997
 20
-152.44499999999991
 30
0.0
 70
    32
  0
VERTEX
  5
DB45
  8
0
 10
-5352.0699999999997
 20
-152.44599999999991
 30
0.0
 70
    32
  0
VERTEX
  5
DB46
  8
0
 10
-5352.0699999999997
 20
-152.44699999999989
 30
0.0
 70
    32
  0
VERTEX
  5
DB47
  8
0
 10
-5352.0699999999997
 20
-152.4489999999999
 30
0.0
 70
    32
  0
VERTEX
  5
DB48
  8
0
 10
-5352.0699999999997
 20
-152.4499999999999
 30
0.0
 70
    32
  0
VERTEX
  5
DB49
  8
0
 10
-5352.0699999999997
 20
-152.45099999999999
 30
0.0
 70
    32
  0
VERTEX
  5
DB4A
  8
0
 10
-5352.0699999999997
 20
-152.452
 30
0.0
 70
    32
  0
VERTEX
  5
DB4B
  8
0
 10
-5352.0699999999997
 20
-152.453
 30
0.0
 70
    32
  0
VERTEX
  5
DB4C
  8
0
 10
-5352.0699999999997
 20
-152.45500000000001
 30
0.0
 70
    32
  0
VERTEX
  5
DB4D
  8
0
 10
-5352.0699999999997
 20
-152.45599999999999
 30
0.0
 70
    32
  0
VERTEX
  5
DB4E
  8
0
 10
-5352.0699999999997
 20
-152.45699999999991
 30
0.0
 70
    32
  0
VERTEX
  5
DB4F
  8
0
 10
-5352.0699999999997
 20
-152.458
 30
0.0
 70
    32
  0
VERTEX
  5
DB50
  8
0
 10
-5352.0699999999997
 20
-152.46000000000001
 30
0.0
 70
    32
  0
VERTEX
  5
DB51
  8
0
 10
-5352.0699999999997
 20
-152.46100000000001
 30
0.0
 70
    32
  0
VERTEX
  5
DB52
  8
0
 10
-5352.0699999999997
 20
-152.46199999999999
 30
0.0
 70
    32
  0
VERTEX
  5
DB53
  8
0
 10
-5352.0699999999997
 20
-152.46299999999991
 30
0.0
 70
    32
  0
VERTEX
  5
DB54
  8
0
 10
-5352.0699999999997
 20
-152.465
 30
0.0
 70
    32
  0
VERTEX
  5
DB55
  8
0
 10
-5352.0699999999997
 20
-152.46600000000001
 30
0.0
 70
    32
  0
VERTEX
  5
DB56
  8
0
 10
-5352.0699999999997
 20
-152.46700000000001
 30
0.0
 70
    32
  0
VERTEX
  5
DB57
  8
0
 10
-5352.0699999999997
 20
-152.46799999999999
 30
0.0
 70
    32
  0
VERTEX
  5
DB58
  8
0
 10
-5352.0699999999997
 20
-152.46999999999991
 30
0.0
 70
    32
  0
VERTEX
  5
DB59
  8
0
 10
-5352.0699999999997
 20
-152.47099999999989
 30
0.0
 70
    32
  0
VERTEX
  5
DB5A
  8
0
 10
-5352.0699999999997
 20
-152.47200000000001
 30
0.0
 70
    32
  0
VERTEX
  5
DB5B
  8
0
 10
-5352.0699999999997
 20
-152.4729999999999
 30
0.0
 70
    32
  0
VERTEX
  5
DB5C
  8
0
 10
-5352.0699999999997
 20
-152.47499999999999
 30
0.0
 70
    32
  0
VERTEX
  5
DB5D
  8
0
 10
-5352.0699999999997
 20
-152.476
 30
0.0
 70
    32
  0
VERTEX
  5
DB5E
  8
0
 10
-5352.0699999999997
 20
-152.477
 30
0.0
 70
    32
  0
VERTEX
  5
DB5F
  8
0
 10
-5352.0699999999997
 20
-152.47799999999981
 30
0.0
 70
    32
  0
VERTEX
  5
DB60
  8
0
 10
-5352.0699999999997
 20
-152.47899999999979
 30
0.0
 70
    32
  0
VERTEX
  5
DB61
  8
0
 10
-5352.0699999999997
 20
-152.48099999999991
 30
0.0
 70
    32
  0
VERTEX
  5
DB62
  8
0
 10
-5352.0699999999997
 20
-152.482
 30
0.0
 70
    32
  0
VERTEX
  5
DB63
  8
0
 10
-5352.0699999999997
 20
-152.483
 30
0.0
 70
    32
  0
VERTEX
  5
DB64
  8
0
 10
-5352.0699999999997
 20
-152.48400000000001
 30
0.0
 70
    32
  0
VERTEX
  5
DB65
  8
0
 10
-5352.0699999999997
 20
-152.48599999999979
 30
0.0
 70
    32
  0
VERTEX
  5
DB66
  8
0
 10
-5352.0699999999997
 20
-152.48699999999991
 30
0.0
 70
    32
  0
VERTEX
  5
DB67
  8
0
 10
-5352.0699999999997
 20
-152.488
 30
0.0
 70
    32
  0
VERTEX
  5
DB68
  8
0
 10
-5352.0699999999997
 20
-152.489
 30
0.0
 70
    32
  0
VERTEX
  5
DB69
  8
0
 10
-5352.0699999999997
 20
-152.49100000000001
 30
0.0
 70
    32
  0
VERTEX
  5
DB6A
  8
0
 10
-5352.0699999999997
 20
-152.49199999999999
 30
0.0
 70
    32
  0
VERTEX
  5
DB6B
  8
0
 10
-5352.0699999999997
 20
-152.49299999999991
 30
0.0
 70
    32
  0
VERTEX
  5
DB6C
  8
0
 10
-5352.0699999999997
 20
-152.49399999999989
 30
0.0
 70
    32
  0
VERTEX
  5
DB6D
  8
0
 10
-5352.0600000000004
 20
-152.49600000000001
 30
0.0
 70
    32
  0
VERTEX
  5
DB6E
  8
0
 10
-5352.0600000000004
 20
-152.49700000000001
 30
0.0
 70
    32
  0
VERTEX
  5
DB6F
  8
0
 10
-5352.0600000000004
 20
-152.49799999999999
 30
0.0
 70
    32
  0
VERTEX
  5
DB70
  8
0
 10
-5352.0600000000004
 20
-152.499
 30
0.0
 70
    32
  0
VERTEX
  5
DB71
  8
0
 10
-5352.0600000000004
 20
-152.50099999999981
 30
0.0
 70
    32
  0
VERTEX
  5
DB72
  8
0
 10
-5352.0600000000004
 20
-152.50200000000001
 30
0.0
 70
    32
  0
VERTEX
  5
DB73
  8
0
 10
-5352.0600000000004
 20
-152.5029999999999
 30
0.0
 70
    32
  0
VERTEX
  5
DB74
  8
0
 10
-5352.0600000000004
 20
-152.50399999999991
 30
0.0
 70
    32
  0
VERTEX
  5
DB75
  8
0
 10
-5352.0600000000004
 20
-152.506
 30
0.0
 70
    32
  0
VERTEX
  5
DB76
  8
0
 10
-5352.0600000000004
 20
-152.50700000000001
 30
0.0
 70
    32
  0
VERTEX
  5
DB77
  8
0
 10
-5352.0600000000004
 20
-152.5079999999999
 30
0.0
 70
    32
  0
VERTEX
  5
DB78
  8
0
 10
-5352.0600000000004
 20
-152.50899999999979
 30
0.0
 70
    32
  0
VERTEX
  5
DB79
  8
0
 10
-5352.0600000000004
 20
-152.51099999999991
 30
0.0
 70
    32
  0
VERTEX
  5
DB7A
  8
0
 10
-5352.0600000000004
 20
-152.512
 30
0.0
 70
    32
  0
VERTEX
  5
DB7B
  8
0
 10
-5352.0600000000004
 20
-152.51300000000001
 30
0.0
 70
    32
  0
VERTEX
  5
DB7C
  8
0
 10
-5352.0600000000004
 20
-152.51400000000001
 30
0.0
 70
    32
  0
VERTEX
  5
DB7D
  8
0
 10
-5352.0600000000004
 20
-152.51499999999999
 30
0.0
 70
    32
  0
VERTEX
  5
DB7E
  8
0
 10
-5352.0600000000004
 20
-152.51699999999991
 30
0.0
 70
    32
  0
VERTEX
  5
DB7F
  8
0
 10
-5352.0600000000004
 20
-152.51799999999989
 30
0.0
 70
    32
  0
VERTEX
  5
DB80
  8
0
 10
-5352.0600000000004
 20
-152.51900000000001
 30
0.0
 70
    32
  0
VERTEX
  5
DB81
  8
0
 10
-5352.0600000000004
 20
-152.52000000000001
 30
0.0
 70
    32
  0
VERTEX
  5
DB82
  8
0
 10
-5352.0600000000004
 20
-152.52199999999999
 30
0.0
 70
    32
  0
VERTEX
  5
DB83
  8
0
 10
-5352.0600000000004
 20
-152.523
 30
0.0
 70
    32
  0
VERTEX
  5
DB84
  8
0
 10
-5352.0600000000004
 20
-152.524
 30
0.0
 70
    32
  0
VERTEX
  5
DB85
  8
0
 10
-5352.0600000000004
 20
-152.52499999999981
 30
0.0
 70
    32
  0
VERTEX
  5
DB86
  8
0
 10
-5352.0600000000004
 20
-152.52699999999999
 30
0.0
 70
    32
  0
VERTEX
  5
DB87
  8
0
 10
-5352.0600000000004
 20
-152.52799999999991
 30
0.0
 70
    32
  0
VERTEX
  5
DB88
  8
0
 10
-5352.0600000000004
 20
-152.529
 30
0.0
 70
    32
  0
VERTEX
  5
DB89
  8
0
 10
-5352.0600000000004
 20
-152.53
 30
0.0
 70
    32
  0
VERTEX
  5
DB8A
  8
0
 10
-5352.0600000000004
 20
-152.53200000000001
 30
0.0
 70
    32
  0
VERTEX
  5
DB8B
  8
0
 10
-5352.0600000000004
 20
-152.53299999999979
 30
0.0
 70
    32
  0
VERTEX
  5
DB8C
  8
0
 10
-5352.0600000000004
 20
-152.53399999999991
 30
0.0
 70
    32
  0
VERTEX
  5
DB8D
  8
0
 10
-5352.0600000000004
 20
-152.53499999999991
 30
0.0
 70
    32
  0
VERTEX
  5
DB8E
  8
0
 10
-5352.0600000000004
 20
-152.53700000000001
 30
0.0
 70
    32
  0
VERTEX
  5
DB8F
  8
0
 10
-5352.0600000000004
 20
-152.53800000000001
 30
0.0
 70
    32
  0
VERTEX
  5
DB90
  8
0
 10
-5352.0600000000004
 20
-152.5389999999999
 30
0.0
 70
    32
  0
VERTEX
  5
DB91
  8
0
 10
-5352.0600000000004
 20
-152.53999999999991
 30
0.0
 70
    32
  0
VERTEX
  5
DB92
  8
0
 10
-5352.0600000000004
 20
-152.54199999999989
 30
0.0
 70
    32
  0
VERTEX
  5
DB93
  8
0
 10
-5352.0600000000004
 20
-152.54300000000001
 30
0.0
 70
    32
  0
VERTEX
  5
DB94
  8
0
 10
-5352.0600000000004
 20
-152.54399999999981
 30
0.0
 70
    32
  0
VERTEX
  5
DB95
  8
0
 10
-5352.0600000000004
 20
-152.54499999999999
 30
0.0
 70
    32
  0
VERTEX
  5
DB96
  8
0
 10
-5352.0600000000004
 20
-152.547
 30
0.0
 70
    32
  0
VERTEX
  5
DB97
  8
0
 10
-5352.0600000000004
 20
-152.54799999999989
 30
0.0
 70
    32
  0
VERTEX
  5
DB98
  8
0
 10
-5352.0600000000004
 20
-152.54900000000001
 30
0.0
 70
    32
  0
VERTEX
  5
DB99
  8
0
 10
-5352.0600000000004
 20
-152.55000000000001
 30
0.0
 70
    32
  0
VERTEX
  5
DB9A
  8
0
 10
-5352.0600000000004
 20
-152.55199999999999
 30
0.0
 70
    32
  0
VERTEX
  5
DB9B
  8
0
 10
-5352.0600000000004
 20
-152.553
 30
0.0
 70
    32
  0
SEQEND
  5
DB9C
  8
0
  0
ARC
  5
DB9D
  8
AM_VIS
 10
-5357.2072854432981
 20
-149.92611580213531
 30
0.0
 40
5.7825462644184791
 50
297.01652280964049
 51
332.98347719036008
  0
POLYLINE
  5
DB9E
  8
0
 66
     1
 10
0.0
 20
0.0
 30
0.0
 70
     8
  0
VERTEX
  5
DB9F
  8
0
 10
-5354.5799999999999
 20
-155.078
 30
0.0
 70
    32
  0
VERTEX
  5
DBA0
  8
0
 10
-5354.5799999999999
 20
-155.07699999999991
 30
0.0
 70
    32
  0
VERTEX
  5
DBA1
  8
0
 10
-5354.5799999999999
 20
-155.07699999999991
 30
0.0
 70
    32
  0
VERTEX
  5
DBA2
  8
0
 10
-5354.5799999999999
 20
-155.07699999999991
 30
0.0
 70
    32
  0
VERTEX
  5
DBA3
  8
0
 10
-5354.5900000000001
 20
-155.07699999999991
 30
0.0
 70
    32
  0
VERTEX
  5
DBA4
  8
0
 10
-5354.5900000000001
 20
-155.07699999999991
 30
0.0
 70
    32
  0
VERTEX
  5
DBA5
  8
0
 10
-5354.5900000000001
 20
-155.07599999999991
 30
0.0
 70
    32
  0
VERTEX
  5
DBA6
  8
0
 10
-5354.5900000000001
 20
-155.07599999999991
 30
0.0
 70
    32
  0
VERTEX
  5
DBA7
  8
0
 10
-5354.5900000000001
 20
-155.07599999999991
 30
0.0
 70
    32
  0
VERTEX
  5
DBA8
  8
0
 10
-5354.5900000000001
 20
-155.07599999999991
 30
0.0
 70
    32
  0
VERTEX
  5
DBA9
  8
0
 10
-5354.5900000000001
 20
-155.07599999999991
 30
0.0
 70
    32
  0
VERTEX
  5
DBAA
  8
0
 10
-5354.5900000000001
 20
-155.07499999999979
 30
0.0
 70
    32
  0
VERTEX
  5
DBAB
  8
0
 10
-5354.6000000000013
 20
-155.07499999999979
 30
0.0
 70
    32
  0
VERTEX
  5
DBAC
  8
0
 10
-5354.6000000000013
 20
-155.07499999999979
 30
0.0
 70
    32
  0
VERTEX
  5
DBAD
  8
0
 10
-5354.6000000000013
 20
-155.07499999999979
 30
0.0
 70
    32
  0
VERTEX
  5
DBAE
  8
0
 10
-5354.6000000000013
 20
-155.07499999999979
 30
0.0
 70
    32
  0
VERTEX
  5
DBAF
  8
0
 10
-5354.6000000000013
 20
-155.0739999999999
 30
0.0
 70
    32
  0
VERTEX
  5
DBB0
  8
0
 10
-5354.6000000000013
 20
-155.0739999999999
 30
0.0
 70
    32
  0
VERTEX
  5
DBB1
  8
0
 10
-5354.6000000000013
 20
-155.0739999999999
 30
0.0
 70
    32
  0
VERTEX
  5
DBB2
  8
0
 10
-5354.6000000000013
 20
-155.0739999999999
 30
0.0
 70
    32
  0
VERTEX
  5
DBB3
  8
0
 10
-5354.6099999999997
 20
-155.0739999999999
 30
0.0
 70
    32
  0
VERTEX
  5
DBB4
  8
0
 10
-5354.6099999999997
 20
-155.07299999999989
 30
0.0
 70
    32
  0
VERTEX
  5
DBB5
  8
0
 10
-5354.6099999999997
 20
-155.07299999999989
 30
0.0
 70
    32
  0
VERTEX
  5
DBB6
  8
0
 10
-5354.6099999999997
 20
-155.07299999999989
 30
0.0
 70
    32
  0
VERTEX
  5
DBB7
  8
0
 10
-5354.6099999999997
 20
-155.07299999999989
 30
0.0
 70
    32
  0
VERTEX
  5
DBB8
  8
0
 10
-5354.6099999999997
 20
-155.07299999999989
 30
0.0
 70
    32
  0
VERTEX
  5
DBB9
  8
0
 10
-5354.6099999999997
 20
-155.072
 30
0.0
 70
    32
  0
VERTEX
  5
DBBA
  8
0
 10
-5354.6099999999997
 20
-155.072
 30
0.0
 70
    32
  0
VERTEX
  5
DBBB
  8
0
 10
-5354.6199999999999
 20
-155.072
 30
0.0
 70
    32
  0
VERTEX
  5
DBBC
  8
0
 10
-5354.6199999999999
 20
-155.072
 30
0.0
 70
    32
  0
VERTEX
  5
DBBD
  8
0
 10
-5354.6199999999999
 20
-155.072
 30
0.0
 70
    32
  0
VERTEX
  5
DBBE
  8
0
 10
-5354.6199999999999
 20
-155.071
 30
0.0
 70
    32
  0
VERTEX
  5
DBBF
  8
0
 10
-5354.6199999999999
 20
-155.071
 30
0.0
 70
    32
  0
VERTEX
  5
DBC0
  8
0
 10
-5354.6199999999999
 20
-155.071
 30
0.0
 70
    32
  0
VERTEX
  5
DBC1
  8
0
 10
-5354.6199999999999
 20
-155.071
 30
0.0
 70
    32
  0
VERTEX
  5
DBC2
  8
0
 10
-5354.6199999999999
 20
-155.071
 30
0.0
 70
    32
  0
VERTEX
  5
DBC3
  8
0
 10
-5354.6300000000001
 20
-155.06999999999991
 30
0.0
 70
    32
  0
VERTEX
  5
DBC4
  8
0
 10
-5354.6300000000001
 20
-155.06999999999991
 30
0.0
 70
    32
  0
VERTEX
  5
DBC5
  8
0
 10
-5354.6300000000001
 20
-155.06999999999991
 30
0.0
 70
    32
  0
VERTEX
  5
DBC6
  8
0
 10
-5354.6300000000001
 20
-155.06999999999991
 30
0.0
 70
    32
  0
VERTEX
  5
DBC7
  8
0
 10
-5354.6300000000001
 20
-155.06999999999991
 30
0.0
 70
    32
  0
VERTEX
  5
DBC8
  8
0
 10
-5354.6300000000001
 20
-155.0689999999999
 30
0.0
 70
    32
  0
VERTEX
  5
DBC9
  8
0
 10
-5354.6300000000001
 20
-155.0689999999999
 30
0.0
 70
    32
  0
VERTEX
  5
DBCA
  8
0
 10
-5354.6300000000001
 20
-155.0689999999999
 30
0.0
 70
    32
  0
VERTEX
  5
DBCB
  8
0
 10
-5354.6400000000003
 20
-155.0689999999999
 30
0.0
 70
    32
  0
VERTEX
  5
DBCC
  8
0
 10
-5354.6400000000003
 20
-155.0689999999999
 30
0.0
 70
    32
  0
VERTEX
  5
DBCD
  8
0
 10
-5354.6400000000003
 20
-155.06799999999981
 30
0.0
 70
    32
  0
VERTEX
  5
DBCE
  8
0
 10
-5354.6400000000003
 20
-155.06799999999981
 30
0.0
 70
    32
  0
VERTEX
  5
DBCF
  8
0
 10
-5354.6400000000003
 20
-155.06799999999981
 30
0.0
 70
    32
  0
VERTEX
  5
DBD0
  8
0
 10
-5354.6400000000003
 20
-155.06799999999981
 30
0.0
 70
    32
  0
VERTEX
  5
DBD1
  8
0
 10
-5354.6400000000003
 20
-155.06799999999981
 30
0.0
 70
    32
  0
VERTEX
  5
DBD2
  8
0
 10
-5354.6400000000003
 20
-155.06700000000001
 30
0.0
 70
    32
  0
VERTEX
  5
DBD3
  8
0
 10
-5354.6499999999987
 20
-155.06700000000001
 30
0.0
 70
    32
  0
VERTEX
  5
DBD4
  8
0
 10
-5354.6499999999987
 20
-155.06700000000001
 30
0.0
 70
    32
  0
VERTEX
  5
DBD5
  8
0
 10
-5354.6499999999987
 20
-155.06700000000001
 30
0.0
 70
    32
  0
VERTEX
  5
DBD6
  8
0
 10
-5354.6499999999987
 20
-155.06700000000001
 30
0.0
 70
    32
  0
VERTEX
  5
DBD7
  8
0
 10
-5354.6499999999987
 20
-155.066
 30
0.0
 70
    32
  0
VERTEX
  5
DBD8
  8
0
 10
-5354.6499999999987
 20
-155.066
 30
0.0
 70
    32
  0
VERTEX
  5
DBD9
  8
0
 10
-5354.6499999999987
 20
-155.066
 30
0.0
 70
    32
  0
VERTEX
  5
DBDA
  8
0
 10
-5354.6499999999987
 20
-155.066
 30
0.0
 70
    32
  0
VERTEX
  5
DBDB
  8
0
 10
-5354.6599999999989
 20
-155.066
 30
0.0
 70
    32
  0
VERTEX
  5
DBDC
  8
0
 10
-5354.6599999999989
 20
-155.065
 30
0.0
 70
    32
  0
VERTEX
  5
DBDD
  8
0
 10
-5354.6599999999989
 20
-155.065
 30
0.0
 70
    32
  0
VERTEX
  5
DBDE
  8
0
 10
-5354.6599999999989
 20
-155.065
 30
0.0
 70
    32
  0
VERTEX
  5
DBDF
  8
0
 10
-5354.6599999999989
 20
-155.065
 30
0.0
 70
    32
  0
VERTEX
  5
DBE0
  8
0
 10
-5354.6599999999989
 20
-155.065
 30
0.0
 70
    32
  0
VERTEX
  5
DBE1
  8
0
 10
-5354.6599999999989
 20
-155.06399999999999
 30
0.0
 70
    32
  0
VERTEX
  5
DBE2
  8
0
 10
-5354.6599999999989
 20
-155.06399999999999
 30
0.0
 70
    32
  0
VERTEX
  5
DBE3
  8
0
 10
-5354.6700000000001
 20
-155.06399999999999
 30
0.0
 70
    32
  0
VERTEX
  5
DBE4
  8
0
 10
-5354.6700000000001
 20
-155.06399999999999
 30
0.0
 70
    32
  0
VERTEX
  5
DBE5
  8
0
 10
-5354.6700000000001
 20
-155.06399999999999
 30
0.0
 70
    32
  0
VERTEX
  5
DBE6
  8
0
 10
-5354.6700000000001
 20
-155.0629999999999
 30
0.0
 70
    32
  0
VERTEX
  5
DBE7
  8
0
 10
-5354.6700000000001
 20
-155.0629999999999
 30
0.0
 70
    32
  0
VERTEX
  5
DBE8
  8
0
 10
-5354.6700000000001
 20
-155.0629999999999
 30
0.0
 70
    32
  0
VERTEX
  5
DBE9
  8
0
 10
-5354.6700000000001
 20
-155.0629999999999
 30
0.0
 70
    32
  0
VERTEX
  5
DBEA
  8
0
 10
-5354.6700000000001
 20
-155.0629999999999
 30
0.0
 70
    32
  0
VERTEX
  5
DBEB
  8
0
 10
-5354.6700000000001
 20
-155.06200000000001
 30
0.0
 70
    32
  0
VERTEX
  5
DBEC
  8
0
 10
-5354.6800000000003
 20
-155.06200000000001
 30
0.0
 70
    32
  0
VERTEX
  5
DBED
  8
0
 10
-5354.6800000000003
 20
-155.06200000000001
 30
0.0
 70
    32
  0
VERTEX
  5
DBEE
  8
0
 10
-5354.6800000000003
 20
-155.06200000000001
 30
0.0
 70
    32
  0
VERTEX
  5
DBEF
  8
0
 10
-5354.6800000000003
 20
-155.06200000000001
 30
0.0
 70
    32
  0
VERTEX
  5
DBF0
  8
0
 10
-5354.6800000000003
 20
-155.06099999999981
 30
0.0
 70
    32
  0
VERTEX
  5
DBF1
  8
0
 10
-5354.6800000000003
 20
-155.06099999999981
 30
0.0
 70
    32
  0
VERTEX
  5
DBF2
  8
0
 10
-5354.6800000000003
 20
-155.06099999999981
 30
0.0
 70
    32
  0
VERTEX
  5
DBF3
  8
0
 10
-5354.6800000000003
 20
-155.06099999999981
 30
0.0
 70
    32
  0
VERTEX
  5
DBF4
  8
0
 10
-5354.6899999999978
 20
-155.06099999999981
 30
0.0
 70
    32
  0
VERTEX
  5
DBF5
  8
0
 10
-5354.6899999999978
 20
-155.06
 30
0.0
 70
    32
  0
VERTEX
  5
DBF6
  8
0
 10
-5354.6899999999978
 20
-155.06
 30
0.0
 70
    32
  0
VERTEX
  5
DBF7
  8
0
 10
-5354.6899999999978
 20
-155.06
 30
0.0
 70
    32
  0
VERTEX
  5
DBF8
  8
0
 10
-5354.6899999999978
 20
-155.06
 30
0.0
 70
    32
  0
VERTEX
  5
DBF9
  8
0
 10
-5354.6899999999978
 20
-155.06
 30
0.0
 70
    32
  0
VERTEX
  5
DBFA
  8
0
 10
-5354.6899999999978
 20
-155.05899999999991
 30
0.0
 70
    32
  0
VERTEX
  5
DBFB
  8
0
 10
-5354.6899999999978
 20
-155.05899999999991
 30
0.0
 70
    32
  0
VERTEX
  5
DBFC
  8
0
 10
-5354.6999999999998
 20
-155.05899999999991
 30
0.0
 70
    32
  0
VERTEX
  5
DBFD
  8
0
 10
-5354.6999999999998
 20
-155.05899999999991
 30
0.0
 70
    32
  0
VERTEX
  5
DBFE
  8
0
 10
-5354.6999999999998
 20
-155.05799999999999
 30
0.0
 70
    32
  0
SEQEND
  5
DBFF
  8
0
  0
ARC
  5
DC00
  8
AM_VIS
 10
-5357.2072854432981
 20
-149.92611580213531
 30
0.0
 40
5.7127313220924094
 50
333.94962886567203
 51
296.05037113432883
  0
POLYLINE
  5
DC01
  8
0
 66
     1
 10
0.0
 20
0.0
 30
0.0
 70
     8
  0
VERTEX
  5
DC02
  8
0
 10
-5354.6999999999998
 20
-61.293799999999997
 30
0.0
 70
    32
  0
VERTEX
  5
DC03
  8
0
 10
-5354.6999999999998
 20
-61.293500000000002
 30
0.0
 70
    32
  0
VERTEX
  5
DC04
  8
0
 10
-5354.6999999999998
 20
-61.293300000000002
 30
0.0
 70
    32
  0
VERTEX
  5
DC05
  8
0
 10
-5354.6899999999978
 20
-61.293100000000003
 30
0.0
 70
    32
  0
VERTEX
  5
DC06
  8
0
 10
-5354.6899999999978
 20
-61.29290000000001
 30
0.0
 70
    32
  0
VERTEX
  5
DC07
  8
0
 10
-5354.6899999999978
 20
-61.292700000000004
 30
0.0
 70
    32
  0
VERTEX
  5
DC08
  8
0
 10
-5354.6899999999978
 20
-61.292499999999983
 30
0.0
 70
    32
  0
VERTEX
  5
DC09
  8
0
 10
-5354.6899999999978
 20
-61.29229999999999
 30
0.0
 70
    32
  0
VERTEX
  5
DC0A
  8
0
 10
-5354.6899999999978
 20
-61.292099999999998
 30
0.0
 70
    32
  0
VERTEX
  5
DC0B
  8
0
 10
-5354.6899999999978
 20
-61.291899999999998
 30
0.0
 70
    32
  0
VERTEX
  5
DC0C
  8
0
 10
-5354.6899999999978
 20
-61.291699999999999
 30
0.0
 70
    32
  0
VERTEX
  5
DC0D
  8
0
 10
-5354.6800000000003
 20
-61.291499999999999
 30
0.0
 70
    32
  0
VERTEX
  5
DC0E
  8
0
 10
-5354.6800000000003
 20
-61.291299999999993
 30
0.0
 70
    32
  0
VERTEX
  5
DC0F
  8
0
 10
-5354.6800000000003
 20
-61.2911
 30
0.0
 70
    32
  0
VERTEX
  5
DC10
  8
0
 10
-5354.6800000000003
 20
-61.290900000000001
 30
0.0
 70
    32
  0
VERTEX
  5
DC11
  8
0
 10
-5354.6800000000003
 20
-61.290700000000001
 30
0.0
 70
    32
  0
VERTEX
  5
DC12
  8
0
 10
-5354.6800000000003
 20
-61.290500000000002
 30
0.0
 70
    32
  0
VERTEX
  5
DC13
  8
0
 10
-5354.6800000000003
 20
-61.290300000000002
 30
0.0
 70
    32
  0
VERTEX
  5
DC14
  8
0
 10
-5354.6800000000003
 20
-61.290100000000002
 30
0.0
 70
    32
  0
VERTEX
  5
DC15
  8
0
 10
-5354.6700000000001
 20
-61.2898
 30
0.0
 70
    32
  0
VERTEX
  5
DC16
  8
0
 10
-5354.6700000000001
 20
-61.2896
 30
0.0
 70
    32
  0
VERTEX
  5
DC17
  8
0
 10
-5354.6700000000001
 20
-61.289400000000001
 30
0.0
 70
    32
  0
VERTEX
  5
DC18
  8
0
 10
-5354.6700000000001
 20
-61.289200000000001
 30
0.0
 70
    32
  0
VERTEX
  5
DC19
  8
0
 10
-5354.6700000000001
 20
-61.288999999999987
 30
0.0
 70
    32
  0
VERTEX
  5
DC1A
  8
0
 10
-5354.6700000000001
 20
-61.288800000000002
 30
0.0
 70
    32
  0
VERTEX
  5
DC1B
  8
0
 10
-5354.6700000000001
 20
-61.288600000000002
 30
0.0
 70
    32
  0
VERTEX
  5
DC1C
  8
0
 10
-5354.6700000000001
 20
-61.288400000000003
 30
0.0
 70
    32
  0
VERTEX
  5
DC1D
  8
0
 10
-5354.6700000000001
 20
-61.28820000000001
 30
0.0
 70
    32
  0
VERTEX
  5
DC1E
  8
0
 10
-5354.6599999999989
 20
-61.287999999999997
 30
0.0
 70
    32
  0
VERTEX
  5
DC1F
  8
0
 10
-5354.6599999999989
 20
-61.28779999999999
 30
0.0
 70
    32
  0
VERTEX
  5
DC20
  8
0
 10
-5354.6599999999989
 20
-61.287599999999991
 30
0.0
 70
    32
  0
VERTEX
  5
DC21
  8
0
 10
-5354.6599999999989
 20
-61.287399999999998
 30
0.0
 70
    32
  0
VERTEX
  5
DC22
  8
0
 10
-5354.6599999999989
 20
-61.287199999999999
 30
0.0
 70
    32
  0
VERTEX
  5
DC23
  8
0
 10
-5354.6599999999989
 20
-61.286999999999999
 30
0.0
 70
    32
  0
VERTEX
  5
DC24
  8
0
 10
-5354.6599999999989
 20
-61.286799999999999
 30
0.0
 70
    32
  0
VERTEX
  5
DC25
  8
0
 10
-5354.6599999999989
 20
-61.286599999999993
 30
0.0
 70
    32
  0
VERTEX
  5
DC26
  8
0
 10
-5354.6499999999987
 20
-61.2864
 30
0.0
 70
    32
  0
VERTEX
  5
DC27
  8
0
 10
-5354.6499999999987
 20
-61.286200000000001
 30
0.0
 70
    32
  0
VERTEX
  5
DC28
  8
0
 10
-5354.6499999999987
 20
-61.286000000000001
 30
0.0
 70
    32
  0
VERTEX
  5
DC29
  8
0
 10
-5354.6499999999987
 20
-61.285800000000002
 30
0.0
 70
    32
  0
VERTEX
  5
DC2A
  8
0
 10
-5354.6499999999987
 20
-61.285600000000002
 30
0.0
 70
    32
  0
VERTEX
  5
DC2B
  8
0
 10
-5354.6499999999987
 20
-61.285400000000003
 30
0.0
 70
    32
  0
VERTEX
  5
DC2C
  8
0
 10
-5354.6499999999987
 20
-61.285200000000003
 30
0.0
 70
    32
  0
VERTEX
  5
DC2D
  8
0
 10
-5354.6499999999987
 20
-61.284999999999982
 30
0.0
 70
    32
  0
VERTEX
  5
DC2E
  8
0
 10
-5354.6400000000003
 20
-61.28479999999999
 30
0.0
 70
    32
  0
VERTEX
  5
DC2F
  8
0
 10
-5354.6400000000003
 20
-61.284599999999998
 30
0.0
 70
    32
  0
VERTEX
  5
DC30
  8
0
 10
-5354.6400000000003
 20
-61.284399999999998
 30
0.0
 70
    32
  0
VERTEX
  5
DC31
  8
0
 10
-5354.6400000000003
 20
-61.284199999999998
 30
0.0
 70
    32
  0
VERTEX
  5
DC32
  8
0
 10
-5354.6400000000003
 20
-61.283999999999999
 30
0.0
 70
    32
  0
VERTEX
  5
DC33
  8
0
 10
-5354.6400000000003
 20
-61.283799999999992
 30
0.0
 70
    32
  0
VERTEX
  5
DC34
  8
0
 10
-5354.6400000000003
 20
-61.2836
 30
0.0
 70
    32
  0
VERTEX
  5
DC35
  8
0
 10
-5354.6400000000003
 20
-61.2834
 30
0.0
 70
    32
  0
VERTEX
  5
DC36
  8
0
 10
-5354.6300000000001
 20
-61.283200000000001
 30
0.0
 70
    32
  0
VERTEX
  5
DC37
  8
0
 10
-5354.6300000000001
 20
-61.283000000000001
 30
0.0
 70
    32
  0
VERTEX
  5
DC38
  8
0
 10
-5354.6300000000001
 20
-61.282699999999998
 30
0.0
 70
    32
  0
VERTEX
  5
DC39
  8
0
 10
-5354.6300000000001
 20
-61.282499999999999
 30
0.0
 70
    32
  0
VERTEX
  5
DC3A
  8
0
 10
-5354.6300000000001
 20
-61.282299999999999
 30
0.0
 70
    32
  0
VERTEX
  5
DC3B
  8
0
 10
-5354.6300000000001
 20
-61.2821
 30
0.0
 70
    32
  0
VERTEX
  5
DC3C
  8
0
 10
-5354.6300000000001
 20
-61.2819
 30
0.0
 70
    32
  0
VERTEX
  5
DC3D
  8
0
 10
-5354.6300000000001
 20
-61.281700000000001
 30
0.0
 70
    32
  0
VERTEX
  5
DC3E
  8
0
 10
-5354.6199999999999
 20
-61.281500000000001
 30
0.0
 70
    32
  0
VERTEX
  5
DC3F
  8
0
 10
-5354.6199999999999
 20
-61.281300000000002
 30
0.0
 70
    32
  0
VERTEX
  5
DC40
  8
0
 10
-5354.6199999999999
 20
-61.281100000000002
 30
0.0
 70
    32
  0
VERTEX
  5
DC41
  8
0
 10
-5354.6199999999999
 20
-61.280900000000003
 30
0.0
 70
    32
  0
VERTEX
  5
DC42
  8
0
 10
-5354.6199999999999
 20
-61.28070000000001
 30
0.0
 70
    32
  0
VERTEX
  5
DC43
  8
0
 10
-5354.6199999999999
 20
-61.280500000000004
 30
0.0
 70
    32
  0
VERTEX
  5
DC44
  8
0
 10
-5354.6199999999999
 20
-61.280299999999983
 30
0.0
 70
    32
  0
VERTEX
  5
DC45
  8
0
 10
-5354.6199999999999
 20
-61.28009999999999
 30
0.0
 70
    32
  0
VERTEX
  5
DC46
  8
0
 10
-5354.6099999999997
 20
-61.279899999999998
 30
0.0
 70
    32
  0
VERTEX
  5
DC47
  8
0
 10
-5354.6099999999997
 20
-61.279699999999998
 30
0.0
 70
    32
  0
VERTEX
  5
DC48
  8
0
 10
-5354.6099999999997
 20
-61.279499999999999
 30
0.0
 70
    32
  0
VERTEX
  5
DC49
  8
0
 10
-5354.6099999999997
 20
-61.279299999999999
 30
0.0
 70
    32
  0
VERTEX
  5
DC4A
  8
0
 10
-5354.6099999999997
 20
-61.279099999999993
 30
0.0
 70
    32
  0
VERTEX
  5
DC4B
  8
0
 10
-5354.6099999999997
 20
-61.2789
 30
0.0
 70
    32
  0
VERTEX
  5
DC4C
  8
0
 10
-5354.6099999999997
 20
-61.278700000000001
 30
0.0
 70
    32
  0
VERTEX
  5
DC4D
  8
0
 10
-5354.6099999999997
 20
-61.278500000000001
 30
0.0
 70
    32
  0
VERTEX
  5
DC4E
  8
0
 10
-5354.6000000000013
 20
-61.278300000000002
 30
0.0
 70
    32
  0
VERTEX
  5
DC4F
  8
0
 10
-5354.6000000000013
 20
-61.278199999999991
 30
0.0
 70
    32
  0
VERTEX
  5
DC50
  8
0
 10
-5354.6000000000013
 20
-61.277999999999999
 30
0.0
 70
    32
  0
VERTEX
  5
DC51
  8
0
 10
-5354.6000000000013
 20
-61.277799999999999
 30
0.0
 70
    32
  0
VERTEX
  5
DC52
  8
0
 10
-5354.6000000000013
 20
-61.2776
 30
0.0
 70
    32
  0
VERTEX
  5
DC53
  8
0
 10
-5354.6000000000013
 20
-61.2774
 30
0.0
 70
    32
  0
VERTEX
  5
DC54
  8
0
 10
-5354.6000000000013
 20
-61.277200000000001
 30
0.0
 70
    32
  0
VERTEX
  5
DC55
  8
0
 10
-5354.6000000000013
 20
-61.277000000000001
 30
0.0
 70
    32
  0
VERTEX
  5
DC56
  8
0
 10
-5354.5900000000001
 20
-61.276800000000001
 30
0.0
 70
    32
  0
VERTEX
  5
DC57
  8
0
 10
-5354.5900000000001
 20
-61.276600000000002
 30
0.0
 70
    32
  0
VERTEX
  5
DC58
  8
0
 10
-5354.5900000000001
 20
-61.276400000000002
 30
0.0
 70
    32
  0
VERTEX
  5
DC59
  8
0
 10
-5354.5900000000001
 20
-61.276200000000003
 30
0.0
 70
    32
  0
VERTEX
  5
DC5A
  8
0
 10
-5354.5900000000001
 20
-61.27600000000001
 30
0.0
 70
    32
  0
VERTEX
  5
DC5B
  8
0
 10
-5354.5900000000001
 20
-61.275799999999997
 30
0.0
 70
    32
  0
VERTEX
  5
DC5C
  8
0
 10
-5354.5900000000001
 20
-61.27559999999999
 30
0.0
 70
    32
  0
VERTEX
  5
DC5D
  8
0
 10
-5354.5900000000001
 20
-61.275399999999991
 30
0.0
 70
    32
  0
VERTEX
  5
DC5E
  8
0
 10
-5354.5799999999999
 20
-61.275199999999998
 30
0.0
 70
    32
  0
VERTEX
  5
DC5F
  8
0
 10
-5354.5799999999999
 20
-61.274999999999999
 30
0.0
 70
    32
  0
VERTEX
  5
DC60
  8
0
 10
-5354.5799999999999
 20
-61.274799999999999
 30
0.0
 70
    32
  0
VERTEX
  5
DC61
  8
0
 10
-5354.5799999999999
 20
-61.2746
 30
0.0
 70
    32
  0
SEQEND
  5
DC62
  8
0
  0
ARC
  5
DC63
  8
AM_VIS
 10
-5357.2072854432981
 20
-66.426115802135499
 30
0.0
 40
5.7825462644184791
 50
27.016522809641291
 51
62.983477190360567
  0
POLYLINE
  5
DC64
  8
0
 66
     1
 10
0.0
 20
0.0
 30
0.0
 70
     8
  0
VERTEX
  5
DC65
  8
0
 10
-5352.0600000000004
 20
-63.799399999999999
 30
0.0
 70
    32
  0
VERTEX
  5
DC66
  8
0
 10
-5352.0600000000004
 20
-63.800699999999992
 30
0.0
 70
    32
  0
VERTEX
  5
DC67
  8
0
 10
-5352.0600000000004
 20
-63.801900000000003
 30
0.0
 70
    32
  0
VERTEX
  5
DC68
  8
0
 10
-5352.0600000000004
 20
-63.803100000000001
 30
0.0
 70
    32
  0
VERTEX
  5
DC69
  8
0
 10
-5352.0600000000004
 20
-63.804400000000001
 30
0.0
 70
    32
  0
VERTEX
  5
DC6A
  8
0
 10
-5352.0600000000004
 20
-63.805599999999998
 30
0.0
 70
    32
  0
VERTEX
  5
DC6B
  8
0
 10
-5352.0600000000004
 20
-63.806899999999999
 30
0.0
 70
    32
  0
VERTEX
  5
DC6C
  8
0
 10
-5352.0600000000004
 20
-63.808100000000003
 30
0.0
 70
    32
  0
VERTEX
  5
DC6D
  8
0
 10
-5352.0600000000004
 20
-63.809399999999982
 30
0.0
 70
    32
  0
VERTEX
  5
DC6E
  8
0
 10
-5352.0600000000004
 20
-63.810600000000001
 30
0.0
 70
    32
  0
VERTEX
  5
DC6F
  8
0
 10
-5352.0600000000004
 20
-63.811900000000001
 30
0.0
 70
    32
  0
VERTEX
  5
DC70
  8
0
 10
-5352.0600000000004
 20
-63.813099999999999
 30
0.0
 70
    32
  0
VERTEX
  5
DC71
  8
0
 10
-5352.0600000000004
 20
-63.814300000000003
 30
0.0
 70
    32
  0
VERTEX
  5
DC72
  8
0
 10
-5352.0600000000004
 20
-63.815600000000003
 30
0.0
 70
    32
  0
VERTEX
  5
DC73
  8
0
 10
-5352.0600000000004
 20
-63.816800000000001
 30
0.0
 70
    32
  0
VERTEX
  5
DC74
  8
0
 10
-5352.0600000000004
 20
-63.818100000000001
 30
0.0
 70
    32
  0
VERTEX
  5
DC75
  8
0
 10
-5352.0600000000004
 20
-63.819299999999998
 30
0.0
 70
    32
  0
VERTEX
  5
DC76
  8
0
 10
-5352.0600000000004
 20
-63.820599999999999
 30
0.0
 70
    32
  0
VERTEX
  5
DC77
  8
0
 10
-5352.0600000000004
 20
-63.821800000000003
 30
0.0
 70
    32
  0
VERTEX
  5
DC78
  8
0
 10
-5352.0600000000004
 20
-63.823099999999997
 30
0.0
 70
    32
  0
VERTEX
  5
DC79
  8
0
 10
-5352.0600000000004
 20
-63.824300000000001
 30
0.0
 70
    32
  0
VERTEX
  5
DC7A
  8
0
 10
-5352.0600000000004
 20
-63.825499999999998
 30
0.0
 70
    32
  0
VERTEX
  5
DC7B
  8
0
 10
-5352.0600000000004
 20
-63.826799999999999
 30
0.0
 70
    32
  0
VERTEX
  5
DC7C
  8
0
 10
-5352.0600000000004
 20
-63.828000000000003
 30
0.0
 70
    32
  0
VERTEX
  5
DC7D
  8
0
 10
-5352.0600000000004
 20
-63.829300000000003
 30
0.0
 70
    32
  0
VERTEX
  5
DC7E
  8
0
 10
-5352.0600000000004
 20
-63.830500000000001
 30
0.0
 70
    32
  0
VERTEX
  5
DC7F
  8
0
 10
-5352.0600000000004
 20
-63.831800000000001
 30
0.0
 70
    32
  0
VERTEX
  5
DC80
  8
0
 10
-5352.0600000000004
 20
-63.832999999999998
 30
0.0
 70
    32
  0
VERTEX
  5
DC81
  8
0
 10
-5352.0600000000004
 20
-63.834200000000003
 30
0.0
 70
    32
  0
VERTEX
  5
DC82
  8
0
 10
-5352.0600000000004
 20
-63.835500000000003
 30
0.0
 70
    32
  0
VERTEX
  5
DC83
  8
0
 10
-5352.0600000000004
 20
-63.8367
 30
0.0
 70
    32
  0
VERTEX
  5
DC84
  8
0
 10
-5352.0600000000004
 20
-63.838000000000001
 30
0.0
 70
    32
  0
VERTEX
  5
DC85
  8
0
 10
-5352.0600000000004
 20
-63.839199999999991
 30
0.0
 70
    32
  0
VERTEX
  5
DC86
  8
0
 10
-5352.0600000000004
 20
-63.840499999999999
 30
0.0
 70
    32
  0
VERTEX
  5
DC87
  8
0
 10
-5352.0600000000004
 20
-63.84170000000001
 30
0.0
 70
    32
  0
VERTEX
  5
DC88
  8
0
 10
-5352.0600000000004
 20
-63.8429
 30
0.0
 70
    32
  0
VERTEX
  5
DC89
  8
0
 10
-5352.0600000000004
 20
-63.844200000000001
 30
0.0
 70
    32
  0
VERTEX
  5
DC8A
  8
0
 10
-5352.0600000000004
 20
-63.845399999999998
 30
0.0
 70
    32
  0
VERTEX
  5
DC8B
  8
0
 10
-5352.0600000000004
 20
-63.846699999999991
 30
0.0
 70
    32
  0
VERTEX
  5
DC8C
  8
0
 10
-5352.0600000000004
 20
-63.847900000000003
 30
0.0
 70
    32
  0
VERTEX
  5
DC8D
  8
0
 10
-5352.0600000000004
 20
-63.84920000000001
 30
0.0
 70
    32
  0
VERTEX
  5
DC8E
  8
0
 10
-5352.0600000000004
 20
-63.8504
 30
0.0
 70
    32
  0
VERTEX
  5
DC8F
  8
0
 10
-5352.0600000000004
 20
-63.851599999999991
 30
0.0
 70
    32
  0
VERTEX
  5
DC90
  8
0
 10
-5352.0600000000004
 20
-63.852899999999998
 30
0.0
 70
    32
  0
VERTEX
  5
DC91
  8
0
 10
-5352.0600000000004
 20
-63.854100000000003
 30
0.0
 70
    32
  0
VERTEX
  5
DC92
  8
0
 10
-5352.0600000000004
 20
-63.855400000000003
 30
0.0
 70
    32
  0
VERTEX
  5
DC93
  8
0
 10
-5352.0600000000004
 20
-63.8566
 30
0.0
 70
    32
  0
VERTEX
  5
DC94
  8
0
 10
-5352.0699999999997
 20
-63.857799999999997
 30
0.0
 70
    32
  0
VERTEX
  5
DC95
  8
0
 10
-5352.0699999999997
 20
-63.859099999999991
 30
0.0
 70
    32
  0
VERTEX
  5
DC96
  8
0
 10
-5352.0699999999997
 20
-63.860300000000002
 30
0.0
 70
    32
  0
VERTEX
  5
DC97
  8
0
 10
-5352.0699999999997
 20
-63.861600000000003
 30
0.0
 70
    32
  0
VERTEX
  5
DC98
  8
0
 10
-5352.0699999999997
 20
-63.8628
 30
0.0
 70
    32
  0
VERTEX
  5
DC99
  8
0
 10
-5352.0699999999997
 20
-63.864100000000001
 30
0.0
 70
    32
  0
VERTEX
  5
DC9A
  8
0
 10
-5352.0699999999997
 20
-63.865299999999998
 30
0.0
 70
    32
  0
VERTEX
  5
DC9B
  8
0
 10
-5352.0699999999997
 20
-63.866500000000002
 30
0.0
 70
    32
  0
VERTEX
  5
DC9C
  8
0
 10
-5352.0699999999997
 20
-63.867800000000003
 30
0.0
 70
    32
  0
VERTEX
  5
DC9D
  8
0
 10
-5352.0699999999997
 20
-63.869
 30
0.0
 70
    32
  0
VERTEX
  5
DC9E
  8
0
 10
-5352.0699999999997
 20
-63.8703
 30
0.0
 70
    32
  0
VERTEX
  5
DC9F
  8
0
 10
-5352.0699999999997
 20
-63.871499999999997
 30
0.0
 70
    32
  0
VERTEX
  5
DCA0
  8
0
 10
-5352.0699999999997
 20
-63.872700000000002
 30
0.0
 70
    32
  0
VERTEX
  5
DCA1
  8
0
 10
-5352.0699999999997
 20
-63.873999999999988
 30
0.0
 70
    32
  0
VERTEX
  5
DCA2
  8
0
 10
-5352.0699999999997
 20
-63.8752
 30
0.0
 70
    32
  0
VERTEX
  5
DCA3
  8
0
 10
-5352.0699999999997
 20
-63.8765
 30
0.0
 70
    32
  0
VERTEX
  5
DCA4
  8
0
 10
-5352.0699999999997
 20
-63.87769999999999
 30
0.0
 70
    32
  0
VERTEX
  5
DCA5
  8
0
 10
-5352.0699999999997
 20
-63.878900000000002
 30
0.0
 70
    32
  0
VERTEX
  5
DCA6
  8
0
 10
-5352.0699999999997
 20
-63.880200000000002
 30
0.0
 70
    32
  0
VERTEX
  5
DCA7
  8
0
 10
-5352.0699999999997
 20
-63.881399999999992
 30
0.0
 70
    32
  0
VERTEX
  5
DCA8
  8
0
 10
-5352.0699999999997
 20
-63.882599999999982
 30
0.0
 70
    32
  0
VERTEX
  5
DCA9
  8
0
 10
-5352.0699999999997
 20
-63.883899999999997
 30
0.0
 70
    32
  0
VERTEX
  5
DCAA
  8
0
 10
-5352.0699999999997
 20
-63.885100000000001
 30
0.0
 70
    32
  0
VERTEX
  5
DCAB
  8
0
 10
-5352.0699999999997
 20
-63.886400000000002
 30
0.0
 70
    32
  0
VERTEX
  5
DCAC
  8
0
 10
-5352.0699999999997
 20
-63.887599999999999
 30
0.0
 70
    32
  0
VERTEX
  5
DCAD
  8
0
 10
-5352.0699999999997
 20
-63.888800000000003
 30
0.0
 70
    32
  0
VERTEX
  5
DCAE
  8
0
 10
-5352.0699999999997
 20
-63.890099999999983
 30
0.0
 70
    32
  0
VERTEX
  5
DCAF
  8
0
 10
-5352.0699999999997
 20
-63.891300000000001
 30
0.0
 70
    32
  0
VERTEX
  5
DCB0
  8
0
 10
-5352.0699999999997
 20
-63.892600000000002
 30
0.0
 70
    32
  0
VERTEX
  5
DCB1
  8
0
 10
-5352.0699999999997
 20
-63.893799999999999
 30
0.0
 70
    32
  0
VERTEX
  5
DCB2
  8
0
 10
-5352.0699999999997
 20
-63.895000000000003
 30
0.0
 70
    32
  0
VERTEX
  5
DCB3
  8
0
 10
-5352.0699999999997
 20
-63.896299999999997
 30
0.0
 70
    32
  0
VERTEX
  5
DCB4
  8
0
 10
-5352.0699999999997
 20
-63.897500000000001
 30
0.0
 70
    32
  0
VERTEX
  5
DCB5
  8
0
 10
-5352.0699999999997
 20
-63.898699999999998
 30
0.0
 70
    32
  0
VERTEX
  5
DCB6
  8
0
 10
-5352.0699999999997
 20
-63.899999999999999
 30
0.0
 70
    32
  0
VERTEX
  5
DCB7
  8
0
 10
-5352.0699999999997
 20
-63.901200000000003
 30
0.0
 70
    32
  0
VERTEX
  5
DCB8
  8
0
 10
-5352.0699999999997
 20
-63.902500000000003
 30
0.0
 70
    32
  0
VERTEX
  5
DCB9
  8
0
 10
-5352.0699999999997
 20
-63.903700000000001
 30
0.0
 70
    32
  0
VERTEX
  5
DCBA
  8
0
 10
-5352.0699999999997
 20
-63.904899999999991
 30
0.0
 70
    32
  0
VERTEX
  5
DCBB
  8
0
 10
-5352.0699999999997
 20
-63.906199999999998
 30
0.0
 70
    32
  0
VERTEX
  5
DCBC
  8
0
 10
-5352.0699999999997
 20
-63.907400000000003
 30
0.0
 70
    32
  0
VERTEX
  5
DCBD
  8
0
 10
-5352.0699999999997
 20
-63.908599999999993
 30
0.0
 70
    32
  0
VERTEX
  5
DCBE
  8
0
 10
-5352.0699999999997
 20
-63.9099
 30
0.0
 70
    32
  0
VERTEX
  5
DCBF
  8
0
 10
-5352.0699999999997
 20
-63.911099999999998
 30
0.0
 70
    32
  0
VERTEX
  5
DCC0
  8
0
 10
-5352.0699999999997
 20
-63.912399999999991
 30
0.0
 70
    32
  0
VERTEX
  5
DCC1
  8
0
 10
-5352.0699999999997
 20
-63.913600000000002
 30
0.0
 70
    32
  0
VERTEX
  5
DCC2
  8
0
 10
-5352.0699999999997
 20
-63.9148
 30
0.0
 70
    32
  0
VERTEX
  5
DCC3
  8
0
 10
-5352.0699999999997
 20
-63.9161
 30
0.0
 70
    32
  0
VERTEX
  5
DCC4
  8
0
 10
-5352.0699999999997
 20
-63.91729999999999
 30
0.0
 70
    32
  0
SEQEND
  5
DCC5
  8
0
  0
ARC
  5
DCC6
  8
AM_VIS
 10
-5357.2072854432981
 20
-66.426115802135499
 30
0.0
 40
5.7127313220924094
 50
63.949628865671457
 51
26.050371134329811
  0
POLYLINE
  5
DCC7
  8
0
 66
     1
 10
0.0
 20
0.0
 30
0.0
 70
     8
  0
VERTEX
  5
DCC8
  8
0
 10
-5445.8400000000001
 20
-63.91729999999999
 30
0.0
 70
    32
  0
VERTEX
  5
DCC9
  8
0
 10
-5445.8400000000001
 20
-63.9161
 30
0.0
 70
    32
  0
VERTEX
  5
DCCA
  8
0
 10
-5445.8400000000001
 20
-63.9148
 30
0.0
 70
    32
  0
VERTEX
  5
DCCB
  8
0
 10
-5445.8400000000001
 20
-63.913600000000002
 30
0.0
 70
    32
  0
VERTEX
  5
DCCC
  8
0
 10
-5445.8400000000001
 20
-63.912399999999991
 30
0.0
 70
    32
  0
VERTEX
  5
DCCD
  8
0
 10
-5445.8400000000001
 20
-63.911099999999998
 30
0.0
 70
    32
  0
VERTEX
  5
DCCE
  8
0
 10
-5445.8400000000001
 20
-63.9099
 30
0.0
 70
    32
  0
VERTEX
  5
DCCF
  8
0
 10
-5445.8400000000001
 20
-63.908599999999993
 30
0.0
 70
    32
  0
VERTEX
  5
DCD0
  8
0
 10
-5445.8400000000001
 20
-63.907400000000003
 30
0.0
 70
    32
  0
VERTEX
  5
DCD1
  8
0
 10
-5445.8400000000001
 20
-63.906199999999998
 30
0.0
 70
    32
  0
VERTEX
  5
DCD2
  8
0
 10
-5445.8400000000001
 20
-63.904899999999991
 30
0.0
 70
    32
  0
VERTEX
  5
DCD3
  8
0
 10
-5445.8400000000001
 20
-63.903700000000001
 30
0.0
 70
    32
  0
VERTEX
  5
DCD4
  8
0
 10
-5445.8400000000001
 20
-63.902500000000003
 30
0.0
 70
    32
  0
VERTEX
  5
DCD5
  8
0
 10
-5445.8400000000001
 20
-63.901200000000003
 30
0.0
 70
    32
  0
VERTEX
  5
DCD6
  8
0
 10
-5445.8400000000001
 20
-63.899999999999999
 30
0.0
 70
    32
  0
VERTEX
  5
DCD7
  8
0
 10
-5445.8400000000001
 20
-63.898699999999998
 30
0.0
 70
    32
  0
VERTEX
  5
DCD8
  8
0
 10
-5445.8400000000001
 20
-63.897500000000001
 30
0.0
 70
    32
  0
VERTEX
  5
DCD9
  8
0
 10
-5445.8400000000001
 20
-63.896299999999997
 30
0.0
 70
    32
  0
VERTEX
  5
DCDA
  8
0
 10
-5445.8400000000001
 20
-63.895000000000003
 30
0.0
 70
    32
  0
VERTEX
  5
DCDB
  8
0
 10
-5445.8400000000001
 20
-63.893799999999999
 30
0.0
 70
    32
  0
VERTEX
  5
DCDC
  8
0
 10
-5445.8400000000001
 20
-63.892600000000002
 30
0.0
 70
    32
  0
VERTEX
  5
DCDD
  8
0
 10
-5445.8400000000001
 20
-63.891300000000001
 30
0.0
 70
    32
  0
VERTEX
  5
DCDE
  8
0
 10
-5445.8400000000001
 20
-63.890099999999983
 30
0.0
 70
    32
  0
VERTEX
  5
DCDF
  8
0
 10
-5445.8400000000001
 20
-63.888800000000003
 30
0.0
 70
    32
  0
VERTEX
  5
DCE0
  8
0
 10
-5445.8400000000001
 20
-63.887599999999999
 30
0.0
 70
    32
  0
VERTEX
  5
DCE1
  8
0
 10
-5445.8400000000001
 20
-63.886400000000002
 30
0.0
 70
    32
  0
VERTEX
  5
DCE2
  8
0
 10
-5445.8400000000001
 20
-63.885100000000001
 30
0.0
 70
    32
  0
VERTEX
  5
DCE3
  8
0
 10
-5445.8500000000004
 20
-63.883899999999997
 30
0.0
 70
    32
  0
VERTEX
  5
DCE4
  8
0
 10
-5445.8500000000004
 20
-63.882599999999982
 30
0.0
 70
    32
  0
VERTEX
  5
DCE5
  8
0
 10
-5445.8500000000004
 20
-63.881399999999992
 30
0.0
 70
    32
  0
VERTEX
  5
DCE6
  8
0
 10
-5445.8500000000004
 20
-63.880200000000002
 30
0.0
 70
    32
  0
VERTEX
  5
DCE7
  8
0
 10
-5445.8500000000004
 20
-63.878900000000002
 30
0.0
 70
    32
  0
VERTEX
  5
DCE8
  8
0
 10
-5445.8500000000004
 20
-63.87769999999999
 30
0.0
 70
    32
  0
VERTEX
  5
DCE9
  8
0
 10
-5445.8500000000004
 20
-63.8765
 30
0.0
 70
    32
  0
VERTEX
  5
DCEA
  8
0
 10
-5445.8500000000004
 20
-63.8752
 30
0.0
 70
    32
  0
VERTEX
  5
DCEB
  8
0
 10
-5445.8500000000004
 20
-63.873999999999988
 30
0.0
 70
    32
  0
VERTEX
  5
DCEC
  8
0
 10
-5445.8500000000004
 20
-63.872700000000002
 30
0.0
 70
    32
  0
VERTEX
  5
DCED
  8
0
 10
-5445.8500000000004
 20
-63.871499999999997
 30
0.0
 70
    32
  0
VERTEX
  5
DCEE
  8
0
 10
-5445.8500000000004
 20
-63.8703
 30
0.0
 70
    32
  0
VERTEX
  5
DCEF
  8
0
 10
-5445.8500000000004
 20
-63.869
 30
0.0
 70
    32
  0
VERTEX
  5
DCF0
  8
0
 10
-5445.8500000000004
 20
-63.867800000000003
 30
0.0
 70
    32
  0
VERTEX
  5
DCF1
  8
0
 10
-5445.8500000000004
 20
-63.866500000000002
 30
0.0
 70
    32
  0
VERTEX
  5
DCF2
  8
0
 10
-5445.8500000000004
 20
-63.865299999999998
 30
0.0
 70
    32
  0
VERTEX
  5
DCF3
  8
0
 10
-5445.8500000000004
 20
-63.864100000000001
 30
0.0
 70
    32
  0
VERTEX
  5
DCF4
  8
0
 10
-5445.8500000000004
 20
-63.8628
 30
0.0
 70
    32
  0
VERTEX
  5
DCF5
  8
0
 10
-5445.8500000000004
 20
-63.861600000000003
 30
0.0
 70
    32
  0
VERTEX
  5
DCF6
  8
0
 10
-5445.8500000000004
 20
-63.860300000000002
 30
0.0
 70
    32
  0
VERTEX
  5
DCF7
  8
0
 10
-5445.8500000000004
 20
-63.859099999999991
 30
0.0
 70
    32
  0
VERTEX
  5
DCF8
  8
0
 10
-5445.8500000000004
 20
-63.857799999999997
 30
0.0
 70
    32
  0
VERTEX
  5
DCF9
  8
0
 10
-5445.8500000000004
 20
-63.8566
 30
0.0
 70
    32
  0
VERTEX
  5
DCFA
  8
0
 10
-5445.8500000000004
 20
-63.855400000000003
 30
0.0
 70
    32
  0
VERTEX
  5
DCFB
  8
0
 10
-5445.8500000000004
 20
-63.854100000000003
 30
0.0
 70
    32
  0
VERTEX
  5
DCFC
  8
0
 10
-5445.8500000000004
 20
-63.852899999999998
 30
0.0
 70
    32
  0
VERTEX
  5
DCFD
  8
0
 10
-5445.8500000000004
 20
-63.851599999999991
 30
0.0
 70
    32
  0
VERTEX
  5
DCFE
  8
0
 10
-5445.8500000000004
 20
-63.8504
 30
0.0
 70
    32
  0
VERTEX
  5
DCFF
  8
0
 10
-5445.8500000000004
 20
-63.84920000000001
 30
0.0
 70
    32
  0
VERTEX
  5
DD00
  8
0
 10
-5445.8500000000004
 20
-63.847900000000003
 30
0.0
 70
    32
  0
VERTEX
  5
DD01
  8
0
 10
-5445.8500000000004
 20
-63.846699999999991
 30
0.0
 70
    32
  0
VERTEX
  5
DD02
  8
0
 10
-5445.8500000000004
 20
-63.845399999999998
 30
0.0
 70
    32
  0
VERTEX
  5
DD03
  8
0
 10
-5445.8500000000004
 20
-63.844200000000001
 30
0.0
 70
    32
  0
VERTEX
  5
DD04
  8
0
 10
-5445.8500000000004
 20
-63.8429
 30
0.0
 70
    32
  0
VERTEX
  5
DD05
  8
0
 10
-5445.8500000000004
 20
-63.84170000000001
 30
0.0
 70
    32
  0
VERTEX
  5
DD06
  8
0
 10
-5445.8500000000004
 20
-63.840499999999999
 30
0.0
 70
    32
  0
VERTEX
  5
DD07
  8
0
 10
-5445.8500000000004
 20
-63.839199999999991
 30
0.0
 70
    32
  0
VERTEX
  5
DD08
  8
0
 10
-5445.8500000000004
 20
-63.838000000000001
 30
0.0
 70
    32
  0
VERTEX
  5
DD09
  8
0
 10
-5445.8500000000004
 20
-63.8367
 30
0.0
 70
    32
  0
VERTEX
  5
DD0A
  8
0
 10
-5445.8500000000004
 20
-63.835500000000003
 30
0.0
 70
    32
  0
VERTEX
  5
DD0B
  8
0
 10
-5445.8500000000004
 20
-63.834200000000003
 30
0.0
 70
    32
  0
VERTEX
  5
DD0C
  8
0
 10
-5445.8500000000004
 20
-63.832999999999998
 30
0.0
 70
    32
  0
VERTEX
  5
DD0D
  8
0
 10
-5445.8500000000004
 20
-63.831800000000001
 30
0.0
 70
    32
  0
VERTEX
  5
DD0E
  8
0
 10
-5445.8500000000004
 20
-63.830500000000001
 30
0.0
 70
    32
  0
VERTEX
  5
DD0F
  8
0
 10
-5445.8500000000004
 20
-63.829300000000003
 30
0.0
 70
    32
  0
VERTEX
  5
DD10
  8
0
 10
-5445.8500000000004
 20
-63.828000000000003
 30
0.0
 70
    32
  0
VERTEX
  5
DD11
  8
0
 10
-5445.8500000000004
 20
-63.826799999999999
 30
0.0
 70
    32
  0
VERTEX
  5
DD12
  8
0
 10
-5445.8500000000004
 20
-63.825499999999998
 30
0.0
 70
    32
  0
VERTEX
  5
DD13
  8
0
 10
-5445.8500000000004
 20
-63.824300000000001
 30
0.0
 70
    32
  0
VERTEX
  5
DD14
  8
0
 10
-5445.8599999999988
 20
-63.823099999999997
 30
0.0
 70
    32
  0
VERTEX
  5
DD15
  8
0
 10
-5445.8599999999988
 20
-63.821800000000003
 30
0.0
 70
    32
  0
VERTEX
  5
DD16
  8
0
 10
-5445.8599999999988
 20
-63.820599999999999
 30
0.0
 70
    32
  0
VERTEX
  5
DD17
  8
0
 10
-5445.8599999999988
 20
-63.819299999999998
 30
0.0
 70
    32
  0
VERTEX
  5
DD18
  8
0
 10
-5445.8599999999988
 20
-63.818100000000001
 30
0.0
 70
    32
  0
VERTEX
  5
DD19
  8
0
 10
-5445.8599999999988
 20
-63.816800000000001
 30
0.0
 70
    32
  0
VERTEX
  5
DD1A
  8
0
 10
-5445.8599999999988
 20
-63.815600000000003
 30
0.0
 70
    32
  0
VERTEX
  5
DD1B
  8
0
 10
-5445.8599999999988
 20
-63.814300000000003
 30
0.0
 70
    32
  0
VERTEX
  5
DD1C
  8
0
 10
-5445.8599999999988
 20
-63.813099999999999
 30
0.0
 70
    32
  0
VERTEX
  5
DD1D
  8
0
 10
-5445.8599999999988
 20
-63.811900000000001
 30
0.0
 70
    32
  0
VERTEX
  5
DD1E
  8
0
 10
-5445.8599999999988
 20
-63.810600000000001
 30
0.0
 70
    32
  0
VERTEX
  5
DD1F
  8
0
 10
-5445.8599999999988
 20
-63.809399999999982
 30
0.0
 70
    32
  0
VERTEX
  5
DD20
  8
0
 10
-5445.8599999999988
 20
-63.808100000000003
 30
0.0
 70
    32
  0
VERTEX
  5
DD21
  8
0
 10
-5445.8599999999988
 20
-63.806899999999999
 30
0.0
 70
    32
  0
VERTEX
  5
DD22
  8
0
 10
-5445.8599999999988
 20
-63.805599999999998
 30
0.0
 70
    32
  0
VERTEX
  5
DD23
  8
0
 10
-5445.8599999999988
 20
-63.804400000000001
 30
0.0
 70
    32
  0
VERTEX
  5
DD24
  8
0
 10
-5445.8599999999988
 20
-63.803100000000001
 30
0.0
 70
    32
  0
VERTEX
  5
DD25
  8
0
 10
-5445.8599999999988
 20
-63.801900000000003
 30
0.0
 70
    32
  0
VERTEX
  5
DD26
  8
0
 10
-5445.8599999999988
 20
-63.800699999999992
 30
0.0
 70
    32
  0
VERTEX
  5
DD27
  8
0
 10
-5445.8599999999988
 20
-63.799399999999999
 30
0.0
 70
    32
  0
SEQEND
  5
DD28
  8
0
  0
ARC
  5
DD29
  8
AM_VIS
 10
-5440.7072854432963
 20
-66.426115802135499
 30
0.0
 40
5.7825462644184791
 50
117.01652280964041
 51
152.98347719035979
  0
POLYLINE
  5
DD2A
  8
0
 66
     1
 10
0.0
 20
0.0
 30
0.0
 70
     8
  0
VERTEX
  5
DD2B
  8
0
 10
-5443.3299999999999
 20
-61.2746
 30
0.0
 70
    32
  0
VERTEX
  5
DD2C
  8
0
 10
-5443.3299999999999
 20
-61.274799999999999
 30
0.0
 70
    32
  0
VERTEX
  5
DD2D
  8
0
 10
-5443.3299999999999
 20
-61.274999999999999
 30
0.0
 70
    32
  0
VERTEX
  5
DD2E
  8
0
 10
-5443.3299999999999
 20
-61.275199999999998
 30
0.0
 70
    32
  0
VERTEX
  5
DD2F
  8
0
 10
-5443.3299999999999
 20
-61.275399999999991
 30
0.0
 70
    32
  0
VERTEX
  5
DD30
  8
0
 10
-5443.3299999999999
 20
-61.27559999999999
 30
0.0
 70
    32
  0
VERTEX
  5
DD31
  8
0
 10
-5443.3299999999999
 20
-61.275799999999997
 30
0.0
 70
    32
  0
VERTEX
  5
DD32
  8
0
 10
-5443.3299999999999
 20
-61.27600000000001
 30
0.0
 70
    32
  0
VERTEX
  5
DD33
  8
0
 10
-5443.3199999999988
 20
-61.276200000000003
 30
0.0
 70
    32
  0
VERTEX
  5
DD34
  8
0
 10
-5443.3199999999988
 20
-61.276400000000002
 30
0.0
 70
    32
  0
VERTEX
  5
DD35
  8
0
 10
-5443.3199999999988
 20
-61.276600000000002
 30
0.0
 70
    32
  0
VERTEX
  5
DD36
  8
0
 10
-5443.3199999999988
 20
-61.276800000000001
 30
0.0
 70
    32
  0
VERTEX
  5
DD37
  8
0
 10
-5443.3199999999988
 20
-61.277000000000001
 30
0.0
 70
    32
  0
VERTEX
  5
DD38
  8
0
 10
-5443.3199999999988
 20
-61.277200000000001
 30
0.0
 70
    32
  0
VERTEX
  5
DD39
  8
0
 10
-5443.3199999999988
 20
-61.2774
 30
0.0
 70
    32
  0
VERTEX
  5
DD3A
  8
0
 10
-5443.3199999999988
 20
-61.2776
 30
0.0
 70
    32
  0
VERTEX
  5
DD3B
  8
0
 10
-5443.3100000000004
 20
-61.277799999999999
 30
0.0
 70
    32
  0
VERTEX
  5
DD3C
  8
0
 10
-5443.3100000000004
 20
-61.277999999999999
 30
0.0
 70
    32
  0
VERTEX
  5
DD3D
  8
0
 10
-5443.3100000000004
 20
-61.278199999999991
 30
0.0
 70
    32
  0
VERTEX
  5
DD3E
  8
0
 10
-5443.3100000000004
 20
-61.278300000000002
 30
0.0
 70
    32
  0
VERTEX
  5
DD3F
  8
0
 10
-5443.3100000000004
 20
-61.278500000000001
 30
0.0
 70
    32
  0
VERTEX
  5
DD40
  8
0
 10
-5443.3100000000004
 20
-61.278700000000001
 30
0.0
 70
    32
  0
VERTEX
  5
DD41
  8
0
 10
-5443.3100000000004
 20
-61.2789
 30
0.0
 70
    32
  0
VERTEX
  5
DD42
  8
0
 10
-5443.3100000000004
 20
-61.279099999999993
 30
0.0
 70
    32
  0
VERTEX
  5
DD43
  8
0
 10
-5443.3000000000002
 20
-61.279299999999999
 30
0.0
 70
    32
  0
VERTEX
  5
DD44
  8
0
 10
-5443.3000000000002
 20
-61.279499999999999
 30
0.0
 70
    32
  0
VERTEX
  5
DD45
  8
0
 10
-5443.3000000000002
 20
-61.279699999999998
 30
0.0
 70
    32
  0
VERTEX
  5
DD46
  8
0
 10
-5443.3000000000002
 20
-61.279899999999998
 30
0.0
 70
    32
  0
VERTEX
  5
DD47
  8
0
 10
-5443.3000000000002
 20
-61.28009999999999
 30
0.0
 70
    32
  0
VERTEX
  5
DD48
  8
0
 10
-5443.3000000000002
 20
-61.280299999999983
 30
0.0
 70
    32
  0
VERTEX
  5
DD49
  8
0
 10
-5443.3000000000002
 20
-61.280500000000004
 30
0.0
 70
    32
  0
VERTEX
  5
DD4A
  8
0
 10
-5443.3000000000002
 20
-61.28070000000001
 30
0.0
 70
    32
  0
VERTEX
  5
DD4B
  8
0
 10
-5443.2900000000009
 20
-61.280900000000003
 30
0.0
 70
    32
  0
VERTEX
  5
DD4C
  8
0
 10
-5443.2900000000009
 20
-61.281100000000002
 30
0.0
 70
    32
  0
VERTEX
  5
DD4D
  8
0
 10
-5443.2900000000009
 20
-61.281300000000002
 30
0.0
 70
    32
  0
VERTEX
  5
DD4E
  8
0
 10
-5443.2900000000009
 20
-61.281500000000001
 30
0.0
 70
    32
  0
VERTEX
  5
DD4F
  8
0
 10
-5443.2900000000009
 20
-61.281700000000001
 30
0.0
 70
    32
  0
VERTEX
  5
DD50
  8
0
 10
-5443.2900000000009
 20
-61.2819
 30
0.0
 70
    32
  0
VERTEX
  5
DD51
  8
0
 10
-5443.2900000000009
 20
-61.2821
 30
0.0
 70
    32
  0
VERTEX
  5
DD52
  8
0
 10
-5443.2900000000009
 20
-61.282299999999999
 30
0.0
 70
    32
  0
VERTEX
  5
DD53
  8
0
 10
-5443.2799999999997
 20
-61.282499999999999
 30
0.0
 70
    32
  0
VERTEX
  5
DD54
  8
0
 10
-5443.2799999999997
 20
-61.282699999999998
 30
0.0
 70
    32
  0
VERTEX
  5
DD55
  8
0
 10
-5443.2799999999997
 20
-61.283000000000001
 30
0.0
 70
    32
  0
VERTEX
  5
DD56
  8
0
 10
-5443.2799999999997
 20
-61.283200000000001
 30
0.0
 70
    32
  0
VERTEX
  5
DD57
  8
0
 10
-5443.2799999999997
 20
-61.2834
 30
0.0
 70
    32
  0
VERTEX
  5
DD58
  8
0
 10
-5443.2799999999997
 20
-61.2836
 30
0.0
 70
    32
  0
VERTEX
  5
DD59
  8
0
 10
-5443.2799999999997
 20
-61.283799999999992
 30
0.0
 70
    32
  0
VERTEX
  5
DD5A
  8
0
 10
-5443.2799999999997
 20
-61.283999999999999
 30
0.0
 70
    32
  0
VERTEX
  5
DD5B
  8
0
 10
-5443.2700000000004
 20
-61.284199999999998
 30
0.0
 70
    32
  0
VERTEX
  5
DD5C
  8
0
 10
-5443.2700000000004
 20
-61.284399999999998
 30
0.0
 70
    32
  0
VERTEX
  5
DD5D
  8
0
 10
-5443.2700000000004
 20
-61.284599999999998
 30
0.0
 70
    32
  0
VERTEX
  5
DD5E
  8
0
 10
-5443.2700000000004
 20
-61.28479999999999
 30
0.0
 70
    32
  0
VERTEX
  5
DD5F
  8
0
 10
-5443.2700000000004
 20
-61.284999999999982
 30
0.0
 70
    32
  0
VERTEX
  5
DD60
  8
0
 10
-5443.2700000000004
 20
-61.285200000000003
 30
0.0
 70
    32
  0
VERTEX
  5
DD61
  8
0
 10
-5443.2700000000004
 20
-61.285400000000003
 30
0.0
 70
    32
  0
VERTEX
  5
DD62
  8
0
 10
-5443.2700000000004
 20
-61.285600000000002
 30
0.0
 70
    32
  0
VERTEX
  5
DD63
  8
0
 10
-5443.2600000000002
 20
-61.285800000000002
 30
0.0
 70
    32
  0
VERTEX
  5
DD64
  8
0
 10
-5443.2600000000002
 20
-61.286000000000001
 30
0.0
 70
    32
  0
VERTEX
  5
DD65
  8
0
 10
-5443.2600000000002
 20
-61.286200000000001
 30
0.0
 70
    32
  0
VERTEX
  5
DD66
  8
0
 10
-5443.2600000000002
 20
-61.2864
 30
0.0
 70
    32
  0
VERTEX
  5
DD67
  8
0
 10
-5443.2600000000002
 20
-61.286599999999993
 30
0.0
 70
    32
  0
VERTEX
  5
DD68
  8
0
 10
-5443.2600000000002
 20
-61.286799999999999
 30
0.0
 70
    32
  0
VERTEX
  5
DD69
  8
0
 10
-5443.2600000000002
 20
-61.286999999999999
 30
0.0
 70
    32
  0
VERTEX
  5
DD6A
  8
0
 10
-5443.2600000000002
 20
-61.287199999999999
 30
0.0
 70
    32
  0
VERTEX
  5
DD6B
  8
0
 10
-5443.25
 20
-61.287399999999998
 30
0.0
 70
    32
  0
VERTEX
  5
DD6C
  8
0
 10
-5443.25
 20
-61.287599999999991
 30
0.0
 70
    32
  0
VERTEX
  5
DD6D
  8
0
 10
-5443.25
 20
-61.28779999999999
 30
0.0
 70
    32
  0
VERTEX
  5
DD6E
  8
0
 10
-5443.25
 20
-61.287999999999997
 30
0.0
 70
    32
  0
VERTEX
  5
DD6F
  8
0
 10
-5443.25
 20
-61.28820000000001
 30
0.0
 70
    32
  0
VERTEX
  5
DD70
  8
0
 10
-5443.25
 20
-61.288400000000003
 30
0.0
 70
    32
  0
VERTEX
  5
DD71
  8
0
 10
-5443.25
 20
-61.288600000000002
 30
0.0
 70
    32
  0
VERTEX
  5
DD72
  8
0
 10
-5443.25
 20
-61.288800000000002
 30
0.0
 70
    32
  0
VERTEX
  5
DD73
  8
0
 10
-5443.2399999999998
 20
-61.288999999999987
 30
0.0
 70
    32
  0
VERTEX
  5
DD74
  8
0
 10
-5443.2399999999998
 20
-61.289200000000001
 30
0.0
 70
    32
  0
VERTEX
  5
DD75
  8
0
 10
-5443.2399999999998
 20
-61.289400000000001
 30
0.0
 70
    32
  0
VERTEX
  5
DD76
  8
0
 10
-5443.2399999999998
 20
-61.2896
 30
0.0
 70
    32
  0
VERTEX
  5
DD77
  8
0
 10
-5443.2399999999998
 20
-61.2898
 30
0.0
 70
    32
  0
VERTEX
  5
DD78
  8
0
 10
-5443.2399999999998
 20
-61.290100000000002
 30
0.0
 70
    32
  0
VERTEX
  5
DD79
  8
0
 10
-5443.2399999999998
 20
-61.290300000000002
 30
0.0
 70
    32
  0
VERTEX
  5
DD7A
  8
0
 10
-5443.2399999999998
 20
-61.290500000000002
 30
0.0
 70
    32
  0
VERTEX
  5
DD7B
  8
0
 10
-5443.2299999999987
 20
-61.290700000000001
 30
0.0
 70
    32
  0
VERTEX
  5
DD7C
  8
0
 10
-5443.2299999999987
 20
-61.290900000000001
 30
0.0
 70
    32
  0
VERTEX
  5
DD7D
  8
0
 10
-5443.2299999999987
 20
-61.2911
 30
0.0
 70
    32
  0
VERTEX
  5
DD7E
  8
0
 10
-5443.2299999999987
 20
-61.291299999999993
 30
0.0
 70
    32
  0
VERTEX
  5
DD7F
  8
0
 10
-5443.2299999999987
 20
-61.291499999999999
 30
0.0
 70
    32
  0
VERTEX
  5
DD80
  8
0
 10
-5443.2299999999987
 20
-61.291699999999999
 30
0.0
 70
    32
  0
VERTEX
  5
DD81
  8
0
 10
-5443.2299999999987
 20
-61.291899999999998
 30
0.0
 70
    32
  0
VERTEX
  5
DD82
  8
0
 10
-5443.2299999999987
 20
-61.292099999999998
 30
0.0
 70
    32
  0
VERTEX
  5
DD83
  8
0
 10
-5443.2200000000003
 20
-61.29229999999999
 30
0.0
 70
    32
  0
VERTEX
  5
DD84
  8
0
 10
-5443.2200000000003
 20
-61.292499999999983
 30
0.0
 70
    32
  0
VERTEX
  5
DD85
  8
0
 10
-5443.2200000000003
 20
-61.292700000000004
 30
0.0
 70
    32
  0
VERTEX
  5
DD86
  8
0
 10
-5443.2200000000003
 20
-61.29290000000001
 30
0.0
 70
    32
  0
VERTEX
  5
DD87
  8
0
 10
-5443.2200000000003
 20
-61.293100000000003
 30
0.0
 70
    32
  0
VERTEX
  5
DD88
  8
0
 10
-5443.2200000000003
 20
-61.293300000000002
 30
0.0
 70
    32
  0
VERTEX
  5
DD89
  8
0
 10
-5443.2200000000003
 20
-61.293500000000002
 30
0.0
 70
    32
  0
VERTEX
  5
DD8A
  8
0
 10
-5443.2200000000003
 20
-61.293799999999997
 30
0.0
 70
    32
  0
SEQEND
  5
DD8B
  8
0
  0
ARC
  5
DD8C
  8
AM_VIS
 10
-5440.7072854432963
 20
-66.426115802135499
 30
0.0
 40
5.7127313220924094
 50
153.949628865671
 51
116.0503711343285
  0
POLYLINE
  5
DE19
  8
AM_VIS
 66
     1
 10
0.0
 20
0.0
 30
0.0
 70
     8
  0
VERTEX
  5
DE1A
  8
0
 10
-5448.9700000000003
 20
-61.706000000000003
 30
0.0
 70
    32
  0
VERTEX
  5
DE1B
  8
0
 10
-5448.9700000000003
 20
-61.706299999999999
 30
0.0
 70
    32
  0
VERTEX
  5
DE1C
  8
0
 10
-5448.9700000000003
 20
-61.706600000000002
 30
0.0
 70
    32
  0
VERTEX
  5
DE1D
  8
0
 10
-5448.9700000000003
 20
-61.707000000000001
 30
0.0
 70
    32
  0
VERTEX
  5
DE1E
  8
0
 10
-5448.9700000000003
 20
-61.707299999999982
 30
0.0
 70
    32
  0
VERTEX
  5
DE1F
  8
0
 10
-5448.9700000000003
 20
-61.707599999999999
 30
0.0
 70
    32
  0
VERTEX
  5
DE20
  8
0
 10
-5448.9700000000003
 20
-61.707900000000002
 30
0.0
 70
    32
  0
VERTEX
  5
DE21
  8
0
 10
-5448.9700000000003
 20
-61.708300000000001
 30
0.0
 70
    32
  0
VERTEX
  5
DE22
  8
0
 10
-5448.9700000000003
 20
-61.708599999999997
 30
0.0
 70
    32
  0
VERTEX
  5
DE23
  8
0
 10
-5448.9700000000003
 20
-61.708899999999993
 30
0.0
 70
    32
  0
VERTEX
  5
DE24
  8
0
 10
-5448.9700000000003
 20
-61.709200000000003
 30
0.0
 70
    32
  0
VERTEX
  5
DE25
  8
0
 10
-5448.9700000000003
 20
-61.709600000000002
 30
0.0
 70
    32
  0
VERTEX
  5
DE26
  8
0
 10
-5448.9700000000003
 20
-61.70989999999999
 30
0.0
 70
    32
  0
VERTEX
  5
DE27
  8
0
 10
-5448.9700000000003
 20
-61.7102
 30
0.0
 70
    32
  0
VERTEX
  5
DE28
  8
0
 10
-5448.9700000000003
 20
-61.710599999999999
 30
0.0
 70
    32
  0
VERTEX
  5
DE29
  8
0
 10
-5448.9700000000003
 20
-61.710900000000002
 30
0.0
 70
    32
  0
VERTEX
  5
DE2A
  8
0
 10
-5448.9700000000003
 20
-61.711199999999998
 30
0.0
 70
    32
  0
VERTEX
  5
DE2B
  8
0
 10
-5448.9700000000003
 20
-61.711500000000001
 30
0.0
 70
    32
  0
VERTEX
  5
DE2C
  8
0
 10
-5448.9700000000003
 20
-61.7119
 30
0.0
 70
    32
  0
VERTEX
  5
DE2D
  8
0
 10
-5448.9700000000003
 20
-61.712200000000003
 30
0.0
 70
    32
  0
VERTEX
  5
DE2E
  8
0
 10
-5448.9700000000003
 20
-61.712499999999999
 30
0.0
 70
    32
  0
VERTEX
  5
DE2F
  8
0
 10
-5448.9700000000003
 20
-61.712800000000001
 30
0.0
 70
    32
  0
VERTEX
  5
DE30
  8
0
 10
-5448.9700000000003
 20
-61.713200000000001
 30
0.0
 70
    32
  0
VERTEX
  5
DE31
  8
0
 10
-5448.9700000000003
 20
-61.713500000000003
 30
0.0
 70
    32
  0
VERTEX
  5
DE32
  8
0
 10
-5448.9700000000003
 20
-61.713799999999999
 30
0.0
 70
    32
  0
VERTEX
  5
DE33
  8
0
 10
-5448.9700000000003
 20
-61.714199999999998
 30
0.0
 70
    32
  0
VERTEX
  5
DE34
  8
0
 10
-5448.9700000000003
 20
-61.714500000000001
 30
0.0
 70
    32
  0
VERTEX
  5
DE35
  8
0
 10
-5448.9700000000003
 20
-61.714799999999983
 30
0.0
 70
    32
  0
VERTEX
  5
DE36
  8
0
 10
-5448.9700000000003
 20
-61.7151
 30
0.0
 70
    32
  0
VERTEX
  5
DE37
  8
0
 10
-5448.9700000000003
 20
-61.715499999999992
 30
0.0
 70
    32
  0
VERTEX
  5
DE38
  8
0
 10
-5448.9700000000003
 20
-61.715800000000002
 30
0.0
 70
    32
  0
VERTEX
  5
DE39
  8
0
 10
-5448.9700000000003
 20
-61.716099999999997
 30
0.0
 70
    32
  0
VERTEX
  5
DE3A
  8
0
 10
-5448.9700000000003
 20
-61.7164
 30
0.0
 70
    32
  0
VERTEX
  5
DE3B
  8
0
 10
-5448.9700000000003
 20
-61.716799999999999
 30
0.0
 70
    32
  0
VERTEX
  5
DE3C
  8
0
 10
-5448.9700000000003
 20
-61.717100000000002
 30
0.0
 70
    32
  0
VERTEX
  5
DE3D
  8
0
 10
-5448.9700000000003
 20
-61.717399999999991
 30
0.0
 70
    32
  0
VERTEX
  5
DE3E
  8
0
 10
-5448.9700000000003
 20
-61.717799999999997
 30
0.0
 70
    32
  0
VERTEX
  5
DE3F
  8
0
 10
-5448.9700000000003
 20
-61.7181
 30
0.0
 70
    32
  0
VERTEX
  5
DE40
  8
0
 10
-5448.9700000000003
 20
-61.718400000000003
 30
0.0
 70
    32
  0
VERTEX
  5
DE41
  8
0
 10
-5448.9700000000003
 20
-61.718699999999998
 30
0.0
 70
    32
  0
VERTEX
  5
DE42
  8
0
 10
-5448.9700000000003
 20
-61.719099999999997
 30
0.0
 70
    32
  0
VERTEX
  5
DE43
  8
0
 10
-5448.9700000000003
 20
-61.7194
 30
0.0
 70
    32
  0
VERTEX
  5
DE44
  8
0
 10
-5448.9700000000003
 20
-61.719700000000003
 30
0.0
 70
    32
  0
VERTEX
  5
DE45
  8
0
 10
-5448.9700000000003
 20
-61.719999999999999
 30
0.0
 70
    32
  0
VERTEX
  5
DE46
  8
0
 10
-5448.9700000000003
 20
-61.720399999999991
 30
0.0
 70
    32
  0
VERTEX
  5
DE47
  8
0
 10
-5448.9700000000003
 20
-61.720700000000001
 30
0.0
 70
    32
  0
VERTEX
  5
DE48
  8
0
 10
-5448.9700000000003
 20
-61.720999999999997
 30
0.0
 70
    32
  0
VERTEX
  5
DE49
  8
0
 10
-5448.9700000000003
 20
-61.721299999999999
 30
0.0
 70
    32
  0
VERTEX
  5
DE4A
  8
0
 10
-5448.9700000000003
 20
-61.721699999999998
 30
0.0
 70
    32
  0
VERTEX
  5
DE4B
  8
0
 10
-5448.9700000000003
 20
-61.722000000000001
 30
0.0
 70
    32
  0
VERTEX
  5
DE4C
  8
0
 10
-5448.9700000000003
 20
-61.722299999999983
 30
0.0
 70
    32
  0
VERTEX
  5
DE4D
  8
0
 10
-5448.9700000000003
 20
-61.72270000000001
 30
0.0
 70
    32
  0
VERTEX
  5
DE4E
  8
0
 10
-5448.9700000000003
 20
-61.722999999999992
 30
0.0
 70
    32
  0
VERTEX
  5
DE4F
  8
0
 10
-5448.9700000000003
 20
-61.723300000000002
 30
0.0
 70
    32
  0
VERTEX
  5
DE50
  8
0
 10
-5448.9700000000003
 20
-61.723599999999998
 30
0.0
 70
    32
  0
VERTEX
  5
DE51
  8
0
 10
-5448.9700000000003
 20
-61.72399999999999
 30
0.0
 70
    32
  0
VERTEX
  5
DE52
  8
0
 10
-5448.9700000000003
 20
-61.724299999999999
 30
0.0
 70
    32
  0
VERTEX
  5
DE53
  8
0
 10
-5448.9700000000003
 20
-61.724600000000002
 30
0.0
 70
    32
  0
VERTEX
  5
DE54
  8
0
 10
-5448.9700000000003
 20
-61.724899999999991
 30
0.0
 70
    32
  0
VERTEX
  5
DE55
  8
0
 10
-5448.9700000000003
 20
-61.725299999999997
 30
0.0
 70
    32
  0
VERTEX
  5
DE56
  8
0
 10
-5448.9700000000003
 20
-61.7256
 30
0.0
 70
    32
  0
VERTEX
  5
DE57
  8
0
 10
-5448.9700000000003
 20
-61.725900000000003
 30
0.0
 70
    32
  0
VERTEX
  5
DE58
  8
0
 10
-5448.9700000000003
 20
-61.726300000000002
 30
0.0
 70
    32
  0
VERTEX
  5
DE59
  8
0
 10
-5448.9700000000003
 20
-61.726599999999998
 30
0.0
 70
    32
  0
VERTEX
  5
DE5A
  8
0
 10
-5448.9700000000003
 20
-61.726900000000001
 30
0.0
 70
    32
  0
VERTEX
  5
DE5B
  8
0
 10
-5448.9700000000003
 20
-61.727200000000003
 30
0.0
 70
    32
  0
VERTEX
  5
DE5C
  8
0
 10
-5448.9700000000003
 20
-61.727600000000002
 30
0.0
 70
    32
  0
VERTEX
  5
DE5D
  8
0
 10
-5448.9700000000003
 20
-61.727899999999991
 30
0.0
 70
    32
  0
VERTEX
  5
DE5E
  8
0
 10
-5448.9700000000003
 20
-61.728200000000001
 30
0.0
 70
    32
  0
VERTEX
  5
DE5F
  8
0
 10
-5448.9700000000003
 20
-61.728499999999997
 30
0.0
 70
    32
  0
VERTEX
  5
DE60
  8
0
 10
-5448.9700000000003
 20
-61.728900000000003
 30
0.0
 70
    32
  0
VERTEX
  5
DE61
  8
0
 10
-5448.9700000000003
 20
-61.729199999999999
 30
0.0
 70
    32
  0
VERTEX
  5
DE62
  8
0
 10
-5448.9700000000003
 20
-61.729500000000002
 30
0.0
 70
    32
  0
VERTEX
  5
DE63
  8
0
 10
-5448.9700000000003
 20
-61.729900000000001
 30
0.0
 70
    32
  0
VERTEX
  5
DE64
  8
0
 10
-5448.9700000000003
 20
-61.730200000000011
 30
0.0
 70
    32
  0
VERTEX
  5
DE65
  8
0
 10
-5448.9700000000003
 20
-61.730499999999992
 30
0.0
 70
    32
  0
VERTEX
  5
DE66
  8
0
 10
-5448.9700000000003
 20
-61.730800000000002
 30
0.0
 70
    32
  0
VERTEX
  5
DE67
  8
0
 10
-5448.9700000000003
 20
-61.731200000000001
 30
0.0
 70
    32
  0
VERTEX
  5
DE68
  8
0
 10
-5448.9700000000003
 20
-61.73149999999999
 30
0.0
 70
    32
  0
VERTEX
  5
DE69
  8
0
 10
-5448.9700000000003
 20
-61.7318
 30
0.0
 70
    32
  0
VERTEX
  5
DE6A
  8
0
 10
-5448.9700000000003
 20
-61.732100000000003
 30
0.0
 70
    32
  0
VERTEX
  5
DE6B
  8
0
 10
-5448.9700000000003
 20
-61.732500000000002
 30
0.0
 70
    32
  0
VERTEX
  5
DE6C
  8
0
 10
-5448.9700000000003
 20
-61.732799999999997
 30
0.0
 70
    32
  0
VERTEX
  5
DE6D
  8
0
 10
-5448.9700000000003
 20
-61.7331
 30
0.0
 70
    32
  0
VERTEX
  5
DE6E
  8
0
 10
-5448.9700000000003
 20
-61.733400000000003
 30
0.0
 70
    32
  0
VERTEX
  5
DE6F
  8
0
 10
-5448.9700000000003
 20
-61.733800000000002
 30
0.0
 70
    32
  0
VERTEX
  5
DE70
  8
0
 10
-5448.9700000000003
 20
-61.734099999999998
 30
0.0
 70
    32
  0
VERTEX
  5
DE71
  8
0
 10
-5448.9700000000003
 20
-61.734400000000001
 30
0.0
 70
    32
  0
VERTEX
  5
DE72
  8
0
 10
-5448.9700000000003
 20
-61.7348
 30
0.0
 70
    32
  0
VERTEX
  5
DE73
  8
0
 10
-5448.9700000000003
 20
-61.735100000000003
 30
0.0
 70
    32
  0
VERTEX
  5
DE74
  8
0
 10
-5448.9700000000003
 20
-61.735399999999998
 30
0.0
 70
    32
  0
VERTEX
  5
DE75
  8
0
 10
-5448.9700000000003
 20
-61.735700000000001
 30
0.0
 70
    32
  0
VERTEX
  5
DE76
  8
0
 10
-5448.9700000000003
 20
-61.7361
 30
0.0
 70
    32
  0
VERTEX
  5
DE77
  8
0
 10
-5448.9700000000003
 20
-61.736400000000003
 30
0.0
 70
    32
  0
VERTEX
  5
DE78
  8
0
 10
-5448.9700000000003
 20
-61.736699999999999
 30
0.0
 70
    32
  0
VERTEX
  5
DE79
  8
0
 10
-5448.9700000000003
 20
-61.737000000000002
 30
0.0
 70
    32
  0
VERTEX
  5
DE7A
  8
0
 10
-5448.9700000000003
 20
-61.737400000000001
 30
0.0
 70
    32
  0
VERTEX
  5
DE7B
  8
0
 10
-5448.9700000000003
 20
-61.737699999999997
 30
0.0
 70
    32
  0
VERTEX
  5
DE7C
  8
0
 10
-5448.9700000000003
 20
-61.737999999999992
 30
0.0
 70
    32
  0
VERTEX
  5
DE7D
  8
0
 10
-5448.9700000000003
 20
-61.738399999999999
 30
0.0
 70
    32
  0
VERTEX
  5
DE7E
  8
0
 10
-5448.9700000000003
 20
-61.738700000000001
 30
0.0
 70
    32
  0
VERTEX
  5
DE7F
  8
0
 10
-5448.9700000000003
 20
-61.73899999999999
 30
0.0
 70
    32
  0
VERTEX
  5
DE80
  8
0
 10
-5448.9700000000003
 20
-61.7393
 30
0.0
 70
    32
  0
VERTEX
  5
DE81
  8
0
 10
-5448.9700000000003
 20
-61.739699999999999
 30
0.0
 70
    32
  0
VERTEX
  5
DE82
  8
0
 10
-5448.9700000000003
 20
-61.740000000000002
 30
0.0
 70
    32
  0
VERTEX
  5
DE83
  8
0
 10
-5448.9700000000003
 20
-61.740299999999998
 30
0.0
 70
    32
  0
VERTEX
  5
DE84
  8
0
 10
-5448.9700000000003
 20
-61.740600000000001
 30
0.0
 70
    32
  0
VERTEX
  5
DE85
  8
0
 10
-5448.9700000000003
 20
-61.741000000000007
 30
0.0
 70
    32
  0
VERTEX
  5
DE86
  8
0
 10
-5448.9700000000003
 20
-61.741300000000003
 30
0.0
 70
    32
  0
VERTEX
  5
DE87
  8
0
 10
-5448.9700000000003
 20
-61.741599999999998
 30
0.0
 70
    32
  0
VERTEX
  5
DE88
  8
0
 10
-5448.9700000000003
 20
-61.741900000000001
 30
0.0
 70
    32
  0
VERTEX
  5
DE89
  8
0
 10
-5448.9700000000003
 20
-61.7423
 30
0.0
 70
    32
  0
VERTEX
  5
DE8A
  8
0
 10
-5448.9700000000003
 20
-61.742600000000003
 30
0.0
 70
    32
  0
VERTEX
  5
DE8B
  8
0
 10
-5448.9700000000003
 20
-61.742899999999999
 30
0.0
 70
    32
  0
VERTEX
  5
DE8C
  8
0
 10
-5448.9700000000003
 20
-61.743299999999998
 30
0.0
 70
    32
  0
VERTEX
  5
DE8D
  8
0
 10
-5448.9700000000003
 20
-61.743600000000001
 30
0.0
 70
    32
  0
VERTEX
  5
DE8E
  8
0
 10
-5448.9700000000003
 20
-61.743899999999982
 30
0.0
 70
    32
  0
VERTEX
  5
DE8F
  8
0
 10
-5448.9700000000003
 20
-61.744199999999999
 30
0.0
 70
    32
  0
VERTEX
  5
DE90
  8
0
 10
-5448.9700000000003
 20
-61.744599999999991
 30
0.0
 70
    32
  0
VERTEX
  5
DE91
  8
0
 10
-5448.9700000000003
 20
-61.744900000000001
 30
0.0
 70
    32
  0
VERTEX
  5
DE92
  8
0
 10
-5448.9700000000003
 20
-61.745199999999997
 30
0.0
 70
    32
  0
VERTEX
  5
DE93
  8
0
 10
-5448.9700000000003
 20
-61.745499999999993
 30
0.0
 70
    32
  0
VERTEX
  5
DE94
  8
0
 10
-5448.9700000000003
 20
-61.745899999999999
 30
0.0
 70
    32
  0
VERTEX
  5
DE95
  8
0
 10
-5448.9700000000003
 20
-61.746200000000002
 30
0.0
 70
    32
  0
VERTEX
  5
DE96
  8
0
 10
-5448.9700000000003
 20
-61.74649999999999
 30
0.0
 70
    32
  0
VERTEX
  5
DE97
  8
0
 10
-5448.9700000000003
 20
-61.746899999999997
 30
0.0
 70
    32
  0
VERTEX
  5
DE98
  8
0
 10
-5448.9700000000003
 20
-61.747199999999999
 30
0.0
 70
    32
  0
VERTEX
  5
DE99
  8
0
 10
-5448.9700000000003
 20
-61.747500000000002
 30
0.0
 70
    32
  0
VERTEX
  5
DE9A
  8
0
 10
-5448.9700000000003
 20
-61.747799999999998
 30
0.0
 70
    32
  0
SEQEND
  5
DE9B
  8
0
  0
POLYLINE
  5
E0DE
  8
AM_VIS
 66
     1
 10
0.0
 20
0.0
 30
0.0
 70
     8
  0
VERTEX
  5
E0DF
  8
0
 10
-5445.3900000000003
 20
-58.164900000000003
 30
0.0
 70
    32
  0
VERTEX
  5
E0E0
  8
0
 10
-5445.3900000000003
 20
-58.164900000000003
 30
0.0
 70
    32
  0
VERTEX
  5
E0E1
  8
0
 10
-5445.3900000000003
 20
-58.164900000000003
 30
0.0
 70
    32
  0
VERTEX
  5
E0E2
  8
0
 10
-5445.3900000000003
 20
-58.164900000000003
 30
0.0
 70
    32
  0
VERTEX
  5
E0E3
  8
0
 10
-5445.3900000000003
 20
-58.164900000000003
 30
0.0
 70
    32
  0
VERTEX
  5
E0E4
  8
0
 10
-5445.3900000000003
 20
-58.1648
 30
0.0
 70
    32
  0
VERTEX
  5
E0E5
  8
0
 10
-5445.3900000000003
 20
-58.1648
 30
0.0
 70
    32
  0
VERTEX
  5
E0E6
  8
0
 10
-5445.3900000000003
 20
-58.1648
 30
0.0
 70
    32
  0
VERTEX
  5
E0E7
  8
0
 10
-5445.3900000000003
 20
-58.1648
 30
0.0
 70
    32
  0
VERTEX
  5
E0E8
  8
0
 10
-5445.3900000000003
 20
-58.1648
 30
0.0
 70
    32
  0
VERTEX
  5
E0E9
  8
0
 10
-5445.3900000000003
 20
-58.1648
 30
0.0
 70
    32
  0
VERTEX
  5
E0EA
  8
0
 10
-5445.3900000000003
 20
-58.1648
 30
0.0
 70
    32
  0
VERTEX
  5
E0EB
  8
0
 10
-5445.3900000000003
 20
-58.1648
 30
0.0
 70
    32
  0
VERTEX
  5
E0EC
  8
0
 10
-5445.3900000000003
 20
-58.1648
 30
0.0
 70
    32
  0
VERTEX
  5
E0ED
  8
0
 10
-5445.3900000000003
 20
-58.1648
 30
0.0
 70
    32
  0
VERTEX
  5
E0EE
  8
0
 10
-5445.3900000000003
 20
-58.1648
 30
0.0
 70
    32
  0
VERTEX
  5
E0EF
  8
0
 10
-5445.3900000000003
 20
-58.1648
 30
0.0
 70
    32
  0
VERTEX
  5
E0F0
  8
0
 10
-5445.3900000000003
 20
-58.1648
 30
0.0
 70
    32
  0
VERTEX
  5
E0F1
  8
0
 10
-5445.3900000000003
 20
-58.164700000000003
 30
0.0
 70
    32
  0
VERTEX
  5
E0F2
  8
0
 10
-5445.3900000000003
 20
-58.164700000000003
 30
0.0
 70
    32
  0
VERTEX
  5
E0F3
  8
0
 10
-5445.3900000000003
 20
-58.164700000000003
 30
0.0
 70
    32
  0
VERTEX
  5
E0F4
  8
0
 10
-5445.3900000000003
 20
-58.164700000000003
 30
0.0
 70
    32
  0
VERTEX
  5
E0F5
  8
0
 10
-5445.3900000000003
 20
-58.164700000000003
 30
0.0
 70
    32
  0
VERTEX
  5
E0F6
  8
0
 10
-5445.3900000000003
 20
-58.164700000000003
 30
0.0
 70
    32
  0
VERTEX
  5
E0F7
  8
0
 10
-5445.3900000000003
 20
-58.164700000000003
 30
0.0
 70
    32
  0
VERTEX
  5
E0F8
  8
0
 10
-5445.3900000000003
 20
-58.164700000000003
 30
0.0
 70
    32
  0
VERTEX
  5
E0F9
  8
0
 10
-5445.3900000000003
 20
-58.164700000000003
 30
0.0
 70
    32
  0
VERTEX
  5
E0FA
  8
0
 10
-5445.3900000000003
 20
-58.164700000000003
 30
0.0
 70
    32
  0
VERTEX
  5
E0FB
  8
0
 10
-5445.3900000000003
 20
-58.164700000000003
 30
0.0
 70
    32
  0
VERTEX
  5
E0FC
  8
0
 10
-5445.3999999999996
 20
-58.164700000000003
 30
0.0
 70
    32
  0
VERTEX
  5
E0FD
  8
0
 10
-5445.3999999999996
 20
-58.164700000000003
 30
0.0
 70
    32
  0
VERTEX
  5
E0FE
  8
0
 10
-5445.3999999999996
 20
-58.164700000000003
 30
0.0
 70
    32
  0
VERTEX
  5
E0FF
  8
0
 10
-5445.3999999999996
 20
-58.1646
 30
0.0
 70
    32
  0
VERTEX
  5
E100
  8
0
 10
-5445.3999999999996
 20
-58.1646
 30
0.0
 70
    32
  0
VERTEX
  5
E101
  8
0
 10
-5445.3999999999996
 20
-58.1646
 30
0.0
 70
    32
  0
VERTEX
  5
E102
  8
0
 10
-5445.3999999999996
 20
-58.1646
 30
0.0
 70
    32
  0
VERTEX
  5
E103
  8
0
 10
-5445.3999999999996
 20
-58.1646
 30
0.0
 70
    32
  0
VERTEX
  5
E104
  8
0
 10
-5445.3999999999996
 20
-58.1646
 30
0.0
 70
    32
  0
VERTEX
  5
E105
  8
0
 10
-5445.3999999999996
 20
-58.1646
 30
0.0
 70
    32
  0
VERTEX
  5
E106
  8
0
 10
-5445.3999999999996
 20
-58.1646
 30
0.0
 70
    32
  0
VERTEX
  5
E107
  8
0
 10
-5445.3999999999996
 20
-58.1646
 30
0.0
 70
    32
  0
VERTEX
  5
E108
  8
0
 10
-5445.3999999999996
 20
-58.1646
 30
0.0
 70
    32
  0
VERTEX
  5
E109
  8
0
 10
-5445.3999999999996
 20
-58.1646
 30
0.0
 70
    32
  0
VERTEX
  5
E10A
  8
0
 10
-5445.3999999999996
 20
-58.1646
 30
0.0
 70
    32
  0
VERTEX
  5
E10B
  8
0
 10
-5445.3999999999996
 20
-58.1646
 30
0.0
 70
    32
  0
VERTEX
  5
E10C
  8
0
 10
-5445.3999999999996
 20
-58.1646
 30
0.0
 70
    32
  0
VERTEX
  5
E10D
  8
0
 10
-5445.3999999999996
 20
-58.1646
 30
0.0
 70
    32
  0
VERTEX
  5
E10E
  8
0
 10
-5445.3999999999996
 20
-58.16449999999999
 30
0.0
 70
    32
  0
VERTEX
  5
E10F
  8
0
 10
-5445.3999999999996
 20
-58.16449999999999
 30
0.0
 70
    32
  0
VERTEX
  5
E110
  8
0
 10
-5445.3999999999996
 20
-58.16449999999999
 30
0.0
 70
    32
  0
VERTEX
  5
E111
  8
0
 10
-5445.3999999999996
 20
-58.16449999999999
 30
0.0
 70
    32
  0
VERTEX
  5
E112
  8
0
 10
-5445.3999999999996
 20
-58.16449999999999
 30
0.0
 70
    32
  0
VERTEX
  5
E113
  8
0
 10
-5445.3999999999996
 20
-58.16449999999999
 30
0.0
 70
    32
  0
VERTEX
  5
E114
  8
0
 10
-5445.3999999999996
 20
-58.16449999999999
 30
0.0
 70
    32
  0
VERTEX
  5
E115
  8
0
 10
-5445.3999999999996
 20
-58.16449999999999
 30
0.0
 70
    32
  0
VERTEX
  5
E116
  8
0
 10
-5445.3999999999996
 20
-58.16449999999999
 30
0.0
 70
    32
  0
VERTEX
  5
E117
  8
0
 10
-5445.3999999999996
 20
-58.16449999999999
 30
0.0
 70
    32
  0
VERTEX
  5
E118
  8
0
 10
-5445.3999999999996
 20
-58.16449999999999
 30
0.0
 70
    32
  0
VERTEX
  5
E119
  8
0
 10
-5445.3999999999996
 20
-58.16449999999999
 30
0.0
 70
    32
  0
VERTEX
  5
E11A
  8
0
 10
-5445.3999999999996
 20
-58.16449999999999
 30
0.0
 70
    32
  0
VERTEX
  5
E11B
  8
0
 10
-5445.409999999998
 20
-58.16449999999999
 30
0.0
 70
    32
  0
VERTEX
  5
E11C
  8
0
 10
-5445.409999999998
 20
-58.16449999999999
 30
0.0
 70
    32
  0
VERTEX
  5
E11D
  8
0
 10
-5445.409999999998
 20
-58.164400000000001
 30
0.0
 70
    32
  0
VERTEX
  5
E11E
  8
0
 10
-5445.409999999998
 20
-58.164400000000001
 30
0.0
 70
    32
  0
VERTEX
  5
E11F
  8
0
 10
-5445.409999999998
 20
-58.164400000000001
 30
0.0
 70
    32
  0
VERTEX
  5
E120
  8
0
 10
-5445.409999999998
 20
-58.164400000000001
 30
0.0
 70
    32
  0
VERTEX
  5
E121
  8
0
 10
-5445.409999999998
 20
-58.164400000000001
 30
0.0
 70
    32
  0
VERTEX
  5
E122
  8
0
 10
-5445.409999999998
 20
-58.164400000000001
 30
0.0
 70
    32
  0
VERTEX
  5
E123
  8
0
 10
-5445.409999999998
 20
-58.164400000000001
 30
0.0
 70
    32
  0
VERTEX
  5
E124
  8
0
 10
-5445.409999999998
 20
-58.164400000000001
 30
0.0
 70
    32
  0
VERTEX
  5
E125
  8
0
 10
-5445.409999999998
 20
-58.164400000000001
 30
0.0
 70
    32
  0
VERTEX
  5
E126
  8
0
 10
-5445.409999999998
 20
-58.164400000000001
 30
0.0
 70
    32
  0
VERTEX
  5
E127
  8
0
 10
-5445.409999999998
 20
-58.164400000000001
 30
0.0
 70
    32
  0
VERTEX
  5
E128
  8
0
 10
-5445.409999999998
 20
-58.164400000000001
 30
0.0
 70
    32
  0
VERTEX
  5
E129
  8
0
 10
-5445.409999999998
 20
-58.164400000000001
 30
0.0
 70
    32
  0
VERTEX
  5
E12A
  8
0
 10
-5445.409999999998
 20
-58.164400000000001
 30
0.0
 70
    32
  0
VERTEX
  5
E12B
  8
0
 10
-5445.409999999998
 20
-58.164400000000001
 30
0.0
 70
    32
  0
VERTEX
  5
E12C
  8
0
 10
-5445.409999999998
 20
-58.164400000000001
 30
0.0
 70
    32
  0
VERTEX
  5
E12D
  8
0
 10
-5445.409999999998
 20
-58.164400000000001
 30
0.0
 70
    32
  0
VERTEX
  5
E12E
  8
0
 10
-5445.409999999998
 20
-58.164299999999997
 30
0.0
 70
    32
  0
VERTEX
  5
E12F
  8
0
 10
-5445.409999999998
 20
-58.164299999999997
 30
0.0
 70
    32
  0
VERTEX
  5
E130
  8
0
 10
-5445.409999999998
 20
-58.164299999999997
 30
0.0
 70
    32
  0
VERTEX
  5
E131
  8
0
 10
-5445.409999999998
 20
-58.164299999999997
 30
0.0
 70
    32
  0
VERTEX
  5
E132
  8
0
 10
-5445.409999999998
 20
-58.164299999999997
 30
0.0
 70
    32
  0
VERTEX
  5
E133
  8
0
 10
-5445.409999999998
 20
-58.164299999999997
 30
0.0
 70
    32
  0
VERTEX
  5
E134
  8
0
 10
-5445.409999999998
 20
-58.164299999999997
 30
0.0
 70
    32
  0
VERTEX
  5
E135
  8
0
 10
-5445.409999999998
 20
-58.164299999999997
 30
0.0
 70
    32
  0
VERTEX
  5
E136
  8
0
 10
-5445.409999999998
 20
-58.164299999999997
 30
0.0
 70
    32
  0
VERTEX
  5
E137
  8
0
 10
-5445.409999999998
 20
-58.164299999999997
 30
0.0
 70
    32
  0
VERTEX
  5
E138
  8
0
 10
-5445.409999999998
 20
-58.164299999999997
 30
0.0
 70
    32
  0
VERTEX
  5
E139
  8
0
 10
-5445.409999999998
 20
-58.164299999999997
 30
0.0
 70
    32
  0
VERTEX
  5
E13A
  8
0
 10
-5445.4200000000001
 20
-58.164299999999997
 30
0.0
 70
    32
  0
VERTEX
  5
E13B
  8
0
 10
-5445.4200000000001
 20
-58.164299999999997
 30
0.0
 70
    32
  0
VERTEX
  5
E13C
  8
0
 10
-5445.4200000000001
 20
-58.164299999999997
 30
0.0
 70
    32
  0
VERTEX
  5
E13D
  8
0
 10
-5445.4200000000001
 20
-58.164299999999997
 30
0.0
 70
    32
  0
VERTEX
  5
E13E
  8
0
 10
-5445.4200000000001
 20
-58.164299999999997
 30
0.0
 70
    32
  0
VERTEX
  5
E13F
  8
0
 10
-5445.4200000000001
 20
-58.164299999999997
 30
0.0
 70
    32
  0
VERTEX
  5
E140
  8
0
 10
-5445.4200000000001
 20
-58.164299999999997
 30
0.0
 70
    32
  0
VERTEX
  5
E141
  8
0
 10
-5445.4200000000001
 20
-58.164200000000001
 30
0.0
 70
    32
  0
VERTEX
  5
E142
  8
0
 10
-5445.4200000000001
 20
-58.164200000000001
 30
0.0
 70
    32
  0
VERTEX
  5
E143
  8
0
 10
-5445.4200000000001
 20
-58.164200000000001
 30
0.0
 70
    32
  0
VERTEX
  5
E144
  8
0
 10
-5445.4200000000001
 20
-58.164200000000001
 30
0.0
 70
    32
  0
VERTEX
  5
E145
  8
0
 10
-5445.4200000000001
 20
-58.164200000000001
 30
0.0
 70
    32
  0
VERTEX
  5
E146
  8
0
 10
-5445.4200000000001
 20
-58.164200000000001
 30
0.0
 70
    32
  0
VERTEX
  5
E147
  8
0
 10
-5445.4200000000001
 20
-58.164200000000001
 30
0.0
 70
    32
  0
VERTEX
  5
E148
  8
0
 10
-5445.4200000000001
 20
-58.164200000000001
 30
0.0
 70
    32
  0
VERTEX
  5
E149
  8
0
 10
-5445.4200000000001
 20
-58.164200000000001
 30
0.0
 70
    32
  0
VERTEX
  5
E14A
  8
0
 10
-5445.4200000000001
 20
-58.164200000000001
 30
0.0
 70
    32
  0
VERTEX
  5
E14B
  8
0
 10
-5445.4200000000001
 20
-58.164200000000001
 30
0.0
 70
    32
  0
VERTEX
  5
E14C
  8
0
 10
-5445.4200000000001
 20
-58.164200000000001
 30
0.0
 70
    32
  0
VERTEX
  5
E14D
  8
0
 10
-5445.4200000000001
 20
-58.164200000000001
 30
0.0
 70
    32
  0
VERTEX
  5
E14E
  8
0
 10
-5445.4200000000001
 20
-58.164200000000001
 30
0.0
 70
    32
  0
VERTEX
  5
E14F
  8
0
 10
-5445.4200000000001
 20
-58.164200000000001
 30
0.0
 70
    32
  0
VERTEX
  5
E150
  8
0
 10
-5445.4200000000001
 20
-58.164200000000001
 30
0.0
 70
    32
  0
VERTEX
  5
E151
  8
0
 10
-5445.4200000000001
 20
-58.164200000000001
 30
0.0
 70
    32
  0
VERTEX
  5
E152
  8
0
 10
-5445.4200000000001
 20
-58.164200000000001
 30
0.0
 70
    32
  0
VERTEX
  5
E153
  8
0
 10
-5445.4200000000001
 20
-58.164200000000001
 30
0.0
 70
    32
  0
VERTEX
  5
E154
  8
0
 10
-5445.4200000000001
 20
-58.164200000000001
 30
0.0
 70
    32
  0
VERTEX
  5
E155
  8
0
 10
-5445.4200000000001
 20
-58.164200000000001
 30
0.0
 70
    32
  0
VERTEX
  5
E156
  8
0
 10
-5445.4200000000001
 20
-58.164099999999998
 30
0.0
 70
    32
  0
VERTEX
  5
E157
  8
0
 10
-5445.4200000000001
 20
-58.164099999999998
 30
0.0
 70
    32
  0
VERTEX
  5
E158
  8
0
 10
-5445.4300000000003
 20
-58.164099999999998
 30
0.0
 70
    32
  0
VERTEX
  5
E159
  8
0
 10
-5445.4300000000003
 20
-58.164099999999998
 30
0.0
 70
    32
  0
VERTEX
  5
E15A
  8
0
 10
-5445.4300000000003
 20
-58.164099999999998
 30
0.0
 70
    32
  0
VERTEX
  5
E15B
  8
0
 10
-5445.4300000000003
 20
-58.164099999999998
 30
0.0
 70
    32
  0
VERTEX
  5
E15C
  8
0
 10
-5445.4300000000003
 20
-58.164099999999998
 30
0.0
 70
    32
  0
VERTEX
  5
E15D
  8
0
 10
-5445.4300000000003
 20
-58.164099999999998
 30
0.0
 70
    32
  0
VERTEX
  5
E15E
  8
0
 10
-5445.4300000000003
 20
-58.164099999999998
 30
0.0
 70
    32
  0
VERTEX
  5
E15F
  8
0
 10
-5445.4300000000003
 20
-58.164099999999998
 30
0.0
 70
    32
  0
SEQEND
  5
E160
  8
0
  0
LINE
  5
E3A3
  8
AM_VIS
 10
-5355.2700764467918
 20
-61.865351150344154
 30
0.0
 11
-5354.6984758147873
 21
-61.2937505183395
 31
0.0
  0
LINE
  5
E3A4
  8
AM_VIS
 10
-5352.0749201595008
 20
-63.917306173625889
 30
0.0
 11
-5352.6465207915053
 21
-64.488906805630563
 31
0.0
  0
ARC
  5
E3A5
  8
AM_VIS
 10
-5357.2072854432981
 20
-66.426115802135499
 30
0.0
 40
4.9551339946734032
 50
357.46873820669418
 51
23.013616072392541
  0
ARC
  5
E3A6
  8
AM_VIS
 10
-5357.2072854432981
 20
-66.426115802135499
 30
0.0
 40
4.9551339946734032
 50
66.986383927608898
 51
92.531261793279398
  0
LINE
  5
E3A7
  8
AM_VIS
 10
-5352.2569863056106
 20
-66.64495673200804
 30
0.0
 11
-5356.9884445134239
 21
-71.376414939821188
 31
0.0
  0
ARC
  5
E3A8
  8
AM_VIS
 10
-5357.2072854432981
 20
-66.426115802135499
 30
0.0
 40
4.9551339946734032
 50
177.46873820672019
 51
272.53126179330462
  0
LINE
  5
E3A9
  8
AM_VIS
 10
-5362.1575845809839
 20
-66.207274872265202
 30
0.0
 11
-5357.426126373166
 21
-61.475816664447613
 31
0.0
  0
LINE
  5
E3AA
  8
AM_VIS
 10
-5352.6465207915053
 20
-151.86332479864021
 30
0.0
 11
-5352.0749201595008
 21
-152.4349254306448
 31
0.0
  0
LINE
  5
E3AB
  8
AM_VIS
 10
-5354.6984758147873
 20
-155.05848108593139
 30
0.0
 11
-5355.2700764467918
 21
-154.4868804539268
 31
0.0
  0
ARC
  5
E3AC
  8
AM_VIS
 10
-5357.2072854432981
 20
-149.92611580213531
 30
0.0
 40
4.9551339946734032
 50
267.4687382067471
 51
293.01361607239198
  0
ARC
  5
E3AD
  8
AM_VIS
 10
-5357.2072854432981
 20
-149.92611580213531
 30
0.0
 40
4.9551339946734032
 50
336.98638392760961
 51
2.5312617933320309
  0
LINE
  5
E3AE
  8
AM_VIS
 10
-5357.4261263731651
 20
-154.87641493982551
 30
0.0
 11
-5362.1575845809793
 21
-150.1449567320102
 31
0.0
  0
ARC
  5
E3AF
  8
AM_VIS
 10
-5357.2072854432981
 20
-149.92611580213531
 30
0.0
 40
4.9551339946734032
 50
87.468738206667624
 51
182.5312617933325
  0
LINE
  5
E3B0
  8
AM_VIS
 10
-5356.9884445134221
 20
-144.97581666445191
 30
0.0
 11
-5352.2569863056124
 21
-149.7072748722606
 31
0.0
  0
LINE
  5
E3B1
  8
AM_VIS
 10
-5445.2680500950883
 20
-64.488906805630677
 30
0.0
 11
-5445.8396507270918
 21
-63.917306173626002
 31
0.0
  0
LINE
  5
E3B2
  8
AM_VIS
 10
-5443.2160950718062
 20
-61.2937505183395
 30
0.0
 11
-5442.6444944398027
 21
-61.865351150344154
 31
0.0
  0
ARC
  5
E3B3
  8
AM_VIS
 10
-5440.7072854432963
 20
-66.426115802135499
 30
0.0
 40
4.9551339946734032
 50
87.468738206695591
 51
113.0136160723917
  0
ARC
  5
E3B4
  8
AM_VIS
 10
-5440.7072854432963
 20
-66.426115802135499
 30
0.0
 40
4.9551339946734032
 50
156.9863839276085
 51
182.53126179327751
  0
LINE
  5
E3B5
  8
AM_VIS
 10
-5440.4884445134239
 20
-61.475816664449887
 30
0.0
 11
-5435.7569863056096
 21
-66.207274872263142
 31
0.0
  0
ARC
  5
E3B6
  8
AM_VIS
 10
-5440.7072854432963
 20
-66.426115802135499
 30
0.0
 40
4.9551339946734032
 50
267.46873820672192
 51
2.5312617933033801
  0
LINE
  5
E3B7
  8
AM_VIS
 10
-5440.9261263731669
 20
-71.376414939823334
 30
0.0
 11
-5445.6575845809848
 21
-66.644956732005639
 31
0.0
  0
LINE
  5
E3B8
  8
AM_VIS
 10
-5442.6444944398027
 20
-154.4868804539266
 30
0.0
 11
-5443.2160950718062
 21
-155.05848108593131
 31
0.0
  0
LINE
  5
E3B9
  8
AM_VIS
 10
-5445.8396507270918
 20
-152.4349254306448
 30
0.0
 11
-5445.2680500950883
 21
-151.86332479863989
 31
0.0
  0
ARC
  5
E3BA
  8
AM_VIS
 10
-5440.7072854432963
 20
-149.92611580213531
 30
0.0
 40
4.9551339946734032
 50
177.4687382066673
 51
203.01361607239039
  0
ARC
  5
E3BB
  8
AM_VIS
 10
-5440.7072854432963
 20
-149.92611580213531
 30
0.0
 40
4.9551339946734032
 50
246.98638392760731
 51
272.5312617933036
  0
LINE
  5
E3BC
  8
AM_VIS
 10
-5445.6575845809793
 20
-149.7072748722606
 30
0.0
 11
-5440.9261263731696
 21
-144.97581666445191
 31
0.0
  0
ARC
  5
E3BD
  8
AM_VIS
 10
-5440.7072854432963
 20
-149.92611580213531
 30
0.0
 40
4.9551339946734032
 50
357.4687382066968
 51
92.531261793332689
  0
LINE
  5
E3BE
  8
AM_VIS
 10
-5435.7569863056096
 20
-150.14495673200739
 30
0.0
 11
-5440.4884445134239
 21
-154.8764149398211
 31
0.0
  0
LINE
  5
E3BF
  8
AM_VIS
 10
-5445.4743862025643
 20
-158.1884199330444
 30
0.0
 11
-5352.4401846840274
 21
-158.1884199330444
 31
0.0
  0
LINE
  5
E444
  8
L2
  6
DASHDOT
 10
-5340.013132064244
 20
-108.1761158021354
 30
0.0
 11
-5461.8962430459287
 21
-108.1761158021354
 31
0.0
  0
LINE
  5
E445
  8
L2
  6
DASHDOT
 10
-5133.4431701322337
 20
-108.1761158021354
 30
0.0
 11
-5255.3309150368559
 21
-108.1761158021354
 31
0.0
  0
LINE
  5
E446
  8
L2
  6
DASHDOT
 10
-5200.0172974624293
 20
-37.116911263665131
 30
0.0
 11
-5200.0172974624293
 21
-175.2021127232471
 31
0.0
  0
LINE
  5
E447
  8
L2
  6
DASHDOT
 10
-5398.9572854432963
 20
-49.974176630416203
 30
0.0
 11
-5398.9572854432963
 21
-166.7072532917158
 31
0.0
  0
LINE
  5
EFAF
  8
AM_VIS
 10
-5314.9472944922627
 20
-143.026115802135
 30
0.0
 11
-5314.9472944922627
 21
-156.1261158021349
 31
0.0
  0
LINE
  5
EFB0
  8
AM_HID
 10
-5289.5285387934218
 20
-140.20278803104139
 30
0.0
 11
-5289.5285387934218
 21
-153.3595841273692
 31
0.0
  0
LINE
  5
EFB1
  8
AM_VIS
 10
-5313.6285387934231
 20
-67.726115802135581
 30
0.0
 11
-5313.6285387934231
 21
-148.6261158021349
 31
0.0
  0
LINE
  5
EFB2
  8
AM_VIS
 10
-5312.9092587627392
 20
-158.1884199330444
 30
0.0
 11
-5312.9094744558743
 21
-58.16402736436131
 31
0.0
  0
LINE
  5
EFB3
  8
AM_VIS
 10
-5287.0285387934236
 20
-59.804852101078779
 30
0.0
 11
-5287.0285387934236
 21
-156.54737950319199
 31
0.0
  0
LINE
  5
EFB4
  8
AM_HID
 10
-5313.6285578318912
 20
-156.42611596828141
 30
0.0
 11
-5313.6285578318912
 21
-157.726115635989
 31
0.0
  0
LINE
  5
EFB5
  8
AM_HID
 10
-5313.3837283492039
 20
-157.71395034657891
 30
0.0
 11
-5313.628538793424
 21
-157.4691399023601
 31
0.0
  0
LINE
  5
EFB6
  8
AM_VIS
 10
-5312.9092587627392
 20
-158.1884199330444
 30
0.0
 11
-5287.3128380065509
 21
-156.84696836361809
 31
0.0
  0
LINE
  5
F1F9
  8
AM_VIS
 10
-5314.1285387934231
 20
-157.72175236823961
 30
0.0
 11
-5314.1285387934231
 21
-154.42611580213509
 31
0.0
  0
LINE
  5
F43C
  8
AM_VIS
 10
-5312.9092587627392
 20
-158.1884199330444
 30
0.0
 11
-5312.9094744558743
 21
-158.1882042399094
 31
0.0
  0
LINE
  5
F43D
  8
AM_VIS
 10
-5313.3693005558243
 20
-157.72837813996099
 30
0.0
 11
-5314.1285387934231
 21
-157.72175236823961
 31
0.0
  0
LINE
  5
F43E
  8
AM_VIS
 10
-5312.9094744558743
 20
-158.1882042399094
 30
0.0
 11
-5313.3837283492039
 21
-157.71395034657891
 31
0.0
  0
LINE
  5
F43F
  8
AM_HID
 10
-5289.8206857089299
 20
-154.80268522853399
 30
0.0
 11
-5313.6285387934231
 21
-155.42611580213531
 31
0.0
  0
ARC
  5
F440
  8
AM_VIS
 10
-5287.3285387934238
 20
-156.54737950319199
 30
0.0
 40
0.2999999999999825
 50
273.00000000000188
 51
0.000000000000007
  0
LINE
  5
F441
  8
AM_HID
 10
-5289.5285387934218
 20
-154.5027880310414
 30
0.0
 11
-5289.5285387934218
 21
-154.0029593685536
 31
0.0
  0
ARC
  5
F443
  8
AM_HID
 10
-5289.8285387934238
 20
-154.5027880310414
 30
0.0
 40
0.3000000000000024
 50
271.50000000000171
 51
0.000000000000007
  0
LINE
  5
F444
  8
AM_HID
 10
-5313.6285387934231
 20
-157.4691399023601
 30
0.0
 11
-5313.6285387934231
 21
-156.42611580213531
 31
0.0
  0
LINE
  5
F445
  8
AM_VIS
 10
-5314.6838901396468
 20
-156.44002888566851
 30
0.0
 11
-5314.1285387934231
 21
-156.5379523117806
 31
0.0
  0
LINE
  5
F446
  8
AM_HID
 10
-5314.1285387934231
 20
-156.5379523117806
 30
0.0
 11
-5313.6285387934231
 21
-156.62611580213479
 31
0.0
  0
LINE
  5
F447
  8
AM_HID
 10
-5313.6285387934231
 20
-155.6261158021349
 30
0.0
 11
-5314.6838901396468
 21
-155.8122027186013
 31
0.0
  0
ARC
  5
F448
  8
AM_HID
 10
-5314.628538793424
 20
-156.1261158021349
 30
0.0
 40
0.3187556988391738
 50
100.0000000000045
 51
180.0
  0
ARC
  5
F449
  8
AM_VIS
 10
-5314.628538793424
 20
-156.1261158021349
 30
0.0
 40
0.3187556988391738
 50
180.0
 51
260.00000000000358
  0
LINE
  5
F4CD
  8
AM_VIS
 10
-5313.3693005558243
 20
-148.62385346430921
 30
0.0
 11
-5313.3837283492039
 21
-157.71395034657891
 31
0.0
  0
LINE
  5
F551
  8
AM_VIS
 10
-5314.1285387934231
 20
-149.13047923603051
 30
0.0
 11
-5314.1285387934231
 21
-154.42611580213509
 31
0.0
  0
LINE
  5
F552
  8
AM_VIS
 10
-5314.1285387934231
 20
-149.13047923603051
 30
0.0
 11
-5313.6285578318912
 21
-148.62611596828131
 31
0.0
  0
LINE
  5
F553
  8
AM_VIS
 10
-5313.3693005558243
 20
-148.62385346430921
 30
0.0
 11
-5313.6285578318912
 21
-148.62611596828131
 31
0.0
  0
LINE
  5
F554
  8
AM_HID
 10
-5313.6285387934231
 20
-149.92611580213531
 30
0.0
 11
-5313.6285387934231
 21
-153.426115802135
 31
0.0
  0
LINE
  5
F555
  8
AM_HID
 10
-5313.6285387934231
 20
-148.62611580213499
 30
0.0
 11
-5313.6285387934231
 21
-149.92611580213531
 31
0.0
  0
LINE
  5
F557
  8
AM_HID
 10
-5313.6285387934231
 20
-156.42611580213531
 30
0.0
 11
-5313.6285387934231
 21
-153.426115802135
 31
0.0
  0
LINE
  5
F55A
  8
AM_HID
 10
-5313.6285387934231
 20
-59.926115802135442
 30
0.0
 11
-5313.6285387934231
 21
-62.92611580213562
 31
0.0
  0
ARC
  5
F79E
  8
AM_HID
 10
-5289.8285387934238
 20
-61.849443573229379
 30
0.0
 40
0.3000000000000024
 50
0.000000000000007
 51
88.499999999998224
  0
LINE
  5
F9E2
  8
AM_VIS
 10
-5314.9472944922627
 20
-140.32611580213489
 30
0.0
 11
-5314.9472944922627
 21
-76.02611580213545
 31
0.0
  0
LINE
  5
F9E3
  8
AM_HID
 10
-5287.5285387934236
 20
-140.2261158021353
 30
0.0
 11
-5287.5285387934236
 21
-76.126115802135374
 31
0.0
  0
LINE
  5
F9E4
  8
AM_HID
 10
-5289.5285387934218
 20
-139.70295936855371
 30
0.0
 11
-5289.5285387934218
 21
-76.649272235717149
 31
0.0
  0
LINE
  5
F9E5
  8
AM_HID
 10
-5289.8206857089299
 20
-140.50268522853401
 30
0.0
 11
-5313.6285387934231
 21
-141.1261158021351
 31
0.0
  0
ARC
  5
F9E6
  8
AM_HID
 10
-5289.8285387934238
 20
-140.20278803104139
 30
0.0
 40
0.2999999999999989
 50
271.49999999999972
 51
0.000000000000007
  0
LINE
  5
F9E7
  8
AM_HID
 10
-5289.5285387934218
 20
-140.20278803104139
 30
0.0
 11
-5289.5285387934218
 21
-139.70295936855351
 31
0.0
  0
LINE
  5
F9E8
  8
AM_HID
 10
-5287.5285387934236
 20
-142.22175236824
 30
0.0
 11
-5287.5285387934236
 21
-140.22611580213541
 31
0.0
  0
LINE
  5
F9E9
  8
AM_HID
 10
-5287.0285387934236
 20
-142.22611580213541
 30
0.0
 11
-5287.5285387934236
 21
-142.22175236824
 31
0.0
  0
LINE
  5
F9EA
  8
AM_VIS
 10
-5314.6838901396468
 20
-143.3400288856688
 30
0.0
 11
-5313.6285387934231
 21
-143.526115802135
 31
0.0
  0
LINE
  5
F9EB
  8
AM_HID
 10
-5313.6285387934231
 20
-142.52611580213491
 30
0.0
 11
-5314.6838901396468
 21
-142.7122027186013
 31
0.0
  0
ARC
  5
F9EC
  8
AM_HID
 10
-5314.628538793424
 20
-143.026115802135
 30
0.0
 40
0.3187556988391738
 50
100.0000000000055
 51
180.0
  0
ARC
  5
F9ED
  8
AM_VIS
 10
-5314.628538793424
 20
-143.026115802135
 30
0.0
 40
0.3187556988391738
 50
180.0
 51
260.00000000000472
  0
LINE
  5
F9EE
  8
AM_VIS
 10
-5314.9472944922627
 20
-140.32611580213521
 30
0.0
 11
-5314.9472944922627
 21
-143.02611580213519
 31
0.0
  0
LINE
  5
F9EF
  8
L2
  6
DASHDOT
 10
-5322.4658685945369
 20
-108.1761158021353
 30
0.0
 11
-5278.3575107183478
 21
-108.1761158021353
 31
0.0
  0
LINE
  5
F9F0
  8
AM_HID
 10
-5289.5285387934218
 20
-76.149443573229405
 30
0.0
 11
-5289.5285387934218
 21
-62.992647476901418
 31
0.0
  0
LINE
  5
F9F1
  8
AM_VIS
 10
-5314.9472944922627
 20
-73.326115802135632
 30
0.0
 11
-5314.9472944922627
 21
-66.426115802135499
 31
0.0
  0
LINE
  5
F9F2
  8
AM_HID
 10
-5289.8206857089299
 20
-75.849546375736679
 30
0.0
 11
-5313.6285387934231
 21
-75.226115802135439
 31
0.0
  0
LINE
  5
F9F3
  8
AM_HID
 10
-5287.0285387934236
 20
-74.126115802135388
 30
0.0
 11
-5287.5285387934236
 21
-74.13047923603078
 31
0.0
  0
LINE
  5
F9F4
  8
AM_HID
 10
-5287.5285387934236
 20
-74.130479236030752
 30
0.0
 11
-5287.5285387934236
 21
-76.126115802135374
 31
0.0
  0
LINE
  5
F9F5
  8
AM_HID
 10
-5289.5285387934218
 20
-76.149443573229377
 30
0.0
 11
-5289.5285387934218
 21
-76.649272235717191
 31
0.0
  0
ARC
  5
F9F6
  8
AM_HID
 10
-5289.8285387934238
 20
-76.149443573229377
 30
0.0
 40
0.2999999999999989
 50
0.000000000000007
 51
88.500000000000284
  0
LINE
  5
F9F7
  8
AM_VIS
 10
-5314.9472944922627
 20
-76.02611580213545
 30
0.0
 11
-5314.9472944922627
 21
-73.326115802135575
 31
0.0
  0
ARC
  5
F9F8
  8
AM_VIS
 10
-5314.628538793424
 20
-73.326115802135632
 30
0.0
 40
0.3187556988391738
 50
99.99999999999531
 51
180.0
  0
ARC
  5
F9F9
  8
AM_HID
 10
-5314.628538793424
 20
-73.326115802135632
 30
0.0
 40
0.3187556988391738
 50
180.0
 51
259.99999999999432
  0
LINE
  5
F9FA
  8
AM_HID
 10
-5313.6285387934231
 20
-73.826115802135703
 30
0.0
 11
-5314.6838901396468
 21
-73.640028885669352
 31
0.0
  0
LINE
  5
F9FB
  8
AM_VIS
 10
-5314.6838901396468
 20
-73.012202718601984
 30
0.0
 11
-5313.6285387934231
 21
-72.826115802135661
 31
0.0
  0
LINE
  5
F9FC
  8
AM_HID
 10
-5289.5285387934218
 20
-61.849443573229379
 30
0.0
 11
-5289.5285387934218
 21
-62.349272235717137
 31
0.0
  0
LINE
  5
F9FD
  8
AM_VIS
 10
-5314.9472944922627
 20
-66.426115802135499
 30
0.0
 11
-5314.9472944922627
 21
-60.226115802135752
 31
0.0
  0
LINE
  5
F9FE
  8
AM_HID
 10
-5313.6285387934231
 20
-67.726115802135581
 30
0.0
 11
-5313.6285387934231
 21
-66.426115802135499
 31
0.0
  0
LINE
  5
F9FF
  8
AM_HID
 10
-5313.6285387934231
 20
-66.426115802135499
 30
0.0
 11
-5313.6285387934231
 21
-62.92611580213562
 31
0.0
  0
LINE
  5
FA00
  8
AM_VIS
 10
-5313.3693005558243
 20
-67.72837813996145
 30
0.0
 11
-5313.6285578318912
 21
-67.726115635989402
 31
0.0
  0
LINE
  5
FA01
  8
AM_VIS
 10
-5314.1285387934231
 20
-67.221752368240175
 30
0.0
 11
-5313.6285578318912
 21
-67.726115635989402
 31
0.0
  0
LINE
  5
FA02
  8
AM_VIS
 10
-5314.1285387934231
 20
-67.221752368240203
 30
0.0
 11
-5314.1285387934231
 21
-58.630479236030901
 31
0.0
  0
LINE
  5
FA86
  8
AM_VIS
 10
-5313.3693005558243
 20
-67.728378139961421
 30
0.0
 11
-5313.3837283492039
 21
-58.638281257691787
 31
0.0
  0
LINE
  5
FB0A
  8
AM_HID
 10
-5289.8206857089299
 20
-61.549546375736732
 30
0.0
 11
-5313.6285387934231
 21
-60.926115802135477
 31
0.0
  0
LINE
  5
FB0B
  8
AM_VIS
 10
-5312.9092587627392
 20
-58.163811671226227
 30
0.0
 11
-5287.3128380065509
 21
-59.505263240652432
 31
0.0
  0
ARC
  5
FB0C
  8
AM_VIS
 10
-5287.3285387934238
 20
-59.804852101078779
 30
0.0
 40
0.2999999999999825
 50
0.000000000000007
 51
86.999999999997954
  0
ARC
  5
FB0D
  8
AM_VIS
 10
-5314.628538793424
 20
-60.226115802135752
 30
0.0
 40
0.3187556988391738
 50
99.999999999996248
 51
180.0
  0
ARC
  5
FB0E
  8
AM_HID
 10
-5314.628538793424
 20
-60.226115802135752
 30
0.0
 40
0.3187556988391738
 50
180.0
 51
259.99999999999528
  0
LINE
  5
FB0F
  8
AM_HID
 10
-5313.6285387934231
 20
-60.726115802135837
 30
0.0
 11
-5314.6838901396468
 21
-60.540028885669471
 31
0.0
  0
LINE
  5
FB10
  8
AM_HID
 10
-5314.1285387934231
 20
-59.814279292490014
 30
0.0
 11
-5313.6285387934231
 21
-59.72611580213578
 31
0.0
  0
LINE
  5
FB11
  8
AM_VIS
 10
-5314.6838901396468
 20
-59.91220271860211
 30
0.0
 11
-5314.1285387934231
 21
-59.814279292490014
 31
0.0
  0
LINE
  5
FB12
  8
AM_VIS
 10
-5312.9094744558743
 20
-58.16402736436131
 30
0.0
 11
-5313.3837283492039
 21
-58.638281257691787
 31
0.0
  0
LINE
  5
FB13
  8
AM_HID
 10
-5313.3837283492039
 20
-58.63828125769178
 30
0.0
 11
-5313.628538793424
 21
-58.883091701910573
 31
0.0
  0
LINE
  5
FB14
  8
AM_VIS
 10
-5313.3693005558243
 20
-58.623853464309633
 30
0.0
 11
-5314.1285387934231
 21
-58.630479236030901
 31
0.0
  0
LINE
  5
FB15
  8
AM_HID
 10
-5313.6285387934231
 20
-58.883091701910573
 30
0.0
 11
-5313.6285387934231
 21
-59.926115802135477
 31
0.0
  0
LINE
  5
FB16
  8
AM_HID
 10
-5313.6285578318912
 20
-59.926115635989269
 30
0.0
 11
-5313.6285578318912
 21
-58.626115968281709
 31
0.0
  0
LINE
  5
FB17
  8
AM_VIS
 10
-5312.9092587627392
 20
-58.163811671226227
 30
0.0
 11
-5312.9094744558743
 21
-58.16402736436131
 31
0.0
  0
LINE
  5
FB18
  8
AM_HID
 10
-5351.7072854432963
 20
-191.68367263499741
 30
0.0
 11
-5352.3307160168979
 21
-215.4915257194898
 31
0.0
  0
LINE
  5
FB19
  8
AM_HID
 10
-5366.0072854432983
 20
-191.68367263499741
 30
0.0
 11
-5366.6307160168981
 21
-215.4915257194898
 31
0.0
  0
LINE
  5
FB1A
  8
AM_VIS
 10
-5350.2864328818132
 20
-217.9993734218703
 30
0.0
 11
-5348.9449813123883
 21
-192.40295266568171
 31
0.0
  0
LINE
  5
FB1B
  8
L2
  6
DASHDOT
 10
-5398.9572854432963
 20
-230.0664903889168
 30
0.0
 11
-5398.9572854432963
 21
-178.1899237848441
 31
0.0
  0
LINE
  5
FB1C
  8
AM_VIS
 10
-5447.6281380047794
 20
-217.9993734218703
 30
0.0
 11
-5448.9695895742043
 21
-192.40295266568171
 31
0.0
  0
LINE
  5
FB1D
  8
AM_HID
 10
-5431.9072854432961
 20
-191.68367263499741
 30
0.0
 11
-5431.2838548696936
 21
-215.4915257194898
 31
0.0
  0
LINE
  5
FB1E
  8
AM_HID
 10
-5446.2072854432963
 20
-191.68367263499741
 30
0.0
 11
-5445.5838548696947
 21
-215.4915257194898
 31
0.0
  0
ARC
  5
FB1F
  8
AM_HID
 10
-5364.107285443296
 20
-190.68367263499741
 30
0.0
 40
0.3187556988391738
 50
90.000000000000057
 51
169.9999999999977
  0
LINE
  5
FB20
  8
AM_VIS
 10
-5364.107285443296
 20
-190.36491693615801
 30
0.0
 11
-5366.8072854432958
 21
-190.36491693615801
 31
0.0
  0
LINE
  5
FB21
  8
AM_VIS
 10
-5448.9695895742043
 20
-192.40295266568171
 30
0.0
 11
-5348.9449813123883
 21
-192.40295266568171
 31
0.0
  0
LINE
  5
FB22
  8
AM_VIS
 10
-5358.5072854432956
 20
-191.68367263499741
 30
0.0
 11
-5439.4072854432961
 21
-191.68367263499741
 31
0.0
  0
LINE
  5
FB23
  8
AM_VIS
 10
-5431.1072854432969
 20
-190.36491693615801
 30
0.0
 11
-5366.8072854432967
 21
-190.36491693615801
 31
0.0
  0
LINE
  5
100C9
  8
AM_HID
 10
-5364.607285443296
 20
-191.68367263499741
 30
0.0
 11
-5364.4211985268294
 21
-190.62832128877301
 31
0.0
  0
LINE
  5
100CA
  8
AM_VIS
 10
-5358.50728527715
 20
-191.6836535965295
 30
0.0
 11
-5358.0029220094011
 21
-191.18367263499741
 31
0.0
  0
LINE
  5
100CB
  8
AM_VIS
 10
-5358.50728527715
 20
-191.6836535965295
 30
0.0
 11
-5358.5095477811219
 21
-191.94291087259839
 31
0.0
  0
LINE
  5
100CC
  8
AM_VIS
 10
-5349.4050231054707
 20
-191.94291087259779
 30
0.0
 11
-5358.5095477811219
 21
-191.94291087259839
 31
0.0
  0
LINE
  5
100CD
  8
AM_VIS
 10
-5352.7072854432972
 20
-191.18367263499741
 30
0.0
 11
-5358.0029220094011
 21
-191.18367263499741
 31
0.0
  0
LINE
  5
100CE
  8
AM_HID
 10
-5349.4072856094417
 20
-191.6836535965295
 30
0.0
 11
-5350.7072852771498
 21
-191.6836535965295
 31
0.0
  0
LINE
  5
100CF
  8
AM_HID
 10
-5349.6642613430722
 20
-191.68367263499741
 30
0.0
 11
-5349.4194508988521
 21
-191.92848307921639
 31
0.0
  0
LINE
  5
100D0
  8
AM_HID
 10
-5350.7072854432963
 20
-191.68367263499741
 30
0.0
 11
-5349.6642613430722
 21
-191.68367263499741
 31
0.0
  0
LINE
  5
100D1
  8
AM_VIS
 10
-5352.7072854432972
 20
-191.18367263499741
 30
0.0
 11
-5349.4116488771906
 21
-191.18367263499741
 31
0.0
  0
LINE
  5
100D2
  8
AM_VIS
 10
-5349.4116488771906
 20
-191.18367263499741
 30
0.0
 11
-5349.4050231054707
 21
-191.9429108725985
 31
0.0
  0
LINE
  5
10398
  8
AM_VIS
 10
-5348.9451970055206
 20
-192.40273697254671
 30
0.0
 11
-5349.4194508988521
 21
-191.92848307921639
 31
0.0
  0
LINE
  5
10399
  8
AM_VIS
 10
-5348.9451970055206
 20
-192.40273697254671
 30
0.0
 11
-5348.9449813123883
 21
-192.4029526656816
 31
0.0
  0
LINE
  5
105DC
  8
AM_HID
 10
-5353.7072854432963
 20
-191.68367263499741
 30
0.0
 11
-5350.7072854432963
 21
-191.68367263499741
 31
0.0
  0
LINE
  5
105DD
  8
AM_HID
 10
-5353.7072854432963
 20
-191.68367263499741
 30
0.0
 11
-5357.2072854432981
 21
-191.68367263499741
 31
0.0
  0
LINE
  5
10661
  8
AM_HID
 10
-5357.2072854432981
 20
-191.68367263499741
 30
0.0
 11
-5358.5072854432956
 21
-191.68367263499741
 31
0.0
  0
ARC
  5
10662
  8
AM_VIS
 10
-5364.107285443296
 20
-190.68367263499741
 30
0.0
 40
0.3187556988391738
 50
9.9999999999987796
 51
90.000000000000057
  0
LINE
  5
10663
  8
AM_VIS
 10
-5363.7933723597607
 20
-190.62832128877301
 30
0.0
 11
-5363.607285443296
 21
-191.68367263499741
 31
0.0
  0
ARC
  5
10664
  8
AM_HID
 10
-5351.0072854432947
 20
-190.68367263499741
 30
0.0
 40
0.3187556988391738
 50
90.000000000000057
 51
170.00000000000099
  0
ARC
  5
10665
  8
AM_VIS
 10
-5351.0072854432947
 20
-190.68367263499741
 30
0.0
 40
0.3187556988391738
 50
10.00000000000224
 51
90.000000000000057
  0
LINE
  5
10666
  8
AM_VIS
 10
-5350.693372359764
 20
-190.62832128877301
 30
0.0
 11
-5350.59544893365
 21
-191.18367263499741
 31
0.0
  0
LINE
  5
10667
  8
AM_HID
 10
-5350.59544893365
 20
-191.18367263499741
 30
0.0
 11
-5350.5072854432956
 21
-191.68367263499741
 31
0.0
  0
LINE
  5
10668
  8
AM_HID
 10
-5351.5072854432956
 20
-191.68367263499741
 30
0.0
 11
-5351.321198526829
 21
-190.62832128877301
 31
0.0
  0
LINE
  5
10669
  8
AM_VIS
 10
-5351.0072854432947
 20
-190.36491693615821
 30
0.0
 11
-5364.107285443296
 21
-190.36491693615801
 31
0.0
  0
LINE
  5
1066C
  8
AM_HID
 10
-5363.8147979820624
 20
-215.7836726349974
 30
0.0
 11
-5364.6247037766798
 21
-215.7836726349974
 31
0.0
  0
LINE
  5
1066D
  8
AM_VIS
 10
-5353.7816362534541
 20
-218.28367263499729
 30
0.0
 11
-5444.1329346331377
 21
-218.28367263499729
 31
0.0
  0
LINE
  5
1066E
  8
AM_HID
 10
-5431.0072854432956
 20
-217.7836726349974
 30
0.0
 11
-5366.9072854432961
 21
-217.7836726349974
 31
0.0
  0
LINE
  5
1066F
  8
AM_HID
 10
-5430.4841290097129
 20
-215.7836726349974
 30
0.0
 11
-5367.430441876877
 21
-215.7836726349974
 31
0.0
  0
ARC
  5
1067D
  8
AM_HID
 10
-5366.9306132143893
 20
-215.4836726349973
 30
0.0
 40
0.3000000000000018
 50
270.0
 51
358.49999999999977
  0
LINE
  5
1067E
  8
AM_HID
 10
-5367.430441876877
 20
-215.7836726349974
 30
0.0
 11
-5366.9306132143893
 21
-215.7836726349974
 31
0.0
  0
LINE
  5
1067F
  8
AM_HID
 10
-5365.0033179011061
 20
-215.7836726349974
 30
0.0
 11
-5366.9306132143893
 21
-215.7836726349974
 31
0.0
  0
LINE
  5
10680
  8
AM_HID
 10
-5364.907285443297
 20
-218.28367263499729
 30
0.0
 11
-5364.9116488771924
 21
-217.7836726349974
 31
0.0
  0
LINE
  5
10681
  8
AM_HID
 10
-5366.9072854432961
 20
-217.7836726349974
 30
0.0
 11
-5364.9116488771924
 21
-217.7836726349974
 31
0.0
  0
ARC
  5
10682
  8
AM_VIS
 10
-5350.5860217422378
 20
-217.9836726349973
 30
0.0
 40
0.3000000000000007
 50
270.0
 51
357.00000000000108
  0
LINE
  5
10683
  8
AM_VIS
 10
-5350.5860217422378
 20
-218.28367263499729
 30
0.0
 11
-5353.7816362534541
 21
-218.28367263499729
 31
0.0
  0
LINE
  5
10684
  8
AM_HID
 10
-5357.2072854432981
 20
-215.7836726349974
 30
0.0
 11
-5363.0180496667781
 21
-215.7836726349974
 31
0.0
  0
LINE
  5
10685
  8
AM_HID
 10
-5353.1304418768777
 20
-215.7836726349974
 30
0.0
 11
-5357.2072854432981
 21
-215.7836726349974
 31
0.0
  0
ARC
  5
10686
  8
AM_HID
 10
-5352.63061321439
 20
-215.4836726349973
 30
0.0
 40
0.2999999999999448
 50
270.0
 51
358.50000000000108
  0
LINE
  5
10687
  8
AM_HID
 10
-5353.1304418768777
 20
-215.7836726349974
 30
0.0
 11
-5352.63061321439
 21
-215.7836726349974
 31
0.0
  0
LINE
  5
10688
  8
AM_HID
 10
-5363.0180496667781
 20
-215.7836726349974
 30
0.0
 11
-5363.8147979820624
 21
-215.7836726349974
 31
0.0
  0
LINE
  5
10689
  8
AM_VIS
 10
-5352.4401846840274
 20
-59.563811671226247
 30
0.0
 11
-5445.4743862025643
 21
-59.563811671226247
 31
0.0
  0
LINE
  5
10D52
  8
AM_VIS
 10
-5445.4743862025643
 20
-156.78841993304439
 30
0.0
 11
-5352.4401846840274
 21
-156.78841993304439
 31
0.0
  0
POLYLINE
  5
10FA2
  8
AM_VIS
 66
     1
 10
0.0
 20
0.0
 30
0.0
  0
VERTEX
  5
1128B
  8
AM_VIS
 10
-5250.0296015933382
 20
-66.76892697697906
 30
0.0
  0
VERTEX
  5
1128C
  8
AM_VIS
 10
-5250.0299999999979
 20
-61.747799999999998
 30
0.0
 42
-0.4069655827246953
  0
VERTEX
  5
1128D
  8
AM_VIS
 10
-5246.5343982216964
 20
-58.163811671226249
 30
0.0
 42
0.7037108517427388
  0
SEQEND
  5
1128E
  8
AM_VIS
  0
ARC
  5
10FA3
  8
AM_VIS
 10
-5158.2672974624293
 20
-66.426115802135499
 30
0.0
 40
6.3999999999999782
 50
180.0
 51
270.0
  0
LINE
  5
10FA4
  8
AM_VIS
 10
-5153.2913034484463
 20
-66.656286820070633
 30
0.0
 11
-5158.0371264444948
 21
-71.40210981611871
 31
0.0
  0
ARC
  5
10FA5
  8
AM_VIS
 10
-5158.2672974624293
 20
-66.426115802135499
 30
0.0
 40
4.9813145980456772
 50
177.3515976587243
 51
272.64840234130043
  0
LINE
  5
10FA6
  8
AM_VIS
 10
-5151.7672974624284
 20
-74.91256292956966
 30
0.0
 11
-5151.7672974624284
 21
-67.72611580213561
 31
0.0
  0
LINE
  5
10FA7
  8
AM_VIS
 10
-5151.8990731660697
 20
-69.223854512338775
 30
0.0
 11
-5155.5013344558656
 21
-72.826115802135391
 31
0.0
  0
ARC
  5
10FA8
  8
AM_VIS
 10
-5158.2672974624293
 20
-66.426115802135499
 30
0.0
 40
7.399999999999971
 50
180.0
 51
270.0
  0
ARC
  5
10FA9
  8
AM_VIS
 10
-5158.2672974624293
 20
-66.426115802135499
 30
0.0
 40
8.8000000000000007
 50
180.0
 51
217.1148624550776
  0
LINE
  5
10FAA
  8
AM_VIS
 10
-5154.7672974624293
 20
-72.826115802135519
 30
0.0
 11
-5158.2672974624293
 21
-72.826115802135519
 31
0.0
  0
ARC
  5
10FAB
  8
AM_VIS
 10
-5154.7672974624293
 20
-76.02611580213545
 30
0.0
 40
3.2000000000000108
 50
20.364134806313992
 51
90.0
  0
ARC
  5
10FAC
  8
AM_VIS
 10
-5154.7672974624293
 20
-76.02611580213545
 30
0.0
 40
3.2000000000000108
 50
0.000000000000007
 51
20.364134806313992
  0
ARC
  5
10FAD
  8
AM_VIS
 10
-5154.7672974624293
 20
-76.02611580213545
 30
0.0
 40
2.200000000000021
 50
0.000000000000007
 51
90.0
  0
LINE
  5
10FAE
  8
AM_VIS
 10
-5158.2672974624293
 20
-73.826115802135519
 30
0.0
 11
-5154.7672974624293
 21
-73.826115802135519
 31
0.0
  0
LINE
  5
10FAF
  8
AM_VIS
 10
-5165.294119194401
 20
-72.110028288042486
 30
0.0
 11
-5166.2206022931869
 21
-73.214167849499631
 31
0.0
  0
LINE
  5
10FB0
  8
AM_VIS
 10
-5166.2029216678557
 20
-73.619120746809472
 30
0.0
 11
-5165.460302407103
 21
-74.361740007563853
 31
0.0
  0
LINE
  5
10FB1
  8
AM_VIS
 10
-5165.0553495097938
 20
-74.379420632894053
 30
0.0
 11
-5163.9512099483372
 21
-73.452937534107136
 31
0.0
  0
ARC
  5
10FB2
  8
AM_VIS
 10
-5158.2672974624293
 20
-66.426115802135499
 30
0.0
 40
8.8000000000000007
 50
232.8851375449286
 51
270.0
  0
LINE
  5
10FB3
  8
AM_VIS
 10
-5153.56702332241
 20
-75.226115802135368
 30
0.0
 11
-5158.2672974624293
 21
-75.226115802135368
 31
0.0
  0
POLYLINE
  5
10FB4
  8
AM_VIS
 66
     1
 10
0.0
 20
0.0
 30
0.0
  0
VERTEX
  5
1128F
  8
AM_VIS
 10
-5150.0049933315213
 20
-66.76892697697906
 30
0.0
  0
VERTEX
  5
11290
  8
AM_VIS
 10
-5150.0045949248597
 20
-61.747799999999998
 30
0.0
 42
0.4069655827246953
  0
VERTEX
  5
11291
  8
AM_VIS
 10
-5153.5001967031631
 20
-58.163811671226249
 30
0.0
 42
-0.7037108517427388
  0
SEQEND
  5
11292
  8
AM_VIS
  0
ARC
  5
10FB5
  8
AM_VIS
 10
-5153.7672974624284
 20
-61.926115802135541
 30
0.0
 40
3.2956365661046321
 50
0.000000000000007
 51
90.0
  0
LINE
  5
10FB6
  8
AM_VIS
 10
-5159.062934028535
 20
-58.630479236030901
 30
0.0
 11
-5159.062934028535
 21
-59.921752368240149
 31
0.0
  0
ARC
  5
10FB7
  8
AM_VIS
 10
-5167.8672974624296
 20
-62.926115802135662
 30
0.0
 40
3.2000000000000108
 50
0.000000000000007
 51
69.635865193691117
  0
LINE
  5
10FB8
  8
AM_VIS
 10
-5164.6672974624289
 20
-66.426115802135499
 30
0.0
 11
-5164.6672974624289
 21
-62.926115802135662
 31
0.0
  0
ARC
  5
10FB9
  8
AM_VIS
 10
-5158.2672974624293
 20
-66.426115802135499
 30
0.0
 40
4.9813145980456772
 50
357.35159765869793
 51
22.810301179719922
  0
LINE
  5
10FBA
  8
AM_VIS
 10
-5163.243291476414
 20
-66.195944784202524
 30
0.0
 11
-5158.4974684803647
 21
-61.45012178815012
 31
0.0
  0
ARC
  5
10FBB
  8
AM_VIS
 10
-5158.2672974624293
 20
-66.426115802135499
 30
0.0
 40
4.9813145980456772
 50
67.189698820282103
 51
92.648402341275954
  0
LINE
  5
10FBC
  8
AM_VIS
 10
-5153.6755542165756
 20
-64.494953175928231
 30
0.0
 11
-5151.8859828643826
 21
-62.705381823736317
 31
0.0
  0
LINE
  5
10FBD
  8
AM_VIS
 10
-5154.5465634840302
 20
-60.044801204089822
 30
0.0
 11
-5156.3361348362223
 21
-61.834372556281672
 31
0.0
  0
LINE
  5
10FBE
  8
AM_VIS
 10
-5151.8859828643826
 20
-62.705381823736388
 30
0.0
 11
-5151.8859828643826
 21
-67.089443867092996
 31
0.0
  0
ARC
  5
10FBF
  8
AM_VIS
 10
-5167.8672974624296
 20
-62.926115802135662
 30
0.0
 40
3.2000000000000108
 50
69.635865193691117
 51
90.0
  0
LINE
  5
10FC0
  8
AM_VIS
 10
-5151.7672972962828
 20
-67.726115635989402
 30
0.0
 11
-5151.7629340285339
 21
-67.221752368240175
 31
0.0
  0
ARC
  5
10FC1
  8
AM_VIS
 10
-5154.3672974624315
 20
-62.52611580213545
 30
0.0
 40
2.6043634338953439
 50
0.000000000000007
 51
90.0
  0
LINE
  5
10FC2
  8
AM_VIS
 10
-5151.7629340285339
 20
-62.52611580213545
 30
0.0
 11
-5151.7629340285339
 21
-67.221752368240175
 31
0.0
  0
LINE
  5
10FC3
  8
AM_VIS
 10
-5151.7629340285339
 20
-67.221752368240175
 30
0.0
 11
-5150.4716608963236
 21
-67.221752368240175
 31
0.0
  0
LINE
  5
10FC4
  8
AM_VIS
 10
-5150.4716608963236
 20
-67.221752368240203
 30
0.0
 11
-5150.4716608963236
 21
-61.926115802135541
 31
0.0
  0
LINE
  5
10FC5
  8
AM_VIS
 10
-5159.5672974624295
 20
-59.926115802135428
 30
0.0
 11
-5166.7537445898633
 21
-59.926115802135428
 31
0.0
  0
LINE
  5
10FC6
  8
AM_VIS
 10
-5158.9306255273868
 20
-60.044801204089822
 30
0.0
 11
-5154.5465634840302
 21
-60.044801204089822
 31
0.0
  0
LINE
  5
10FC7
  8
AM_VIS
 10
-5159.062934028535
 20
-59.921752368240149
 30
0.0
 11
-5154.3672974624315
 21
-59.921752368240149
 31
0.0
  0
LINE
  5
10FC8
  8
AM_VIS
 10
-5159.062934028535
 20
-59.921752368240099
 30
0.0
 11
-5159.567297296282
 21
-59.926115635989269
 31
0.0
  0
LINE
  5
10FC9
  8
AM_VIS
 10
-5164.6672974624289
 20
-63.660152795572557
 30
0.0
 11
-5161.0650361726348
 21
-60.057891505775927
 31
0.0
  0
LINE
  5
10FCA
  8
AM_VIS
 10
-5165.6672974624289
 20
-62.926115802135662
 30
0.0
 11
-5165.6672974624289
 21
-66.426115802135499
 31
0.0
  0
ARC
  5
10FCB
  8
AM_VIS
 10
-5167.8672974624296
 20
-62.926115802135662
 30
0.0
 40
2.200000000000021
 50
0.000000000000007
 51
90.0
  0
LINE
  5
10FCC
  8
AM_VIS
 10
-5167.0672974624295
 20
-66.426115802135499
 30
0.0
 11
-5167.0672974624295
 21
-61.725841662115968
 31
0.0
  0
ARC
  5
10FCD
  8
AM_VIS
 10
-5158.2672974624293
 20
-66.426115802135499
 30
0.0
 40
5.7825462644184791
 50
27.01652280964133
 51
62.983477190360581
  0
POLYLINE
  5
10FCE
  8
AM_VIS
 66
     1
 10
0.0
 20
0.0
 30
0.0
 70
     8
  0
VERTEX
  5
10FCF
  8
0
 10
-5150.0045949248597
 20
-61.706000000000003
 30
0.0
 70
    32
  0
VERTEX
  5
10FD0
  8
0
 10
-5150.0045949248597
 20
-61.706299999999999
 30
0.0
 70
    32
  0
VERTEX
  5
10FD1
  8
0
 10
-5150.0045949248597
 20
-61.706600000000002
 30
0.0
 70
    32
  0
VERTEX
  5
10FD2
  8
0
 10
-5150.0045949248597
 20
-61.707000000000001
 30
0.0
 70
    32
  0
VERTEX
  5
10FD3
  8
0
 10
-5150.0045949248597
 20
-61.707299999999982
 30
0.0
 70
    32
  0
VERTEX
  5
10FD4
  8
0
 10
-5150.0045949248597
 20
-61.707599999999999
 30
0.0
 70
    32
  0
VERTEX
  5
10FD5
  8
0
 10
-5150.0045949248597
 20
-61.707900000000002
 30
0.0
 70
    32
  0
VERTEX
  5
10FD6
  8
0
 10
-5150.0045949248597
 20
-61.708300000000001
 30
0.0
 70
    32
  0
VERTEX
  5
10FD7
  8
0
 10
-5150.0045949248597
 20
-61.708599999999997
 30
0.0
 70
    32
  0
VERTEX
  5
10FD8
  8
0
 10
-5150.0045949248597
 20
-61.708899999999993
 30
0.0
 70
    32
  0
VERTEX
  5
10FD9
  8
0
 10
-5150.0045949248597
 20
-61.709200000000003
 30
0.0
 70
    32
  0
VERTEX
  5
10FDA
  8
0
 10
-5150.0045949248597
 20
-61.709600000000002
 30
0.0
 70
    32
  0
VERTEX
  5
10FDB
  8
0
 10
-5150.0045949248597
 20
-61.70989999999999
 30
0.0
 70
    32
  0
VERTEX
  5
10FDC
  8
0
 10
-5150.0045949248597
 20
-61.7102
 30
0.0
 70
    32
  0
VERTEX
  5
10FDD
  8
0
 10
-5150.0045949248597
 20
-61.710599999999999
 30
0.0
 70
    32
  0
VERTEX
  5
10FDE
  8
0
 10
-5150.0045949248597
 20
-61.710900000000002
 30
0.0
 70
    32
  0
VERTEX
  5
10FDF
  8
0
 10
-5150.0045949248597
 20
-61.711199999999998
 30
0.0
 70
    32
  0
VERTEX
  5
10FE0
  8
0
 10
-5150.0045949248597
 20
-61.711500000000001
 30
0.0
 70
    32
  0
VERTEX
  5
10FE1
  8
0
 10
-5150.0045949248597
 20
-61.7119
 30
0.0
 70
    32
  0
VERTEX
  5
10FE2
  8
0
 10
-5150.0045949248597
 20
-61.712200000000003
 30
0.0
 70
    32
  0
VERTEX
  5
10FE3
  8
0
 10
-5150.0045949248597
 20
-61.712499999999999
 30
0.0
 70
    32
  0
VERTEX
  5
10FE4
  8
0
 10
-5150.0045949248597
 20
-61.712800000000001
 30
0.0
 70
    32
  0
VERTEX
  5
10FE5
  8
0
 10
-5150.0045949248597
 20
-61.713200000000001
 30
0.0
 70
    32
  0
VERTEX
  5
10FE6
  8
0
 10
-5150.0045949248597
 20
-61.713500000000003
 30
0.0
 70
    32
  0
VERTEX
  5
10FE7
  8
0
 10
-5150.0045949248597
 20
-61.713799999999999
 30
0.0
 70
    32
  0
VERTEX
  5
10FE8
  8
0
 10
-5150.0045949248597
 20
-61.714199999999998
 30
0.0
 70
    32
  0
VERTEX
  5
10FE9
  8
0
 10
-5150.0045949248597
 20
-61.714500000000001
 30
0.0
 70
    32
  0
VERTEX
  5
10FEA
  8
0
 10
-5150.0045949248597
 20
-61.714799999999983
 30
0.0
 70
    32
  0
VERTEX
  5
10FEB
  8
0
 10
-5150.0045949248597
 20
-61.7151
 30
0.0
 70
    32
  0
VERTEX
  5
10FEC
  8
0
 10
-5150.0045949248597
 20
-61.715499999999992
 30
0.0
 70
    32
  0
VERTEX
  5
10FED
  8
0
 10
-5150.0045949248597
 20
-61.715800000000002
 30
0.0
 70
    32
  0
VERTEX
  5
10FEE
  8
0
 10
-5150.0045949248597
 20
-61.716099999999997
 30
0.0
 70
    32
  0
VERTEX
  5
10FEF
  8
0
 10
-5150.0045949248597
 20
-61.7164
 30
0.0
 70
    32
  0
VERTEX
  5
10FF0
  8
0
 10
-5150.0045949248597
 20
-61.716799999999999
 30
0.0
 70
    32
  0
VERTEX
  5
10FF1
  8
0
 10
-5150.0045949248597
 20
-61.717100000000002
 30
0.0
 70
    32
  0
VERTEX
  5
10FF2
  8
0
 10
-5150.0045949248597
 20
-61.717399999999991
 30
0.0
 70
    32
  0
VERTEX
  5
10FF3
  8
0
 10
-5150.0045949248597
 20
-61.717799999999997
 30
0.0
 70
    32
  0
VERTEX
  5
10FF4
  8
0
 10
-5150.0045949248597
 20
-61.7181
 30
0.0
 70
    32
  0
VERTEX
  5
10FF5
  8
0
 10
-5150.0045949248597
 20
-61.718400000000003
 30
0.0
 70
    32
  0
VERTEX
  5
10FF6
  8
0
 10
-5150.0045949248597
 20
-61.718699999999998
 30
0.0
 70
    32
  0
VERTEX
  5
10FF7
  8
0
 10
-5150.0045949248597
 20
-61.719099999999997
 30
0.0
 70
    32
  0
VERTEX
  5
10FF8
  8
0
 10
-5150.0045949248597
 20
-61.7194
 30
0.0
 70
    32
  0
VERTEX
  5
10FF9
  8
0
 10
-5150.0045949248597
 20
-61.719700000000003
 30
0.0
 70
    32
  0
VERTEX
  5
10FFA
  8
0
 10
-5150.0045949248597
 20
-61.719999999999999
 30
0.0
 70
    32
  0
VERTEX
  5
10FFB
  8
0
 10
-5150.0045949248597
 20
-61.720399999999991
 30
0.0
 70
    32
  0
VERTEX
  5
10FFC
  8
0
 10
-5150.0045949248597
 20
-61.720700000000001
 30
0.0
 70
    32
  0
VERTEX
  5
10FFD
  8
0
 10
-5150.0045949248597
 20
-61.720999999999997
 30
0.0
 70
    32
  0
VERTEX
  5
10FFE
  8
0
 10
-5150.0045949248597
 20
-61.721299999999999
 30
0.0
 70
    32
  0
VERTEX
  5
10FFF
  8
0
 10
-5150.0045949248597
 20
-61.721699999999998
 30
0.0
 70
    32
  0
VERTEX
  5
11000
  8
0
 10
-5150.0045949248597
 20
-61.722000000000001
 30
0.0
 70
    32
  0
VERTEX
  5
11001
  8
0
 10
-5150.0045949248597
 20
-61.722299999999983
 30
0.0
 70
    32
  0
VERTEX
  5
11002
  8
0
 10
-5150.0045949248597
 20
-61.72270000000001
 30
0.0
 70
    32
  0
VERTEX
  5
11003
  8
0
 10
-5150.0045949248597
 20
-61.722999999999992
 30
0.0
 70
    32
  0
VERTEX
  5
11004
  8
0
 10
-5150.0045949248597
 20
-61.723300000000002
 30
0.0
 70
    32
  0
VERTEX
  5
11005
  8
0
 10
-5150.0045949248597
 20
-61.723599999999998
 30
0.0
 70
    32
  0
VERTEX
  5
11006
  8
0
 10
-5150.0045949248597
 20
-61.72399999999999
 30
0.0
 70
    32
  0
VERTEX
  5
11007
  8
0
 10
-5150.0045949248597
 20
-61.724299999999999
 30
0.0
 70
    32
  0
VERTEX
  5
11008
  8
0
 10
-5150.0045949248597
 20
-61.724600000000002
 30
0.0
 70
    32
  0
VERTEX
  5
11009
  8
0
 10
-5150.0045949248597
 20
-61.724899999999991
 30
0.0
 70
    32
  0
VERTEX
  5
1100A
  8
0
 10
-5150.0045949248597
 20
-61.725299999999997
 30
0.0
 70
    32
  0
VERTEX
  5
1100B
  8
0
 10
-5150.0045949248597
 20
-61.7256
 30
0.0
 70
    32
  0
VERTEX
  5
1100C
  8
0
 10
-5150.0045949248597
 20
-61.725900000000003
 30
0.0
 70
    32
  0
VERTEX
  5
1100D
  8
0
 10
-5150.0045949248597
 20
-61.726300000000002
 30
0.0
 70
    32
  0
VERTEX
  5
1100E
  8
0
 10
-5150.0045949248597
 20
-61.726599999999998
 30
0.0
 70
    32
  0
VERTEX
  5
1100F
  8
0
 10
-5150.0045949248597
 20
-61.726900000000001
 30
0.0
 70
    32
  0
VERTEX
  5
11010
  8
0
 10
-5150.0045949248597
 20
-61.727200000000003
 30
0.0
 70
    32
  0
VERTEX
  5
11011
  8
0
 10
-5150.0045949248597
 20
-61.727600000000002
 30
0.0
 70
    32
  0
VERTEX
  5
11012
  8
0
 10
-5150.0045949248597
 20
-61.727899999999991
 30
0.0
 70
    32
  0
VERTEX
  5
11013
  8
0
 10
-5150.0045949248597
 20
-61.728200000000001
 30
0.0
 70
    32
  0
VERTEX
  5
11014
  8
0
 10
-5150.0045949248597
 20
-61.728499999999997
 30
0.0
 70
    32
  0
VERTEX
  5
11015
  8
0
 10
-5150.0045949248597
 20
-61.728900000000003
 30
0.0
 70
    32
  0
VERTEX
  5
11016
  8
0
 10
-5150.0045949248597
 20
-61.729199999999999
 30
0.0
 70
    32
  0
VERTEX
  5
11017
  8
0
 10
-5150.0045949248597
 20
-61.729500000000002
 30
0.0
 70
    32
  0
VERTEX
  5
11018
  8
0
 10
-5150.0045949248597
 20
-61.729900000000001
 30
0.0
 70
    32
  0
VERTEX
  5
11019
  8
0
 10
-5150.0045949248597
 20
-61.730200000000011
 30
0.0
 70
    32
  0
VERTEX
  5
1101A
  8
0
 10
-5150.0045949248597
 20
-61.730499999999992
 30
0.0
 70
    32
  0
VERTEX
  5
1101B
  8
0
 10
-5150.0045949248597
 20
-61.730800000000002
 30
0.0
 70
    32
  0
VERTEX
  5
1101C
  8
0
 10
-5150.0045949248597
 20
-61.731200000000001
 30
0.0
 70
    32
  0
VERTEX
  5
1101D
  8
0
 10
-5150.0045949248597
 20
-61.73149999999999
 30
0.0
 70
    32
  0
VERTEX
  5
1101E
  8
0
 10
-5150.0045949248597
 20
-61.7318
 30
0.0
 70
    32
  0
VERTEX
  5
1101F
  8
0
 10
-5150.0045949248597
 20
-61.732100000000003
 30
0.0
 70
    32
  0
VERTEX
  5
11020
  8
0
 10
-5150.0045949248597
 20
-61.732500000000002
 30
0.0
 70
    32
  0
VERTEX
  5
11021
  8
0
 10
-5150.0045949248597
 20
-61.732799999999997
 30
0.0
 70
    32
  0
VERTEX
  5
11022
  8
0
 10
-5150.0045949248597
 20
-61.7331
 30
0.0
 70
    32
  0
VERTEX
  5
11023
  8
0
 10
-5150.0045949248597
 20
-61.733400000000003
 30
0.0
 70
    32
  0
VERTEX
  5
11024
  8
0
 10
-5150.0045949248597
 20
-61.733800000000002
 30
0.0
 70
    32
  0
VERTEX
  5
11025
  8
0
 10
-5150.0045949248597
 20
-61.734099999999998
 30
0.0
 70
    32
  0
VERTEX
  5
11026
  8
0
 10
-5150.0045949248597
 20
-61.734400000000001
 30
0.0
 70
    32
  0
VERTEX
  5
11027
  8
0
 10
-5150.0045949248597
 20
-61.7348
 30
0.0
 70
    32
  0
VERTEX
  5
11028
  8
0
 10
-5150.0045949248597
 20
-61.735100000000003
 30
0.0
 70
    32
  0
VERTEX
  5
11029
  8
0
 10
-5150.0045949248597
 20
-61.735399999999998
 30
0.0
 70
    32
  0
VERTEX
  5
1102A
  8
0
 10
-5150.0045949248597
 20
-61.735700000000001
 30
0.0
 70
    32
  0
VERTEX
  5
1102B
  8
0
 10
-5150.0045949248597
 20
-61.7361
 30
0.0
 70
    32
  0
VERTEX
  5
1102C
  8
0
 10
-5150.0045949248597
 20
-61.736400000000003
 30
0.0
 70
    32
  0
VERTEX
  5
1102D
  8
0
 10
-5150.0045949248597
 20
-61.736699999999999
 30
0.0
 70
    32
  0
VERTEX
  5
1102E
  8
0
 10
-5150.0045949248597
 20
-61.737000000000002
 30
0.0
 70
    32
  0
VERTEX
  5
1102F
  8
0
 10
-5150.0045949248597
 20
-61.737400000000001
 30
0.0
 70
    32
  0
VERTEX
  5
11030
  8
0
 10
-5150.0045949248597
 20
-61.737699999999997
 30
0.0
 70
    32
  0
VERTEX
  5
11031
  8
0
 10
-5150.0045949248597
 20
-61.737999999999992
 30
0.0
 70
    32
  0
VERTEX
  5
11032
  8
0
 10
-5150.0045949248597
 20
-61.738399999999999
 30
0.0
 70
    32
  0
VERTEX
  5
11033
  8
0
 10
-5150.0045949248597
 20
-61.738700000000001
 30
0.0
 70
    32
  0
VERTEX
  5
11034
  8
0
 10
-5150.0045949248597
 20
-61.73899999999999
 30
0.0
 70
    32
  0
VERTEX
  5
11035
  8
0
 10
-5150.0045949248597
 20
-61.7393
 30
0.0
 70
    32
  0
VERTEX
  5
11036
  8
0
 10
-5150.0045949248597
 20
-61.739699999999999
 30
0.0
 70
    32
  0
VERTEX
  5
11037
  8
0
 10
-5150.0045949248597
 20
-61.740000000000002
 30
0.0
 70
    32
  0
VERTEX
  5
11038
  8
0
 10
-5150.0045949248597
 20
-61.740299999999998
 30
0.0
 70
    32
  0
VERTEX
  5
11039
  8
0
 10
-5150.0045949248597
 20
-61.740600000000001
 30
0.0
 70
    32
  0
VERTEX
  5
1103A
  8
0
 10
-5150.0045949248597
 20
-61.741000000000007
 30
0.0
 70
    32
  0
VERTEX
  5
1103B
  8
0
 10
-5150.0045949248597
 20
-61.741300000000003
 30
0.0
 70
    32
  0
VERTEX
  5
1103C
  8
0
 10
-5150.0045949248597
 20
-61.741599999999998
 30
0.0
 70
    32
  0
VERTEX
  5
1103D
  8
0
 10
-5150.0045949248597
 20
-61.741900000000001
 30
0.0
 70
    32
  0
VERTEX
  5
1103E
  8
0
 10
-5150.0045949248597
 20
-61.7423
 30
0.0
 70
    32
  0
VERTEX
  5
1103F
  8
0
 10
-5150.0045949248597
 20
-61.742600000000003
 30
0.0
 70
    32
  0
VERTEX
  5
11040
  8
0
 10
-5150.0045949248597
 20
-61.742899999999999
 30
0.0
 70
    32
  0
VERTEX
  5
11041
  8
0
 10
-5150.0045949248597
 20
-61.743299999999998
 30
0.0
 70
    32
  0
VERTEX
  5
11042
  8
0
 10
-5150.0045949248597
 20
-61.743600000000001
 30
0.0
 70
    32
  0
VERTEX
  5
11043
  8
0
 10
-5150.0045949248597
 20
-61.743899999999982
 30
0.0
 70
    32
  0
VERTEX
  5
11044
  8
0
 10
-5150.0045949248597
 20
-61.744199999999999
 30
0.0
 70
    32
  0
VERTEX
  5
11045
  8
0
 10
-5150.0045949248597
 20
-61.744599999999991
 30
0.0
 70
    32
  0
VERTEX
  5
11046
  8
0
 10
-5150.0045949248597
 20
-61.744900000000001
 30
0.0
 70
    32
  0
VERTEX
  5
11047
  8
0
 10
-5150.0045949248597
 20
-61.745199999999997
 30
0.0
 70
    32
  0
VERTEX
  5
11048
  8
0
 10
-5150.0045949248597
 20
-61.745499999999993
 30
0.0
 70
    32
  0
VERTEX
  5
11049
  8
0
 10
-5150.0045949248597
 20
-61.745899999999999
 30
0.0
 70
    32
  0
VERTEX
  5
1104A
  8
0
 10
-5150.0045949248597
 20
-61.746200000000002
 30
0.0
 70
    32
  0
VERTEX
  5
1104B
  8
0
 10
-5150.0045949248597
 20
-61.74649999999999
 30
0.0
 70
    32
  0
VERTEX
  5
1104C
  8
0
 10
-5150.0045949248597
 20
-61.746899999999997
 30
0.0
 70
    32
  0
VERTEX
  5
1104D
  8
0
 10
-5150.0045949248597
 20
-61.747199999999999
 30
0.0
 70
    32
  0
VERTEX
  5
1104E
  8
0
 10
-5150.0045949248597
 20
-61.747500000000002
 30
0.0
 70
    32
  0
VERTEX
  5
1104F
  8
0
 10
-5150.0045949248597
 20
-61.747799999999998
 30
0.0
 70
    32
  0
SEQEND
  5
11050
  8
0
  0
LINE
  5
11051
  8
AM_VIS
 10
-5153.7672974624284
 20
-58.630479236030901
 30
0.0
 11
-5159.062934028535
 21
-58.630479236030901
 31
0.0
  0
ARC
  5
11052
  8
AM_VIS
 10
-5241.7672974624302
 20
-149.92611580213531
 30
0.0
 40
6.3999999999999782
 50
0.0
 51
90.000000000000028
  0
LINE
  5
11053
  8
AM_VIS
 10
-5246.7432914764131
 20
-149.69594478420021
 30
0.0
 11
-5241.9974684803638
 21
-144.95012178815199
 31
0.0
  0
ARC
  5
11054
  8
AM_VIS
 10
-5241.7672974624302
 20
-149.92611580213531
 30
0.0
 40
4.9813145980456772
 50
357.35159765872442
 51
92.648402341300482
  0
LINE
  5
11055
  8
AM_VIS
 10
-5248.2672974624302
 20
-141.4396686747011
 30
0.0
 11
-5248.2672974624302
 21
-148.62611580213519
 31
0.0
  0
LINE
  5
11056
  8
AM_VIS
 10
-5248.1355217587889
 20
-147.12837709193201
 30
0.0
 11
-5244.533260468992
 21
-143.52611580213539
 31
0.0
  0
ARC
  5
11057
  8
AM_VIS
 10
-5241.7672974624302
 20
-149.92611580213531
 30
0.0
 40
7.399999999999971
 50
0.0
 51
90.000000000000028
  0
ARC
  5
11058
  8
AM_VIS
 10
-5241.7672974624302
 20
-149.92611580213531
 30
0.0
 40
8.8000000000000007
 50
0.0
 51
37.114862455077663
  0
LINE
  5
11059
  8
AM_VIS
 10
-5245.2672974624293
 20
-143.52611580213531
 30
0.0
 11
-5241.7672974624302
 21
-143.52611580213531
 31
0.0
  0
ARC
  5
1105A
  8
AM_VIS
 10
-5245.2672974624293
 20
-140.32611580213529
 30
0.0
 40
3.2000000000000108
 50
200.36413480631401
 51
270.0
  0
ARC
  5
1105B
  8
AM_VIS
 10
-5245.2672974624293
 20
-140.32611580213529
 30
0.0
 40
3.2000000000000108
 50
180.0
 51
200.36413480631401
  0
ARC
  5
1105C
  8
AM_VIS
 10
-5245.2672974624293
 20
-140.32611580213529
 30
0.0
 40
2.200000000000021
 50
180.0
 51
270.0
  0
LINE
  5
1105D
  8
AM_VIS
 10
-5241.7672974624302
 20
-142.52611580213531
 30
0.0
 11
-5245.2672974624293
 21
-142.52611580213531
 31
0.0
  0
LINE
  5
1105E
  8
AM_VIS
 10
-5234.7404757304575
 20
-144.24220331622831
 30
0.0
 11
-5233.8139926316699
 21
-143.1380637547712
 31
0.0
  0
LINE
  5
1105F
  8
AM_VIS
 10
-5233.831673257002
 20
-142.7331108574613
 30
0.0
 11
-5234.5742925177556
 21
-141.9904915967069
 31
0.0
  0
LINE
  5
11060
  8
AM_VIS
 10
-5234.9792454150647
 20
-141.9728109713767
 30
0.0
 11
-5236.0833849765213
 21
-142.89929407016371
 31
0.0
  0
ARC
  5
11061
  8
AM_VIS
 10
-5241.7672974624302
 20
-149.92611580213531
 30
0.0
 40
8.8000000000000007
 50
52.885137544928682
 51
90.000000000000028
  0
LINE
  5
11062
  8
AM_VIS
 10
-5246.4675716024476
 20
-141.12611580213539
 30
0.0
 11
-5241.7672974624302
 21
-141.12611580213539
 31
0.0
  0
POLYLINE
  5
11063
  8
AM_VIS
 66
     1
 10
0.0
 20
0.0
 30
0.0
  0
VERTEX
  5
11293
  8
AM_VIS
 10
-5250.0296015933382
 20
-149.58330462729171
 30
0.0
  0
VERTEX
  5
11294
  8
AM_VIS
 10
-5250.0299999999979
 20
-154.60443160427079
 30
0.0
 42
0.4069655827246953
  0
VERTEX
  5
11295
  8
AM_VIS
 10
-5246.5343982216964
 20
-158.18841993304451
 30
0.0
 42
-0.7037108517427388
  0
SEQEND
  5
11296
  8
AM_VIS
  0
ARC
  5
11064
  8
AM_VIS
 10
-5246.2672974624311
 20
-154.4261158021352
 30
0.0
 40
3.2956365661046321
 50
180.0
 51
270.0
  0
LINE
  5
11065
  8
AM_VIS
 10
-5240.9716608963236
 20
-157.72175236823989
 30
0.0
 11
-5240.9716608963236
 21
-156.43047923603069
 31
0.0
  0
ARC
  5
11066
  8
AM_VIS
 10
-5232.1672974624289
 20
-153.42611580213509
 30
0.0
 40
3.2000000000000108
 50
180.0
 51
249.63586519369099
  0
LINE
  5
11067
  8
AM_VIS
 10
-5235.3672974624287
 20
-149.92611580213531
 30
0.0
 11
-5235.3672974624287
 21
-153.42611580213509
 31
0.0
  0
ARC
  5
11068
  8
AM_VIS
 10
-5241.7672974624302
 20
-149.92611580213531
 30
0.0
 40
4.9813145980456772
 50
177.3515976586979
 51
202.8103011797198
  0
LINE
  5
11069
  8
AM_VIS
 10
-5236.7913034484454
 20
-150.15628682006829
 30
0.0
 11
-5241.5371264444939
 21
-154.90210981612071
 31
0.0
  0
ARC
  5
1106A
  8
AM_VIS
 10
-5241.7672974624302
 20
-149.92611580213531
 30
0.0
 40
4.9813145980456772
 50
247.1896988202821
 51
272.64840234127593
  0
LINE
  5
1106B
  8
AM_VIS
 10
-5246.359040708282
 20
-151.8572784283426
 30
0.0
 11
-5248.148612060475
 21
-153.64684978053441
 31
0.0
  0
LINE
  5
1106C
  8
AM_VIS
 10
-5245.4880314408283
 20
-156.30743040018089
 30
0.0
 11
-5243.6984600886362
 21
-154.51785904798911
 31
0.0
  0
LINE
  5
1106D
  8
AM_VIS
 10
-5248.148612060475
 20
-153.64684978053441
 30
0.0
 11
-5248.148612060475
 21
-149.2627877371778
 31
0.0
  0
ARC
  5
1106E
  8
AM_VIS
 10
-5232.1672974624289
 20
-153.42611580213509
 30
0.0
 40
3.2000000000000108
 50
249.63586519369099
 51
270.0
  0
LINE
  5
1106F
  8
AM_VIS
 10
-5248.2672976285758
 20
-148.6261159682814
 30
0.0
 11
-5248.2716608963246
 21
-149.1304792360306
 31
0.0
  0
ARC
  5
11070
  8
AM_VIS
 10
-5245.667297462428
 20
-153.82611580213529
 30
0.0
 40
2.6043634338953439
 50
180.0
 51
270.0
  0
LINE
  5
11071
  8
AM_VIS
 10
-5248.2716608963246
 20
-153.82611580213529
 30
0.0
 11
-5248.2716608963246
 21
-149.1304792360306
 31
0.0
  0
LINE
  5
11072
  8
AM_VIS
 10
-5248.2716608963246
 20
-149.1304792360306
 30
0.0
 11
-5249.5629340285341
 21
-149.1304792360306
 31
0.0
  0
LINE
  5
11073
  8
AM_VIS
 10
-5249.5629340285341
 20
-149.1304792360306
 30
0.0
 11
-5249.5629340285341
 21
-154.4261158021352
 31
0.0
  0
LINE
  5
11074
  8
AM_VIS
 10
-5240.4672974624291
 20
-156.4261158021354
 30
0.0
 11
-5233.2808503349952
 21
-156.4261158021354
 31
0.0
  0
LINE
  5
11075
  8
AM_VIS
 10
-5241.1039693974708
 20
-156.30743040018089
 30
0.0
 11
-5245.4880314408283
 21
-156.30743040018089
 31
0.0
  0
LINE
  5
11076
  8
AM_VIS
 10
-5240.9716608963236
 20
-156.43047923603069
 30
0.0
 11
-5245.667297462428
 21
-156.43047923603069
 31
0.0
  0
LINE
  5
11077
  8
AM_VIS
 10
-5240.9716608963236
 20
-156.43047923603069
 30
0.0
 11
-5240.4672976285756
 21
-156.42611596828149
 31
0.0
  0
LINE
  5
11078
  8
AM_VIS
 10
-5235.3672974624287
 20
-152.6920788086982
 30
0.0
 11
-5238.9695587522237
 21
-156.29434009849481
 31
0.0
  0
LINE
  5
11079
  8
AM_VIS
 10
-5234.3672974624296
 20
-153.42611580213509
 30
0.0
 11
-5234.3672974624296
 21
-149.92611580213531
 31
0.0
  0
ARC
  5
1107A
  8
AM_VIS
 10
-5232.1672974624289
 20
-153.42611580213509
 30
0.0
 40
2.200000000000021
 50
180.0
 51
270.0
  0
LINE
  5
1107B
  8
AM_VIS
 10
-5232.96729746243
 20
-149.92611580213531
 30
0.0
 11
-5232.96729746243
 21
-154.62638994215479
 31
0.0
  0
ARC
  5
1107C
  8
AM_VIS
 10
-5241.7672974624302
 20
-149.92611580213531
 30
0.0
 40
5.7825462644184791
 50
207.01652280964129
 51
242.9834771903605
  0
POLYLINE
  5
1107D
  8
AM_VIS
 66
     1
 10
0.0
 20
0.0
 30
0.0
 70
     8
  0
VERTEX
  5
1107E
  8
0
 10
-5250.0299999999979
 20
-154.64623160427081
 30
0.0
 70
    32
  0
VERTEX
  5
1107F
  8
0
 10
-5250.0299999999979
 20
-154.6459316042708
 30
0.0
 70
    32
  0
VERTEX
  5
11080
  8
0
 10
-5250.0299999999979
 20
-154.64563160427079
 30
0.0
 70
    32
  0
VERTEX
  5
11081
  8
0
 10
-5250.0299999999979
 20
-154.6452316042708
 30
0.0
 70
    32
  0
VERTEX
  5
11082
  8
0
 10
-5250.0299999999979
 20
-154.64493160427079
 30
0.0
 70
    32
  0
VERTEX
  5
11083
  8
0
 10
-5250.0299999999979
 20
-154.64463160427081
 30
0.0
 70
    32
  0
VERTEX
  5
11084
  8
0
 10
-5250.0299999999979
 20
-154.6443316042708
 30
0.0
 70
    32
  0
VERTEX
  5
11085
  8
0
 10
-5250.0299999999979
 20
-154.64393160427079
 30
0.0
 70
    32
  0
VERTEX
  5
11086
  8
0
 10
-5250.0299999999979
 20
-154.64363160427081
 30
0.0
 70
    32
  0
VERTEX
  5
11087
  8
0
 10
-5250.0299999999979
 20
-154.6433316042708
 30
0.0
 70
    32
  0
VERTEX
  5
11088
  8
0
 10
-5250.0299999999979
 20
-154.64303160427079
 30
0.0
 70
    32
  0
VERTEX
  5
11089
  8
0
 10
-5250.0299999999979
 20
-154.6426316042708
 30
0.0
 70
    32
  0
VERTEX
  5
1108A
  8
0
 10
-5250.0299999999979
 20
-154.64233160427079
 30
0.0
 70
    32
  0
VERTEX
  5
1108B
  8
0
 10
-5250.0299999999979
 20
-154.64203160427081
 30
0.0
 70
    32
  0
VERTEX
  5
1108C
  8
0
 10
-5250.0299999999979
 20
-154.6416316042708
 30
0.0
 70
    32
  0
VERTEX
  5
1108D
  8
0
 10
-5250.0299999999979
 20
-154.64133160427079
 30
0.0
 70
    32
  0
VERTEX
  5
1108E
  8
0
 10
-5250.0299999999979
 20
-154.64103160427081
 30
0.0
 70
    32
  0
VERTEX
  5
1108F
  8
0
 10
-5250.0299999999979
 20
-154.6407316042708
 30
0.0
 70
    32
  0
VERTEX
  5
11090
  8
0
 10
-5250.0299999999979
 20
-154.64033160427081
 30
0.0
 70
    32
  0
VERTEX
  5
11091
  8
0
 10
-5250.0299999999979
 20
-154.6400316042708
 30
0.0
 70
    32
  0
VERTEX
  5
11092
  8
0
 10
-5250.0299999999979
 20
-154.63973160427079
 30
0.0
 70
    32
  0
VERTEX
  5
11093
  8
0
 10
-5250.0299999999979
 20
-154.63943160427081
 30
0.0
 70
    32
  0
VERTEX
  5
11094
  8
0
 10
-5250.0299999999979
 20
-154.6390316042708
 30
0.0
 70
    32
  0
VERTEX
  5
11095
  8
0
 10
-5250.0299999999979
 20
-154.63873160427079
 30
0.0
 70
    32
  0
VERTEX
  5
11096
  8
0
 10
-5250.0299999999979
 20
-154.63843160427081
 30
0.0
 70
    32
  0
VERTEX
  5
11097
  8
0
 10
-5250.0299999999979
 20
-154.63803160427079
 30
0.0
 70
    32
  0
VERTEX
  5
11098
  8
0
 10
-5250.0299999999979
 20
-154.63773160427081
 30
0.0
 70
    32
  0
VERTEX
  5
11099
  8
0
 10
-5250.0299999999979
 20
-154.6374316042708
 30
0.0
 70
    32
  0
VERTEX
  5
1109A
  8
0
 10
-5250.0299999999979
 20
-154.63713160427079
 30
0.0
 70
    32
  0
VERTEX
  5
1109B
  8
0
 10
-5250.0299999999979
 20
-154.63673160427081
 30
0.0
 70
    32
  0
VERTEX
  5
1109C
  8
0
 10
-5250.0299999999979
 20
-154.6364316042708
 30
0.0
 70
    32
  0
VERTEX
  5
1109D
  8
0
 10
-5250.0299999999979
 20
-154.63613160427079
 30
0.0
 70
    32
  0
VERTEX
  5
1109E
  8
0
 10
-5250.0299999999979
 20
-154.63583160427081
 30
0.0
 70
    32
  0
VERTEX
  5
1109F
  8
0
 10
-5250.0299999999979
 20
-154.63543160427079
 30
0.0
 70
    32
  0
VERTEX
  5
110A0
  8
0
 10
-5250.0299999999979
 20
-154.63513160427081
 30
0.0
 70
    32
  0
VERTEX
  5
110A1
  8
0
 10
-5250.0299999999979
 20
-154.6348316042708
 30
0.0
 70
    32
  0
VERTEX
  5
110A2
  8
0
 10
-5250.0299999999979
 20
-154.63443160427079
 30
0.0
 70
    32
  0
VERTEX
  5
110A3
  8
0
 10
-5250.0299999999979
 20
-154.63413160427081
 30
0.0
 70
    32
  0
VERTEX
  5
110A4
  8
0
 10
-5250.0299999999979
 20
-154.6338316042708
 30
0.0
 70
    32
  0
VERTEX
  5
110A5
  8
0
 10
-5250.0299999999979
 20
-154.63353160427079
 30
0.0
 70
    32
  0
VERTEX
  5
110A6
  8
0
 10
-5250.0299999999979
 20
-154.6331316042708
 30
0.0
 70
    32
  0
VERTEX
  5
110A7
  8
0
 10
-5250.0299999999979
 20
-154.63283160427079
 30
0.0
 70
    32
  0
VERTEX
  5
110A8
  8
0
 10
-5250.0299999999979
 20
-154.63253160427081
 30
0.0
 70
    32
  0
VERTEX
  5
110A9
  8
0
 10
-5250.0299999999979
 20
-154.6322316042708
 30
0.0
 70
    32
  0
VERTEX
  5
110AA
  8
0
 10
-5250.0299999999979
 20
-154.63183160427079
 30
0.0
 70
    32
  0
VERTEX
  5
110AB
  8
0
 10
-5250.0299999999979
 20
-154.6315316042708
 30
0.0
 70
    32
  0
VERTEX
  5
110AC
  8
0
 10
-5250.0299999999979
 20
-154.63123160427079
 30
0.0
 70
    32
  0
VERTEX
  5
110AD
  8
0
 10
-5250.0299999999979
 20
-154.63093160427081
 30
0.0
 70
    32
  0
VERTEX
  5
110AE
  8
0
 10
-5250.0299999999979
 20
-154.6305316042708
 30
0.0
 70
    32
  0
VERTEX
  5
110AF
  8
0
 10
-5250.0299999999979
 20
-154.63023160427079
 30
0.0
 70
    32
  0
VERTEX
  5
110B0
  8
0
 10
-5250.0299999999979
 20
-154.62993160427081
 30
0.0
 70
    32
  0
VERTEX
  5
110B1
  8
0
 10
-5250.0299999999979
 20
-154.6295316042708
 30
0.0
 70
    32
  0
VERTEX
  5
110B2
  8
0
 10
-5250.0299999999979
 20
-154.62923160427081
 30
0.0
 70
    32
  0
VERTEX
  5
110B3
  8
0
 10
-5250.0299999999979
 20
-154.6289316042708
 30
0.0
 70
    32
  0
VERTEX
  5
110B4
  8
0
 10
-5250.0299999999979
 20
-154.62863160427079
 30
0.0
 70
    32
  0
VERTEX
  5
110B5
  8
0
 10
-5250.0299999999979
 20
-154.62823160427081
 30
0.0
 70
    32
  0
VERTEX
  5
110B6
  8
0
 10
-5250.0299999999979
 20
-154.6279316042708
 30
0.0
 70
    32
  0
VERTEX
  5
110B7
  8
0
 10
-5250.0299999999979
 20
-154.62763160427079
 30
0.0
 70
    32
  0
VERTEX
  5
110B8
  8
0
 10
-5250.0299999999979
 20
-154.62733160427081
 30
0.0
 70
    32
  0
VERTEX
  5
110B9
  8
0
 10
-5250.0299999999979
 20
-154.62693160427079
 30
0.0
 70
    32
  0
VERTEX
  5
110BA
  8
0
 10
-5250.0299999999979
 20
-154.62663160427081
 30
0.0
 70
    32
  0
VERTEX
  5
110BB
  8
0
 10
-5250.0299999999979
 20
-154.6263316042708
 30
0.0
 70
    32
  0
VERTEX
  5
110BC
  8
0
 10
-5250.0299999999979
 20
-154.62593160427079
 30
0.0
 70
    32
  0
VERTEX
  5
110BD
  8
0
 10
-5250.0299999999979
 20
-154.62563160427081
 30
0.0
 70
    32
  0
VERTEX
  5
110BE
  8
0
 10
-5250.0299999999979
 20
-154.6253316042708
 30
0.0
 70
    32
  0
VERTEX
  5
110BF
  8
0
 10
-5250.0299999999979
 20
-154.62503160427079
 30
0.0
 70
    32
  0
VERTEX
  5
110C0
  8
0
 10
-5250.0299999999979
 20
-154.6246316042708
 30
0.0
 70
    32
  0
VERTEX
  5
110C1
  8
0
 10
-5250.0299999999979
 20
-154.62433160427079
 30
0.0
 70
    32
  0
VERTEX
  5
110C2
  8
0
 10
-5250.0299999999979
 20
-154.62403160427081
 30
0.0
 70
    32
  0
VERTEX
  5
110C3
  8
0
 10
-5250.0299999999979
 20
-154.6237316042708
 30
0.0
 70
    32
  0
VERTEX
  5
110C4
  8
0
 10
-5250.0299999999979
 20
-154.62333160427079
 30
0.0
 70
    32
  0
VERTEX
  5
110C5
  8
0
 10
-5250.0299999999979
 20
-154.62303160427081
 30
0.0
 70
    32
  0
VERTEX
  5
110C6
  8
0
 10
-5250.0299999999979
 20
-154.6227316042708
 30
0.0
 70
    32
  0
VERTEX
  5
110C7
  8
0
 10
-5250.0299999999979
 20
-154.62233160427081
 30
0.0
 70
    32
  0
VERTEX
  5
110C8
  8
0
 10
-5250.0299999999979
 20
-154.6220316042708
 30
0.0
 70
    32
  0
VERTEX
  5
110C9
  8
0
 10
-5250.0299999999979
 20
-154.62173160427079
 30
0.0
 70
    32
  0
VERTEX
  5
110CA
  8
0
 10
-5250.0299999999979
 20
-154.62143160427081
 30
0.0
 70
    32
  0
VERTEX
  5
110CB
  8
0
 10
-5250.0299999999979
 20
-154.6210316042708
 30
0.0
 70
    32
  0
VERTEX
  5
110CC
  8
0
 10
-5250.0299999999979
 20
-154.62073160427079
 30
0.0
 70
    32
  0
VERTEX
  5
110CD
  8
0
 10
-5250.0299999999979
 20
-154.62043160427081
 30
0.0
 70
    32
  0
VERTEX
  5
110CE
  8
0
 10
-5250.0299999999979
 20
-154.6201316042708
 30
0.0
 70
    32
  0
VERTEX
  5
110CF
  8
0
 10
-5250.0299999999979
 20
-154.61973160427081
 30
0.0
 70
    32
  0
VERTEX
  5
110D0
  8
0
 10
-5250.0299999999979
 20
-154.6194316042708
 30
0.0
 70
    32
  0
VERTEX
  5
110D1
  8
0
 10
-5250.0299999999979
 20
-154.61913160427079
 30
0.0
 70
    32
  0
VERTEX
  5
110D2
  8
0
 10
-5250.0299999999979
 20
-154.61883160427081
 30
0.0
 70
    32
  0
VERTEX
  5
110D3
  8
0
 10
-5250.0299999999979
 20
-154.6184316042708
 30
0.0
 70
    32
  0
VERTEX
  5
110D4
  8
0
 10
-5250.0299999999979
 20
-154.61813160427079
 30
0.0
 70
    32
  0
VERTEX
  5
110D5
  8
0
 10
-5250.0299999999979
 20
-154.6178316042708
 30
0.0
 70
    32
  0
VERTEX
  5
110D6
  8
0
 10
-5250.0299999999979
 20
-154.61743160427079
 30
0.0
 70
    32
  0
VERTEX
  5
110D7
  8
0
 10
-5250.0299999999979
 20
-154.61713160427081
 30
0.0
 70
    32
  0
VERTEX
  5
110D8
  8
0
 10
-5250.0299999999979
 20
-154.6168316042708
 30
0.0
 70
    32
  0
VERTEX
  5
110D9
  8
0
 10
-5250.0299999999979
 20
-154.61653160427079
 30
0.0
 70
    32
  0
VERTEX
  5
110DA
  8
0
 10
-5250.0299999999979
 20
-154.61613160427081
 30
0.0
 70
    32
  0
VERTEX
  5
110DB
  8
0
 10
-5250.0299999999979
 20
-154.6158316042708
 30
0.0
 70
    32
  0
VERTEX
  5
110DC
  8
0
 10
-5250.0299999999979
 20
-154.61553160427081
 30
0.0
 70
    32
  0
VERTEX
  5
110DD
  8
0
 10
-5250.0299999999979
 20
-154.6152316042708
 30
0.0
 70
    32
  0
VERTEX
  5
110DE
  8
0
 10
-5250.0299999999979
 20
-154.61483160427079
 30
0.0
 70
    32
  0
VERTEX
  5
110DF
  8
0
 10
-5250.0299999999979
 20
-154.61453160427081
 30
0.0
 70
    32
  0
VERTEX
  5
110E0
  8
0
 10
-5250.0299999999979
 20
-154.6142316042708
 30
0.0
 70
    32
  0
VERTEX
  5
110E1
  8
0
 10
-5250.0299999999979
 20
-154.61383160427081
 30
0.0
 70
    32
  0
VERTEX
  5
110E2
  8
0
 10
-5250.0299999999979
 20
-154.6135316042708
 30
0.0
 70
    32
  0
VERTEX
  5
110E3
  8
0
 10
-5250.0299999999979
 20
-154.61323160427079
 30
0.0
 70
    32
  0
VERTEX
  5
110E4
  8
0
 10
-5250.0299999999979
 20
-154.61293160427081
 30
0.0
 70
    32
  0
VERTEX
  5
110E5
  8
0
 10
-5250.0299999999979
 20
-154.6125316042708
 30
0.0
 70
    32
  0
VERTEX
  5
110E6
  8
0
 10
-5250.0299999999979
 20
-154.61223160427079
 30
0.0
 70
    32
  0
VERTEX
  5
110E7
  8
0
 10
-5250.0299999999979
 20
-154.61193160427081
 30
0.0
 70
    32
  0
VERTEX
  5
110E8
  8
0
 10
-5250.0299999999979
 20
-154.6116316042708
 30
0.0
 70
    32
  0
VERTEX
  5
110E9
  8
0
 10
-5250.0299999999979
 20
-154.61123160427081
 30
0.0
 70
    32
  0
VERTEX
  5
110EA
  8
0
 10
-5250.0299999999979
 20
-154.6109316042708
 30
0.0
 70
    32
  0
VERTEX
  5
110EB
  8
0
 10
-5250.0299999999979
 20
-154.61063160427079
 30
0.0
 70
    32
  0
VERTEX
  5
110EC
  8
0
 10
-5250.0299999999979
 20
-154.61033160427081
 30
0.0
 70
    32
  0
VERTEX
  5
110ED
  8
0
 10
-5250.0299999999979
 20
-154.6099316042708
 30
0.0
 70
    32
  0
VERTEX
  5
110EE
  8
0
 10
-5250.0299999999979
 20
-154.60963160427079
 30
0.0
 70
    32
  0
VERTEX
  5
110EF
  8
0
 10
-5250.0299999999979
 20
-154.60933160427081
 30
0.0
 70
    32
  0
VERTEX
  5
110F0
  8
0
 10
-5250.0299999999979
 20
-154.60893160427079
 30
0.0
 70
    32
  0
VERTEX
  5
110F1
  8
0
 10
-5250.0299999999979
 20
-154.60863160427081
 30
0.0
 70
    32
  0
VERTEX
  5
110F2
  8
0
 10
-5250.0299999999979
 20
-154.6083316042708
 30
0.0
 70
    32
  0
VERTEX
  5
110F3
  8
0
 10
-5250.0299999999979
 20
-154.60803160427079
 30
0.0
 70
    32
  0
VERTEX
  5
110F4
  8
0
 10
-5250.0299999999979
 20
-154.60763160427081
 30
0.0
 70
    32
  0
VERTEX
  5
110F5
  8
0
 10
-5250.0299999999979
 20
-154.6073316042708
 30
0.0
 70
    32
  0
VERTEX
  5
110F6
  8
0
 10
-5250.0299999999979
 20
-154.60703160427079
 30
0.0
 70
    32
  0
VERTEX
  5
110F7
  8
0
 10
-5250.0299999999979
 20
-154.60673160427081
 30
0.0
 70
    32
  0
VERTEX
  5
110F8
  8
0
 10
-5250.0299999999979
 20
-154.60633160427079
 30
0.0
 70
    32
  0
VERTEX
  5
110F9
  8
0
 10
-5250.0299999999979
 20
-154.60603160427081
 30
0.0
 70
    32
  0
VERTEX
  5
110FA
  8
0
 10
-5250.0299999999979
 20
-154.6057316042708
 30
0.0
 70
    32
  0
VERTEX
  5
110FB
  8
0
 10
-5250.0299999999979
 20
-154.60533160427079
 30
0.0
 70
    32
  0
VERTEX
  5
110FC
  8
0
 10
-5250.0299999999979
 20
-154.60503160427081
 30
0.0
 70
    32
  0
VERTEX
  5
110FD
  8
0
 10
-5250.0299999999979
 20
-154.6047316042708
 30
0.0
 70
    32
  0
VERTEX
  5
110FE
  8
0
 10
-5250.0299999999979
 20
-154.60443160427079
 30
0.0
 70
    32
  0
SEQEND
  5
110FF
  8
0
  0
LINE
  5
11100
  8
AM_VIS
 10
-5246.2672974624311
 20
-157.72175236823989
 30
0.0
 11
-5240.9716608963236
 21
-157.72175236823989
 31
0.0
  0
ARC
  5
11101
  8
AM_VIS
 10
-5158.2672974624293
 20
-149.92611580213531
 30
0.0
 40
8.8000000000000007
 50
142.88513754492229
 51
180.0
  0
ARC
  5
11102
  8
AM_VIS
 10
-5158.2672974624293
 20
-149.92611580213531
 30
0.0
 40
7.399999999999971
 50
90.000000000000028
 51
180.0
  0
LINE
  5
11103
  8
AM_VIS
 10
-5151.8990731660697
 20
-147.12837709193201
 30
0.0
 11
-5155.5013344558656
 21
-143.52611580213539
 31
0.0
  0
LINE
  5
11104
  8
AM_VIS
 10
-5151.7672974624284
 20
-141.4396686747011
 30
0.0
 11
-5151.7672974624284
 21
-148.62611580213519
 31
0.0
  0
ARC
  5
11105
  8
AM_VIS
 10
-5158.2672974624293
 20
-149.92611580213531
 30
0.0
 40
4.9813145980456772
 50
87.351597658699546
 51
182.64840234127561
  0
LINE
  5
11106
  8
AM_VIS
 10
-5153.2913034484463
 20
-149.69594478420021
 30
0.0
 11
-5158.0371264444948
 21
-144.95012178815199
 31
0.0
  0
ARC
  5
11107
  8
AM_VIS
 10
-5158.2672974624293
 20
-149.92611580213531
 30
0.0
 40
6.3999999999999782
 50
90.000000000000028
 51
180.0
  0
LINE
  5
11108
  8
AM_VIS
 10
-5153.56702332241
 20
-141.12611580213539
 30
0.0
 11
-5158.2672974624293
 21
-141.12611580213539
 31
0.0
  0
ARC
  5
11109
  8
AM_VIS
 10
-5158.2672974624293
 20
-149.92611580213531
 30
0.0
 40
8.8000000000000007
 50
90.000000000000028
 51
127.1148624550713
  0
LINE
  5
1110A
  8
AM_VIS
 10
-5165.0553495097938
 20
-141.9728109713767
 30
0.0
 11
-5163.9512099483372
 21
-142.89929407016371
 31
0.0
  0
LINE
  5
1110B
  8
AM_VIS
 10
-5166.2029216678557
 20
-142.7331108574613
 30
0.0
 11
-5165.460302407103
 21
-141.9904915967069
 31
0.0
  0
LINE
  5
1110C
  8
AM_VIS
 10
-5165.294119194401
 20
-144.24220331622831
 30
0.0
 11
-5166.2206022931869
 21
-143.1380637547712
 31
0.0
  0
LINE
  5
1110D
  8
AM_VIS
 10
-5158.2672974624293
 20
-142.52611580213531
 30
0.0
 11
-5154.7672974624293
 21
-142.52611580213531
 31
0.0
  0
ARC
  5
1110E
  8
AM_VIS
 10
-5154.7672974624293
 20
-140.32611580213529
 30
0.0
 40
2.200000000000021
 50
270.0
 51
0.0
  0
ARC
  5
1110F
  8
AM_VIS
 10
-5154.7672974624293
 20
-140.32611580213529
 30
0.0
 40
3.2000000000000108
 50
339.63586519368602
 51
0.0
  0
ARC
  5
11110
  8
AM_VIS
 10
-5154.7672974624293
 20
-140.32611580213529
 30
0.0
 40
3.2000000000000108
 50
270.0
 51
339.63586519368602
  0
LINE
  5
11111
  8
AM_VIS
 10
-5154.7672974624293
 20
-143.52611580213531
 30
0.0
 11
-5158.2672974624293
 21
-143.52611580213531
 31
0.0
  0
LINE
  5
11112
  8
AM_VIS
 10
-5159.062934028535
 20
-157.72175236823989
 30
0.0
 11
-5159.062934028535
 21
-156.43047923603069
 31
0.0
  0
ARC
  5
11113
  8
AM_VIS
 10
-5153.7672974624284
 20
-154.4261158021352
 30
0.0
 40
3.2956365661046321
 50
270.0
 51
0.0
  0
POLYLINE
  5
11114
  8
AM_VIS
 66
     1
 10
0.0
 20
0.0
 30
0.0
  0
VERTEX
  5
11297
  8
AM_VIS
 10
-5150.0049933315213
 20
-149.58330462729171
 30
0.0
  0
VERTEX
  5
11298
  8
AM_VIS
 10
-5150.0045949248597
 20
-154.60443160427079
 30
0.0
 42
-0.4069655827246953
  0
VERTEX
  5
11299
  8
AM_VIS
 10
-5153.5001967031631
 20
-158.18841993304451
 30
0.0
 42
0.7037108517427388
  0
SEQEND
  5
1129A
  8
AM_VIS
  0
POLYLINE
  5
11115
  8
AM_VIS
 66
     1
 10
0.0
 20
0.0
 30
0.0
 70
     8
  0
VERTEX
  5
11116
  8
0
 10
-5150.0045949248597
 20
-154.64623160427081
 30
0.0
 70
    32
  0
VERTEX
  5
11117
  8
0
 10
-5150.0045949248597
 20
-154.6459316042708
 30
0.0
 70
    32
  0
VERTEX
  5
11118
  8
0
 10
-5150.0045949248597
 20
-154.64563160427079
 30
0.0
 70
    32
  0
VERTEX
  5
11119
  8
0
 10
-5150.0045949248597
 20
-154.6452316042708
 30
0.0
 70
    32
  0
VERTEX
  5
1111A
  8
0
 10
-5150.0045949248597
 20
-154.64493160427079
 30
0.0
 70
    32
  0
VERTEX
  5
1111B
  8
0
 10
-5150.0045949248597
 20
-154.64463160427081
 30
0.0
 70
    32
  0
VERTEX
  5
1111C
  8
0
 10
-5150.0045949248597
 20
-154.6443316042708
 30
0.0
 70
    32
  0
VERTEX
  5
1111D
  8
0
 10
-5150.0045949248597
 20
-154.64393160427079
 30
0.0
 70
    32
  0
VERTEX
  5
1111E
  8
0
 10
-5150.0045949248597
 20
-154.64363160427081
 30
0.0
 70
    32
  0
VERTEX
  5
1111F
  8
0
 10
-5150.0045949248597
 20
-154.6433316042708
 30
0.0
 70
    32
  0
VERTEX
  5
11120
  8
0
 10
-5150.0045949248597
 20
-154.64303160427079
 30
0.0
 70
    32
  0
VERTEX
  5
11121
  8
0
 10
-5150.0045949248597
 20
-154.6426316042708
 30
0.0
 70
    32
  0
VERTEX
  5
11122
  8
0
 10
-5150.0045949248597
 20
-154.64233160427079
 30
0.0
 70
    32
  0
VERTEX
  5
11123
  8
0
 10
-5150.0045949248597
 20
-154.64203160427081
 30
0.0
 70
    32
  0
VERTEX
  5
11124
  8
0
 10
-5150.0045949248597
 20
-154.6416316042708
 30
0.0
 70
    32
  0
VERTEX
  5
11125
  8
0
 10
-5150.0045949248597
 20
-154.64133160427079
 30
0.0
 70
    32
  0
VERTEX
  5
11126
  8
0
 10
-5150.0045949248597
 20
-154.64103160427081
 30
0.0
 70
    32
  0
VERTEX
  5
11127
  8
0
 10
-5150.0045949248597
 20
-154.6407316042708
 30
0.0
 70
    32
  0
VERTEX
  5
11128
  8
0
 10
-5150.0045949248597
 20
-154.64033160427081
 30
0.0
 70
    32
  0
VERTEX
  5
11129
  8
0
 10
-5150.0045949248597
 20
-154.6400316042708
 30
0.0
 70
    32
  0
VERTEX
  5
1112A
  8
0
 10
-5150.0045949248597
 20
-154.63973160427079
 30
0.0
 70
    32
  0
VERTEX
  5
1112B
  8
0
 10
-5150.0045949248597
 20
-154.63943160427081
 30
0.0
 70
    32
  0
VERTEX
  5
1112C
  8
0
 10
-5150.0045949248597
 20
-154.6390316042708
 30
0.0
 70
    32
  0
VERTEX
  5
1112D
  8
0
 10
-5150.0045949248597
 20
-154.63873160427079
 30
0.0
 70
    32
  0
VERTEX
  5
1112E
  8
0
 10
-5150.0045949248597
 20
-154.63843160427081
 30
0.0
 70
    32
  0
VERTEX
  5
1112F
  8
0
 10
-5150.0045949248597
 20
-154.63803160427079
 30
0.0
 70
    32
  0
VERTEX
  5
11130
  8
0
 10
-5150.0045949248597
 20
-154.63773160427081
 30
0.0
 70
    32
  0
VERTEX
  5
11131
  8
0
 10
-5150.0045949248597
 20
-154.6374316042708
 30
0.0
 70
    32
  0
VERTEX
  5
11132
  8
0
 10
-5150.0045949248597
 20
-154.63713160427079
 30
0.0
 70
    32
  0
VERTEX
  5
11133
  8
0
 10
-5150.0045949248597
 20
-154.63673160427081
 30
0.0
 70
    32
  0
VERTEX
  5
11134
  8
0
 10
-5150.0045949248597
 20
-154.6364316042708
 30
0.0
 70
    32
  0
VERTEX
  5
11135
  8
0
 10
-5150.0045949248597
 20
-154.63613160427079
 30
0.0
 70
    32
  0
VERTEX
  5
11136
  8
0
 10
-5150.0045949248597
 20
-154.63583160427081
 30
0.0
 70
    32
  0
VERTEX
  5
11137
  8
0
 10
-5150.0045949248597
 20
-154.63543160427079
 30
0.0
 70
    32
  0
VERTEX
  5
11138
  8
0
 10
-5150.0045949248597
 20
-154.63513160427081
 30
0.0
 70
    32
  0
VERTEX
  5
11139
  8
0
 10
-5150.0045949248597
 20
-154.6348316042708
 30
0.0
 70
    32
  0
VERTEX
  5
1113A
  8
0
 10
-5150.0045949248597
 20
-154.63443160427079
 30
0.0
 70
    32
  0
VERTEX
  5
1113B
  8
0
 10
-5150.0045949248597
 20
-154.63413160427081
 30
0.0
 70
    32
  0
VERTEX
  5
1113C
  8
0
 10
-5150.0045949248597
 20
-154.6338316042708
 30
0.0
 70
    32
  0
VERTEX
  5
1113D
  8
0
 10
-5150.0045949248597
 20
-154.63353160427079
 30
0.0
 70
    32
  0
VERTEX
  5
1113E
  8
0
 10
-5150.0045949248597
 20
-154.6331316042708
 30
0.0
 70
    32
  0
VERTEX
  5
1113F
  8
0
 10
-5150.0045949248597
 20
-154.63283160427079
 30
0.0
 70
    32
  0
VERTEX
  5
11140
  8
0
 10
-5150.0045949248597
 20
-154.63253160427081
 30
0.0
 70
    32
  0
VERTEX
  5
11141
  8
0
 10
-5150.0045949248597
 20
-154.6322316042708
 30
0.0
 70
    32
  0
VERTEX
  5
11142
  8
0
 10
-5150.0045949248597
 20
-154.63183160427079
 30
0.0
 70
    32
  0
VERTEX
  5
11143
  8
0
 10
-5150.0045949248597
 20
-154.6315316042708
 30
0.0
 70
    32
  0
VERTEX
  5
11144
  8
0
 10
-5150.0045949248597
 20
-154.63123160427079
 30
0.0
 70
    32
  0
VERTEX
  5
11145
  8
0
 10
-5150.0045949248597
 20
-154.63093160427081
 30
0.0
 70
    32
  0
VERTEX
  5
11146
  8
0
 10
-5150.0045949248597
 20
-154.6305316042708
 30
0.0
 70
    32
  0
VERTEX
  5
11147
  8
0
 10
-5150.0045949248597
 20
-154.63023160427079
 30
0.0
 70
    32
  0
VERTEX
  5
11148
  8
0
 10
-5150.0045949248597
 20
-154.62993160427081
 30
0.0
 70
    32
  0
VERTEX
  5
11149
  8
0
 10
-5150.0045949248597
 20
-154.6295316042708
 30
0.0
 70
    32
  0
VERTEX
  5
1114A
  8
0
 10
-5150.0045949248597
 20
-154.62923160427081
 30
0.0
 70
    32
  0
VERTEX
  5
1114B
  8
0
 10
-5150.0045949248597
 20
-154.6289316042708
 30
0.0
 70
    32
  0
VERTEX
  5
1114C
  8
0
 10
-5150.0045949248597
 20
-154.62863160427079
 30
0.0
 70
    32
  0
VERTEX
  5
1114D
  8
0
 10
-5150.0045949248597
 20
-154.62823160427081
 30
0.0
 70
    32
  0
VERTEX
  5
1114E
  8
0
 10
-5150.0045949248597
 20
-154.6279316042708
 30
0.0
 70
    32
  0
VERTEX
  5
1114F
  8
0
 10
-5150.0045949248597
 20
-154.62763160427079
 30
0.0
 70
    32
  0
VERTEX
  5
11150
  8
0
 10
-5150.0045949248597
 20
-154.62733160427081
 30
0.0
 70
    32
  0
VERTEX
  5
11151
  8
0
 10
-5150.0045949248597
 20
-154.62693160427079
 30
0.0
 70
    32
  0
VERTEX
  5
11152
  8
0
 10
-5150.0045949248597
 20
-154.62663160427081
 30
0.0
 70
    32
  0
VERTEX
  5
11153
  8
0
 10
-5150.0045949248597
 20
-154.6263316042708
 30
0.0
 70
    32
  0
VERTEX
  5
11154
  8
0
 10
-5150.0045949248597
 20
-154.62593160427079
 30
0.0
 70
    32
  0
VERTEX
  5
11155
  8
0
 10
-5150.0045949248597
 20
-154.62563160427081
 30
0.0
 70
    32
  0
VERTEX
  5
11156
  8
0
 10
-5150.0045949248597
 20
-154.6253316042708
 30
0.0
 70
    32
  0
VERTEX
  5
11157
  8
0
 10
-5150.0045949248597
 20
-154.62503160427079
 30
0.0
 70
    32
  0
VERTEX
  5
11158
  8
0
 10
-5150.0045949248597
 20
-154.6246316042708
 30
0.0
 70
    32
  0
VERTEX
  5
11159
  8
0
 10
-5150.0045949248597
 20
-154.62433160427079
 30
0.0
 70
    32
  0
VERTEX
  5
1115A
  8
0
 10
-5150.0045949248597
 20
-154.62403160427081
 30
0.0
 70
    32
  0
VERTEX
  5
1115B
  8
0
 10
-5150.0045949248597
 20
-154.6237316042708
 30
0.0
 70
    32
  0
VERTEX
  5
1115C
  8
0
 10
-5150.0045949248597
 20
-154.62333160427079
 30
0.0
 70
    32
  0
VERTEX
  5
1115D
  8
0
 10
-5150.0045949248597
 20
-154.62303160427081
 30
0.0
 70
    32
  0
VERTEX
  5
1115E
  8
0
 10
-5150.0045949248597
 20
-154.6227316042708
 30
0.0
 70
    32
  0
VERTEX
  5
1115F
  8
0
 10
-5150.0045949248597
 20
-154.62233160427081
 30
0.0
 70
    32
  0
VERTEX
  5
11160
  8
0
 10
-5150.0045949248597
 20
-154.6220316042708
 30
0.0
 70
    32
  0
VERTEX
  5
11161
  8
0
 10
-5150.0045949248597
 20
-154.62173160427079
 30
0.0
 70
    32
  0
VERTEX
  5
11162
  8
0
 10
-5150.0045949248597
 20
-154.62143160427081
 30
0.0
 70
    32
  0
VERTEX
  5
11163
  8
0
 10
-5150.0045949248597
 20
-154.6210316042708
 30
0.0
 70
    32
  0
VERTEX
  5
11164
  8
0
 10
-5150.0045949248597
 20
-154.62073160427079
 30
0.0
 70
    32
  0
VERTEX
  5
11165
  8
0
 10
-5150.0045949248597
 20
-154.62043160427081
 30
0.0
 70
    32
  0
VERTEX
  5
11166
  8
0
 10
-5150.0045949248597
 20
-154.6201316042708
 30
0.0
 70
    32
  0
VERTEX
  5
11167
  8
0
 10
-5150.0045949248597
 20
-154.61973160427081
 30
0.0
 70
    32
  0
VERTEX
  5
11168
  8
0
 10
-5150.0045949248597
 20
-154.6194316042708
 30
0.0
 70
    32
  0
VERTEX
  5
11169
  8
0
 10
-5150.0045949248597
 20
-154.61913160427079
 30
0.0
 70
    32
  0
VERTEX
  5
1116A
  8
0
 10
-5150.0045949248597
 20
-154.61883160427081
 30
0.0
 70
    32
  0
VERTEX
  5
1116B
  8
0
 10
-5150.0045949248597
 20
-154.6184316042708
 30
0.0
 70
    32
  0
VERTEX
  5
1116C
  8
0
 10
-5150.0045949248597
 20
-154.61813160427079
 30
0.0
 70
    32
  0
VERTEX
  5
1116D
  8
0
 10
-5150.0045949248597
 20
-154.6178316042708
 30
0.0
 70
    32
  0
VERTEX
  5
1116E
  8
0
 10
-5150.0045949248597
 20
-154.61743160427079
 30
0.0
 70
    32
  0
VERTEX
  5
1116F
  8
0
 10
-5150.0045949248597
 20
-154.61713160427081
 30
0.0
 70
    32
  0
VERTEX
  5
11170
  8
0
 10
-5150.0045949248597
 20
-154.6168316042708
 30
0.0
 70
    32
  0
VERTEX
  5
11171
  8
0
 10
-5150.0045949248597
 20
-154.61653160427079
 30
0.0
 70
    32
  0
VERTEX
  5
11172
  8
0
 10
-5150.0045949248597
 20
-154.61613160427081
 30
0.0
 70
    32
  0
VERTEX
  5
11173
  8
0
 10
-5150.0045949248597
 20
-154.6158316042708
 30
0.0
 70
    32
  0
VERTEX
  5
11174
  8
0
 10
-5150.0045949248597
 20
-154.61553160427081
 30
0.0
 70
    32
  0
VERTEX
  5
11175
  8
0
 10
-5150.0045949248597
 20
-154.6152316042708
 30
0.0
 70
    32
  0
VERTEX
  5
11176
  8
0
 10
-5150.0045949248597
 20
-154.61483160427079
 30
0.0
 70
    32
  0
VERTEX
  5
11177
  8
0
 10
-5150.0045949248597
 20
-154.61453160427081
 30
0.0
 70
    32
  0
VERTEX
  5
11178
  8
0
 10
-5150.0045949248597
 20
-154.6142316042708
 30
0.0
 70
    32
  0
VERTEX
  5
11179
  8
0
 10
-5150.0045949248597
 20
-154.61383160427081
 30
0.0
 70
    32
  0
VERTEX
  5
1117A
  8
0
 10
-5150.0045949248597
 20
-154.6135316042708
 30
0.0
 70
    32
  0
VERTEX
  5
1117B
  8
0
 10
-5150.0045949248597
 20
-154.61323160427079
 30
0.0
 70
    32
  0
VERTEX
  5
1117C
  8
0
 10
-5150.0045949248597
 20
-154.61293160427081
 30
0.0
 70
    32
  0
VERTEX
  5
1117D
  8
0
 10
-5150.0045949248597
 20
-154.6125316042708
 30
0.0
 70
    32
  0
VERTEX
  5
1117E
  8
0
 10
-5150.0045949248597
 20
-154.61223160427079
 30
0.0
 70
    32
  0
VERTEX
  5
1117F
  8
0
 10
-5150.0045949248597
 20
-154.61193160427081
 30
0.0
 70
    32
  0
VERTEX
  5
11180
  8
0
 10
-5150.0045949248597
 20
-154.6116316042708
 30
0.0
 70
    32
  0
VERTEX
  5
11181
  8
0
 10
-5150.0045949248597
 20
-154.61123160427081
 30
0.0
 70
    32
  0
VERTEX
  5
11182
  8
0
 10
-5150.0045949248597
 20
-154.6109316042708
 30
0.0
 70
    32
  0
VERTEX
  5
11183
  8
0
 10
-5150.0045949248597
 20
-154.61063160427079
 30
0.0
 70
    32
  0
VERTEX
  5
11184
  8
0
 10
-5150.0045949248597
 20
-154.61033160427081
 30
0.0
 70
    32
  0
VERTEX
  5
11185
  8
0
 10
-5150.0045949248597
 20
-154.6099316042708
 30
0.0
 70
    32
  0
VERTEX
  5
11186
  8
0
 10
-5150.0045949248597
 20
-154.60963160427079
 30
0.0
 70
    32
  0
VERTEX
  5
11187
  8
0
 10
-5150.0045949248597
 20
-154.60933160427081
 30
0.0
 70
    32
  0
VERTEX
  5
11188
  8
0
 10
-5150.0045949248597
 20
-154.60893160427079
 30
0.0
 70
    32
  0
VERTEX
  5
11189
  8
0
 10
-5150.0045949248597
 20
-154.60863160427081
 30
0.0
 70
    32
  0
VERTEX
  5
1118A
  8
0
 10
-5150.0045949248597
 20
-154.6083316042708
 30
0.0
 70
    32
  0
VERTEX
  5
1118B
  8
0
 10
-5150.0045949248597
 20
-154.60803160427079
 30
0.0
 70
    32
  0
VERTEX
  5
1118C
  8
0
 10
-5150.0045949248597
 20
-154.60763160427081
 30
0.0
 70
    32
  0
VERTEX
  5
1118D
  8
0
 10
-5150.0045949248597
 20
-154.6073316042708
 30
0.0
 70
    32
  0
VERTEX
  5
1118E
  8
0
 10
-5150.0045949248597
 20
-154.60703160427079
 30
0.0
 70
    32
  0
VERTEX
  5
1118F
  8
0
 10
-5150.0045949248597
 20
-154.60673160427081
 30
0.0
 70
    32
  0
VERTEX
  5
11190
  8
0
 10
-5150.0045949248597
 20
-154.60633160427079
 30
0.0
 70
    32
  0
VERTEX
  5
11191
  8
0
 10
-5150.0045949248597
 20
-154.60603160427081
 30
0.0
 70
    32
  0
VERTEX
  5
11192
  8
0
 10
-5150.0045949248597
 20
-154.6057316042708
 30
0.0
 70
    32
  0
VERTEX
  5
11193
  8
0
 10
-5150.0045949248597
 20
-154.60533160427079
 30
0.0
 70
    32
  0
VERTEX
  5
11194
  8
0
 10
-5150.0045949248597
 20
-154.60503160427081
 30
0.0
 70
    32
  0
VERTEX
  5
11195
  8
0
 10
-5150.0045949248597
 20
-154.6047316042708
 30
0.0
 70
    32
  0
VERTEX
  5
11196
  8
0
 10
-5150.0045949248597
 20
-154.60443160427079
 30
0.0
 70
    32
  0
SEQEND
  5
11197
  8
0
  0
ARC
  5
11198
  8
AM_VIS
 10
-5158.2672974624293
 20
-149.92611580213531
 30
0.0
 40
5.7825462644184791
 50
297.01652280963941
 51
332.9834771903586
  0
LINE
  5
11199
  8
AM_VIS
 10
-5167.0672974624295
 20
-149.92611580213531
 30
0.0
 11
-5167.0672974624295
 21
-154.62638994215479
 31
0.0
  0
ARC
  5
1119A
  8
AM_VIS
 10
-5167.8672974624296
 20
-153.42611580213509
 30
0.0
 40
2.200000000000021
 50
270.0
 51
0.0
  0
LINE
  5
1119B
  8
AM_VIS
 10
-5165.6672974624289
 20
-153.42611580213509
 30
0.0
 11
-5165.6672974624289
 21
-149.92611580213531
 31
0.0
  0
LINE
  5
1119C
  8
AM_VIS
 10
-5164.6672974624289
 20
-152.6920788086982
 30
0.0
 11
-5161.0650361726348
 21
-156.29434009849481
 31
0.0
  0
LINE
  5
1119D
  8
AM_VIS
 10
-5159.062934028535
 20
-156.43047923603069
 30
0.0
 11
-5159.567297296282
 21
-156.42611596828149
 31
0.0
  0
LINE
  5
1119E
  8
AM_VIS
 10
-5159.062934028535
 20
-156.43047923603069
 30
0.0
 11
-5154.3672974624315
 21
-156.43047923603069
 31
0.0
  0
LINE
  5
1119F
  8
AM_VIS
 10
-5158.9306255273868
 20
-156.30743040018089
 30
0.0
 11
-5154.5465634840302
 21
-156.30743040018089
 31
0.0
  0
LINE
  5
111A0
  8
AM_VIS
 10
-5159.5672974624295
 20
-156.4261158021354
 30
0.0
 11
-5166.7537445898633
 21
-156.4261158021354
 31
0.0
  0
LINE
  5
111A1
  8
AM_VIS
 10
-5150.4716608963236
 20
-149.1304792360306
 30
0.0
 11
-5150.4716608963236
 21
-154.4261158021352
 31
0.0
  0
LINE
  5
111A2
  8
AM_VIS
 10
-5151.7629340285339
 20
-149.1304792360306
 30
0.0
 11
-5150.4716608963236
 21
-149.1304792360306
 31
0.0
  0
LINE
  5
111A3
  8
AM_VIS
 10
-5151.7629340285339
 20
-153.82611580213529
 30
0.0
 11
-5151.7629340285339
 21
-149.1304792360306
 31
0.0
  0
ARC
  5
111A4
  8
AM_VIS
 10
-5154.3672974624315
 20
-153.82611580213529
 30
0.0
 40
2.6043634338953439
 50
270.0
 51
0.0
  0
LINE
  5
111A5
  8
AM_VIS
 10
-5151.7672972962828
 20
-148.6261159682814
 30
0.0
 11
-5151.7629340285339
 21
-149.1304792360306
 31
0.0
  0
ARC
  5
111A6
  8
AM_VIS
 10
-5167.8672974624296
 20
-153.42611580213509
 30
0.0
 40
3.2000000000000108
 50
270.0
 51
290.36413480630881
  0
LINE
  5
111A7
  8
AM_VIS
 10
-5151.8859828643826
 20
-153.64684978053441
 30
0.0
 11
-5151.8859828643826
 21
-149.2627877371778
 31
0.0
  0
LINE
  5
111A8
  8
AM_VIS
 10
-5154.5465634840302
 20
-156.30743040018089
 30
0.0
 11
-5156.3361348362223
 21
-154.51785904798911
 31
0.0
  0
LINE
  5
111A9
  8
AM_VIS
 10
-5153.6755542165756
 20
-151.8572784283426
 30
0.0
 11
-5151.8859828643826
 21
-153.64684978053441
 31
0.0
  0
ARC
  5
111AA
  8
AM_VIS
 10
-5158.2672974624293
 20
-149.92611580213531
 30
0.0
 40
4.9813145980456772
 50
267.35159765872407
 51
292.81030117971778
  0
LINE
  5
111AB
  8
AM_VIS
 10
-5163.243291476414
 20
-150.15628682006829
 30
0.0
 11
-5158.4974684803647
 21
-154.90210981612071
 31
0.0
  0
ARC
  5
111AC
  8
AM_VIS
 10
-5158.2672974624293
 20
-149.92611580213531
 30
0.0
 40
4.9813145980456772
 50
337.18969882028
 51
2.6484023413021101
  0
LINE
  5
111AD
  8
AM_VIS
 10
-5164.6672974624289
 20
-149.92611580213531
 30
0.0
 11
-5164.6672974624289
 21
-153.42611580213509
 31
0.0
  0
ARC
  5
111AE
  8
AM_VIS
 10
-5167.8672974624296
 20
-153.42611580213509
 30
0.0
 40
3.2000000000000108
 50
290.36413480630881
 51
0.0
  0
LINE
  5
111AF
  8
AM_VIS
 10
-5153.7672974624284
 20
-157.72175236823989
 30
0.0
 11
-5159.062934028535
 21
-157.72175236823989
 31
0.0
  0
LINE
  5
111B0
  8
AM_VIS
 10
-5448.5095477811219
 20
-191.94291087259779
 30
0.0
 11
-5439.4050231054707
 21
-191.94291087259839
 31
0.0
  0
LINE
  5
111B1
  8
AM_VIS
 10
-5446.907285443297
 20
-190.36491693615821
 30
0.0
 11
-5433.8072854432967
 21
-190.36491693615801
 31
0.0
  0
LINE
  5
111B2
  8
AM_HID
 10
-5446.407285443297
 20
-191.68367263499741
 30
0.0
 11
-5446.5933723597636
 21
-190.62832128877301
 31
0.0
  0
LINE
  5
111B3
  8
AM_HID
 10
-5447.3191219529426
 20
-191.18367263499741
 30
0.0
 11
-5447.407285443297
 21
-191.68367263499741
 31
0.0
  0
LINE
  5
111B4
  8
AM_VIS
 10
-5447.2211985268286
 20
-190.62832128877301
 30
0.0
 11
-5447.3191219529426
 21
-191.18367263499741
 31
0.0
  0
ARC
  5
111B5
  8
AM_VIS
 10
-5446.907285443297
 20
-190.68367263499741
 30
0.0
 40
0.3187556988391738
 50
89.999999999999957
 51
169.9999999999977
  0
ARC
  5
111B6
  8
AM_HID
 10
-5446.907285443297
 20
-190.68367263499741
 30
0.0
 40
0.3187556988391738
 50
9.9999999999989271
 51
89.999999999999957
  0
LINE
  5
111B7
  8
AM_VIS
 10
-5434.1211985268319
 20
-190.62832128877301
 30
0.0
 11
-5434.3072854432958
 21
-191.68367263499741
 31
0.0
  0
ARC
  5
111B8
  8
AM_VIS
 10
-5433.8072854432967
 20
-190.68367263499741
 30
0.0
 40
0.3187556988391738
 50
89.999999999999957
 51
170.00000000000111
  0
LINE
  5
111B9
  8
AM_HID
 10
-5440.7072854432954
 20
-191.68367263499741
 30
0.0
 11
-5439.407285443297
 21
-191.68367263499741
 31
0.0
  0
LINE
  5
111BA
  8
AM_HID
 10
-5444.2072854432972
 20
-191.68367263499741
 30
0.0
 11
-5440.7072854432954
 21
-191.68367263499741
 31
0.0
  0
LINE
  5
111BB
  8
AM_HID
 10
-5444.2072854432972
 20
-191.68367263499741
 30
0.0
 11
-5447.2072854432972
 21
-191.68367263499741
 31
0.0
  0
LINE
  5
111BC
  8
AM_VIS
 10
-5448.9693738810711
 20
-192.40273697254671
 30
0.0
 11
-5448.9695895742052
 21
-192.4029526656816
 31
0.0
  0
LINE
  5
111BD
  8
AM_VIS
 10
-5448.9693738810711
 20
-192.40273697254671
 30
0.0
 11
-5448.4951199877396
 21
-191.92848307921639
 31
0.0
  0
LINE
  5
111BE
  8
AM_VIS
 10
-5448.5029220094011
 20
-191.18367263499741
 30
0.0
 11
-5448.5095477811219
 21
-191.9429108725985
 31
0.0
  0
LINE
  5
111BF
  8
AM_VIS
 10
-5445.2072854432954
 20
-191.18367263499741
 30
0.0
 11
-5448.5029220094011
 21
-191.18367263499741
 31
0.0
  0
LINE
  5
111C0
  8
AM_HID
 10
-5447.2072854432972
 20
-191.68367263499741
 30
0.0
 11
-5448.2503095435213
 21
-191.68367263499741
 31
0.0
  0
LINE
  5
111C1
  8
AM_HID
 10
-5448.2503095435213
 20
-191.68367263499741
 30
0.0
 11
-5448.4951199877396
 21
-191.92848307921639
 31
0.0
  0
LINE
  5
111C2
  8
AM_HID
 10
-5448.5072852771509
 20
-191.6836535965295
 30
0.0
 11
-5447.2072856094428
 21
-191.6836535965295
 31
0.0
  0
LINE
  5
111C3
  8
AM_VIS
 10
-5445.2072854432954
 20
-191.18367263499741
 30
0.0
 11
-5439.9116488771924
 21
-191.18367263499741
 31
0.0
  0
LINE
  5
111C4
  8
AM_VIS
 10
-5439.4072856094417
 20
-191.6836535965295
 30
0.0
 11
-5439.4050231054707
 21
-191.94291087259839
 31
0.0
  0
LINE
  5
111C5
  8
AM_VIS
 10
-5439.4072856094417
 20
-191.6836535965295
 30
0.0
 11
-5439.9116488771924
 21
-191.18367263499741
 31
0.0
  0
LINE
  5
111C6
  8
AM_HID
 10
-5433.3072854432967
 20
-191.68367263499741
 30
0.0
 11
-5433.4933723597633
 21
-190.62832128877301
 31
0.0
  0
LINE
  5
111C7
  8
AM_VIS
 10
-5433.8072854432967
 20
-190.36491693615801
 30
0.0
 11
-5431.1072854432969
 21
-190.36491693615801
 31
0.0
  0
ARC
  5
111C8
  8
AM_HID
 10
-5433.8072854432967
 20
-190.68367263499741
 30
0.0
 40
0.3187556988391738
 50
10.000000000002309
 51
89.999999999999957
  0
LINE
  5
111C9
  8
AM_HID
 10
-5434.8965212198154
 20
-215.7836726349974
 30
0.0
 11
-5434.0997729045312
 21
-215.7836726349974
 31
0.0
  0
LINE
  5
111CA
  8
AM_HID
 10
-5444.7841290097149
 20
-215.7836726349974
 30
0.0
 11
-5445.2839576722017
 21
-215.7836726349974
 31
0.0
  0
ARC
  5
111CB
  8
AM_HID
 10
-5445.2839576722017
 20
-215.4836726349973
 30
0.0
 40
0.2999999999999448
 50
181.49999999999881
 51
270.0
  0
LINE
  5
111CC
  8
AM_HID
 10
-5444.7841290097149
 20
-215.7836726349974
 30
0.0
 11
-5440.7072854432954
 21
-215.7836726349974
 31
0.0
  0
LINE
  5
111CD
  8
AM_HID
 10
-5440.7072854432954
 20
-215.7836726349974
 30
0.0
 11
-5434.8965212198154
 21
-215.7836726349974
 31
0.0
  0
LINE
  5
111CE
  8
AM_VIS
 10
-5447.3285491443548
 20
-218.28367263499729
 30
0.0
 11
-5444.1329346331377
 21
-218.28367263499729
 31
0.0
  0
ARC
  5
111CF
  8
AM_VIS
 10
-5447.3285491443548
 20
-217.9836726349973
 30
0.0
 40
0.3000000000000007
 50
182.99999999999881
 51
270.0
  0
LINE
  5
111D0
  8
AM_HID
 10
-5431.0072854432956
 20
-217.7836726349974
 30
0.0
 11
-5433.0029220094011
 21
-217.7836726349974
 31
0.0
  0
LINE
  5
111D1
  8
AM_HID
 10
-5433.0072854432947
 20
-218.28367263499729
 30
0.0
 11
-5433.0029220094011
 21
-217.7836726349974
 31
0.0
  0
LINE
  5
111D2
  8
AM_HID
 10
-5432.9112529854874
 20
-215.7836726349974
 30
0.0
 11
-5430.9839576722043
 21
-215.7836726349974
 31
0.0
  0
LINE
  5
111D3
  8
AM_HID
 10
-5430.4841290097156
 20
-215.7836726349974
 30
0.0
 11
-5430.9839576722043
 21
-215.7836726349974
 31
0.0
  0
ARC
  5
111D4
  8
AM_HID
 10
-5430.9839576722043
 20
-215.4836726349973
 30
0.0
 40
0.3000000000000018
 50
181.50000000000011
 51
270.0
  0
LINE
  5
111D5
  8
AM_HID
 10
-5434.0997729045312
 20
-215.7836726349974
 30
0.0
 11
-5433.2898671099128
 21
-215.7836726349974
 31
0.0
  0
LINE
  5
111D6
  8
AM_HID
 10
-5446.2072854432963
 20
-24.668558969273409
 30
0.0
 11
-5445.5838548696947
 21
-0.860705884780998
 31
0.0
  0
LINE
  5
111D7
  8
AM_HID
 10
-5431.9072854432961
 20
-24.668558969273409
 30
0.0
 11
-5431.2838548696936
 21
-0.860705884780998
 31
0.0
  0
LINE
  5
111D8
  8
AM_VIS
 10
-5447.6281380047794
 20
1.647141817599475
 30
0.0
 11
-5448.9695895742043
 21
-23.949278938589028
 31
0.0
  0
LINE
  5
111D9
  8
L2
  6
DASHDOT
 10
-5398.9572854432963
 20
13.71425878464597
 30
0.0
 11
-5398.9572854432963
 21
-38.162307819426729
 31
0.0
  0
LINE
  5
111DA
  8
AM_VIS
 10
-5350.2864328818132
 20
1.647141817599475
 30
0.0
 11
-5348.9449813123883
 21
-23.949278938589028
 31
0.0
  0
LINE
  5
111DB
  8
AM_HID
 10
-5366.0072854432983
 20
-24.668558969273409
 30
0.0
 11
-5366.6307160168981
 21
-0.860705884780998
 31
0.0
  0
LINE
  5
111DC
  8
AM_HID
 10
-5351.7072854432963
 20
-24.668558969273409
 30
0.0
 11
-5352.3307160168979
 21
-0.860705884780998
 31
0.0
  0
LINE
  5
111DD
  8
AM_HID
 10
-5430.4841290097129
 20
-0.5685589692734255
 30
0.0
 11
-5367.430441876877
 21
-0.5685589692734255
 31
0.0
  0
LINE
  5
111DE
  8
AM_HID
 10
-5431.0072854432956
 20
1.4314410307265739
 30
0.0
 11
-5366.9072854432961
 21
1.4314410307265739
 31
0.0
  0
LINE
  5
111DF
  8
AM_VIS
 10
-5353.7816362534541
 20
1.9314410307264891
 30
0.0
 11
-5444.1329346331377
 21
1.9314410307264891
 31
0.0
  0
LINE
  5
111E0
  8
AM_HID
 10
-5434.0997729045312
 20
-0.5685589692734255
 30
0.0
 11
-5433.2898671099128
 21
-0.5685589692734255
 31
0.0
  0
ARC
  5
111E1
  8
AM_HID
 10
-5430.9839576722043
 20
-0.8685589692734936
 30
0.0
 40
0.3000000000000018
 50
90.000000000000028
 51
178.4999999999998
  0
LINE
  5
111E2
  8
AM_HID
 10
-5430.4841290097156
 20
-0.5685589692734255
 30
0.0
 11
-5430.9839576722043
 21
-0.5685589692734255
 31
0.0
  0
LINE
  5
111E3
  8
AM_HID
 10
-5432.9112529854874
 20
-0.5685589692734255
 30
0.0
 11
-5430.9839576722043
 21
-0.5685589692734255
 31
0.0
  0
LINE
  5
111E4
  8
AM_HID
 10
-5433.0072854432947
 20
1.9314410307264891
 30
0.0
 11
-5433.0029220094011
 21
1.4314410307265739
 31
0.0
  0
LINE
  5
111E5
  8
AM_HID
 10
-5431.0072854432956
 20
1.4314410307265739
 30
0.0
 11
-5433.0029220094011
 21
1.4314410307265739
 31
0.0
  0
ARC
  5
111E6
  8
AM_VIS
 10
-5447.3285491443548
 20
1.6314410307265059
 30
0.0
 40
0.3000000000000007
 50
90.000000000000028
 51
177.00000000000111
  0
LINE
  5
111E7
  8
AM_VIS
 10
-5447.3285491443548
 20
1.9314410307264891
 30
0.0
 11
-5444.1329346331377
 21
1.9314410307264891
 31
0.0
  0
LINE
  5
111E8
  8
AM_HID
 10
-5440.7072854432954
 20
-0.5685589692734255
 30
0.0
 11
-5434.8965212198154
 21
-0.5685589692734255
 31
0.0
  0
LINE
  5
111E9
  8
AM_HID
 10
-5444.7841290097149
 20
-0.5685589692734255
 30
0.0
 11
-5440.7072854432954
 21
-0.5685589692734255
 31
0.0
  0
ARC
  5
111EA
  8
AM_HID
 10
-5445.2839576722017
 20
-0.8685589692734936
 30
0.0
 40
0.2999999999999448
 50
90.000000000000028
 51
178.50000000000111
  0
LINE
  5
111EB
  8
AM_HID
 10
-5444.7841290097149
 20
-0.5685589692734255
 30
0.0
 11
-5445.2839576722017
 21
-0.5685589692734255
 31
0.0
  0
LINE
  5
111EC
  8
AM_HID
 10
-5434.8965212198154
 20
-0.5685589692734255
 30
0.0
 11
-5434.0997729045312
 21
-0.5685589692734255
 31
0.0
  0
LINE
  5
111ED
  8
AM_HID
 10
-5363.0180496667781
 20
-0.5685589692734255
 30
0.0
 11
-5363.8147979820624
 21
-0.5685589692734255
 31
0.0
  0
LINE
  5
111EE
  8
AM_HID
 10
-5353.1304418768777
 20
-0.5685589692734255
 30
0.0
 11
-5352.63061321439
 21
-0.5685589692734255
 31
0.0
  0
ARC
  5
111EF
  8
AM_HID
 10
-5352.63061321439
 20
-0.8685589692734936
 30
0.0
 40
0.2999999999999448
 50
1.4999999999988509
 51
90.000000000000028
  0
LINE
  5
111F0
  8
AM_HID
 10
-5353.1304418768777
 20
-0.5685589692734255
 30
0.0
 11
-5357.2072854432981
 21
-0.5685589692734255
 31
0.0
  0
LINE
  5
111F1
  8
AM_HID
 10
-5357.2072854432981
 20
-0.5685589692734255
 30
0.0
 11
-5363.0180496667781
 21
-0.5685589692734255
 31
0.0
  0
LINE
  5
111F2
  8
AM_VIS
 10
-5350.5860217422378
 20
1.9314410307264891
 30
0.0
 11
-5353.7816362534541
 21
1.9314410307264891
 31
0.0
  0
ARC
  5
111F3
  8
AM_VIS
 10
-5350.5860217422378
 20
1.6314410307265059
 30
0.0
 40
0.3000000000000007
 50
2.99999999999886
 51
90.000000000000028
  0
LINE
  5
111F4
  8
AM_HID
 10
-5366.9072854432961
 20
1.4314410307265739
 30
0.0
 11
-5364.9116488771924
 21
1.4314410307265739
 31
0.0
  0
LINE
  5
111F5
  8
AM_HID
 10
-5364.907285443297
 20
1.9314410307264891
 30
0.0
 11
-5364.9116488771924
 21
1.4314410307265739
 31
0.0
  0
LINE
  5
111F6
  8
AM_HID
 10
-5365.0033179011061
 20
-0.5685589692734255
 30
0.0
 11
-5366.9306132143893
 21
-0.5685589692734255
 31
0.0
  0
LINE
  5
111F7
  8
AM_HID
 10
-5367.430441876877
 20
-0.5685589692734255
 30
0.0
 11
-5366.9306132143893
 21
-0.5685589692734255
 31
0.0
  0
ARC
  5
111F8
  8
AM_HID
 10
-5366.9306132143893
 20
-0.8685589692734936
 30
0.0
 40
0.3000000000000018
 50
1.500000000000175
 51
90.000000000000028
  0
LINE
  5
111F9
  8
AM_HID
 10
-5363.8147979820624
 20
-0.5685589692734255
 30
0.0
 11
-5364.6247037766798
 21
-0.5685589692734255
 31
0.0
  0
LINE
  5
111FA
  8
AM_VIS
 10
-5448.9695895742043
 20
-23.949278938589028
 30
0.0
 11
-5348.9449813123883
 21
-23.949278938589028
 31
0.0
  0
LINE
  5
111FB
  8
AM_VIS
 10
-5431.1072854432969
 20
-25.987314668112731
 30
0.0
 11
-5366.8072854432967
 21
-25.987314668112731
 31
0.0
  0
LINE
  5
111FC
  8
AM_VIS
 10
-5358.5072854432956
 20
-24.668558969273409
 30
0.0
 11
-5439.4072854432961
 21
-24.668558969273409
 31
0.0
  0
ARC
  5
111FD
  8
AM_HID
 10
-5433.8072854432967
 20
-25.66855896927342
 30
0.0
 40
0.3187556988391738
 50
270.0
 51
349.99999999999761
  0
LINE
  5
111FE
  8
AM_VIS
 10
-5433.8072854432967
 20
-25.987314668112731
 30
0.0
 11
-5431.1072854432969
 21
-25.987314668112731
 31
0.0
  0
LINE
  5
111FF
  8
AM_HID
 10
-5433.3072854432967
 20
-24.668558969273409
 30
0.0
 11
-5433.4933723597633
 21
-25.723910315497811
 31
0.0
  0
LINE
  5
11200
  8
AM_VIS
 10
-5439.4072856094417
 20
-24.668578007741331
 30
0.0
 11
-5439.9116488771924
 21
-25.16855896927342
 31
0.0
  0
LINE
  5
11201
  8
AM_VIS
 10
-5439.4072856094417
 20
-24.668578007741331
 30
0.0
 11
-5439.4050231054707
 21
-24.409320731672409
 31
0.0
  0
LINE
  5
11202
  8
AM_VIS
 10
-5445.2072854432954
 20
-25.16855896927342
 30
0.0
 11
-5439.9116488771924
 21
-25.16855896927342
 31
0.0
  0
LINE
  5
11203
  8
AM_HID
 10
-5448.5072852771509
 20
-24.668578007741331
 30
0.0
 11
-5447.2072856094428
 21
-24.668578007741331
 31
0.0
  0
LINE
  5
11204
  8
AM_HID
 10
-5448.2503095435213
 20
-24.668558969273409
 30
0.0
 11
-5448.4951199877396
 21
-24.4237485250544
 31
0.0
  0
LINE
  5
11205
  8
AM_HID
 10
-5447.2072854432972
 20
-24.668558969273409
 30
0.0
 11
-5448.2503095435213
 21
-24.668558969273409
 31
0.0
  0
LINE
  5
11206
  8
AM_VIS
 10
-5445.2072854432954
 20
-25.16855896927342
 30
0.0
 11
-5448.5029220094011
 21
-25.16855896927342
 31
0.0
  0
LINE
  5
11207
  8
AM_VIS
 10
-5448.5029220094011
 20
-25.16855896927342
 30
0.0
 11
-5448.5095477811219
 21
-24.40932073167232
 31
0.0
  0
LINE
  5
11208
  8
AM_VIS
 10
-5448.9693738810711
 20
-23.949494631724122
 30
0.0
 11
-5448.4951199877396
 21
-24.4237485250544
 31
0.0
  0
LINE
  5
11209
  8
AM_VIS
 10
-5448.9693738810711
 20
-23.949494631724122
 30
0.0
 11
-5448.9695895742052
 21
-23.949278938589138
 31
0.0
  0
LINE
  5
1120A
  8
AM_HID
 10
-5444.2072854432972
 20
-24.668558969273409
 30
0.0
 11
-5447.2072854432972
 21
-24.668558969273409
 31
0.0
  0
LINE
  5
1120B
  8
AM_HID
 10
-5444.2072854432972
 20
-24.668558969273409
 30
0.0
 11
-5440.7072854432954
 21
-24.668558969273409
 31
0.0
  0
LINE
  5
1120C
  8
AM_HID
 10
-5440.7072854432954
 20
-24.668558969273409
 30
0.0
 11
-5439.407285443297
 21
-24.668558969273409
 31
0.0
  0
ARC
  5
1120D
  8
AM_VIS
 10
-5433.8072854432967
 20
-25.66855896927342
 30
0.0
 40
0.3187556988391738
 50
189.99999999999869
 51
270.0
  0
LINE
  5
1120E
  8
AM_VIS
 10
-5434.1211985268319
 20
-25.723910315497811
 30
0.0
 11
-5434.3072854432958
 21
-24.668558969273409
 31
0.0
  0
ARC
  5
1120F
  8
AM_HID
 10
-5446.907285443297
 20
-25.66855896927342
 30
0.0
 40
0.3187556988391738
 50
270.0
 51
350.00000000000102
  0
ARC
  5
11210
  8
AM_VIS
 10
-5446.907285443297
 20
-25.66855896927342
 30
0.0
 40
0.3187556988391738
 50
190.00000000000219
 51
270.0
  0
LINE
  5
11211
  8
AM_VIS
 10
-5447.2211985268286
 20
-25.723910315497811
 30
0.0
 11
-5447.3191219529426
 21
-25.16855896927342
 31
0.0
  0
LINE
  5
11212
  8
AM_HID
 10
-5447.3191219529426
 20
-25.16855896927342
 30
0.0
 11
-5447.407285443297
 21
-24.668558969273409
 31
0.0
  0
LINE
  5
11213
  8
AM_HID
 10
-5446.407285443297
 20
-24.668558969273409
 30
0.0
 11
-5446.5933723597636
 21
-25.723910315497811
 31
0.0
  0
LINE
  5
11214
  8
AM_VIS
 10
-5446.907285443297
 20
-25.987314668112582
 30
0.0
 11
-5433.8072854432967
 21
-25.987314668112731
 31
0.0
  0
LINE
  5
11215
  8
AM_VIS
 10
-5448.5095477811219
 20
-24.409320731673031
 30
0.0
 11
-5439.4050231054707
 21
-24.409320731672409
 31
0.0
  0
LINE
  5
11216
  8
AM_VIS
 10
-5349.4050231054707
 20
-24.409320731673031
 30
0.0
 11
-5358.5095477811219
 21
-24.409320731672409
 31
0.0
  0
LINE
  5
11217
  8
AM_VIS
 10
-5351.0072854432947
 20
-25.987314668112582
 30
0.0
 11
-5364.107285443296
 21
-25.987314668112731
 31
0.0
  0
LINE
  5
11218
  8
AM_HID
 10
-5351.5072854432956
 20
-24.668558969273409
 30
0.0
 11
-5351.321198526829
 21
-25.723910315497811
 31
0.0
  0
LINE
  5
11219
  8
AM_HID
 10
-5350.59544893365
 20
-25.16855896927342
 30
0.0
 11
-5350.5072854432956
 21
-24.668558969273409
 31
0.0
  0
LINE
  5
1121A
  8
AM_VIS
 10
-5350.693372359764
 20
-25.723910315497811
 30
0.0
 11
-5350.59544893365
 21
-25.16855896927342
 31
0.0
  0
ARC
  5
1121B
  8
AM_VIS
 10
-5351.0072854432947
 20
-25.66855896927342
 30
0.0
 40
0.3187556988391738
 50
269.99999999999989
 51
349.99999999999773
  0
ARC
  5
1121C
  8
AM_HID
 10
-5351.0072854432947
 20
-25.66855896927342
 30
0.0
 40
0.3187556988391738
 50
189.99999999999889
 51
269.99999999999989
  0
LINE
  5
1121D
  8
AM_VIS
 10
-5363.7933723597607
 20
-25.723910315497811
 30
0.0
 11
-5363.607285443296
 21
-24.668558969273409
 31
0.0
  0
ARC
  5
1121E
  8
AM_VIS
 10
-5364.107285443296
 20
-25.66855896927342
 30
0.0
 40
0.3187556988391738
 50
269.99999999999989
 51
350.00000000000119
  0
LINE
  5
1121F
  8
AM_HID
 10
-5357.2072854432981
 20
-24.668558969273409
 30
0.0
 11
-5358.5072854432956
 21
-24.668558969273409
 31
0.0
  0
LINE
  5
11220
  8
AM_HID
 10
-5353.7072854432963
 20
-24.668558969273409
 30
0.0
 11
-5357.2072854432981
 21
-24.668558969273409
 31
0.0
  0
LINE
  5
11221
  8
AM_HID
 10
-5353.7072854432963
 20
-24.668558969273409
 30
0.0
 11
-5350.7072854432963
 21
-24.668558969273409
 31
0.0
  0
LINE
  5
11222
  8
AM_VIS
 10
-5348.9451970055206
 20
-23.949494631724122
 30
0.0
 11
-5348.9449813123883
 21
-23.949278938589138
 31
0.0
  0
LINE
  5
11223
  8
AM_VIS
 10
-5348.9451970055206
 20
-23.949494631724122
 30
0.0
 11
-5349.4194508988521
 21
-24.4237485250544
 31
0.0
  0
LINE
  5
11224
  8
AM_VIS
 10
-5349.4116488771906
 20
-25.16855896927342
 30
0.0
 11
-5349.4050231054707
 21
-24.40932073167232
 31
0.0
  0
LINE
  5
11225
  8
AM_VIS
 10
-5352.7072854432972
 20
-25.16855896927342
 30
0.0
 11
-5349.4116488771906
 21
-25.16855896927342
 31
0.0
  0
LINE
  5
11226
  8
AM_HID
 10
-5350.7072854432963
 20
-24.668558969273409
 30
0.0
 11
-5349.6642613430722
 21
-24.668558969273409
 31
0.0
  0
LINE
  5
11227
  8
AM_HID
 10
-5349.6642613430722
 20
-24.668558969273409
 30
0.0
 11
-5349.4194508988521
 21
-24.4237485250544
 31
0.0
  0
LINE
  5
11228
  8
AM_HID
 10
-5349.4072856094417
 20
-24.668578007741331
 30
0.0
 11
-5350.7072852771498
 21
-24.668578007741331
 31
0.0
  0
LINE
  5
11229
  8
AM_VIS
 10
-5352.7072854432972
 20
-25.16855896927342
 30
0.0
 11
-5358.0029220094011
 21
-25.16855896927342
 31
0.0
  0
LINE
  5
1122A
  8
AM_VIS
 10
-5358.50728527715
 20
-24.668578007741331
 30
0.0
 11
-5358.5095477811219
 21
-24.409320731672409
 31
0.0
  0
LINE
  5
1122B
  8
AM_VIS
 10
-5358.50728527715
 20
-24.668578007741331
 30
0.0
 11
-5358.0029220094011
 21
-25.16855896927342
 31
0.0
  0
LINE
  5
1122C
  8
AM_HID
 10
-5364.607285443296
 20
-24.668558969273409
 30
0.0
 11
-5364.4211985268294
 21
-25.723910315497811
 31
0.0
  0
LINE
  5
1122D
  8
AM_VIS
 10
-5364.107285443296
 20
-25.987314668112731
 30
0.0
 11
-5366.8072854432958
 21
-25.987314668112731
 31
0.0
  0
ARC
  5
1122E
  8
AM_HID
 10
-5364.107285443296
 20
-25.66855896927342
 30
0.0
 40
0.3187556988391738
 50
190.0000000000023
 51
269.99999999999989
  0
LINE
  5
1122F
  8
AM_VIS
 10
-5510.886032093169
 20
-59.804852101078779
 30
0.0
 11
-5510.886032093169
 21
-156.54737950319199
 31
0.0
  0
LINE
  5
11230
  8
AM_VIS
 10
-5485.0053121238543
 20
-158.1884199330444
 30
0.0
 11
-5485.0050964307184
 21
-58.16402736436131
 31
0.0
  0
LINE
  5
11231
  8
AM_HID
 10
-5508.3860320931699
 20
-139.70295936855371
 30
0.0
 11
-5508.3860320931699
 21
-76.649272235717149
 31
0.0
  0
LINE
  5
11232
  8
AM_HID
 10
-5510.386032093169
 20
-140.2261158021353
 30
0.0
 11
-5510.386032093169
 21
-76.126115802135374
 31
0.0
  0
LINE
  5
11233
  8
AM_VIS
 10
-5482.9672763943299
 20
-140.32611580213489
 30
0.0
 11
-5482.9672763943299
 21
-76.02611580213545
 31
0.0
  0
LINE
  5
11234
  8
AM_VIS
 10
-5484.2860320931686
 20
-67.726115802135581
 30
0.0
 11
-5484.2860320931686
 21
-148.6261158021349
 31
0.0
  0
LINE
  5
11235
  8
AM_VIS
 10
-5484.5452703307692
 20
-148.62385346430921
 30
0.0
 11
-5484.5308425373878
 21
-157.71395034657891
 31
0.0
  0
LINE
  5
11236
  8
AM_VIS
 10
-5482.9672763943299
 20
-143.026115802135
 30
0.0
 11
-5482.9672763943299
 21
-156.1261158021349
 31
0.0
  0
LINE
  5
11237
  8
AM_HID
 10
-5484.2860320931686
 20
-149.92611580213531
 30
0.0
 11
-5484.2860320931686
 21
-153.426115802135
 31
0.0
  0
LINE
  5
11238
  8
AM_VIS
 10
-5483.7860320931704
 20
-149.13047923603051
 30
0.0
 11
-5483.7860320931704
 21
-154.42611580213509
 31
0.0
  0
LINE
  5
11239
  8
AM_HID
 10
-5508.3860320931699
 20
-140.20278803104139
 30
0.0
 11
-5508.3860320931699
 21
-153.3595841273692
 31
0.0
  0
LINE
  5
1123A
  8
AM_VIS
 10
-5485.0053121238543
 20
-158.1884199330444
 30
0.0
 11
-5510.6017328800417
 21
-156.84696836361809
 31
0.0
  0
LINE
  5
1123B
  8
AM_HID
 10
-5484.2860320931686
 20
-156.42611580213531
 30
0.0
 11
-5484.2860320931686
 21
-153.426115802135
 31
0.0
  0
ARC
  5
1123C
  8
AM_VIS
 10
-5483.2860320931677
 20
-156.1261158021349
 30
0.0
 40
0.3187556988391738
 50
279.99999999999642
 51
0.000000000000007
  0
ARC
  5
1123D
  8
AM_HID
 10
-5483.2860320931677
 20
-156.1261158021349
 30
0.0
 40
0.3187556988391738
 50
0.000000000000007
 51
79.999999999995509
  0
LINE
  5
1123E
  8
AM_HID
 10
-5484.2860320931686
 20
-155.6261158021349
 30
0.0
 11
-5483.2306807469449
 21
-155.8122027186013
 31
0.0
  0
LINE
  5
1123F
  8
AM_HID
 10
-5483.7860320931704
 20
-156.5379523117806
 30
0.0
 11
-5484.2860320931686
 21
-156.62611580213479
 31
0.0
  0
LINE
  5
11240
  8
AM_VIS
 10
-5483.2306807469449
 20
-156.44002888566851
 30
0.0
 11
-5483.7860320931704
 21
-156.5379523117806
 31
0.0
  0
LINE
  5
11241
  8
AM_HID
 10
-5484.2860320931686
 20
-157.4691399023601
 30
0.0
 11
-5484.2860320931686
 21
-156.42611580213531
 31
0.0
  0
ARC
  5
11242
  8
AM_HID
 10
-5508.0860320931688
 20
-154.5027880310414
 30
0.0
 40
0.3000000000000024
 50
180.0
 51
268.49999999999829
  0
LINE
  5
11243
  8
AM_HID
 10
-5508.3860320931699
 20
-154.5027880310414
 30
0.0
 11
-5508.3860320931699
 21
-154.0029593685536
 31
0.0
  0
LINE
  5
11244
  8
AM_HID
 10
-5508.0938851776627
 20
-154.80268522853399
 30
0.0
 11
-5484.2860320931686
 21
-155.42611580213531
 31
0.0
  0
LINE
  5
11245
  8
AM_VIS
 10
-5485.0050964307184
 20
-158.1882042399094
 30
0.0
 11
-5484.5308425373878
 21
-157.71395034657891
 31
0.0
  0
LINE
  5
11246
  8
AM_VIS
 10
-5484.5452703307692
 20
-157.72837813996099
 30
0.0
 11
-5483.7860320931704
 21
-157.72175236823961
 31
0.0
  0
LINE
  5
11247
  8
AM_VIS
 10
-5485.0053121238543
 20
-158.1884199330444
 30
0.0
 11
-5485.0050964307184
 21
-158.1882042399094
 31
0.0
  0
LINE
  5
11248
  8
AM_VIS
 10
-5483.7860320931704
 20
-157.72175236823961
 30
0.0
 11
-5483.7860320931704
 21
-154.42611580213509
 31
0.0
  0
LINE
  5
11249
  8
AM_HID
 10
-5484.5308425373878
 20
-157.71395034657891
 30
0.0
 11
-5484.2860320931686
 21
-157.4691399023601
 31
0.0
  0
LINE
  5
1124A
  8
AM_HID
 10
-5484.2860130547024
 20
-156.42611596828141
 30
0.0
 11
-5484.2860130547024
 21
-157.726115635989
 31
0.0
  0
ARC
  5
1124B
  8
AM_VIS
 10
-5510.5860320931679
 20
-156.54737950319199
 30
0.0
 40
0.2999999999999825
 50
180.0
 51
266.99999999999801
  0
LINE
  5
1124C
  8
AM_VIS
 10
-5482.9672763943299
 20
-140.32611580213521
 30
0.0
 11
-5482.9672763943299
 21
-143.02611580213519
 31
0.0
  0
LINE
  5
1124D
  8
AM_HID
 10
-5510.386032093169
 20
-142.22175236824
 30
0.0
 11
-5510.386032093169
 21
-140.22611580213541
 31
0.0
  0
ARC
  5
1124E
  8
AM_VIS
 10
-5483.2860320931677
 20
-143.026115802135
 30
0.0
 40
0.3187556988391738
 50
279.99999999999523
 51
0.000000000000007
  0
ARC
  5
1124F
  8
AM_HID
 10
-5483.2860320931677
 20
-143.026115802135
 30
0.0
 40
0.3187556988391738
 50
0.000000000000007
 51
79.999999999994515
  0
LINE
  5
11250
  8
AM_HID
 10
-5484.2860320931686
 20
-142.52611580213491
 30
0.0
 11
-5483.2306807469449
 21
-142.7122027186013
 31
0.0
  0
LINE
  5
11251
  8
AM_VIS
 10
-5483.2306807469449
 20
-143.3400288856688
 30
0.0
 11
-5484.2860320931686
 21
-143.526115802135
 31
0.0
  0
LINE
  5
11252
  8
AM_HID
 10
-5484.2860320931686
 20
-148.62611580213499
 30
0.0
 11
-5484.2860320931686
 21
-149.92611580213531
 31
0.0
  0
LINE
  5
11253
  8
AM_VIS
 10
-5484.5452703307692
 20
-148.62385346430921
 30
0.0
 11
-5484.2860130547024
 21
-148.62611596828131
 31
0.0
  0
LINE
  5
11254
  8
AM_VIS
 10
-5483.7860320931704
 20
-149.13047923603051
 30
0.0
 11
-5484.2860130547024
 21
-148.62611596828131
 31
0.0
  0
LINE
  5
11255
  8
AM_HID
 10
-5510.886032093169
 20
-142.22611580213541
 30
0.0
 11
-5510.386032093169
 21
-142.22175236824
 31
0.0
  0
LINE
  5
11256
  8
AM_HID
 10
-5508.3860320931699
 20
-140.20278803104139
 30
0.0
 11
-5508.3860320931699
 21
-139.70295936855351
 31
0.0
  0
ARC
  5
11257
  8
AM_HID
 10
-5508.0860320931688
 20
-140.20278803104139
 30
0.0
 40
0.2999999999999989
 50
180.0
 51
268.50000000000023
  0
LINE
  5
11258
  8
AM_HID
 10
-5508.0938851776627
 20
-140.50268522853401
 30
0.0
 11
-5484.2860320931686
 21
-141.1261158021351
 31
0.0
  0
LINE
  5
11259
  8
L2
  6
DASHDOT
 10
-5475.4487022920548
 20
-108.1761158021353
 30
0.0
 11
-5519.5570601682448
 21
-108.1761158021353
 31
0.0
  0
LINE
  5
1125A
  8
AM_VIS
 10
-5482.9672763943299
 20
-73.326115802135632
 30
0.0
 11
-5482.9672763943299
 21
-66.426115802135499
 31
0.0
  0
LINE
  5
1125B
  8
AM_HID
 10
-5508.3860320931699
 20
-76.149443573229405
 30
0.0
 11
-5508.3860320931699
 21
-62.992647476901418
 31
0.0
  0
LINE
  5
1125C
  8
AM_VIS
 10
-5483.2306807469449
 20
-73.012202718601984
 30
0.0
 11
-5484.2860320931686
 21
-72.826115802135661
 31
0.0
  0
LINE
  5
1125D
  8
AM_HID
 10
-5484.2860320931686
 20
-73.826115802135703
 30
0.0
 11
-5483.2306807469449
 21
-73.640028885669352
 31
0.0
  0
ARC
  5
1125E
  8
AM_HID
 10
-5483.2860320931677
 20
-73.326115802135632
 30
0.0
 40
0.3187556988391738
 50
280.00000000000568
 51
0.000000000000007
  0
ARC
  5
1125F
  8
AM_VIS
 10
-5483.2860320931677
 20
-73.326115802135632
 30
0.0
 40
0.3187556988391738
 50
0.000000000000007
 51
80.000000000004704
  0
LINE
  5
11260
  8
AM_VIS
 10
-5482.9672763943299
 20
-76.02611580213545
 30
0.0
 11
-5482.9672763943299
 21
-73.326115802135575
 31
0.0
  0
ARC
  5
11261
  8
AM_HID
 10
-5508.0860320931688
 20
-76.149443573229377
 30
0.0
 40
0.2999999999999989
 50
91.499999999999673
 51
180.0
  0
LINE
  5
11262
  8
AM_HID
 10
-5508.3860320931699
 20
-76.149443573229377
 30
0.0
 11
-5508.3860320931699
 21
-76.649272235717191
 31
0.0
  0
LINE
  5
11263
  8
AM_HID
 10
-5508.0938851776627
 20
-75.849546375736679
 30
0.0
 11
-5484.2860320931686
 21
-75.226115802135439
 31
0.0
  0
LINE
  5
11264
  8
AM_HID
 10
-5510.386032093169
 20
-74.130479236030752
 30
0.0
 11
-5510.386032093169
 21
-76.126115802135374
 31
0.0
  0
LINE
  5
11265
  8
AM_HID
 10
-5510.886032093169
 20
-74.126115802135388
 30
0.0
 11
-5510.386032093169
 21
-74.13047923603078
 31
0.0
  0
LINE
  5
11266
  8
AM_VIS
 10
-5484.5452703307692
 20
-67.728378139961421
 30
0.0
 11
-5484.5308425373878
 21
-58.638281257691787
 31
0.0
  0
LINE
  5
11267
  8
AM_VIS
 10
-5483.7860320931704
 20
-67.221752368240203
 30
0.0
 11
-5483.7860320931704
 21
-58.630479236030901
 31
0.0
  0
LINE
  5
11268
  8
AM_HID
 10
-5484.2860130547024
 20
-59.926115635989269
 30
0.0
 11
-5484.2860130547024
 21
-58.626115968281709
 31
0.0
  0
LINE
  5
11269
  8
AM_HID
 10
-5484.2860320931686
 20
-58.883091701910573
 30
0.0
 11
-5484.2860320931686
 21
-59.926115802135477
 31
0.0
  0
LINE
  5
1126A
  8
AM_VIS
 10
-5485.0053121238543
 20
-58.163811671226227
 30
0.0
 11
-5510.6017328800417
 21
-59.505263240652432
 31
0.0
  0
LINE
  5
1126B
  8
AM_VIS
 10
-5482.9672763943299
 20
-66.426115802135499
 30
0.0
 11
-5482.9672763943299
 21
-60.226115802135752
 31
0.0
  0
LINE
  5
1126C
  8
AM_VIS
 10
-5483.2306807469449
 20
-59.91220271860211
 30
0.0
 11
-5483.7860320931704
 21
-59.814279292490014
 31
0.0
  0
LINE
  5
1126D
  8
AM_HID
 10
-5483.7860320931704
 20
-59.814279292490014
 30
0.0
 11
-5484.2860320931686
 21
-59.72611580213578
 31
0.0
  0
LINE
  5
1126E
  8
AM_HID
 10
-5484.2860320931686
 20
-60.726115802135837
 30
0.0
 11
-5483.2306807469449
 21
-60.540028885669471
 31
0.0
  0
ARC
  5
1126F
  8
AM_HID
 10
-5483.2860320931677
 20
-60.226115802135752
 30
0.0
 40
0.3187556988391738
 50
280.00000000000472
 51
0.000000000000007
  0
ARC
  5
11270
  8
AM_VIS
 10
-5483.2860320931677
 20
-60.226115802135752
 30
0.0
 40
0.3187556988391738
 50
0.000000000000007
 51
80.000000000003766
  0
LINE
  5
11271
  8
AM_HID
 10
-5508.0938851776627
 20
-61.549546375736732
 30
0.0
 11
-5484.2860320931686
 21
-60.926115802135477
 31
0.0
  0
LINE
  5
11272
  8
AM_VIS
 10
-5483.7860320931704
 20
-67.221752368240175
 30
0.0
 11
-5484.2860130547024
 21
-67.726115635989402
 31
0.0
  0
LINE
  5
11273
  8
AM_VIS
 10
-5484.5452703307692
 20
-67.72837813996145
 30
0.0
 11
-5484.2860130547024
 21
-67.726115635989402
 31
0.0
  0
LINE
  5
11274
  8
AM_HID
 10
-5484.2860320931686
 20
-66.426115802135499
 30
0.0
 11
-5484.2860320931686
 21
-62.92611580213562
 31
0.0
  0
LINE
  5
11275
  8
AM_HID
 10
-5484.2860320931686
 20
-67.726115802135581
 30
0.0
 11
-5484.2860320931686
 21
-66.426115802135499
 31
0.0
  0
LINE
  5
11276
  8
AM_HID
 10
-5508.3860320931699
 20
-61.849443573229379
 30
0.0
 11
-5508.3860320931699
 21
-62.349272235717137
 31
0.0
  0
ARC
  5
11277
  8
AM_HID
 10
-5508.0860320931688
 20
-61.849443573229379
 30
0.0
 40
0.3000000000000024
 50
91.500000000001776
 51
180.0
  0
LINE
  5
11278
  8
AM_HID
 10
-5484.2860320931686
 20
-59.926115802135442
 30
0.0
 11
-5484.2860320931686
 21
-62.92611580213562
 31
0.0
  0
ARC
  5
11279
  8
AM_VIS
 10
-5510.5860320931679
 20
-59.804852101078779
 30
0.0
 40
0.2999999999999825
 50
93.000000000002046
 51
180.0
  0
LINE
  5
1127A
  8
AM_VIS
 10
-5485.0053121238543
 20
-58.163811671226227
 30
0.0
 11
-5485.0050964307184
 21
-58.16402736436131
 31
0.0
  0
LINE
  5
1127B
  8
AM_VIS
 10
-5484.5452703307692
 20
-58.623853464309633
 30
0.0
 11
-5483.7860320931704
 21
-58.630479236030901
 31
0.0
  0
LINE
  5
1127C
  8
AM_HID
 10
-5484.5308425373878
 20
-58.63828125769178
 30
0.0
 11
-5484.2860320931686
 21
-58.883091701910573
 31
0.0
  0
LINE
  5
1127D
  8
AM_VIS
 10
-5485.0050964307184
 20
-58.16402736436131
 30
0.0
 11
-5484.5308425373878
 21
-58.638281257691787
 31
0.0
  0
POLYLINE
  5
1127E
  8
AM_VIS
 66
     1
 10
0.0
 20
0.0
 30
0.0
  0
VERTEX
  5
1129B
  8
AM_VIS
 10
-5447.5695895742056
 20
-108.1761158021354
 30
0.0
  0
VERTEX
  5
1129C
  8
AM_VIS
 10
-5447.5695895742056
 20
-61.659015042867217
 30
0.0
 42
-0.4142135623731302
  0
VERTEX
  5
1129D
  8
AM_VIS
 10
-5445.4743862025643
 20
-59.563811671226247
 30
0.0
 42
0.3281755179932047
  0
SEQEND
  5
1129E
  8
AM_VIS
  0
POLYLINE
  5
1127F
  8
AM_VIS
 66
     1
 10
0.0
 20
0.0
 30
0.0
  0
VERTEX
  5
1129F
  8
AM_VIS
 10
-5448.9695895742061
 20
-108.1761158021354
 30
0.0
  0
VERTEX
  5
112A0
  8
AM_VIS
 10
-5448.9695895742061
 20
-61.659015042867217
 30
0.0
 42
-0.4142135623731625
  0
VERTEX
  5
112A1
  8
AM_VIS
 10
-5445.4743862025643
 20
-58.163811671226249
 30
0.0
 42
-0.1652446692669208
  0
SEQEND
  5
112A2
  8
AM_VIS
  0
POLYLINE
  5
11280
  8
AM_VIS
 66
     1
 10
0.0
 20
0.0
 30
0.0
  0
VERTEX
  5
112A3
  8
AM_VIS
 10
-5350.3449813123871
 20
-108.1761158021354
 30
0.0
  0
VERTEX
  5
112A4
  8
AM_VIS
 10
-5350.3449813123871
 20
-61.659015042867217
 30
0.0
 42
0.4142135623731302
  0
VERTEX
  5
112A5
  8
AM_VIS
 10
-5352.4401846840283
 20
-59.563811671226247
 30
0.0
 42
-0.3281755179932047
  0
SEQEND
  5
112A6
  8
AM_VIS
  0
POLYLINE
  5
11281
  8
AM_VIS
 66
     1
 10
0.0
 20
0.0
 30
0.0
  0
VERTEX
  5
112A7
  8
AM_VIS
 10
-5348.9449813123874
 20
-108.1761158021354
 30
0.0
  0
VERTEX
  5
112A8
  8
AM_VIS
 10
-5348.9449813123874
 20
-61.659015042867217
 30
0.0
 42
0.4142135623731625
  0
VERTEX
  5
112A9
  8
AM_VIS
 10
-5352.4401846840283
 20
-58.163811671226249
 30
0.0
 42
0.1652446692669208
  0
SEQEND
  5
112AA
  8
AM_VIS
  0
POLYLINE
  5
11282
  8
AM_VIS
 66
     1
 10
0.0
 20
0.0
 30
0.0
  0
VERTEX
  5
112AB
  8
AM_VIS
 10
-5348.9449813123874
 20
-108.1761158021353
 30
0.0
  0
VERTEX
  5
112AC
  8
AM_VIS
 10
-5348.9449813123874
 20
-154.6932165614036
 30
0.0
 42
-0.4142135623731625
  0
VERTEX
  5
112AD
  8
AM_VIS
 10
-5352.4401846840283
 20
-158.18841993304451
 30
0.0
 42
-0.1652446692669208
  0
SEQEND
  5
112AE
  8
AM_VIS
  0
POLYLINE
  5
11283
  8
AM_VIS
 66
     1
 10
0.0
 20
0.0
 30
0.0
  0
VERTEX
  5
112AF
  8
AM_VIS
 10
-5350.3449813123871
 20
-108.1761158021353
 30
0.0
  0
VERTEX
  5
112B0
  8
AM_VIS
 10
-5350.3449813123871
 20
-154.6932165614036
 30
0.0
 42
-0.4142135623731302
  0
VERTEX
  5
112B1
  8
AM_VIS
 10
-5352.4401846840283
 20
-156.78841993304451
 30
0.0
 42
0.3281755179932047
  0
SEQEND
  5
112B2
  8
AM_VIS
  0
POLYLINE
  5
11284
  8
AM_VIS
 66
     1
 10
0.0
 20
0.0
 30
0.0
  0
VERTEX
  5
112B3
  8
AM_VIS
 10
-5448.9695895742061
 20
-108.1761158021353
 30
0.0
  0
VERTEX
  5
112B4
  8
AM_VIS
 10
-5448.9695895742061
 20
-154.6932165614036
 30
0.0
 42
0.4142135623731625
  0
VERTEX
  5
112B5
  8
AM_VIS
 10
-5445.4743862025643
 20
-158.18841993304451
 30
0.0
 42
0.1652446692669208
  0
SEQEND
  5
112B6
  8
AM_VIS
  0
POLYLINE
  5
11285
  8
AM_VIS
 66
     1
 10
0.0
 20
0.0
 30
0.0
  0
VERTEX
  5
112B7
  8
AM_VIS
 10
-5447.5695895742056
 20
-108.1761158021353
 30
0.0
  0
VERTEX
  5
112B8
  8
AM_VIS
 10
-5447.5695895742056
 20
-154.6932165614036
 30
0.0
 42
0.4142135623731302
  0
VERTEX
  5
112B9
  8
AM_VIS
 10
-5445.4743862025643
 20
-156.78841993304451
 30
0.0
 42
-0.3281755179932047
  0
SEQEND
  5
112BA
  8
AM_VIS
  0
TEXT
  5
11286
  8
AM_VIS
 10
-5315.8460197038394
 20
-22.117329650862182
 30
0.0
 40
5.0
  1
MNX Cover
  7
ACANSTS
  0
TEXT
  5
11287
  8
AM_VIS
 10
-5315.8460197038394
 20
-30.688758222290758
 30
0.0
 40
5.0
  1
II 95/25 G, T, AG
  7
ACANSTS
  0
ENDSEC
  0
EOF
