  0
SECTION
  2
HEADER
  9
$ACADVER
  1
AC1009
  9
$INSBASE
 10
0.0
 20
0.0
 30
0.0
  9
$EXTMIN
 10
381.8629331661736
 20
-34.119839527138083
 30
0.0
  9
$EXTMAX
 10
1198.030166413763
 20
591.98970509764547
 30
0.0
  9
$LIMMIN
 10
0.0
 20
0.0
  9
$LIMMAX
 10
420.0
 20
297.0
  9
$ORTHOMODE
 70
     1
  9
$REGENMODE
 70
     1
  9
$FILLMODE
 70
     1
  9
$QTEXTMODE
 70
     0
  9
$MIRRTEXT
 70
     1
  9
$DRAGMODE
 70
     2
  9
$LTSCALE
 40
10.0
  9
$OSMODE
 70
     5
  9
$ATTMODE
 70
     1
  9
$TEXTSIZE
 40
2.5
  9
$TRACEWID
 40
1.0
  9
$TEXTSTYLE
  7
STANDARD
  9
$CLAYER
  8
L6
  9
$CELTYPE
  6
BYLAYER
  9
$CECOLOR
 62
   256
  9
$DIMSCALE
 40
1.0
  9
$DIMASZ
 40
3.5
  9
$DIMEXO
 40
0.1
  9
$DIMDLI
 40
0.38
  9
$DIMRND
 40
0.0
  9
$DIMDLE
 40
0.0
  9
$DIMEXE
 40
0.18
  9
$DIMTP
 40
0.0
  9
$DIMTM
 40
0.0
  9
$DIMTXT
 40
5.0
  9
$DIMCEN
 40
1.0
  9
$DIMTSZ
 40
0.0
  9
$DIMTOL
 70
     0
  9
$DIMLIM
 70
     0
  9
$DIMTIH
 70
     0
  9
$DIMTOH
 70
     0
  9
$DIMSE1
 70
     0
  9
$DIMSE2
 70
     0
  9
$DIMTAD
 70
     1
  9
$DIMZIN
 70
     8
  9
$DIMBLK
  1

  9
$DIMASO
 70
     1
  9
$DIMSHO
 70
     1
  9
$DIMPOST
  1

  9
$DIMAPOST
  1

  9
$DIMALT
 70
     0
  9
$DIMALTD
 70
     2
  9
$DIMALTF
 40
25.399999999999999
  9
$DIMLFAC
 40
1.0
  9
$DIMTOFL
 70
     1
  9
$DIMTVP
 40
0.0
  9
$DIMTIX
 70
     0
  9
$DIMSOXD
 70
     0
  9
$DIMSAH
 70
     0
  9
$DIMBLK1
  1

  9
$DIMBLK2
  1

  9
$DIMSTYLE
  2
FIBOX
  9
$DIMCLRD
 70
     1
  9
$DIMCLRE
 70
     1
  9
$DIMCLRT
 70
     3
  9
$DIMTFAC
 40
1.0
  9
$DIMGAP
 40
1.0
  9
$LUNITS
 70
     2
  9
$LUPREC
 70
     4
  9
$SKETCHINC
 40
1.0
  9
$FILLETRAD
 40
2.0
  9
$AUNITS
 70
     0
  9
$AUPREC
 70
     0
  9
$MENU
  1
.
  9
$ELEVATION
 40
0.0
  9
$PELEVATION
 40
0.0
  9
$THICKNESS
 40
0.0
  9
$LIMCHECK
 70
     0
  9
$BLIPMODE
 70
     0
  9
$CHAMFERA
 40
10.0
  9
$CHAMFERB
 40
10.0
  9
$SKPOLY
 70
     0
  9
$TDCREATE
 40
2451170.4250930208
  9
$TDUPDATE
 40
2452502.530725474
  9
$TDINDWG
 40
0.3973725579
  9
$TDUSRTIMER
 40
0.3973725579
  9
$USRTIMER
 70
     1
  9
$ANGBASE
 50
0.0
  9
$ANGDIR
 70
     0
  9
$PDMODE
 70
     0
  9
$PDSIZE
 40
0.0
  9
$PLINEWID
 40
0.0
  9
$COORDS
 70
     2
  9
$SPLFRAME
 70
     0
  9
$SPLINETYPE
 70
     6
  9
$SPLINESEGS
 70
     8
  9
$ATTDIA
 70
     0
  9
$ATTREQ
 70
     1
  9
$HANDLING
 70
 22529
  9
$HANDSEED
  5
342A
  9
$SURFTAB1
 70
     6
  9
$SURFTAB2
 70
     6
  9
$SURFTYPE
 70
     6
  9
$SURFU
 70
     6
  9
$SURFV
 70
     6
  9
$UCSNAME
  2

  9
$UCSORG
 10
0.0
 20
0.0
 30
0.0
  9
$UCSXDIR
 10
1.0
 20
0.0
 30
0.0
  9
$UCSYDIR
 10
0.0
 20
1.0
 30
0.0
  9
$PUCSNAME
  2

  9
$PUCSORG
 10
0.0
 20
0.0
 30
0.0
  9
$PUCSXDIR
 10
1.0
 20
0.0
 30
0.0
  9
$PUCSYDIR
 10
0.0
 20
1.0
 30
0.0
  9
$USERI1
 70
     0
  9
$USERI2
 70
     0
  9
$USERI3
 70
     0
  9
$USERI4
 70
     0
  9
$USERI5
 70
     0
  9
$USERR1
 40
0.0
  9
$USERR2
 40
0.0
  9
$USERR3
 40
0.0
  9
$USERR4
 40
0.0
  9
$USERR5
 40
0.0
  9
$WORLDVIEW
 70
     1
  9
$SHADEDGE
 70
     3
  9
$SHADEDIF
 70
    70
  9
$TILEMODE
 70
     1
  9
$MAXACTVP
 70
    16
  9
$PLIMCHECK
 70
     0
  9
$PEXTMIN
 10
-626.83997057706608
 20
-0.0238352579098091
 30
-0.0000000349181948
  9
$PEXTMAX
 10
281.75199061806097
 20
812.21526720493398
 30
0.0000000814935746
  9
$PLIMMIN
 10
0.0
 20
0.0
  9
$PLIMMAX
 10
420.0
 20
297.0
  9
$UNITMODE
 70
     0
  9
$VISRETAIN
 70
     0
  9
$PLINEGEN
 70
     0
  9
$PSLTSCALE
 70
     1
  0
ENDSEC
  0
SECTION
  2
TABLES
  0
TABLE
  2
VPORT
 70
     2
  0
VPORT
  2
*ACTIVE
 70
     0
 10
0.0
 20
0.0
 11
1.0
 21
1.0
 12
487.53316534749558
 22
-151.4336475247641
 13
0.0
 23
0.0
 14
10.0
 24
10.0
 15
10.0
 25
10.0
 16
0.0
 26
0.0
 36
1.0
 17
302.43530932922931
 27
430.36858322565638
 37
79.159908770533079
 40
630.85900601930075
 41
1.5205479452054791
 42
50.0
 43
0.0
 44
0.0
 50
0.0
 51
0.0
 71
     0
 72
  1000
 73
     1
 74
     1
 75
     0
 76
     0
 77
     0
 78
     0
  0
ENDTAB
  0
TABLE
  2
LTYPE
 70
     2
  0
LTYPE
  2
CONTINUOUS
 70
     0
  3
Solid line
 72
    65
 73
     0
 40
0.0
  0
LTYPE
  2
CENTER
 70
     0
  3
____ _ ____ _ ____ _ ____ _ ____ _ ____ _ ____ 
 72
    65
 73
     4
 40
2.0
 49
1.25
 49
-0.25
 49
0.25
 49
-0.25
  0
ENDTAB
  0
TABLE
  2
LAYER
 70
     4
  0
LAYER
  2
0
 70
     0
 62
     7
  6
CONTINUOUS
  0
LAYER
  2
AM_VIS
 70
     0
 62
     7
  6
CONTINUOUS
  0
LAYER
  2
L6
 70
     0
 62
     1
  6
CENTER
  0
LAYER
  2
DEFPOINTS
 70
     0
 62
     7
  6
CONTINUOUS
  0
ENDTAB
  0
TABLE
  2
STYLE
 70
     2
  0
STYLE
  2
STANDARD
 70
     0
 40
0.0
 41
1.0
 50
0.0
 71
     0
 42
2.5
  3
isocp.shx
  4

  0
STYLE
  2
SIMPLEX
 70
     0
 40
0.0
 41
0.8
 50
0.0
 71
     0
 42
2.5
  3
simplex.shx
  4

  0
ENDTAB
  0
TABLE
  2
VIEW
 70
     0
  0
ENDTAB
  0
TABLE
  2
UCS
 70
     0
  0
ENDTAB
  0
TABLE
  2
APPID
 70
     1
  0
APPID
  2
ACAD
 70
     0
  0
ENDTAB
  0
TABLE
  2
DIMSTYLE
 70
     1
  0
DIMSTYLE
  2
FIBOX
 70
     0
  3

  4

  5

  6

  7

 40
1.0
 41
3.5
 42
0.1
 43
0.38
 44
0.18
 45
0.0
 46
0.0
 47
0.0
 48
0.0
140
5.0
141
1.0
142
0.0
143
25.399999999999999
144
1.0
145
0.0
146
1.0
147
1.0
 71
     0
 72
     0
 73
     0
 74
     0
 75
     0
 76
     0
 77
     1
 78
     8
170
     0
171
     2
172
     1
173
     0
174
     0
175
     0
176
     1
177
     1
178
     3
  0
ENDTAB
  0
ENDSEC
  0
SECTION
  2
BLOCKS
  0
BLOCK
  8
0
  2
$MODEL_SPACE
 70
     0
 10
0.0
 20
0.0
 30
0.0
  3
$MODEL_SPACE
  1

  0
ENDBLK
  5
A
  8
0
  0
BLOCK
 67
     1
  8
0
  2
$PAPER_SPACE
 70
     0
 10
0.0
 20
0.0
 30
0.0
  3
$PAPER_SPACE
  1

  0
ENDBLK
  5
F
 67
     1
  8
0
  0
ENDSEC
  0
SECTION
  2
ENTITIES
  0
LINE
  5
8DB
  8
AM_VIS
  6
CENTER
 62
     1
 10
491.62255981398522
 20
278.93493278525369
 30
0.0
 11
491.62255981398522
 21
427.00344313680142
 31
0.0
  0
POLYLINE
  5
8DC
  8
L6
 66
     1
 10
0.0
 20
0.0
 30
0.0
  0
VERTEX
  5
29E9
  8
L6
 10
917.78082728149548
 20
142.39636177438709
 30
0.0
  0
VERTEX
  5
29EA
  8
L6
 10
917.78082728149548
 20
417.98656769110619
 30
0.0
  0
SEQEND
  5
29EB
  8
L6
  0
POLYLINE
  5
98D
  8
AM_VIS
 66
     1
 10
0.0
 20
0.0
 30
0.0
  0
VERTEX
  5
29EC
  8
AM_VIS
 10
917.78082728149525
 20
155.60024341523919
 30
0.0
  0
VERTEX
  5
29ED
  8
AM_VIS
 10
912.37347249207562
 20
155.60024341523919
 30
0.0
  0
VERTEX
  5
29EE
  8
AM_VIS
 10
903.29627882208717
 20
155.60024341523919
 30
0.0
  0
VERTEX
  5
29EF
  8
AM_VIS
 10
893.61414138914824
 20
155.60024341523919
 30
0.0
  0
VERTEX
  5
29F0
  8
AM_VIS
 10
883.93315089059524
 20
155.60024341523919
 30
0.0
  0
VERTEX
  5
29F1
  8
AM_VIS
 10
874.24792296196324
 20
155.60024341523919
 30
0.0
  0
VERTEX
  5
29F2
  8
AM_VIS
 10
864.5666517712076
 20
155.60024341523919
 30
0.0
  0
VERTEX
  5
29F3
  8
AM_VIS
 10
859.73441774997764
 20
155.60024341523919
 30
0.0
  0
VERTEX
  5
29F4
  8
AM_VIS
 10
854.89604444971906
 20
155.60024341523919
 30
0.0
  0
VERTEX
  5
29F5
  8
AM_VIS
 10
850.05236979493066
 20
155.60024341523919
 30
0.0
  0
VERTEX
  5
29F6
  8
AM_VIS
 10
847.62115155247272
 20
155.60024341523931
 30
0.0
  0
VERTEX
  5
29F7
  8
AM_VIS
 10
846.39803010145579
 20
155.60024341523931
 30
0.0
  0
VERTEX
  5
29F8
  8
AM_VIS
 10
845.84298584120791
 20
155.60024341523919
 30
0.0
  0
SEQEND
  5
29F9
  8
AM_VIS
  0
POLYLINE
  5
98E
  8
AM_VIS
 66
     1
 10
0.0
 20
0.0
 30
0.0
  0
VERTEX
  5
29FA
  8
AM_VIS
 10
832.60517809201667
 20
153.0636690841971
 30
0.0
  0
VERTEX
  5
29FB
  8
AM_VIS
 10
832.66136455276057
 20
153.06366908419699
 30
0.0
  0
VERTEX
  5
29FC
  8
AM_VIS
 10
834.13262749375906
 20
153.0636690841971
 30
0.0
  0
VERTEX
  5
29FD
  8
AM_VIS
 10
837.05850015628062
 20
153.0636690841971
 30
0.0
  0
VERTEX
  5
29FE
  8
AM_VIS
 10
842.90224006102289
 20
153.06366908419699
 30
0.0
  0
VERTEX
  5
29FF
  8
AM_VIS
 10
854.63881952968973
 20
153.0636690841971
 30
0.0
  0
VERTEX
  5
2A00
  8
AM_VIS
 10
866.38043467899729
 20
153.06366908419699
 30
0.0
  0
VERTEX
  5
2A01
  8
AM_VIS
 10
878.1148302658321
 20
153.0636690841971
 30
0.0
  0
VERTEX
  5
2A02
  8
AM_VIS
 10
889.85102469475203
 20
153.06366908419699
 30
0.0
  0
VERTEX
  5
2A03
  8
AM_VIS
 10
901.58763046196225
 20
153.0636690841971
 30
0.0
  0
VERTEX
  5
2A04
  8
AM_VIS
 10
911.8567561828454
 20
153.0636690841971
 30
0.0
  0
VERTEX
  5
2A05
  8
AM_VIS
 10
917.78082728149525
 20
153.0636690841971
 30
0.0
  0
SEQEND
  5
2A06
  8
AM_VIS
  0
POLYLINE
  5
990
  8
AM_VIS
 66
     1
 10
0.0
 20
0.0
 30
0.0
  0
VERTEX
  5
2A07
  8
AM_VIS
 10
917.78082728149525
 20
152.7640802237708
 30
0.0
  0
VERTEX
  5
2A08
  8
AM_VIS
 10
911.8567561828454
 20
152.7640802237708
 30
0.0
  0
VERTEX
  5
2A09
  8
AM_VIS
 10
901.58763046196225
 20
152.7640802237708
 30
0.0
  0
VERTEX
  5
2A0A
  8
AM_VIS
 10
889.85102469475203
 20
152.7640802237708
 30
0.0
  0
VERTEX
  5
2A0B
  8
AM_VIS
 10
878.1148302658321
 20
152.7640802237708
 30
0.0
  0
VERTEX
  5
2A0C
  8
AM_VIS
 10
866.38043467899729
 20
152.7640802237708
 30
0.0
  0
VERTEX
  5
2A0D
  8
AM_VIS
 10
854.63881952968973
 20
152.7640802237708
 30
0.0
  0
VERTEX
  5
2A0E
  8
AM_VIS
 10
842.90224006102289
 20
152.7640802237708
 30
0.0
  0
VERTEX
  5
2A0F
  8
AM_VIS
 10
837.05850015628062
 20
152.7640802237708
 30
0.0
  0
VERTEX
  5
2A10
  8
AM_VIS
 10
834.13262749375906
 20
152.7640802237708
 30
0.0
  0
VERTEX
  5
2A11
  8
AM_VIS
 10
832.66136455276057
 20
152.76408022377069
 30
0.0
  0
VERTEX
  5
2A12
  8
AM_VIS
 10
832.60517809177463
 20
152.764080223771
 30
0.0
  0
SEQEND
  5
2A13
  8
AM_VIS
  0
POLYLINE
  5
991
  8
AM_VIS
 66
     1
 10
0.0
 20
0.0
 30
0.0
  0
VERTEX
  5
2A14
  8
AM_VIS
 10
831.27015112555728
 20
151.42905325767489
 30
0.0
  0
VERTEX
  5
2A15
  8
AM_VIS
 10
831.32667151810972
 20
151.42905325767489
 30
0.0
  0
VERTEX
  5
2A16
  8
AM_VIS
 10
832.80842512854963
 20
151.42905325767489
 30
0.0
  0
VERTEX
  5
2A17
  8
AM_VIS
 10
838.71094480414854
 20
151.42905325767489
 30
0.0
  0
VERTEX
  5
2A18
  8
AM_VIS
 10
844.64664022068803
 20
151.42905325767489
 30
0.0
  0
VERTEX
  5
2A19
  8
AM_VIS
 10
850.62251036076736
 20
151.42905325767489
 30
0.0
  0
VERTEX
  5
2A1A
  8
AM_VIS
 10
862.56819860360793
 20
151.42905325767489
 30
0.0
  0
VERTEX
  5
2A1B
  8
AM_VIS
 10
874.4889395438978
 20
151.42905325767489
 30
0.0
  0
VERTEX
  5
2A1C
  8
AM_VIS
 10
886.41530260811214
 20
151.42905325767489
 30
0.0
  0
VERTEX
  5
2A1D
  8
AM_VIS
 10
898.34331249646175
 20
151.42905325767489
 30
0.0
  0
VERTEX
  5
2A1E
  8
AM_VIS
 10
910.26965615408665
 20
151.42905325767489
 30
0.0
  0
VERTEX
  5
2A1F
  8
AM_VIS
 10
917.78082728149525
 20
151.42905325767489
 30
0.0
  0
SEQEND
  5
2A20
  8
AM_VIS
  0
LINE
  5
992
  8
AM_VIS
 10
851.73082728149541
 20
173.3849327852538
 30
0.0
 11
917.78082728149548
 21
173.3849327852538
 31
0.0
  0
LINE
  5
994
  8
AM_VIS
 10
851.79215029217687
 20
162.2155162314817
 30
0.0
 11
917.78082728149548
 21
162.2155162314817
 31
0.0
  0
LINE
  5
995
  8
AM_VIS
 10
917.78082728149548
 20
159.68990993649871
 30
0.0
 11
849.63306350224946
 21
159.68990993649871
 31
0.0
  0
POLYLINE
  5
9A4
  8
L6
 66
     1
 10
0.0
 20
0.0
 30
0.0
  0
VERTEX
  5
2A21
  8
L6
 10
1027.1404086383261
 20
278.93493278525369
 30
0.0
  0
VERTEX
  5
2A22
  8
L6
 10
819.2763553817739
 20
278.93493278525369
 30
0.0
  0
SEQEND
  5
2A23
  8
L6
  0
LINE
  5
9AF
  8
AM_VIS
 10
1069.4275776709601
 20
168.9847614477415
 30
0.0
 11
1069.4275776709601
 21
278.93493278525369
 31
0.0
  0
LINE
  5
9B2
  8
L6
 10
1167.8275776709611
 20
278.93493278525369
 30
0.0
 11
1167.8275776709611
 21
162.76310845219879
 31
0.0
  0
LINE
  5
9B4
  8
AM_VIS
 10
1171.02757767096
 20
278.93493278525369
 30
0.0
 11
1171.02757767096
 21
162.2155162314817
 31
0.0
  0
LINE
  5
9B5
  8
AM_VIS
 10
1068.1088219721209
 20
278.93493278525369
 30
0.0
 11
1068.1088219721209
 21
168.78493278525369
 31
0.0
  0
LINE
  5
9C1
  8
AM_VIS
 10
1171.02757767096
 20
278.93493278525381
 30
0.0
 11
1171.02757767096
 21
395.65434933902583
 31
0.0
  0
LINE
  5
9C2
  8
AM_VIS
 10
1069.4275776709601
 20
404.8849327852538
 30
0.0
 11
1069.4275776709601
 21
278.93493278525369
 31
0.0
  0
LINE
  5
9C5
  8
L6
 10
1167.8275776709611
 20
278.93493278525369
 30
0.0
 11
1167.8275776709611
 21
395.10675711830862
 31
0.0
  0
LINE
  5
9C7
  8
AM_VIS
 10
1068.1088219721209
 20
278.93493278525369
 30
0.0
 11
1068.1088219721209
 21
404.3849327852538
 31
0.0
  0
LINE
  5
9CA
  8
AM_VIS
 10
1168.6308667875501
 20
398.17995563400871
 30
0.0
 11
1096.311876884088
 21
401.97003329484193
 31
0.0
  0
LINE
  5
9CB
  8
L6
 10
1166.828948136206
 20
396.15909307455161
 30
0.0
 11
1093.82757767096
 21
399.9849327852537
 31
0.0
  0
LINE
  5
9D0
  8
AM_VIS
 10
1171.02757767096
 20
395.65434933902583
 30
0.0
 11
1168.6308667875501
 21
398.17995563400871
 31
0.0
  0
LINE
  5
9D3
  8
L6
 10
1166.828948136206
 20
396.15909307455161
 30
0.0
 11
1167.8275776709611
 21
395.10675711830862
 31
0.0
  0
LINE
  5
9DB
  8
L6
 10
1093.82757767096
 20
402.54599629896552
 30
0.0
 11
1069.4275776709601
 21
403.18493278525381
 31
0.0
  0
LINE
  5
9DD
  8
AM_VIS
 10
1095.743278457833
 20
405.1057853467367
 30
0.0
 11
1070.2694464359549
 21
406.44081231283258
 31
0.0
  0
LINE
  5
9E0
  8
AM_VIS
 10
1096.02757767096
 20
404.80619648631028
 30
0.0
 11
1096.02757767096
 21
402.26962215526828
 31
0.0
  0
POLYLINE
  5
9E1
  8
AM_VIS
 66
     1
 10
0.0
 20
0.0
 30
0.0
  0
VERTEX
  5
2A24
  8
AM_VIS
 10
1096.02757767096
 20
404.80619648631028
 30
0.0
  0
VERTEX
  5
2A25
  8
AM_VIS
 10
1095.885428064397
 20
404.95599091652349
 30
0.0
  0
VERTEX
  5
2A26
  8
AM_VIS
 10
1095.743278457833
 20
405.1057853467367
 30
0.0
  0
SEQEND
  5
2A27
  8
AM_VIS
  0
POLYLINE
  5
9E2
  8
AM_VIS
 66
     1
 10
0.0
 20
0.0
 30
0.0
  0
VERTEX
  5
2A28
  8
AM_VIS
 10
1095.74327845784
 20
405.10578534673641
 30
0.0
  0
VERTEX
  5
2A29
  8
AM_VIS
 10
1095.7433478842879
 20
405.1057469205478
 30
0.0
  0
SEQEND
  5
2A2A
  8
AM_VIS
  0
POLYLINE
  5
9E3
  8
AM_VIS
 66
     1
 10
0.0
 20
0.0
 30
0.0
  0
VERTEX
  5
2A2B
  8
AM_VIS
 10
1096.02757767096
 20
404.80619648631023
 30
0.0
  0
VERTEX
  5
2A2C
  8
AM_VIS
 10
1095.8854472249659
 20
404.95597986456318
 30
0.0
  0
VERTEX
  5
2A2D
  8
AM_VIS
 10
1095.7433480527891
 20
405.1057469242117
 30
0.0
  0
SEQEND
  5
2A2E
  8
AM_VIS
  0
LINE
  5
9E4
  8
L6
 10
1093.82757767096
 20
399.9849327852537
 30
0.0
 11
1093.82757767096
 21
402.54599629896552
 31
0.0
  0
POLYLINE
  5
9E5
  8
AM_VIS
 66
     1
 10
0.0
 20
0.0
 30
0.0
  0
VERTEX
  5
2A2F
  8
AM_VIS
 10
1096.311876884088
 20
401.97003329484193
 30
0.0
  0
VERTEX
  5
2A30
  8
AM_VIS
 10
1096.1697272775241
 20
402.11982772505507
 30
0.0
  0
VERTEX
  5
2A31
  8
AM_VIS
 10
1096.02757767096
 20
402.26962215526828
 30
0.0
  0
SEQEND
  5
2A32
  8
AM_VIS
  0
LINE
  5
9EF
  8
AM_VIS
 10
1069.4275776709601
 20
404.8849327852538
 30
0.0
 11
1068.3722263247359
 21
404.69884586878749
 31
0.0
  0
ARC
  5
9F0
  8
AM_VIS
 10
1068.4275776709601
 20
404.38493278525391
 30
0.0
 40
0.3187556988391739
 50
99.999999999998707
 51
180.0
  0
LINE
  5
9F2
  8
AM_VIS
 10
1069.4275776709601
 20
404.8849327852538
 30
0.0
 11
1069.4275776709601
 21
405.64190868502902
 31
0.0
  0
POLYLINE
  5
9F3
  8
AM_VIS
 66
     1
 10
0.0
 20
0.0
 30
0.0
  0
VERTEX
  5
2A33
  8
AM_VIS
 10
1070.2694464359549
 20
406.44081231283258
 30
0.0
  0
VERTEX
  5
2A34
  8
AM_VIS
 10
1069.8485120534569
 20
406.04136049893083
 30
0.0
  0
VERTEX
  5
2A35
  8
AM_VIS
 10
1069.4275776709601
 20
405.64190868502902
 30
0.0
  0
SEQEND
  5
2A36
  8
AM_VIS
  0
POLYLINE
  5
A01
  8
L6
 66
     1
 10
0.0
 20
0.0
 30
0.0
  0
VERTEX
  5
2A37
  8
L6
 10
1198.030166413763
 20
278.93493278525369
 30
0.0
  0
VERTEX
  5
2A38
  8
L6
 10
1046.741908962038
 20
278.93493278525369
 30
0.0
  0
SEQEND
  5
2A39
  8
L6
  0
LINE
  5
A48
  8
AM_VIS
 10
1168.6308667875501
 20
159.68990993649871
 30
0.0
 11
1096.311876884088
 21
155.89983227566549
 31
0.0
  0
LINE
  5
A49
  8
L6
 10
1166.828948136206
 20
161.71077249595581
 30
0.0
 11
1093.82757767096
 21
157.88493278525371
 31
0.0
  0
LINE
  5
A51
  8
AM_VIS
 10
1171.02757767096
 20
162.2155162314817
 30
0.0
 11
1168.6308667875501
 21
159.68990993649871
 31
0.0
  0
LINE
  5
A53
  8
L6
 10
1166.828948136206
 20
161.71077249595581
 30
0.0
 11
1167.8275776709611
 21
162.76310845219879
 31
0.0
  0
LINE
  5
A57
  8
L6
 10
1093.82757767096
 20
155.32386927154189
 30
0.0
 11
1069.4275776709601
 21
154.68493278525369
 31
0.0
  0
LINE
  5
A58
  8
AM_VIS
 10
1095.743278457833
 20
152.7640802237708
 30
0.0
 11
1070.2694464359549
 21
151.42905325767481
 31
0.0
  0
LINE
  5
A5B
  8
AM_VIS
 10
1096.02757767096
 20
153.0636690841971
 30
0.0
 11
1096.02757767096
 21
402.26962215526828
 31
0.0
  0
LINE
  5
A60
  8
L6
 10
1093.82757767096
 20
157.88493278525371
 30
0.0
 11
1093.82757767096
 21
155.32386927154189
 31
0.0
  0
POLYLINE
  5
A63
  8
AM_VIS
 66
     1
 10
0.0
 20
0.0
 30
0.0
  0
VERTEX
  5
2A3A
  8
AM_VIS
 10
1096.311876884088
 20
155.89983227566549
 30
0.0
  0
VERTEX
  5
2A3B
  8
AM_VIS
 10
1096.1697272775241
 20
155.75003784545231
 30
0.0
  0
VERTEX
  5
2A3C
  8
AM_VIS
 10
1096.02757767096
 20
155.60024341523911
 30
0.0
  0
SEQEND
  5
2A3D
  8
AM_VIS
  0
POLYLINE
  5
A64
  8
AM_VIS
 66
     1
 10
0.0
 20
0.0
 30
0.0
  0
VERTEX
  5
2A3E
  8
AM_VIS
 10
1096.02757767096
 20
153.0636690841971
 30
0.0
  0
VERTEX
  5
2A3F
  8
AM_VIS
 10
1095.885428064397
 20
152.91387465398381
 30
0.0
  0
VERTEX
  5
2A40
  8
AM_VIS
 10
1095.743278457833
 20
152.7640802237708
 30
0.0
  0
SEQEND
  5
2A41
  8
AM_VIS
  0
POLYLINE
  5
A65
  8
AM_VIS
 66
     1
 10
0.0
 20
0.0
 30
0.0
  0
VERTEX
  5
2A42
  8
AM_VIS
 10
1095.74327845784
 20
152.764080223771
 30
0.0
  0
VERTEX
  5
2A43
  8
AM_VIS
 10
1095.7433478842879
 20
152.7641186499597
 30
0.0
  0
SEQEND
  5
2A44
  8
AM_VIS
  0
POLYLINE
  5
A66
  8
AM_VIS
 66
     1
 10
0.0
 20
0.0
 30
0.0
  0
VERTEX
  5
2A45
  8
AM_VIS
 10
1096.02757767096
 20
153.06366908419719
 30
0.0
  0
VERTEX
  5
2A46
  8
AM_VIS
 10
1095.8854472249659
 20
152.91388570594421
 30
0.0
  0
VERTEX
  5
2A47
  8
AM_VIS
 10
1095.7433480527891
 20
152.76411864629571
 30
0.0
  0
SEQEND
  5
2A48
  8
AM_VIS
  0
LINE
  5
A6B
  8
AM_VIS
 10
1068.1088219721209
 20
153.50859632473239
 30
0.0
 11
1068.1088219721209
 21
166.58493278525361
 31
0.0
  0
LINE
  5
A74
  8
AM_VIS
 10
1069.4275776709601
 20
164.99498355099709
 30
0.0
 11
1069.4275776709601
 21
152.22795688547839
 31
0.0
  0
LINE
  5
A7A
  8
AM_VIS
 10
1069.4275776709601
 20
152.98493278525359
 30
0.0
 11
1068.3722263247359
 21
153.17101970172001
 31
0.0
  0
ARC
  5
A7B
  8
AM_VIS
 10
1068.4275776709601
 20
153.48493278525359
 30
0.0
 40
0.3187556988391739
 50
180.0
 51
260.00000000000119
  0
POLYLINE
  5
A7D
  8
AM_VIS
 66
     1
 10
0.0
 20
0.0
 30
0.0
  0
VERTEX
  5
2A49
  8
AM_VIS
 10
1070.2694464359549
 20
151.42905325767481
 30
0.0
  0
VERTEX
  5
2A4A
  8
AM_VIS
 10
1069.8485120534569
 20
151.82850507157659
 30
0.0
  0
VERTEX
  5
2A4B
  8
AM_VIS
 10
1069.4275776709601
 20
152.22795688547839
 30
0.0
  0
SEQEND
  5
2A4C
  8
AM_VIS
  0
POLYLINE
  5
AFC
  8
L6
 66
     1
 10
0.0
 20
0.0
 30
0.0
  0
VERTEX
  5
2A4D
  8
L6
 10
777.47022824600663
 20
278.93493278525369
 30
0.0
  0
VERTEX
  5
2A4E
  8
L6
 10
639.77572346306715
 20
278.93493278525369
 30
0.0
  0
SEQEND
  5
2A4F
  8
L6
  0
LINE
  5
AFD
  8
AM_VIS
 10
660.89353171595656
 20
159.68990993649859
 30
0.0
 11
660.89353171595656
 21
278.93493278525369
 31
0.0
  0
LINE
  5
AFE
  8
AM_VIS
 10
658.49682083254561
 20
278.93493278525369
 30
0.0
 11
658.50959753483994
 21
162.20205239653731
 31
0.0
  0
POLYLINE
  5
AFF
  8
AM_VIS
 66
     1
 10
0.0
 20
0.0
 30
0.0
  0
VERTEX
  5
2A50
  8
AM_VIS
 10
733.78105045071675
 20
152.7641186462958
 30
0.0
  0
VERTEX
  5
2A51
  8
AM_VIS
 10
733.78112004567265
 20
157.26435852536059
 30
0.0
  0
VERTEX
  5
2A52
  8
AM_VIS
 10
733.78112004567265
 20
161.39305446755679
 30
0.0
  0
VERTEX
  5
2A53
  8
AM_VIS
 10
733.78112004567265
 20
169.61764914769051
 30
0.0
  0
VERTEX
  5
2A54
  8
AM_VIS
 10
733.78112004567265
 20
186.12237951870631
 30
0.0
  0
VERTEX
  5
2A55
  8
AM_VIS
 10
733.78112004567265
 20
202.6396765864325
 30
0.0
  0
VERTEX
  5
2A56
  8
AM_VIS
 10
733.78112004567265
 20
219.14966372568381
 30
0.0
  0
VERTEX
  5
2A57
  8
AM_VIS
 10
733.78112004567265
 20
235.65968072018239
 30
0.0
  0
VERTEX
  5
2A58
  8
AM_VIS
 10
733.78112004567265
 20
252.17104165342181
 30
0.0
  0
VERTEX
  5
2A59
  8
AM_VIS
 10
733.78112004567265
 20
268.68179690641767
 30
0.0
  0
VERTEX
  5
2A5A
  8
AM_VIS
 10
733.78112004567265
 20
278.93493278525369
 30
0.0
  0
SEQEND
  5
2A5B
  8
AM_VIS
  0
POLYLINE
  5
B01
  8
AM_VIS
 66
     1
 10
0.0
 20
0.0
 30
0.0
  0
VERTEX
  5
2A5C
  8
AM_VIS
 10
733.49682083254561
 20
278.93493278525369
 30
0.0
  0
VERTEX
  5
2A5D
  8
AM_VIS
 10
733.49682083254561
 20
268.68179690641767
 30
0.0
  0
VERTEX
  5
2A5E
  8
AM_VIS
 10
733.49682083254561
 20
252.17104165342181
 30
0.0
  0
VERTEX
  5
2A5F
  8
AM_VIS
 10
733.49682083254561
 20
235.65968072018239
 30
0.0
  0
VERTEX
  5
2A60
  8
AM_VIS
 10
733.49682083254561
 20
219.14966372568381
 30
0.0
  0
VERTEX
  5
2A61
  8
AM_VIS
 10
733.49682083254561
 20
202.6396765864325
 30
0.0
  0
VERTEX
  5
2A62
  8
AM_VIS
 10
733.49682083254561
 20
186.12237951870631
 30
0.0
  0
VERTEX
  5
2A63
  8
AM_VIS
 10
733.49682083254561
 20
169.61764914769051
 30
0.0
  0
VERTEX
  5
2A64
  8
AM_VIS
 10
733.49682083254561
 20
161.39305446755679
 30
0.0
  0
VERTEX
  5
2A65
  8
AM_VIS
 10
733.49682083254561
 20
157.26435852536059
 30
0.0
  0
VERTEX
  5
2A66
  8
AM_VIS
 10
733.49682083254561
 20
156.25928359541169
 30
0.0
  0
SEQEND
  5
2A67
  8
AM_VIS
  0
LINE
  5
B02
  8
AM_VIS
 10
761.41557653138477
 20
153.4849327852539
 30
0.0
 11
761.41557653138477
 21
278.93493278525369
 31
0.0
  0
POLYLINE
  5
B03
  8
AM_VIS
 66
     1
 10
0.0
 20
0.0
 30
0.0
  0
VERTEX
  5
2A68
  8
AM_VIS
 10
759.25495206755124
 20
278.93493278525369
 30
0.0
  0
VERTEX
  5
2A69
  8
AM_VIS
 10
759.25495206755124
 20
269.60961724154981
 30
0.0
  0
VERTEX
  5
2A6A
  8
AM_VIS
 10
759.25495206755124
 20
253.95651001593379
 30
0.0
  0
VERTEX
  5
2A6B
  8
AM_VIS
 10
759.25495206755124
 20
237.25859160485331
 30
0.0
  0
VERTEX
  5
2A6C
  8
AM_VIS
 10
759.25495206755124
 20
220.5609568851105
 30
0.0
  0
VERTEX
  5
2A6D
  8
AM_VIS
 10
759.25495206755124
 20
203.8703522074133
 30
0.0
  0
VERTEX
  5
2A6E
  8
AM_VIS
 10
759.25495206755124
 20
187.1609447729968
 30
0.0
  0
VERTEX
  5
2A6F
  8
AM_VIS
 10
759.25495206755124
 20
170.45169114342411
 30
0.0
  0
VERTEX
  5
2A70
  8
AM_VIS
 10
759.25495206755124
 20
162.15532002433989
 30
0.0
  0
VERTEX
  5
2A71
  8
AM_VIS
 10
759.25495206755124
 20
158.01277403713121
 30
0.0
  0
VERTEX
  5
2A72
  8
AM_VIS
 10
759.25495206755124
 20
155.9339395687816
 30
0.0
  0
VERTEX
  5
2A73
  8
AM_VIS
 10
759.25495206755124
 20
155.41269123101139
 30
0.0
  0
VERTEX
  5
2A74
  8
AM_VIS
 10
759.25495206752635
 20
154.9242566297975
 30
0.0
  0
SEQEND
  5
2A75
  8
AM_VIS
  0
POLYLINE
  5
B04
  8
AM_VIS
 66
     1
 10
0.0
 20
0.0
 30
0.0
  0
VERTEX
  5
2A76
  8
AM_VIS
 10
760.09682083254563
 20
172.71261713713011
 30
0.0
  0
VERTEX
  5
2A77
  8
AM_VIS
 10
760.09682083254563
 20
187.1609447729968
 30
0.0
  0
VERTEX
  5
2A78
  8
AM_VIS
 10
760.09682083254563
 20
203.8703522074133
 30
0.0
  0
VERTEX
  5
2A79
  8
AM_VIS
 10
760.09682083254563
 20
220.5609568851105
 30
0.0
  0
VERTEX
  5
2A7A
  8
AM_VIS
 10
760.09682083254563
 20
237.25859160485331
 30
0.0
  0
VERTEX
  5
2A7B
  8
AM_VIS
 10
760.09682083254563
 20
253.95651001593379
 30
0.0
  0
VERTEX
  5
2A7C
  8
AM_VIS
 10
760.09682083254563
 20
269.60961724154981
 30
0.0
  0
VERTEX
  5
2A7D
  8
AM_VIS
 10
760.09682083254563
 20
278.93493278525369
 30
0.0
  0
SEQEND
  5
2A7E
  8
AM_VIS
  0
POLYLINE
  5
B05
  8
AM_VIS
 66
     1
 10
0.0
 20
0.0
 30
0.0
  0
VERTEX
  5
2A7F
  8
AM_VIS
 10
831.94613791148095
 20
169.4970913451767
 30
0.0
  0
VERTEX
  5
2A80
  8
AM_VIS
 10
831.94613791148095
 20
170.39996135629079
 30
0.0
  0
VERTEX
  5
2A81
  8
AM_VIS
 10
831.94613791148095
 20
174.10473992134749
 30
0.0
  0
VERTEX
  5
2A82
  8
AM_VIS
 10
831.94613791148095
 20
181.46710730447811
 30
0.0
  0
VERTEX
  5
2A83
  8
AM_VIS
 10
831.94613791148095
 20
188.82575900481311
 30
0.0
  0
VERTEX
  5
2A84
  8
AM_VIS
 10
831.94613791148095
 20
196.17722308404819
 30
0.0
  0
VERTEX
  5
2A85
  8
AM_VIS
 10
831.94613791148095
 20
210.8972092258908
 30
0.0
  0
VERTEX
  5
2A86
  8
AM_VIS
 10
831.94613791148095
 20
225.62466096966369
 30
0.0
  0
VERTEX
  5
2A87
  8
AM_VIS
 10
831.94613791148095
 20
240.34616996766681
 30
0.0
  0
VERTEX
  5
2A88
  8
AM_VIS
 10
831.94613791148095
 20
255.06897942507919
 30
0.0
  0
VERTEX
  5
2A89
  8
AM_VIS
 10
831.94613791148095
 20
269.79217121883892
 30
0.0
  0
VERTEX
  5
2A8A
  8
AM_VIS
 10
831.94613791148095
 20
278.93493278525369
 30
0.0
  0
SEQEND
  5
2A8B
  8
AM_VIS
  0
POLYLINE
  5
B06
  8
AM_VIS
 66
     1
 10
0.0
 20
0.0
 30
0.0
  0
VERTEX
  5
2A8C
  8
AM_VIS
 10
829.40956358043866
 20
278.93493278525369
 30
0.0
  0
VERTEX
  5
2A8D
  8
AM_VIS
 10
829.40956358043866
 20
268.68179690641767
 30
0.0
  0
VERTEX
  5
2A8E
  8
AM_VIS
 10
829.40956358043866
 20
252.17104165342181
 30
0.0
  0
VERTEX
  5
2A8F
  8
AM_VIS
 10
829.40956358043866
 20
235.65968072018239
 30
0.0
  0
VERTEX
  5
2A90
  8
AM_VIS
 10
829.40956358043866
 20
219.14966372568381
 30
0.0
  0
VERTEX
  5
2A91
  8
AM_VIS
 10
829.40956358043866
 20
202.6396765864325
 30
0.0
  0
VERTEX
  5
2A92
  8
AM_VIS
 10
829.40956358043866
 20
186.12237951870631
 30
0.0
  0
VERTEX
  5
2A93
  8
AM_VIS
 10
829.40956358043866
 20
169.61764914769051
 30
0.0
  0
VERTEX
  5
2A94
  8
AM_VIS
 10
829.40956358043866
 20
161.39305446755679
 30
0.0
  0
VERTEX
  5
2A95
  8
AM_VIS
 10
829.40956358043866
 20
157.26435852536059
 30
0.0
  0
VERTEX
  5
2A96
  8
AM_VIS
 10
829.40956358043866
 20
156.25928359541169
 30
0.0
  0
SEQEND
  5
2A97
  8
AM_VIS
  0
POLYLINE
  5
B08
  8
AM_VIS
 66
     1
 10
0.0
 20
0.0
 30
0.0
  0
VERTEX
  5
2A98
  8
AM_VIS
 10
829.10997472001225
 20
156.25928359541169
 30
0.0
  0
VERTEX
  5
2A99
  8
AM_VIS
 10
829.10997472001225
 20
157.26435852536059
 30
0.0
  0
VERTEX
  5
2A9A
  8
AM_VIS
 10
829.10997472001225
 20
161.39305446755679
 30
0.0
  0
VERTEX
  5
2A9B
  8
AM_VIS
 10
829.10997472001225
 20
169.61764914769051
 30
0.0
  0
VERTEX
  5
2A9C
  8
AM_VIS
 10
829.10997472001225
 20
186.12237951870631
 30
0.0
  0
VERTEX
  5
2A9D
  8
AM_VIS
 10
829.10997472001225
 20
202.6396765864325
 30
0.0
  0
VERTEX
  5
2A9E
  8
AM_VIS
 10
829.10997472001225
 20
219.14966372568381
 30
0.0
  0
VERTEX
  5
2A9F
  8
AM_VIS
 10
829.10997472001225
 20
235.65968072018239
 30
0.0
  0
VERTEX
  5
2AA0
  8
AM_VIS
 10
829.10997472001225
 20
252.17104165342181
 30
0.0
  0
VERTEX
  5
2AA1
  8
AM_VIS
 10
829.10997472001225
 20
268.68179690641767
 30
0.0
  0
VERTEX
  5
2AA2
  8
AM_VIS
 10
829.10997472001225
 20
278.93493278525369
 30
0.0
  0
SEQEND
  5
2AA3
  8
AM_VIS
  0
POLYLINE
  5
B09
  8
AM_VIS
 66
     1
 10
0.0
 20
0.0
 30
0.0
  0
VERTEX
  5
2AA4
  8
AM_VIS
 10
827.77494775391654
 20
278.93493278525369
 30
0.0
  0
VERTEX
  5
2AA5
  8
AM_VIS
 10
827.77494775391654
 20
269.60961724154947
 30
0.0
  0
VERTEX
  5
2AA6
  8
AM_VIS
 10
827.77494775391654
 20
253.95651001593379
 30
0.0
  0
VERTEX
  5
2AA7
  8
AM_VIS
 10
827.77494775391654
 20
237.25859160485319
 30
0.0
  0
VERTEX
  5
2AA8
  8
AM_VIS
 10
827.77494775391654
 20
220.56095688511019
 30
0.0
  0
VERTEX
  5
2AA9
  8
AM_VIS
 10
827.77494775391654
 20
203.87035220741299
 30
0.0
  0
VERTEX
  5
2AAA
  8
AM_VIS
 10
827.77494775391654
 20
187.16094477299649
 30
0.0
  0
VERTEX
  5
2AAB
  8
AM_VIS
 10
827.77494775391654
 20
170.45169114342369
 30
0.0
  0
VERTEX
  5
2AAC
  8
AM_VIS
 10
827.77494775391654
 20
162.15532002433969
 30
0.0
  0
VERTEX
  5
2AAD
  8
AM_VIS
 10
827.77494775391654
 20
158.01277403713101
 30
0.0
  0
VERTEX
  5
2AAE
  8
AM_VIS
 10
827.77494775391654
 20
155.93393956878111
 30
0.0
  0
VERTEX
  5
2AAF
  8
AM_VIS
 10
827.77494775391654
 20
155.412691231011
 30
0.0
  0
VERTEX
  5
2AB0
  8
AM_VIS
 10
827.77494775391779
 20
154.9242566297973
 30
0.0
  0
SEQEND
  5
2AB1
  8
AM_VIS
  0
LINE
  5
B0B
  8
AM_VIS
 10
849.73082728149529
 20
278.93493278525369
 30
0.0
 11
849.73082728149529
 21
175.38493278525371
 31
0.0
  0
LINE
  5
B0C
  8
AM_VIS
 10
838.56141072772323
 20
278.93493278525369
 30
0.0
 11
838.56141072772323
 21
175.4462550589619
 31
0.0
  0
LINE
  5
B0D
  8
AM_VIS
 10
836.03580443274029
 20
173.2871690060079
 30
0.0
 11
836.03580443274029
 21
278.93493278525369
 31
0.0
  0
POLYLINE
  5
B4A
  8
AM_VIS
 66
     1
 10
0.0
 20
0.0
 30
0.0
  0
VERTEX
  5
2AB2
  8
AM_VIS
 10
733.78112004566015
 20
405.10578534673601
 30
0.0
  0
VERTEX
  5
2AB3
  8
AM_VIS
 10
733.78112004567265
 20
400.60550704514691
 30
0.0
  0
VERTEX
  5
2AB4
  8
AM_VIS
 10
733.78112004567265
 20
396.47681110295071
 30
0.0
  0
VERTEX
  5
2AB5
  8
AM_VIS
 10
733.78112004567265
 20
388.25221642281701
 30
0.0
  0
VERTEX
  5
2AB6
  8
AM_VIS
 10
733.78112004567265
 20
371.74748605180122
 30
0.0
  0
VERTEX
  5
2AB7
  8
AM_VIS
 10
733.78112004567265
 20
355.23018898407503
 30
0.0
  0
VERTEX
  5
2AB8
  8
AM_VIS
 10
733.78112004567265
 20
338.72020184482369
 30
0.0
  0
VERTEX
  5
2AB9
  8
AM_VIS
 10
733.78112004567265
 20
322.21018485032522
 30
0.0
  0
VERTEX
  5
2ABA
  8
AM_VIS
 10
733.78112004567265
 20
305.6988239170858
 30
0.0
  0
VERTEX
  5
2ABB
  8
AM_VIS
 10
733.78112004567265
 20
289.18806866408983
 30
0.0
  0
VERTEX
  5
2ABC
  8
AM_VIS
 10
733.78112004567265
 20
278.93493278525381
 30
0.0
  0
SEQEND
  5
2ABD
  8
AM_VIS
  0
POLYLINE
  5
B4C
  8
AM_VIS
 66
     1
 10
0.0
 20
0.0
 30
0.0
  0
VERTEX
  5
2ABE
  8
AM_VIS
 10
733.49682083254561
 20
278.93493278525381
 30
0.0
  0
VERTEX
  5
2ABF
  8
AM_VIS
 10
733.49682083254561
 20
289.18806866408983
 30
0.0
  0
VERTEX
  5
2AC0
  8
AM_VIS
 10
733.49682083254561
 20
305.6988239170858
 30
0.0
  0
VERTEX
  5
2AC1
  8
AM_VIS
 10
733.49682083254561
 20
322.21018485032522
 30
0.0
  0
VERTEX
  5
2AC2
  8
AM_VIS
 10
733.49682083254561
 20
338.72020184482369
 30
0.0
  0
VERTEX
  5
2AC3
  8
AM_VIS
 10
733.49682083254561
 20
355.23018898407503
 30
0.0
  0
VERTEX
  5
2AC4
  8
AM_VIS
 10
733.49682083254561
 20
371.74748605180122
 30
0.0
  0
VERTEX
  5
2AC5
  8
AM_VIS
 10
733.49682083254561
 20
388.25221642281701
 30
0.0
  0
VERTEX
  5
2AC6
  8
AM_VIS
 10
733.49682083254561
 20
396.47681110295071
 30
0.0
  0
VERTEX
  5
2AC7
  8
AM_VIS
 10
733.49682083254561
 20
400.60550704514691
 30
0.0
  0
VERTEX
  5
2AC8
  8
AM_VIS
 10
733.49682083254561
 20
401.6105819750959
 30
0.0
  0
SEQEND
  5
2AC9
  8
AM_VIS
  0
LINE
  5
B4D
  8
AM_VIS
 10
660.89353171595656
 20
398.17995563400882
 30
0.0
 11
660.89353171595656
 21
278.93493278525369
 31
0.0
  0
LINE
  5
B4E
  8
AM_VIS
 10
658.49682083254561
 20
278.93493278525381
 30
0.0
 11
658.49682083254561
 21
395.6543493390256
 31
0.0
  0
POLYLINE
  5
B4F
  8
AM_VIS
 66
     1
 10
0.0
 20
0.0
 30
0.0
  0
VERTEX
  5
2ACA
  8
AM_VIS
 10
760.09682083254563
 20
385.15724843337728
 30
0.0
  0
VERTEX
  5
2ACB
  8
AM_VIS
 10
760.09682083254563
 20
370.7089207975107
 30
0.0
  0
VERTEX
  5
2ACC
  8
AM_VIS
 10
760.09682083254563
 20
353.99951336309408
 30
0.0
  0
VERTEX
  5
2ACD
  8
AM_VIS
 10
760.09682083254563
 20
337.308908685397
 30
0.0
  0
VERTEX
  5
2ACE
  8
AM_VIS
 10
760.09682083254563
 20
320.61127396565411
 30
0.0
  0
VERTEX
  5
2ACF
  8
AM_VIS
 10
760.09682083254563
 20
303.91335555457363
 30
0.0
  0
VERTEX
  5
2AD0
  8
AM_VIS
 10
760.09682083254563
 20
288.26024832895769
 30
0.0
  0
VERTEX
  5
2AD1
  8
AM_VIS
 10
760.09682083254563
 20
278.93493278525369
 30
0.0
  0
SEQEND
  5
2AD2
  8
AM_VIS
  0
POLYLINE
  5
B50
  8
AM_VIS
 66
     1
 10
0.0
 20
0.0
 30
0.0
  0
VERTEX
  5
2AD3
  8
AM_VIS
 10
759.25495206755124
 20
278.93493278525369
 30
0.0
  0
VERTEX
  5
2AD4
  8
AM_VIS
 10
759.25495206755124
 20
288.26024832895769
 30
0.0
  0
VERTEX
  5
2AD5
  8
AM_VIS
 10
759.25495206755124
 20
303.91335555457363
 30
0.0
  0
VERTEX
  5
2AD6
  8
AM_VIS
 10
759.25495206755124
 20
320.61127396565411
 30
0.0
  0
VERTEX
  5
2AD7
  8
AM_VIS
 10
759.25495206755124
 20
337.308908685397
 30
0.0
  0
VERTEX
  5
2AD8
  8
AM_VIS
 10
759.25495206755124
 20
353.99951336309408
 30
0.0
  0
VERTEX
  5
2AD9
  8
AM_VIS
 10
759.25495206755124
 20
370.7089207975107
 30
0.0
  0
VERTEX
  5
2ADA
  8
AM_VIS
 10
759.25495206755124
 20
387.41817442708327
 30
0.0
  0
VERTEX
  5
2ADB
  8
AM_VIS
 10
759.25495206755124
 20
395.71454554616753
 30
0.0
  0
VERTEX
  5
2ADC
  8
AM_VIS
 10
759.25495206755124
 20
399.85709153337609
 30
0.0
  0
VERTEX
  5
2ADD
  8
AM_VIS
 10
759.25495206755124
 20
401.93592600172582
 30
0.0
  0
VERTEX
  5
2ADE
  8
AM_VIS
 10
759.25495206755124
 20
402.45717433949602
 30
0.0
  0
VERTEX
  5
2ADF
  8
AM_VIS
 10
759.25495206752635
 20
402.94560894070992
 30
0.0
  0
SEQEND
  5
2AE0
  8
AM_VIS
  0
LINE
  5
B51
  8
AM_VIS
 10
761.41557653138477
 20
404.38493278525362
 30
0.0
 11
761.41557653138477
 21
278.93493278525369
 31
0.0
  0
POLYLINE
  5
B84
  8
AM_VIS
 66
     1
 10
0.0
 20
0.0
 30
0.0
  0
VERTEX
  5
2AE1
  8
AM_VIS
 10
840.19607897337426
 20
173.7939613608734
 30
0.0
  0
VERTEX
  5
2AE2
  8
AM_VIS
 10
842.46180260640881
 20
173.79357782313019
 30
0.0
  0
VERTEX
  5
2AE3
  8
AM_VIS
 10
843.531626053276
 20
173.79306756099001
 30
0.0
  0
VERTEX
  5
2AE4
  8
AM_VIS
 10
844.46884434982678
 20
173.7925793397188
 30
0.0
  0
VERTEX
  5
2AE5
  8
AM_VIS
 10
846.54953391592608
 20
173.78954863256979
 30
0.0
  0
VERTEX
  5
2AE6
  8
AM_VIS
 10
847.43123445820675
 20
173.7917603521897
 30
0.0
  0
VERTEX
  5
2AE7
  8
AM_VIS
 10
848.81263010556358
 20
173.6680959369298
 30
0.0
  0
VERTEX
  5
2AE8
  8
AM_VIS
 10
849.44868362796024
 20
173.29351252110411
 30
0.0
  0
VERTEX
  5
2AE9
  8
AM_VIS
 10
849.91753404472297
 20
172.69083451163061
 30
0.0
  0
VERTEX
  5
2AEA
  8
AM_VIS
 10
850.11759493876468
 20
171.99666255135151
 30
0.0
  0
VERTEX
  5
2AEB
  8
AM_VIS
 10
850.13438589617476
 20
170.80016106667421
 30
0.0
  0
VERTEX
  5
2AEC
  8
AM_VIS
 10
850.13781407562851
 20
169.76121805716221
 30
0.0
  0
VERTEX
  5
2AED
  8
AM_VIS
 10
850.13856889590795
 20
169.13424473698129
 30
0.0
  0
VERTEX
  5
2AEE
  8
AM_VIS
 10
850.13895285500416
 20
167.06608507276701
 30
0.0
  0
VERTEX
  5
2AEF
  8
AM_VIS
 10
850.13996618456372
 20
163.85015272973041
 30
0.0
  0
SEQEND
  5
2AF0
  8
AM_VIS
  0
POLYLINE
  5
B85
  8
AM_VIS
 66
     1
 10
0.0
 20
0.0
 30
0.0
  0
VERTEX
  5
2AF1
  8
AM_VIS
 10
847.63967435645009
 20
163.50446948912281
 30
0.0
  0
VERTEX
  5
2AF2
  8
AM_VIS
 10
847.62094310932014
 20
164.04319071227511
 30
0.0
  0
VERTEX
  5
2AF3
  8
AM_VIS
 10
847.44816449461928
 20
165.2151496565188
 30
0.0
  0
VERTEX
  5
2AF4
  8
AM_VIS
 10
846.19917270292785
 20
168.0126862879502
 30
0.0
  0
VERTEX
  5
2AF5
  8
AM_VIS
 10
843.98397484906275
 20
170.10343718126191
 30
0.0
  0
VERTEX
  5
2AF6
  8
AM_VIS
 10
841.62765111098895
 20
171.08691503877321
 30
0.0
  0
VERTEX
  5
2AF7
  8
AM_VIS
 10
840.3610053367513
 20
171.2769749858125
 30
0.0
  0
VERTEX
  5
2AF8
  8
AM_VIS
 10
839.85036219266294
 20
171.29377806750699
 30
0.0
  0
SEQEND
  5
2AF9
  8
AM_VIS
  0
ARC
  5
B87
  8
AM_VIS
 10
851.73082728149541
 20
175.38493278525371
 30
0.0
 40
2.0
 50
180.0
 51
270.0
  0
POLYLINE
  5
B88
  8
AM_VIS
 66
     1
 10
0.0
 20
0.0
 30
0.0
  0
VERTEX
  5
2AFA
  8
AM_VIS
 10
849.2491263860129
 20
159.72942650370189
 30
0.0
  0
VERTEX
  5
2AFB
  8
AM_VIS
 10
848.55256633710167
 20
160.02034321951211
 30
0.0
  0
VERTEX
  5
2AFC
  8
AM_VIS
 10
848.01215767830661
 20
160.54259343501889
 30
0.0
  0
VERTEX
  5
2AFD
  8
AM_VIS
 10
847.78602044708236
 20
160.9543947891903
 30
0.0
  0
VERTEX
  5
2AFE
  8
AM_VIS
 10
847.65854645803586
 20
161.42589131904879
 30
0.0
  0
SEQEND
  5
2AFF
  8
AM_VIS
  0
POLYLINE
  5
B89
  8
AM_VIS
 66
     1
 10
0.0
 20
0.0
 30
0.0
  0
VERTEX
  5
2B00
  8
AM_VIS
 10
850.13991983803805
 20
163.85015273019209
 30
0.0
  0
VERTEX
  5
2B01
  8
AM_VIS
 10
850.2703797021984
 20
163.12250305751209
 30
0.0
  0
VERTEX
  5
2B02
  8
AM_VIS
 10
850.57056235232551
 20
162.66145968602521
 30
0.0
  0
VERTEX
  5
2B03
  8
AM_VIS
 10
851.00304649305883
 20
162.3669653680623
 30
0.0
  0
VERTEX
  5
2B04
  8
AM_VIS
 10
851.37259716776259
 20
162.25358062041241
 30
0.0
  0
VERTEX
  5
2B05
  8
AM_VIS
 10
851.79215029217687
 20
162.21551623148181
 30
0.0
  0
SEQEND
  5
2B06
  8
AM_VIS
  0
POLYLINE
  5
B8A
  8
AM_VIS
 66
     1
 10
0.0
 20
0.0
 30
0.0
  0
VERTEX
  5
2B07
  8
AM_VIS
 10
847.63981130774914
 20
161.69117588101651
 30
0.0
  0
VERTEX
  5
2B08
  8
AM_VIS
 10
847.64013266957625
 20
161.65660769628721
 30
0.0
  0
VERTEX
  5
2B09
  8
AM_VIS
 10
847.64504973489034
 20
161.55063266380839
 30
0.0
  0
VERTEX
  5
2B0A
  8
AM_VIS
 10
847.6585464643681
 20
161.4258913182386
 30
0.0
  0
SEQEND
  5
2B0B
  8
AM_VIS
  0
POLYLINE
  5
B8B
  8
AM_VIS
 66
     1
 10
0.0
 20
0.0
 30
0.0
  0
VERTEX
  5
2B0C
  8
AM_VIS
 10
847.63981132636161
 20
161.69117588251021
 30
0.0
  0
VERTEX
  5
2B0D
  8
AM_VIS
 10
847.63978449835065
 20
161.80180923024639
 30
0.0
  0
VERTEX
  5
2B0E
  8
AM_VIS
 10
847.63967435645009
 20
163.50446948912281
 30
0.0
  0
SEQEND
  5
2B0F
  8
AM_VIS
  0
POLYLINE
  5
B8C
  8
AM_VIS
 66
     1
 10
0.0
 20
0.0
 30
0.0
  0
VERTEX
  5
2B10
  8
AM_VIS
 10
849.24912638673959
 20
159.72942650355
 30
0.0
  0
VERTEX
  5
2B11
  8
AM_VIS
 10
849.43966802093826
 20
159.69981234156469
 30
0.0
  0
VERTEX
  5
2B12
  8
AM_VIS
 10
849.63306350224946
 20
159.68990993649871
 30
0.0
  0
SEQEND
  5
2B13
  8
AM_VIS
  0
POLYLINE
  5
B8D
  8
AM_VIS
 66
     1
 10
0.0
 20
0.0
 30
0.0
  0
VERTEX
  5
2B14
  8
AM_VIS
 10
827.77494775391779
 20
154.9242566297973
 30
0.0
  0
VERTEX
  5
2B15
  8
AM_VIS
 10
827.77719618805463
 20
154.8009473500114
 30
0.0
  0
VERTEX
  5
2B16
  8
AM_VIS
 10
827.82102563291994
 20
154.36023929175749
 30
0.0
  0
VERTEX
  5
2B17
  8
AM_VIS
 10
827.90562835762523
 20
153.9788149252401
 30
0.0
  0
VERTEX
  5
2B18
  8
AM_VIS
 10
828.01489627449735
 20
153.6527074869409
 30
0.0
  0
VERTEX
  5
2B19
  8
AM_VIS
 10
828.34082077768255
 20
153.01840111763511
 30
0.0
  0
VERTEX
  5
2B1A
  8
AM_VIS
 10
828.80943484620445
 20
152.44270210615801
 30
0.0
  0
VERTEX
  5
2B1B
  8
AM_VIS
 10
829.38875369953507
 20
151.9791575321199
 30
0.0
  0
VERTEX
  5
2B1C
  8
AM_VIS
 10
830.02399673521779
 20
151.6591928864043
 30
0.0
  0
VERTEX
  5
2B1D
  8
AM_VIS
 10
830.35327769867808
 20
151.55183058169649
 30
0.0
  0
VERTEX
  5
2B1E
  8
AM_VIS
 10
830.73915969716757
 20
151.4698811348064
 30
0.0
  0
VERTEX
  5
2B1F
  8
AM_VIS
 10
831.18290783247642
 20
151.43019452635551
 30
0.0
  0
VERTEX
  5
2B20
  8
AM_VIS
 10
831.27015112555728
 20
151.42905325767489
 30
0.0
  0
SEQEND
  5
2B21
  8
AM_VIS
  0
POLYLINE
  5
B8E
  8
AM_VIS
 66
     1
 10
0.0
 20
0.0
 30
0.0
  0
VERTEX
  5
2B22
  8
AM_VIS
 10
829.40956358043866
 20
156.25928359541169
 30
0.0
  0
VERTEX
  5
2B23
  8
AM_VIS
 10
829.43754321253311
 20
155.83683071733881
 30
0.0
  0
VERTEX
  5
2B24
  8
AM_VIS
 10
829.50294731120141
 20
155.49158682656281
 30
0.0
  0
VERTEX
  5
2B25
  8
AM_VIS
 10
829.60123962453406
 20
155.1681760995609
 30
0.0
  0
VERTEX
  5
2B26
  8
AM_VIS
 10
829.90172962676945
 20
154.5541920564373
 30
0.0
  0
VERTEX
  5
2B27
  8
AM_VIS
 10
830.33224203506029
 20
154.0119503086064
 30
0.0
  0
VERTEX
  5
2B28
  8
AM_VIS
 10
830.86943031986743
 20
153.5754012853312
 30
0.0
  0
VERTEX
  5
2B29
  8
AM_VIS
 10
831.48098894424129
 20
153.26755091832371
 30
0.0
  0
VERTEX
  5
2B2A
  8
AM_VIS
 10
831.80283192405727
 20
153.1658175850684
 30
0.0
  0
VERTEX
  5
2B2B
  8
AM_VIS
 10
832.14568935453701
 20
153.09679742811929
 30
0.0
  0
VERTEX
  5
2B2C
  8
AM_VIS
 10
832.60517809201667
 20
153.0636690841971
 30
0.0
  0
SEQEND
  5
2B2D
  8
AM_VIS
  0
POLYLINE
  5
B8F
  8
AM_VIS
 66
     1
 10
0.0
 20
0.0
 30
0.0
  0
VERTEX
  5
2B2E
  8
AM_VIS
 10
832.60517809177463
 20
152.764080223771
 30
0.0
  0
VERTEX
  5
2B2F
  8
AM_VIS
 10
832.10272146981652
 20
152.80042353431969
 30
0.0
  0
VERTEX
  5
2B30
  8
AM_VIS
 10
831.72779128077207
 20
152.8759844565258
 30
0.0
  0
VERTEX
  5
2B31
  8
AM_VIS
 10
831.37583188831695
 20
152.9873116564921
 30
0.0
  0
VERTEX
  5
2B32
  8
AM_VIS
 10
830.70701741795358
 20
153.32410077045211
 30
0.0
  0
VERTEX
  5
2B33
  8
AM_VIS
 10
830.11949350362329
 20
153.80160203683701
 30
0.0
  0
VERTEX
  5
2B34
  8
AM_VIS
 10
829.64859194487792
 20
154.39465033634991
 30
0.0
  0
VERTEX
  5
2B35
  8
AM_VIS
 10
829.31985072389784
 20
155.06611510248101
 30
0.0
  0
VERTEX
  5
2B36
  8
AM_VIS
 10
829.21228585680308
 20
155.41978793575231
 30
0.0
  0
VERTEX
  5
2B37
  8
AM_VIS
 10
829.14067846118826
 20
155.79732677859229
 30
0.0
  0
VERTEX
  5
2B38
  8
AM_VIS
 10
829.10997472001225
 20
156.25928359541169
 30
0.0
  0
SEQEND
  5
2B39
  8
AM_VIS
  0
CIRCLE
  5
B90
  8
AM_VIS
 10
836.03082728149536
 20
159.68493278525369
 30
0.0
 40
5.7973820393505093
  0
CIRCLE
  5
B91
  8
AM_VIS
 10
836.03082728149536
 20
159.68493278525369
 30
0.0
 40
6.1000000000000014
  0
POLYLINE
  5
B93
  8
AM_VIS
 66
     1
 10
0.0
 20
0.0
 30
0.0
  0
VERTEX
  5
2B3A
  8
AM_VIS
 10
843.54613791148086
 20
159.71052190457991
 30
0.0
  0
VERTEX
  5
2B3B
  8
AM_VIS
 10
843.5446875422316
 20
159.85810901523399
 30
0.0
  0
VERTEX
  5
2B3C
  8
AM_VIS
 10
843.49253492875209
 20
160.6060697129578
 30
0.0
  0
VERTEX
  5
2B3D
  8
AM_VIS
 10
843.18307319804933
 20
162.0163843056736
 30
0.0
  0
VERTEX
  5
2B3E
  8
AM_VIS
 10
842.61172036772996
 20
163.335945868507
 30
0.0
  0
VERTEX
  5
2B3F
  8
AM_VIS
 10
841.79806368732488
 20
164.522492109041
 30
0.0
  0
VERTEX
  5
2B40
  8
AM_VIS
 10
840.77197561716616
 20
165.53158610470871
 30
0.0
  0
VERTEX
  5
2B41
  8
AM_VIS
 10
839.57112869627235
 20
166.3257896595197
 30
0.0
  0
VERTEX
  5
2B42
  8
AM_VIS
 10
838.24004142854653
 20
166.8755166006045
 30
0.0
  0
VERTEX
  5
2B43
  8
AM_VIS
 10
836.8302908052857
 20
167.16025464507001
 30
0.0
  0
VERTEX
  5
2B44
  8
AM_VIS
 10
836.13377313530316
 20
167.19984499954751
 30
0.0
  0
VERTEX
  5
2B45
  8
AM_VIS
 10
836.05641640083854
 20
167.2002434152393
 30
0.0
  0
SEQEND
  5
2B46
  8
AM_VIS
  0
ARC
  5
B95
  8
AM_VIS
 10
836.03082728149536
 20
159.68493278525369
 30
0.0
 40
5.0
 50
358.1136059458986
 51
91.886394054101416
  0
POLYLINE
  5
B96
  8
AM_VIS
 66
     1
 10
0.0
 20
0.0
 30
0.0
  0
VERTEX
  5
2B47
  8
AM_VIS
 10
839.85036219266294
 20
171.29377806750699
 30
0.0
  0
VERTEX
  5
2B48
  8
AM_VIS
 10
839.08543457524524
 20
171.29360117504811
 30
0.0
  0
VERTEX
  5
2B49
  8
AM_VIS
 10
838.03707047598505
 20
171.2939132985392
 30
0.0
  0
SEQEND
  5
2B4A
  8
AM_VIS
  0
POLYLINE
  5
B97
  8
AM_VIS
 66
     1
 10
0.0
 20
0.0
 30
0.0
  0
VERTEX
  5
2B4B
  8
AM_VIS
 10
838.56141072772323
 20
175.44625505896181
 30
0.0
  0
VERTEX
  5
2B4C
  8
AM_VIS
 10
838.69418232164389
 20
174.70145413644491
 30
0.0
  0
VERTEX
  5
2B4D
  8
AM_VIS
 10
838.99610552601666
 20
174.23594238507181
 30
0.0
  0
VERTEX
  5
2B4E
  8
AM_VIS
 10
839.42730115011943
 20
173.94183390921859
 30
0.0
  0
VERTEX
  5
2B4F
  8
AM_VIS
 10
839.78779683276684
 20
173.83119372485481
 30
0.0
  0
VERTEX
  5
2B50
  8
AM_VIS
 10
840.19607897846629
 20
173.79402524935449
 30
0.0
  0
SEQEND
  5
2B51
  8
AM_VIS
  0
POLYLINE
  5
B98
  8
AM_VIS
 66
     1
 10
0.0
 20
0.0
 30
0.0
  0
VERTEX
  5
2B52
  8
AM_VIS
 10
837.77186172675306
 20
171.3126425621852
 30
0.0
  0
VERTEX
  5
2B53
  8
AM_VIS
 10
837.07111225546225
 20
171.5505451518907
 30
0.0
  0
VERTEX
  5
2B54
  8
AM_VIS
 10
836.4980251420659
 20
172.02882521369099
 30
0.0
  0
VERTEX
  5
2B55
  8
AM_VIS
 10
836.23578431681278
 20
172.43521336643761
 30
0.0
  0
VERTEX
  5
2B56
  8
AM_VIS
 10
836.07532548074414
 20
172.90321044736811
 30
0.0
  0
SEQEND
  5
2B57
  8
AM_VIS
  0
POLYLINE
  5
B99
  8
AM_VIS
 66
     1
 10
0.0
 20
0.0
 30
0.0
  0
VERTEX
  5
2B58
  8
AM_VIS
 10
836.03580443274029
 20
173.2871690060079
 30
0.0
  0
VERTEX
  5
2B59
  8
AM_VIS
 10
836.04570796333314
 20
173.09376258955999
 30
0.0
  0
VERTEX
  5
2B5A
  8
AM_VIS
 10
836.07532548074425
 20
172.90321044736811
 30
0.0
  0
SEQEND
  5
2B5B
  8
AM_VIS
  0
POLYLINE
  5
B9A
  8
AM_VIS
 66
     1
 10
0.0
 20
0.0
 30
0.0
  0
VERTEX
  5
2B5C
  8
AM_VIS
 10
834.24298584141627
 20
167.2002434152393
 30
0.0
  0
VERTEX
  5
2B5D
  8
AM_VIS
 10
833.93801593114154
 20
167.2205314088007
 30
0.0
  0
VERTEX
  5
2B5E
  8
AM_VIS
 10
833.45212775425148
 20
167.34042484527319
 30
0.0
  0
VERTEX
  5
2B5F
  8
AM_VIS
 10
833.00072349462744
 20
167.56463182573381
 30
0.0
  0
VERTEX
  5
2B60
  8
AM_VIS
 10
832.61172136175549
 20
167.87938838559811
 30
0.0
  0
VERTEX
  5
2B61
  8
AM_VIS
 10
832.30038641508088
 20
168.2707572421333
 30
0.0
  0
VERTEX
  5
2B62
  8
AM_VIS
 10
832.07857239076066
 20
168.7277195258232
 30
0.0
  0
VERTEX
  5
2B63
  8
AM_VIS
 10
831.96409310309366
 20
169.21011400777519
 30
0.0
  0
VERTEX
  5
2B64
  8
AM_VIS
 10
831.94613791148095
 20
169.4970913451767
 30
0.0
  0
SEQEND
  5
2B65
  8
AM_VIS
  0
POLYLINE
  5
B9C
  8
AM_VIS
 66
     1
 10
0.0
 20
0.0
 30
0.0
  0
VERTEX
  5
2B66
  8
AM_VIS
 10
836.05641640083854
 20
167.2002434152393
 30
0.0
  0
VERTEX
  5
2B67
  8
AM_VIS
 10
835.90143139698307
 20
167.2002434152393
 30
0.0
  0
VERTEX
  5
2B68
  8
AM_VIS
 10
835.64961845667744
 20
167.20024341523921
 30
0.0
  0
VERTEX
  5
2B69
  8
AM_VIS
 10
835.39635581230641
 20
167.2002434152393
 30
0.0
  0
VERTEX
  5
2B6A
  8
AM_VIS
 10
835.14441149956895
 20
167.2002434152393
 30
0.0
  0
VERTEX
  5
2B6B
  8
AM_VIS
 10
834.89092255581772
 20
167.2002434152393
 30
0.0
  0
VERTEX
  5
2B6C
  8
AM_VIS
 10
834.6408719875833
 20
167.2002434152393
 30
0.0
  0
VERTEX
  5
2B6D
  8
AM_VIS
 10
834.38804192768498
 20
167.2002434152393
 30
0.0
  0
VERTEX
  5
2B6E
  8
AM_VIS
 10
834.24298584141627
 20
167.2002434152393
 30
0.0
  0
SEQEND
  5
2B6F
  8
AM_VIS
  0
POLYLINE
  5
BA0
  8
AM_VIS
 66
     1
 10
0.0
 20
0.0
 30
0.0
  0
VERTEX
  5
2B70
  8
AM_VIS
 10
837.77186172188317
 20
171.3126425633701
 30
0.0
  0
VERTEX
  5
2B71
  8
AM_VIS
 10
837.87238233595053
 20
171.3011125579643
 30
0.0
  0
VERTEX
  5
2B72
  8
AM_VIS
 10
837.98600105343928
 20
171.29461382128849
 30
0.0
  0
VERTEX
  5
2B73
  8
AM_VIS
 10
838.03707074836859
 20
171.29391718261931
 30
0.0
  0
SEQEND
  5
2B74
  8
AM_VIS
  0
LINE
  5
BA2
  8
AM_VIS
 10
836.19541647878827
 20
154.68764247988469
 30
0.0
 11
841.02811758686448
 21
159.52034358796089
 31
0.0
  0
POLYLINE
  5
BA3
  8
AM_VIS
 66
     1
 10
0.0
 20
0.0
 30
0.0
  0
VERTEX
  5
2B75
  8
AM_VIS
 10
845.84298584120791
 20
155.60024341523919
 30
0.0
  0
VERTEX
  5
2B76
  8
AM_VIS
 10
845.55562382976325
 20
155.61824697273431
 30
0.0
  0
VERTEX
  5
2B77
  8
AM_VIS
 10
845.07319000370455
 20
155.73282844482759
 30
0.0
  0
VERTEX
  5
2B78
  8
AM_VIS
 10
844.616409622373
 20
155.9546446745756
 30
0.0
  0
VERTEX
  5
2B79
  8
AM_VIS
 10
844.2251168531244
 20
156.26599152853149
 30
0.0
  0
VERTEX
  5
2B7A
  8
AM_VIS
 10
843.91043103132745
 20
156.6549773471564
 30
0.0
  0
VERTEX
  5
2B7B
  8
AM_VIS
 10
843.68628222148391
 20
157.10633463594371
 30
0.0
  0
VERTEX
  5
2B7C
  8
AM_VIS
 10
843.56642061158891
 20
157.5921610399289
 30
0.0
  0
VERTEX
  5
2B7D
  8
AM_VIS
 10
843.54613791148086
 20
157.8970913446496
 30
0.0
  0
SEQEND
  5
2B7E
  8
AM_VIS
  0
POLYLINE
  5
BA8
  8
AM_VIS
 66
     1
 10
0.0
 20
0.0
 30
0.0
  0
VERTEX
  5
2B7F
  8
AM_VIS
 10
843.54613791148086
 20
157.8970913446496
 30
0.0
  0
VERTEX
  5
2B80
  8
AM_VIS
 10
843.54613791148086
 20
158.06339355788251
 30
0.0
  0
VERTEX
  5
2B81
  8
AM_VIS
 10
843.54613791148086
 20
158.31202457052541
 30
0.0
  0
VERTEX
  5
2B82
  8
AM_VIS
 10
843.54613791148086
 20
158.55935801865579
 30
0.0
  0
VERTEX
  5
2B83
  8
AM_VIS
 10
843.54613791148086
 20
158.8097242612825
 30
0.0
  0
VERTEX
  5
2B84
  8
AM_VIS
 10
843.54613791148086
 20
159.0585505685338
 30
0.0
  0
VERTEX
  5
2B85
  8
AM_VIS
 10
843.54613791148086
 20
159.30876266360579
 30
0.0
  0
VERTEX
  5
2B86
  8
AM_VIS
 10
843.54613791148086
 20
159.5574059667359
 30
0.0
  0
VERTEX
  5
2B87
  8
AM_VIS
 10
843.54613791148086
 20
159.71052190457991
 30
0.0
  0
SEQEND
  5
2B88
  8
AM_VIS
  0
LINE
  5
BAA
  8
AM_VIS
 10
835.86623808420245
 20
164.68222309062261
 30
0.0
 11
831.03353697612647
 21
159.84952198254649
 31
0.0
  0
LINE
  5
BAB
  8
AM_VIS
 10
833.56478300378853
 20
154.5318827390378
 30
0.0
 11
834.10400908059626
 21
155.07110881584569
 31
0.0
  0
ARC
  5
BAC
  8
AM_VIS
 10
836.03082728149536
 20
159.68493278525369
 30
0.0
 40
5.0
 50
247.3336826578055
 51
271.8863940541014
  0
POLYLINE
  5
BAE
  8
AM_VIS
 66
     1
 10
0.0
 20
0.0
 30
0.0
  0
VERTEX
  5
2B89
  8
AM_VIS
 10
830.87777723527961
 20
157.21888850754681
 30
0.0
  0
VERTEX
  5
2B8A
  8
AM_VIS
 10
830.83853940285303
 20
157.1796506751202
 30
0.0
  0
SEQEND
  5
2B8B
  8
AM_VIS
  0
LINE
  5
BAF
  8
AM_VIS
 10
831.41700331208733
 20
157.75811458435459
 30
0.0
 11
830.87777723527961
 21
157.21888850754681
 31
0.0
  0
ARC
  5
BB0
  8
AM_VIS
 10
836.03082728149536
 20
159.68493278525369
 30
0.0
 40
5.0
 50
178.1136059458986
 51
202.66631734219521
  0
POLYLINE
  5
BB1
  8
AM_VIS
 66
     1
 10
0.0
 20
0.0
 30
0.0
  0
VERTEX
  5
2B8C
  8
AM_VIS
 10
833.52554517136195
 20
154.49264490661119
 30
0.0
  0
VERTEX
  5
2B8D
  8
AM_VIS
 10
833.56478300378831
 20
154.5318827390378
 30
0.0
  0
SEQEND
  5
2B8E
  8
AM_VIS
  0
LINE
  5
BDA
  8
AM_VIS
 10
660.89353171595656
 20
159.68990993649859
 30
0.0
 11
733.21252161942573
 21
155.89983227566509
 31
0.0
  0
LINE
  5
BDB
  8
AM_VIS
 10
660.81706890498936
 20
171.29391718261931
 30
0.0
 11
733.21252161941845
 21
167.49983227566571
 31
0.0
  0
LINE
  5
BE0
  8
AM_VIS
 10
733.78112004566015
 20
152.7640802237714
 30
0.0
 11
759.25495206755124
 21
151.42905325767489
 31
0.0
  0
POLYLINE
  5
BE1
  8
AM_VIS
 66
     1
 10
0.0
 20
0.0
 30
0.0
  0
VERTEX
  5
2B8F
  8
AM_VIS
 10
759.25495206752635
 20
154.9242566297975
 30
0.0
  0
VERTEX
  5
2B90
  8
AM_VIS
 10
759.25350800855927
 20
154.80094735001171
 30
0.0
  0
VERTEX
  5
2B91
  8
AM_VIS
 10
759.24877389217681
 20
154.36023929175781
 30
0.0
  0
VERTEX
  5
2B92
  8
AM_VIS
 10
759.2452332927345
 20
153.9788149252403
 30
0.0
  0
VERTEX
  5
2B93
  8
AM_VIS
 10
759.24264674990718
 20
153.6527074869409
 30
0.0
  0
VERTEX
  5
2B94
  8
AM_VIS
 10
759.23896825579038
 20
153.01840111763519
 30
0.0
  0
VERTEX
  5
2B95
  8
AM_VIS
 10
759.2376909065822
 20
152.44270210615829
 30
0.0
  0
VERTEX
  5
2B96
  8
AM_VIS
 10
759.23907190544071
 20
151.9791575321201
 30
0.0
  0
VERTEX
  5
2B97
  8
AM_VIS
 10
759.24283266387079
 20
151.6591928864045
 30
0.0
  0
VERTEX
  5
2B98
  8
AM_VIS
 10
759.24547979254555
 20
151.55183058169649
 30
0.0
  0
VERTEX
  5
2B99
  8
AM_VIS
 10
759.24910521357674
 20
151.4698811348066
 30
0.0
  0
VERTEX
  5
2B9A
  8
AM_VIS
 10
759.25392501043484
 20
151.43019452635551
 30
0.0
  0
VERTEX
  5
2B9B
  8
AM_VIS
 10
759.25495206755124
 20
151.42905325767509
 30
0.0
  0
SEQEND
  5
2B9C
  8
AM_VIS
  0
POLYLINE
  5
BE3
  8
AM_VIS
 66
     1
 10
0.0
 20
0.0
 30
0.0
  0
VERTEX
  5
2B9D
  8
AM_VIS
 10
759.78068679496141
 20
151.92795688547881
 30
0.0
  0
VERTEX
  5
2B9E
  8
AM_VIS
 10
759.78068679496141
 20
172.71261713713011
 30
0.0
  0
SEQEND
  5
2B9F
  8
AM_VIS
  0
POLYLINE
  5
BE4
  8
AM_VIS
 66
     1
 10
0.0
 20
0.0
 30
0.0
  0
VERTEX
  5
2BA0
  8
AM_VIS
 10
760.59682083254563
 20
151.92795688547881
 30
0.0
  0
VERTEX
  5
2BA1
  8
AM_VIS
 10
760.59682083254563
 20
172.71261713713011
 30
0.0
  0
SEQEND
  5
2BA2
  8
AM_VIS
  0
POLYLINE
  5
BEC
  8
AM_VIS
 66
     1
 10
0.0
 20
0.0
 30
0.0
  0
VERTEX
  5
2BA3
  8
AM_VIS
 10
759.78068679496141
 20
151.92795688547881
 30
0.0
  0
VERTEX
  5
2BA4
  8
AM_VIS
 10
760.59682083254563
 20
151.92795688547881
 30
0.0
  0
SEQEND
  5
2BA5
  8
AM_VIS
  0
LINE
  5
BED
  8
AM_VIS
 10
760.59682083254563
 20
153.07309627560809
 30
0.0
 11
761.15217217877
 21
153.17101970172021
 31
0.0
  0
ARC
  5
BEE
  8
AM_VIS
 10
761.09682083254563
 20
153.4849327852539
 30
0.0
 40
0.3187556988391739
 50
279.99999999999858
 51
0.0
  0
POLYLINE
  5
BEF
  8
AM_VIS
 66
     1
 10
0.0
 20
0.0
 30
0.0
  0
VERTEX
  5
2BA6
  8
AM_VIS
 10
759.25495206755124
 20
151.42905325767509
 30
0.0
  0
VERTEX
  5
2BA7
  8
AM_VIS
 10
759.78068679496141
 20
151.92795688547881
 30
0.0
  0
SEQEND
  5
2BA8
  8
AM_VIS
  0
POLYLINE
  5
BF1
  8
AM_VIS
 66
     1
 10
0.0
 20
0.0
 30
0.0
  0
VERTEX
  5
2BA9
  8
AM_VIS
 10
733.49682083254561
 20
156.25928359541169
 30
0.0
  0
VERTEX
  5
2BAA
  8
AM_VIS
 10
733.49682083254561
 20
155.83683071733881
 30
0.0
  0
VERTEX
  5
2BAB
  8
AM_VIS
 10
733.49682083254561
 20
155.49158682656281
 30
0.0
  0
VERTEX
  5
2BAC
  8
AM_VIS
 10
733.49682083254561
 20
155.1681760995609
 30
0.0
  0
VERTEX
  5
2BAD
  8
AM_VIS
 10
733.49682083254561
 20
154.5541920564373
 30
0.0
  0
VERTEX
  5
2BAE
  8
AM_VIS
 10
733.49682083254561
 20
154.0119503086064
 30
0.0
  0
VERTEX
  5
2BAF
  8
AM_VIS
 10
733.49682083254561
 20
153.5754012853312
 30
0.0
  0
VERTEX
  5
2BB0
  8
AM_VIS
 10
733.49682083254561
 20
153.26755091832371
 30
0.0
  0
VERTEX
  5
2BB1
  8
AM_VIS
 10
733.49682083254561
 20
153.1658175850684
 30
0.0
  0
VERTEX
  5
2BB2
  8
AM_VIS
 10
733.49682083254561
 20
153.09679742811929
 30
0.0
  0
VERTEX
  5
2BB3
  8
AM_VIS
 10
733.49682083254561
 20
153.0636690841971
 30
0.0
  0
SEQEND
  5
2BB4
  8
AM_VIS
  0
POLYLINE
  5
BFD
  8
AM_VIS
 66
     1
 10
0.0
 20
0.0
 30
0.0
  0
VERTEX
  5
2BB5
  8
AM_VIS
 10
733.78105045071675
 20
152.7641186462958
 30
0.0
  0
VERTEX
  5
2BB6
  8
AM_VIS
 10
733.63895290553285
 20
152.91388399124691
 30
0.0
  0
VERTEX
  5
2BB7
  8
AM_VIS
 10
733.49682083254561
 20
153.06366908419719
 30
0.0
  0
SEQEND
  5
2BB8
  8
AM_VIS
  0
POLYLINE
  5
BFF
  8
AM_VIS
 66
     1
 10
0.0
 20
0.0
 30
0.0
  0
VERTEX
  5
2BB9
  8
AM_VIS
 10
658.49682083254561
 20
173.78865612787521
 30
0.0
  0
VERTEX
  5
2BBA
  8
AM_VIS
 10
658.49682083254561
 20
173.6680959369298
 30
0.0
  0
VERTEX
  5
2BBB
  8
AM_VIS
 10
658.49682083254561
 20
173.29351252110411
 30
0.0
  0
VERTEX
  5
2BBC
  8
AM_VIS
 10
658.49682083254561
 20
172.69083451163061
 30
0.0
  0
VERTEX
  5
2BBD
  8
AM_VIS
 10
658.49682083254561
 20
171.99666255135151
 30
0.0
  0
VERTEX
  5
2BBE
  8
AM_VIS
 10
658.49682083254561
 20
170.80016106667421
 30
0.0
  0
VERTEX
  5
2BBF
  8
AM_VIS
 10
658.49682083254561
 20
169.76121805716221
 30
0.0
  0
VERTEX
  5
2BC0
  8
AM_VIS
 10
658.49682083254561
 20
169.13424473698129
 30
0.0
  0
VERTEX
  5
2BC1
  8
AM_VIS
 10
658.49682083254561
 20
167.06608507276701
 30
0.0
  0
VERTEX
  5
2BC2
  8
AM_VIS
 10
658.49682083254561
 20
163.85015272973041
 30
0.0
  0
SEQEND
  5
2BC3
  8
AM_VIS
  0
POLYLINE
  5
C01
  8
AM_VIS
 66
     1
 10
0.0
 20
0.0
 30
0.0
  0
VERTEX
  5
2BC4
  8
AM_VIS
 10
659.04512532385388
 20
173.20476501487721
 30
0.0
  0
VERTEX
  5
2BC5
  8
AM_VIS
 10
660.08217453018403
 20
172.0876142270051
 30
0.0
  0
VERTEX
  5
2BC6
  8
AM_VIS
 10
660.79813405493564
 20
171.3134588189572
 30
0.0
  0
SEQEND
  5
2BC7
  8
AM_VIS
  0
POLYLINE
  5
C09
  8
AM_VIS
 66
     1
 10
0.0
 20
0.0
 30
0.0
  0
VERTEX
  5
2BC8
  8
AM_VIS
 10
658.49682083254561
 20
162.21551623148181
 30
0.0
  0
VERTEX
  5
2BC9
  8
AM_VIS
 10
658.50959753483994
 20
162.20205239653731
 30
0.0
  0
VERTEX
  5
2BCA
  8
AM_VIS
 10
658.98938914136011
 20
161.6964575373097
 30
0.0
  0
VERTEX
  5
2BCB
  8
AM_VIS
 10
659.40914926999153
 20
161.25412265637269
 30
0.0
  0
VERTEX
  5
2BCC
  8
AM_VIS
 10
659.70880801238366
 20
160.93834822927309
 30
0.0
  0
VERTEX
  5
2BCD
  8
AM_VIS
 10
659.8585632653203
 20
160.78053912007209
 30
0.0
  0
VERTEX
  5
2BCE
  8
AM_VIS
 10
660.0681337173969
 20
160.5596979428276
 30
0.0
  0
VERTEX
  5
2BCF
  8
AM_VIS
 10
660.36139349577093
 20
160.25066661683269
 30
0.0
  0
VERTEX
  5
2BD0
  8
AM_VIS
 10
660.77192175647781
 20
159.8180600948337
 30
0.0
  0
VERTEX
  5
2BD1
  8
AM_VIS
 10
660.85603189349422
 20
159.7294265041111
 30
0.0
  0
SEQEND
  5
2BD2
  8
AM_VIS
  0
LINE
  5
C1B
  8
AM_VIS
  6
CENTER
 62
     1
 10
491.62255981398522
 20
278.93493278525369
 30
0.0
 11
491.62255981398522
 21
162.76310845219879
 31
0.0
  0
LINE
  5
C1C
  8
AM_VIS
  6
CENTER
 62
     1
 10
491.62255981398522
 20
278.93493278525369
 30
0.0
 11
491.62255981398522
 21
131.52189153749819
 31
0.0
  0
POLYLINE
  5
C1D
  8
AM_VIS
 66
     1
 10
0.0
 20
0.0
 30
0.0
  0
VERTEX
  5
2BD3
  8
AM_VIS
 10
581.62843934156399
 20
278.93493278525352
 30
0.0
  0
VERTEX
  5
2BD4
  8
AM_VIS
 10
581.62843934156399
 20
269.60961724154947
 30
0.0
  0
VERTEX
  5
2BD5
  8
AM_VIS
 10
581.62843934156399
 20
253.95651001593359
 30
0.0
  0
VERTEX
  5
2BD6
  8
AM_VIS
 10
581.62843934156399
 20
237.25859160485311
 30
0.0
  0
VERTEX
  5
2BD7
  8
AM_VIS
 10
581.62843934156399
 20
220.56095688511019
 30
0.0
  0
VERTEX
  5
2BD8
  8
AM_VIS
 10
581.62843934156399
 20
203.87035220741311
 30
0.0
  0
VERTEX
  5
2BD9
  8
AM_VIS
 10
581.62843934156399
 20
187.16094477299649
 30
0.0
  0
VERTEX
  5
2BDA
  8
AM_VIS
 10
581.62843934156399
 20
170.4516911434238
 30
0.0
  0
VERTEX
  5
2BDB
  8
AM_VIS
 10
581.62843934156399
 20
162.15532002433969
 30
0.0
  0
VERTEX
  5
2BDC
  8
AM_VIS
 10
581.62843934156399
 20
158.01277403713101
 30
0.0
  0
VERTEX
  5
2BDD
  8
AM_VIS
 10
581.62843934156399
 20
155.9339395687814
 30
0.0
  0
VERTEX
  5
2BDE
  8
AM_VIS
 10
581.62843934156399
 20
155.41269123101119
 30
0.0
  0
VERTEX
  5
2BDF
  8
AM_VIS
 10
581.62843934156263
 20
154.9242566297973
 30
0.0
  0
SEQEND
  5
2BE0
  8
AM_VIS
  0
POLYLINE
  5
C1E
  8
AM_VIS
 66
     1
 10
0.0
 20
0.0
 30
0.0
  0
VERTEX
  5
2BE1
  8
AM_VIS
 10
580.82953571376038
 20
159.68493278525349
 30
0.0
  0
VERTEX
  5
2BE2
  8
AM_VIS
 10
580.82953571376038
 20
162.15532002433969
 30
0.0
  0
VERTEX
  5
2BE3
  8
AM_VIS
 10
580.82953571376038
 20
170.4516911434238
 30
0.0
  0
VERTEX
  5
2BE4
  8
AM_VIS
 10
580.82953571376038
 20
187.16094477299649
 30
0.0
  0
VERTEX
  5
2BE5
  8
AM_VIS
 10
580.82953571376038
 20
203.87035220741311
 30
0.0
  0
VERTEX
  5
2BE6
  8
AM_VIS
 10
580.82953571376038
 20
220.56095688511019
 30
0.0
  0
VERTEX
  5
2BE7
  8
AM_VIS
 10
580.82953571376038
 20
237.25859160485311
 30
0.0
  0
VERTEX
  5
2BE8
  8
AM_VIS
 10
580.82953571376038
 20
253.95651001593359
 30
0.0
  0
VERTEX
  5
2BE9
  8
AM_VIS
 10
580.82953571376038
 20
269.60961724154947
 30
0.0
  0
VERTEX
  5
2BEA
  8
AM_VIS
 10
580.82953571376038
 20
278.93493278525352
 30
0.0
  0
SEQEND
  5
2BEB
  8
AM_VIS
  0
LINE
  5
C1F
  8
AM_VIS
 10
570.79438414704009
 20
176.19420895252711
 30
0.0
 11
570.79438414704009
 21
278.93493278525369
 31
0.0
  0
LINE
  5
C20
  8
AM_VIS
 10
571.32055212516161
 20
278.93493278525369
 30
0.0
 11
571.32055212516161
 21
175.1680409744055
 31
0.0
  0
LINE
  5
C21
  8
AM_VIS
 10
575.172559813985
 20
169.62318403891911
 30
0.0
 11
575.172559813985
 21
278.93493278525369
 31
0.0
  0
LINE
  5
C22
  8
AM_VIS
 10
577.73362332769693
 20
278.93493278525369
 30
0.0
 11
577.73362332769693
 21
169.62369793402959
 31
0.0
  0
LINE
  5
C23
  8
AM_VIS
 10
578.37255981398505
 20
168.98476144774139
 30
0.0
 11
578.37255981398505
 21
278.93493278525369
 31
0.0
  0
LINE
  5
C24
  8
AM_VIS
 10
579.07255981398521
 20
278.93493278525369
 30
0.0
 11
579.07255981398521
 21
168.7849327852536
 31
0.0
  0
LINE
  5
C25
  8
AM_VIS
 10
580.07255981398521
 20
168.7849327852536
 30
0.0
 11
580.07255981398521
 21
278.93493278525369
 31
0.0
  0
LINE
  5
C31
  8
AM_VIS
  6
CENTER
 62
     1
 10
412.45073548093018
 20
278.93493278525381
 30
0.0
 11
491.62255981398522
 21
278.93493278525369
 31
0.0
  0
LINE
  5
C32
  8
AM_VIS
  6
CENTER
 62
     1
 10
381.8629331661736
 20
278.93493278525381
 30
0.0
 11
590.24081987207683
 21
278.93493278525369
 31
0.0
  0
LINE
  5
C40
  8
AM_VIS
  6
CENTER
 62
     1
 10
491.62255981398522
 20
278.93493278525369
 30
0.0
 11
491.62255981398522
 21
395.10675711830862
 31
0.0
  0
POLYLINE
  5
DE6
  8
AM_VIS
 66
     1
 10
0.0
 20
0.0
 30
0.0
  0
VERTEX
  5
2BEC
  8
AM_VIS
 10
491.62255981398522
 20
152.22795688547851
 30
0.0
  0
VERTEX
  5
2BED
  8
AM_VIS
 10
499.13373094139382
 20
152.22795688547851
 30
0.0
  0
VERTEX
  5
2BEE
  8
AM_VIS
 10
511.06007459901889
 20
152.22795688547851
 30
0.0
  0
VERTEX
  5
2BEF
  8
AM_VIS
 10
522.98808448736816
 20
152.22795688547851
 30
0.0
  0
VERTEX
  5
2BF0
  8
AM_VIS
 10
534.91444755158273
 20
152.22795688547851
 30
0.0
  0
VERTEX
  5
2BF1
  8
AM_VIS
 10
546.8351884918726
 20
152.22795688547851
 30
0.0
  0
VERTEX
  5
2BF2
  8
AM_VIS
 10
558.78087673471327
 20
152.22795688547851
 30
0.0
  0
VERTEX
  5
2BF3
  8
AM_VIS
 10
564.7567468747925
 20
152.22795688547851
 30
0.0
  0
VERTEX
  5
2BF4
  8
AM_VIS
 10
570.6924422913321
 20
152.22795688547851
 30
0.0
  0
VERTEX
  5
2BF5
  8
AM_VIS
 10
573.37255981398516
 20
152.22795688547851
 30
0.0
  0
SEQEND
  5
2BF6
  8
AM_VIS
  0
POLYLINE
  5
DE7
  8
AM_VIS
 66
     1
 10
0.0
 20
0.0
 30
0.0
  0
VERTEX
  5
2BF7
  8
AM_VIS
 10
578.13323596992313
 20
151.42905325767489
 30
0.0
  0
VERTEX
  5
2BF8
  8
AM_VIS
 10
578.07671557737103
 20
151.42905325767489
 30
0.0
  0
VERTEX
  5
2BF9
  8
AM_VIS
 10
576.59496196693078
 20
151.42905325767489
 30
0.0
  0
VERTEX
  5
2BFA
  8
AM_VIS
 10
570.6924422913321
 20
151.42905325767489
 30
0.0
  0
VERTEX
  5
2BFB
  8
AM_VIS
 10
564.7567468747925
 20
151.42905325767489
 30
0.0
  0
VERTEX
  5
2BFC
  8
AM_VIS
 10
558.78087673471327
 20
151.42905325767489
 30
0.0
  0
VERTEX
  5
2BFD
  8
AM_VIS
 10
546.8351884918726
 20
151.42905325767489
 30
0.0
  0
VERTEX
  5
2BFE
  8
AM_VIS
 10
534.91444755158273
 20
151.42905325767489
 30
0.0
  0
VERTEX
  5
2BFF
  8
AM_VIS
 10
522.98808448736816
 20
151.42905325767489
 30
0.0
  0
VERTEX
  5
2C00
  8
AM_VIS
 10
511.06007459901889
 20
151.42905325767489
 30
0.0
  0
VERTEX
  5
2C01
  8
AM_VIS
 10
499.13373094139382
 20
151.4290532576747
 30
0.0
  0
VERTEX
  5
2C02
  8
AM_VIS
 10
491.62255981398522
 20
151.42905325767489
 30
0.0
  0
SEQEND
  5
2C03
  8
AM_VIS
  0
LINE
  5
DE8
  8
AM_VIS
 10
564.27255981398525
 20
153.9849327852537
 30
0.0
 11
491.62255981398522
 21
153.9849327852537
 31
0.0
  0
LINE
  5
DE9
  8
AM_VIS
 10
491.62255981398522
 20
154.68493278525349
 30
0.0
 11
564.07273115149735
 21
154.68493278525349
 31
0.0
  0
LINE
  5
DEA
  8
AM_VIS
 10
491.62255981398522
 20
152.9849327852537
 30
0.0
 11
564.27255981398525
 21
152.9849327852537
 31
0.0
  0
LINE
  5
DED
  8
AM_VIS
 10
491.62255981398522
 20
162.76310845219879
 30
0.0
 11
556.86328364671169
 21
162.76310845219879
 31
0.0
  0
LINE
  5
DEE
  8
AM_VIS
 10
491.62255981398522
 20
157.88493278525371
 30
0.0
 11
563.43430856031966
 21
157.88493278525371
 31
0.0
  0
LINE
  5
DEF
  8
AM_VIS
 10
563.43379466520923
 20
155.3238692715417
 30
0.0
 11
491.62255981398522
 21
155.3238692715417
 31
0.0
  0
LINE
  5
DF0
  8
AM_VIS
 10
558.91561960295485
 20
161.71077249595569
 30
0.0
 11
491.62255981398522
 21
161.71077249595569
 31
0.0
  0
ARC
  5
DF1
  8
AM_VIS
 10
569.53362332769711
 20
163.5238692715418
 30
0.0
 40
11.478175666945051
 50
89.999999999999687
 51
180.0
  0
ARC
  5
DF2
  8
AM_VIS
 10
564.27255981398525
 20
155.68493278525349
 30
0.0
 40
2.9164263212108068
 50
308.46354588771737
 51
0.000000000001199
  0
ARC
  5
DF5
  8
AM_VIS
 10
564.27255981398525
 20
155.68493278525349
 30
0.0
 40
2.7000000000000379
 50
292.1916065662719
 51
0.0
  0
LINE
  5
DF7
  8
AM_VIS
 10
567.36094836553366
 20
167.26469424641479
 30
0.0
 11
566.57190990306776
 21
167.92677612925459
 31
0.0
  0
LINE
  5
DF8
  8
AM_VIS
 10
567.6886473280781
 20
166.71175451722539
 30
0.0
 11
566.5845077666213
 21
167.63823761601199
 31
0.0
  0
ARC
  5
DF9
  8
AM_VIS
 10
569.53362332769711
 20
163.5238692715418
 30
0.0
 40
9.4258397107021779
 50
89.999999999999275
 51
179.9999999999996
  0
ARC
  5
DFA
  8
AM_VIS
 10
569.53362332769711
 20
163.5238692715418
 30
0.0
 40
5.5999999999999988
 50
90.0
 51
180.0
  0
ARC
  5
DFC
  8
AM_VIS
 10
573.37255981398516
 20
159.68493278525349
 30
0.0
 40
7.4000000000000261
 50
90.0
 51
180.0
  0
ARC
  5
DFD
  8
AM_VIS
 10
573.37255981398516
 20
159.68493278525349
 30
0.0
 40
6.3999999999999844
 50
90.0
 51
180.0
  0
LINE
  5
E00
  8
AM_VIS
 10
565.29236371670356
 20
153.18493278525349
 30
0.0
 11
577.27265881401831
 21
153.18493278525349
 31
0.0
  0
LINE
  5
E01
  8
AM_VIS
 10
566.08662534218195
 20
153.4013591064645
 30
0.0
 11
570.39303465923047
 21
153.4013591064645
 31
0.0
  0
POLYLINE
  5
E02
  8
AM_VIS
 66
     1
 10
0.0
 20
0.0
 30
0.0
  0
VERTEX
  5
2C04
  8
AM_VIS
 10
579.87255981398505
 20
155.78483378522029
 30
0.0
  0
VERTEX
  5
2C05
  8
AM_VIS
 10
579.11107845112269
 20
153.94641414811619
 30
0.0
  0
VERTEX
  5
2C06
  8
AM_VIS
 10
577.27265881401831
 20
153.18493278525349
 30
0.0
  0
SEQEND
  5
2C07
  8
AM_VIS
  0
POLYLINE
  5
E04
  8
AM_VIS
 66
     1
 10
0.0
 20
0.0
 30
0.0
  0
VERTEX
  5
2C08
  8
AM_VIS
 10
578.13697272052218
 20
151.92798015855641
 30
0.0
  0
VERTEX
  5
2C09
  8
AM_VIS
 10
578.21573983569976
 20
151.9289613448897
 30
0.0
  0
VERTEX
  5
2C0A
  8
AM_VIS
 10
578.58760133847363
 20
151.96198829859071
 30
0.0
  0
VERTEX
  5
2C0B
  8
AM_VIS
 10
578.91864242882275
 20
152.03209371013119
 30
0.0
  0
VERTEX
  5
2C0C
  8
AM_VIS
 10
579.209554867713
 20
152.12678346970549
 30
0.0
  0
VERTEX
  5
2C0D
  8
AM_VIS
 10
579.74813164340594
 20
152.39780723691879
 30
0.0
  0
VERTEX
  5
2C0E
  8
AM_VIS
 10
580.24464478702771
 20
152.79498280187829
 30
0.0
  0
VERTEX
  5
2C0F
  8
AM_VIS
 10
580.64618087312124
 20
153.2884034106321
 30
0.0
  0
VERTEX
  5
2C10
  8
AM_VIS
 10
580.92221254925926
 20
153.82609087738501
 30
0.0
  0
VERTEX
  5
2C11
  8
AM_VIS
 10
581.01862806957479
 20
154.11431782854351
 30
0.0
  0
VERTEX
  5
2C12
  8
AM_VIS
 10
581.09102456262872
 20
154.44158798117331
 30
0.0
  0
VERTEX
  5
2C13
  8
AM_VIS
 10
581.12759929398362
 20
154.8116512483318
 30
0.0
  0
VERTEX
  5
2C14
  8
AM_VIS
 10
581.12948921011343
 20
154.91897458327659
 30
0.0
  0
SEQEND
  5
2C15
  8
AM_VIS
  0
POLYLINE
  5
E05
  8
AM_VIS
 66
     1
 10
0.0
 20
0.0
 30
0.0
  0
VERTEX
  5
2C16
  8
AM_VIS
 10
581.62843934156263
 20
154.9242566297973
 30
0.0
  0
VERTEX
  5
2C17
  8
AM_VIS
 10
581.62619090742601
 20
154.8009473500114
 30
0.0
  0
VERTEX
  5
2C18
  8
AM_VIS
 10
581.58236146256081
 20
154.36023929175749
 30
0.0
  0
VERTEX
  5
2C19
  8
AM_VIS
 10
581.49775873785518
 20
153.9788149252401
 30
0.0
  0
VERTEX
  5
2C1A
  8
AM_VIS
 10
581.38849082098307
 20
153.6527074869407
 30
0.0
  0
VERTEX
  5
2C1B
  8
AM_VIS
 10
581.06256631779797
 20
153.01840111763499
 30
0.0
  0
VERTEX
  5
2C1C
  8
AM_VIS
 10
580.59395224927596
 20
152.44270210615801
 30
0.0
  0
VERTEX
  5
2C1D
  8
AM_VIS
 10
580.01463339594545
 20
151.97915753211981
 30
0.0
  0
VERTEX
  5
2C1E
  8
AM_VIS
 10
579.37939036026273
 20
151.6591928864043
 30
0.0
  0
VERTEX
  5
2C1F
  8
AM_VIS
 10
579.05010939680255
 20
151.55183058169629
 30
0.0
  0
VERTEX
  5
2C20
  8
AM_VIS
 10
578.66422739831296
 20
151.4698811348064
 30
0.0
  0
VERTEX
  5
2C21
  8
AM_VIS
 10
578.22047926300399
 20
151.43019452635531
 30
0.0
  0
VERTEX
  5
2C22
  8
AM_VIS
 10
578.13323596992313
 20
151.42905325767489
 30
0.0
  0
SEQEND
  5
2C23
  8
AM_VIS
  0
LINE
  5
E07
  8
AM_VIS
 10
573.36955450309461
 20
154.66747994971971
 30
0.0
 11
574.72468939781584
 21
153.31234505499879
 31
0.0
  0
LINE
  5
E08
  8
AM_VIS
 10
575.30604829652805
 20
155.0644385342018
 30
0.0
 11
577.04941490794045
 21
153.32107192278951
 31
0.0
  0
LINE
  5
E09
  8
AM_VIS
 10
570.45586810732402
 20
153.338525658371
 30
0.0
 11
567.18898613519605
 21
156.6054076304992
 31
0.0
  0
ARC
  5
E0A
  8
AM_VIS
 10
577.37255981398516
 20
168.78493278525369
 30
0.0
 40
2.9164263212108068
 50
270.00000000000108
 51
321.53645411228422
  0
ARC
  5
E0B
  8
AM_VIS
 10
577.37255981398516
 20
168.78493278525369
 30
0.0
 40
2.7000000000000379
 50
270.0
 51
337.80839343372418
  0
LINE
  5
E0C
  8
AM_VIS
 10
576.45208496873977
 20
165.86850646404281
 30
0.0
 11
579.71896694086786
 21
162.60162449191481
 31
0.0
  0
LINE
  5
E0D
  8
AM_VIS
 10
573.37556512487572
 20
164.7023856207874
 30
0.0
 11
572.22609250701043
 21
165.85185823865271
 31
0.0
  0
LINE
  5
E0E
  8
AM_VIS
 10
579.87255981398505
 20
155.78483378522029
 30
0.0
 11
579.87255981398505
 21
167.76512888253501
 31
0.0
  0
LINE
  5
E0F
  8
AM_VIS
 10
579.6561334927743
 20
162.6644579400083
 30
0.0
 11
579.6561334927743
 21
166.9708672570566
 31
0.0
  0
ARC
  5
E10
  8
AM_VIS
 10
573.37255981398516
 20
159.68493278525349
 30
0.0
 40
5.0174537355815172
 50
89.965681469221707
 51
180.03431853077689
  0
LINE
  5
E13
  8
AM_VIS
 10
577.23379466520919
 20
169.12386927154171
 30
0.0
 11
574.67324504660792
 21
169.12386927154171
 31
0.0
  0
LINE
  5
E14
  8
AM_VIS
 10
573.37255981398516
 20
168.4849327852537
 30
0.0
 11
577.87273115149742
 21
168.4849327852537
 31
0.0
  0
LINE
  5
E15
  8
AM_VIS
 10
577.37255981398516
 20
167.08493278525361
 30
0.0
 11
573.37255981398516
 21
167.08493278525361
 31
0.0
  0
LINE
  5
E16
  8
AM_VIS
 10
573.37255981398516
 20
166.08493278525361
 30
0.0
 11
577.37255981398516
 21
166.08493278525361
 31
0.0
  0
ARC
  5
E19
  8
AM_VIS
 10
577.37255981398516
 20
168.78493278525369
 30
0.0
 40
1.6999999999999951
 50
270.0
 51
0.0
  0
ARC
  5
E1E
  8
AM_VIS
 10
577.37255981398516
 20
168.78493278525369
 30
0.0
 40
2.7000000000000379
 50
337.80839343372418
 51
0.0
  0
POLYLINE
  5
E21
  8
AM_VIS
 66
     1
 10
0.0
 20
0.0
 30
0.0
  0
VERTEX
  5
2C24
  8
AM_VIS
 10
578.37255981398505
 20
168.98476144774139
 30
0.0
  0
VERTEX
  5
2C25
  8
AM_VIS
 10
578.22618415771137
 20
168.6313084415273
 30
0.0
  0
VERTEX
  5
2C26
  8
AM_VIS
 10
577.87273115149742
 20
168.4849327852537
 30
0.0
  0
SEQEND
  5
2C27
  8
AM_VIS
  0
POLYLINE
  5
E22
  8
AM_VIS
 66
     1
 10
0.0
 20
0.0
 30
0.0
  0
VERTEX
  5
2C28
  8
AM_VIS
 10
577.73362332769693
 20
169.62369793402959
 30
0.0
  0
VERTEX
  5
2C29
  8
AM_VIS
 10
577.58724767142326
 20
169.27024492781561
 30
0.0
  0
VERTEX
  5
2C2A
  8
AM_VIS
 10
577.23379466520919
 20
169.12386927154191
 30
0.0
  0
SEQEND
  5
2C2B
  8
AM_VIS
  0
LINE
  5
E24
  8
AM_VIS
 10
577.37255981398516
 20
165.86850646404281
 30
0.0
 11
576.45208496873977
 21
165.86850646404281
 31
0.0
  0
POLYLINE
  5
E2E
  8
AM_VIS
 66
     1
 10
0.0
 20
0.0
 30
0.0
  0
VERTEX
  5
2C2C
  8
AM_VIS
 10
571.06293332297264
 20
173.00045105594131
 30
0.0
  0
VERTEX
  5
2C2D
  8
AM_VIS
 10
571.06882299461574
 20
173.003447539729
 30
0.0
  0
VERTEX
  5
2C2E
  8
AM_VIS
 10
571.2215622425723
 20
173.12618872251639
 30
0.0
  0
VERTEX
  5
2C2F
  8
AM_VIS
 10
571.31477583638411
 20
173.2973606387088
 30
0.0
  0
VERTEX
  5
2C30
  8
AM_VIS
 10
571.33776057216335
 20
173.45798328074079
 30
0.0
  0
SEQEND
  5
2C31
  8
AM_VIS
  0
POLYLINE
  5
E2F
  8
AM_VIS
 66
     1
 10
0.0
 20
0.0
 30
0.0
  0
VERTEX
  5
2C32
  8
AM_VIS
 10
571.33776057216335
 20
173.45798328074079
 30
0.0
  0
VERTEX
  5
2C33
  8
AM_VIS
 10
571.32493859385932
 20
174.36825748183529
 30
0.0
  0
VERTEX
  5
2C34
  8
AM_VIS
 10
571.32055212516161
 20
175.1680409744055
 30
0.0
  0
SEQEND
  5
2C35
  8
AM_VIS
  0
POLYLINE
  5
E31
  8
AM_VIS
 66
     1
 10
0.0
 20
0.0
 30
0.0
  0
VERTEX
  5
2C36
  8
AM_VIS
 10
571.06293332297264
 20
173.00045105594131
 30
0.0
  0
VERTEX
  5
2C37
  8
AM_VIS
 10
570.95830397306963
 20
172.96255509469461
 30
0.0
  0
VERTEX
  5
2C38
  8
AM_VIS
 10
570.84740533590571
 20
172.94970898224389
 30
0.0
  0
SEQEND
  5
2C39
  8
AM_VIS
  0
POLYLINE
  5
E32
  8
AM_VIS
 66
     1
 10
0.0
 20
0.0
 30
0.0
  0
VERTEX
  5
2C3A
  8
AM_VIS
 10
570.79438414704009
 20
176.19420895252711
 30
0.0
  0
VERTEX
  5
2C3B
  8
AM_VIS
 10
570.59590274337074
 20
175.31430693434609
 30
0.0
  0
VERTEX
  5
2C3C
  8
AM_VIS
 10
570.03661538219353
 20
175.0020449384867
 30
0.0
  0
SEQEND
  5
2C3D
  8
AM_VIS
  0
LINE
  5
E33
  8
AM_VIS
 10
569.53362332769711
 20
175.0020449384869
 30
0.0
 11
570.03661538219319
 21
175.0020449384869
 31
0.0
  0
LINE
  5
E34
  8
AM_VIS
 10
570.84740533590571
 20
172.94970898224389
 30
0.0
 11
569.53362332769711
 21
172.94970898224389
 31
0.0
  0
LINE
  5
E36
  8
AM_VIS
 10
569.53362332769711
 20
169.12386927154171
 30
0.0
 11
573.37255981398528
 21
169.12386927154171
 31
0.0
  0
ARC
  5
E37
  8
AM_VIS
 10
573.37255981398516
 20
159.68493278525349
 30
0.0
 40
9.4389364862881635
 50
89.999999999999687
 51
126.6892900524432
  0
ARC
  5
E38
  8
AM_VIS
 10
573.37255981398516
 20
159.68493278525349
 30
0.0
 40
8.8000000000000007
 50
89.999999999999687
 51
127.11486245507341
  0
POLYLINE
  5
E39
  8
AM_VIS
 66
     1
 10
0.0
 20
0.0
 30
0.0
  0
VERTEX
  5
2C3E
  8
AM_VIS
 10
575.172559813985
 20
169.62318403891911
 30
0.0
  0
VERTEX
  5
2C3F
  8
AM_VIS
 10
575.02639676270383
 20
169.2700323228232
 30
0.0
  0
VERTEX
  5
2C40
  8
AM_VIS
 10
574.67324504660792
 20
169.12386927154171
 30
0.0
  0
SEQEND
  5
2C41
  8
AM_VIS
  0
LINE
  5
E3A
  8
AM_VIS
 10
574.67324504660792
 20
169.12386927154171
 30
0.0
 11
573.37255981398528
 21
169.12386927154171
 31
0.0
  0
POLYLINE
  5
E41
  8
AM_VIS
 66
     1
 10
0.0
 20
0.0
 30
0.0
  0
VERTEX
  5
2C42
  8
AM_VIS
 10
568.06250904824174
 20
166.7022941743532
 30
0.0
  0
VERTEX
  5
2C43
  8
AM_VIS
 10
567.95816717536024
 20
166.65149615062251
 30
0.0
  0
VERTEX
  5
2C44
  8
AM_VIS
 10
567.8423390754665
 20
166.6441126861736
 30
0.0
  0
VERTEX
  5
2C45
  8
AM_VIS
 10
567.76066935642689
 20
166.6669634570687
 30
0.0
  0
VERTEX
  5
2C46
  8
AM_VIS
 10
567.68864732807833
 20
166.71175451722519
 30
0.0
  0
SEQEND
  5
2C47
  8
AM_VIS
  0
POLYLINE
  5
E43
  8
AM_VIS
 66
     1
 10
0.0
 20
0.0
 30
0.0
  0
VERTEX
  5
2C48
  8
AM_VIS
 10
567.73302873035504
 20
167.2538964625976
 30
0.0
  0
VERTEX
  5
2C49
  8
AM_VIS
 10
567.62831245833615
 20
167.20387483473081
 30
0.0
  0
VERTEX
  5
2C4A
  8
AM_VIS
 10
567.51243214381395
 20
167.19735175977371
 30
0.0
  0
VERTEX
  5
2C4B
  8
AM_VIS
 10
567.43195143505125
 20
167.22035391677491
 30
0.0
  0
VERTEX
  5
2C4C
  8
AM_VIS
 10
567.36094836553366
 20
167.26469424641479
 30
0.0
  0
SEQEND
  5
2C4D
  8
AM_VIS
  0
LINE
  5
E45
  8
AM_VIS
 10
578.38704762671364
 20
159.85697940727749
 30
0.0
 11
573.54460643600885
 21
164.69942059798191
 31
0.0
  0
POLYLINE
  5
E47
  8
AM_VIS
 66
     1
 10
0.0
 20
0.0
 30
0.0
  0
VERTEX
  5
2C4E
  8
AM_VIS
 10
574.21719124288336
 20
154.73908202547341
 30
0.0
  0
VERTEX
  5
2C4F
  8
AM_VIS
 10
574.64157742754958
 20
154.83123458397151
 30
0.0
  0
VERTEX
  5
2C50
  8
AM_VIS
 10
575.0079322172719
 20
154.94415075476829
 30
0.0
  0
VERTEX
  5
2C51
  8
AM_VIS
 10
575.22885501537996
 20
155.02921787174719
 30
0.0
  0
VERTEX
  5
2C52
  8
AM_VIS
 10
575.30606491161177
 20
155.0644141700725
 30
0.0
  0
VERTEX
  5
2C53
  8
AM_VIS
 10
575.30604829652805
 20
155.0644385342018
 30
0.0
  0
SEQEND
  5
2C54
  8
AM_VIS
  0
LINE
  5
E4A
  8
AM_VIS
 10
579.73642067644926
 20
156.00807769129841
 30
0.0
 11
577.99305406503697
 21
157.75144430271069
 31
0.0
  0
LINE
  5
E4C
  8
AM_VIS
 10
579.74514754424013
 20
158.3328032014233
 30
0.0
 11
578.39001264951912
 21
159.68793809614431
 31
0.0
  0
POLYLINE
  5
E4D
  8
AM_VIS
 66
     1
 10
0.0
 20
0.0
 30
0.0
  0
VERTEX
  5
2C55
  8
AM_VIS
 10
581.12759929398362
 20
154.8116512483318
 30
0.0
  0
VERTEX
  5
2C56
  8
AM_VIS
 10
581.12759929398362
 20
159.68493278525349
 30
0.0
  0
SEQEND
  5
2C57
  8
AM_VIS
  0
POLYLINE
  5
E53
  8
AM_VIS
 66
     1
 10
0.0
 20
0.0
 30
0.0
  0
VERTEX
  5
2C58
  8
AM_VIS
 10
579.87255981398505
 20
159.68493278525349
 30
0.0
  0
VERTEX
  5
2C59
  8
AM_VIS
 10
581.12759929398362
 20
159.68493278525349
 30
0.0
  0
SEQEND
  5
2C5A
  8
AM_VIS
  0
ARC
  5
E54
  8
AM_VIS
 10
573.37255981398516
 20
159.68493278525349
 30
0.0
 40
5.7842916379766338
 50
295.82370930228632
 51
334.17629069771363
  0
POLYLINE
  5
E55
  8
AM_VIS
 66
     1
 10
0.0
 20
0.0
 30
0.0
  0
VERTEX
  5
2C5B
  8
AM_VIS
 10
577.99305406503697
 20
157.75144430271069
 30
0.0
  0
VERTEX
  5
2C5C
  8
AM_VIS
 10
577.9930784291663
 20
157.751427687627
 30
0.0
  0
VERTEX
  5
2C5D
  8
AM_VIS
 10
578.02827472749163
 20
157.82863758385881
 30
0.0
  0
VERTEX
  5
2C5E
  8
AM_VIS
 10
578.11334184447026
 20
158.04956038196701
 30
0.0
  0
VERTEX
  5
2C5F
  8
AM_VIS
 10
578.22625801526726
 20
158.41591517168919
 30
0.0
  0
VERTEX
  5
2C60
  8
AM_VIS
 10
578.3184105737655
 20
158.84030135635541
 30
0.0
  0
SEQEND
  5
2C61
  8
AM_VIS
  0
POLYLINE
  5
E57
  8
AM_VIS
 66
     1
 10
0.0
 20
0.0
 30
0.0
  0
VERTEX
  5
2C62
  8
AM_VIS
 10
577.99305406503697
 20
157.75144430271069
 30
0.0
  0
VERTEX
  5
2C63
  8
AM_VIS
 10
577.98638378339308
 20
157.75811458435439
 30
0.0
  0
SEQEND
  5
2C64
  8
AM_VIS
  0
POLYLINE
  5
E58
  8
AM_VIS
 66
     1
 10
0.0
 20
0.0
 30
0.0
  0
VERTEX
  5
2C65
  8
AM_VIS
 10
575.29937801488416
 20
155.07110881584569
 30
0.0
  0
VERTEX
  5
2C66
  8
AM_VIS
 10
575.30604829652805
 20
155.0644385342018
 30
0.0
  0
SEQEND
  5
2C67
  8
AM_VIS
  0
ARC
  5
E59
  8
AM_VIS
 10
573.37255981398516
 20
159.68493278525349
 30
0.0
 40
5.0174537355815172
 50
350.30876084096587
 51
0.0343185307782967
  0
LINE
  5
E5A
  8
AM_VIS
 10
578.36985011935417
 20
159.84952198254649
 30
0.0
 11
578.38727591672966
 21
159.8500959131822
 31
0.0
  0
POLYLINE
  5
E5B
  8
AM_VIS
 66
     1
 10
0.0
 20
0.0
 30
0.0
  0
VERTEX
  5
2C68
  8
AM_VIS
 10
578.39001264951912
 20
159.68793809614431
 30
0.0
  0
VERTEX
  5
2C69
  8
AM_VIS
 10
578.38727591672966
 20
159.8500959131822
 30
0.0
  0
SEQEND
  5
2C6A
  8
AM_VIS
  0
POLYLINE
  5
E5C
  8
AM_VIS
 66
     1
 10
0.0
 20
0.0
 30
0.0
  0
VERTEX
  5
2C6B
  8
AM_VIS
 10
578.38727591672966
 20
159.8500959131822
 30
0.0
  0
VERTEX
  5
2C6C
  8
AM_VIS
 10
578.38716177835204
 20
159.85353770373209
 30
0.0
  0
VERTEX
  5
2C6D
  8
AM_VIS
 10
578.38704762671364
 20
159.85697940727749
 30
0.0
  0
SEQEND
  5
2C6E
  8
AM_VIS
  0
LINE
  5
E5D
  8
AM_VIS
 10
578.36985011935417
 20
159.84952198254649
 30
0.0
 11
578.38704762671364
 21
159.85697940727749
 31
0.0
  0
LINE
  5
E5F
  8
AM_VIS
 10
567.2056343605858
 20
160.83140009222839
 30
0.0
 11
568.35510697845109
 21
159.68192747436319
 31
0.0
  0
POLYLINE
  5
E60
  8
AM_VIS
 66
     1
 10
0.0
 20
0.0
 30
0.0
  0
VERTEX
  5
2C6F
  8
AM_VIS
 10
573.5377229419139
 20
164.69964888799831
 30
0.0
  0
VERTEX
  5
2C70
  8
AM_VIS
 10
573.37556512487572
 20
164.7023856207874
 30
0.0
  0
SEQEND
  5
2C71
  8
AM_VIS
  0
POLYLINE
  5
E61
  8
AM_VIS
 66
     1
 10
0.0
 20
0.0
 30
0.0
  0
VERTEX
  5
2C72
  8
AM_VIS
 10
573.54460643600885
 20
164.69942059798191
 30
0.0
  0
VERTEX
  5
2C73
  8
AM_VIS
 10
573.54116473246347
 20
164.69953474962031
 30
0.0
  0
VERTEX
  5
2C74
  8
AM_VIS
 10
573.5377229419139
 20
164.69964888799831
 30
0.0
  0
SEQEND
  5
2C75
  8
AM_VIS
  0
LINE
  5
E62
  8
AM_VIS
 10
573.53714901127785
 20
164.6822230906225
 30
0.0
 11
573.5377229419139
 21
164.69964888799811
 31
0.0
  0
LINE
  5
E63
  8
AM_VIS
 10
573.53714901127785
 20
164.6822230906225
 30
0.0
 11
573.54460643600885
 21
164.69942059798191
 31
0.0
  0
LINE
  5
E64
  8
AM_VIS
 10
568.35807200125691
 20
159.51288616322969
 30
0.0
 11
573.20051319196125
 21
154.67044497252499
 31
0.0
  0
ARC
  5
E66
  8
AM_VIS
 10
573.37255981398516
 20
159.68493278525349
 30
0.0
 40
5.0174537355815172
 50
269.965681469223
 51
279.69123915903322
  0
POLYLINE
  5
E67
  8
AM_VIS
 66
     1
 10
0.0
 20
0.0
 30
0.0
  0
VERTEX
  5
2C76
  8
AM_VIS
 10
573.20739668605643
 20
154.67021668250911
 30
0.0
  0
VERTEX
  5
2C77
  8
AM_VIS
 10
573.36955450309461
 20
154.66747994971971
 30
0.0
  0
SEQEND
  5
2C78
  8
AM_VIS
  0
LINE
  5
E68
  8
AM_VIS
 10
573.20797061669225
 20
154.68764247988469
 30
0.0
 11
573.20739668605665
 21
154.67021668250911
 31
0.0
  0
POLYLINE
  5
E69
  8
AM_VIS
 66
     1
 10
0.0
 20
0.0
 30
0.0
  0
VERTEX
  5
2C79
  8
AM_VIS
 10
573.20051319196125
 20
154.67044497252499
 30
0.0
  0
VERTEX
  5
2C7A
  8
AM_VIS
 10
573.20395489550674
 20
154.67033082088679
 30
0.0
  0
VERTEX
  5
2C7B
  8
AM_VIS
 10
573.20739668605643
 20
154.67021668250911
 30
0.0
  0
SEQEND
  5
2C7C
  8
AM_VIS
  0
LINE
  5
E6A
  8
AM_VIS
 10
573.20797061669225
 20
154.68764247988449
 30
0.0
 11
573.20051319196125
 21
154.67044497252499
 31
0.0
  0
LINE
  5
E6C
  8
AM_VIS
 10
567.18898613519605
 20
156.6054076304992
 30
0.0
 11
567.18898613519605
 21
155.68493278525349
 31
0.0
  0
POLYLINE
  5
E6D
  8
AM_VIS
 66
     1
 10
0.0
 20
0.0
 30
0.0
  0
VERTEX
  5
2C7D
  8
AM_VIS
 10
568.35510697845109
 20
159.68192747436319
 30
0.0
  0
VERTEX
  5
2C7E
  8
AM_VIS
 10
568.35784371124055
 20
159.5197696573247
 30
0.0
  0
SEQEND
  5
2C7F
  8
AM_VIS
  0
POLYLINE
  5
E6E
  8
AM_VIS
 66
     1
 10
0.0
 20
0.0
 30
0.0
  0
VERTEX
  5
2C80
  8
AM_VIS
 10
568.35784371124055
 20
159.5197696573247
 30
0.0
  0
VERTEX
  5
2C81
  8
AM_VIS
 10
568.35795784961851
 20
159.5163278667753
 30
0.0
  0
VERTEX
  5
2C82
  8
AM_VIS
 10
568.35807200125657
 20
159.51288616322969
 30
0.0
  0
SEQEND
  5
2C83
  8
AM_VIS
  0
LINE
  5
E6F
  8
AM_VIS
 10
568.37526950861627
 20
159.52034358796089
 30
0.0
 11
568.35807200125691
 21
159.51288616322969
 31
0.0
  0
LINE
  5
E70
  8
AM_VIS
 10
568.37526950861627
 20
159.5203435879607
 30
0.0
 11
568.35784371124055
 21
159.5197696573247
 31
0.0
  0
POLYLINE
  5
E71
  8
AM_VIS
 66
     1
 10
0.0
 20
0.0
 30
0.0
  0
VERTEX
  5
2C84
  8
AM_VIS
 10
578.21573983569976
 20
151.9289613448897
 30
0.0
  0
VERTEX
  5
2C85
  8
AM_VIS
 10
573.37255981398516
 20
151.9289613448897
 30
0.0
  0
SEQEND
  5
2C86
  8
AM_VIS
  0
POLYLINE
  5
E78
  8
AM_VIS
 66
     1
 10
0.0
 20
0.0
 30
0.0
  0
VERTEX
  5
2C87
  8
AM_VIS
 10
573.37255981398516
 20
153.18493278525349
 30
0.0
  0
VERTEX
  5
2C88
  8
AM_VIS
 10
573.37255981398516
 20
151.9289613448897
 30
0.0
  0
SEQEND
  5
2C89
  8
AM_VIS
  0
ARC
  5
E79
  8
AM_VIS
 10
564.27255981398525
 20
155.68493278525349
 30
0.0
 40
1.6999999999999951
 50
270.0
 51
0.0
  0
LINE
  5
E7B
  8
AM_VIS
 10
565.13071646998424
 20
166.48558269617109
 30
0.0
 11
565.79279835282375
 21
165.6965442337052
 31
0.0
  0
POLYLINE
  5
E7C
  8
AM_VIS
 66
     1
 10
0.0
 20
0.0
 30
0.0
  0
VERTEX
  5
2C8A
  8
AM_VIS
 10
566.57190990306776
 20
167.92677612925459
 30
0.0
  0
VERTEX
  5
2C8B
  8
AM_VIS
 10
566.36599558157047
 20
167.99667605016239
 30
0.0
  0
VERTEX
  5
2C8C
  8
AM_VIS
 10
566.16695700575838
 20
167.90909550392459
 30
0.0
  0
SEQEND
  5
2C8D
  8
AM_VIS
  0
POLYLINE
  5
E7D
  8
AM_VIS
 66
     1
 10
0.0
 20
0.0
 30
0.0
  0
VERTEX
  5
2C8E
  8
AM_VIS
 10
565.43693560855672
 20
166.87793772992671
 30
0.0
  0
VERTEX
  5
2C8F
  8
AM_VIS
 10
565.34935506231875
 20
166.67889915411479
 30
0.0
  0
VERTEX
  5
2C90
  8
AM_VIS
 10
565.41925498322655
 20
166.47298483261761
 30
0.0
  0
SEQEND
  5
2C91
  8
AM_VIS
  0
LINE
  5
E7E
  8
AM_VIS
 10
565.41925498322655
 20
166.47298483261761
 30
0.0
 11
566.34573808201344
 21
165.36884527116081
 31
0.0
  0
LINE
  5
E7F
  8
AM_VIS
 10
566.17955486931214
 20
167.62055699068191
 30
0.0
 11
565.43693560855672
 21
166.87793772992671
 31
0.0
  0
POLYLINE
  5
E80
  8
AM_VIS
 66
     1
 10
0.0
 20
0.0
 30
0.0
  0
VERTEX
  5
2C92
  8
AM_VIS
 10
566.5845077666213
 20
167.63823761601199
 30
0.0
  0
VERTEX
  5
2C93
  8
AM_VIS
 10
566.37859344512412
 20
167.70813753691979
 30
0.0
  0
VERTEX
  5
2C94
  8
AM_VIS
 10
566.17955486931214
 20
167.62055699068191
 30
0.0
  0
SEQEND
  5
2C95
  8
AM_VIS
  0
POLYLINE
  5
E83
  8
AM_VIS
 66
     1
 10
0.0
 20
0.0
 30
0.0
  0
VERTEX
  5
2C96
  8
AM_VIS
 10
565.14839709531429
 20
166.89053559348031
 30
0.0
  0
VERTEX
  5
2C97
  8
AM_VIS
 10
565.06081654907643
 20
166.6914970176683
 30
0.0
  0
VERTEX
  5
2C98
  8
AM_VIS
 10
565.13071646998424
 20
166.48558269617109
 30
0.0
  0
SEQEND
  5
2C99
  8
AM_VIS
  0
LINE
  5
E8C
  8
AM_VIS
 10
563.93362332769698
 20
159.68493278525349
 30
0.0
 11
563.93362332769698
 21
163.5238692715418
 31
0.0
  0
ARC
  5
E8D
  8
AM_VIS
 10
573.37255981398516
 20
159.68493278525349
 30
0.0
 40
9.4389364862881635
 50
143.31070994755669
 51
180.0
  0
ARC
  5
E8E
  8
AM_VIS
 10
573.37255981398516
 20
159.68493278525349
 30
0.0
 40
8.8000000000000007
 50
142.88513754492661
 51
180.0
  0
POLYLINE
  5
E90
  8
AM_VIS
 66
     1
 10
0.0
 20
0.0
 30
0.0
  0
VERTEX
  5
2C9A
  8
AM_VIS
 10
565.79279835282375
 20
165.6965442337052
 30
0.0
  0
VERTEX
  5
2C9B
  8
AM_VIS
 10
565.84883103051061
 20
165.59480396098951
 30
0.0
  0
VERTEX
  5
2C9C
  8
AM_VIS
 10
565.86203284129942
 20
165.4794488926884
 30
0.0
  0
VERTEX
  5
2C9D
  8
AM_VIS
 10
565.84372565293916
 20
165.39784086548269
 30
0.0
  0
VERTEX
  5
2C9E
  8
AM_VIS
 10
565.80359613664132
 20
165.32446386888361
 30
0.0
  0
SEQEND
  5
2C9F
  8
AM_VIS
  0
POLYLINE
  5
E92
  8
AM_VIS
 66
     1
 10
0.0
 20
0.0
 30
0.0
  0
VERTEX
  5
2CA0
  8
AM_VIS
 10
566.34573808201344
 20
165.36884527116081
 30
0.0
  0
VERTEX
  5
2CA1
  8
AM_VIS
 10
566.40177081876186
 20
165.26710488521209
 30
0.0
  0
VERTEX
  5
2CA2
  8
AM_VIS
 10
566.41497262485359
 20
165.15174974858169
 30
0.0
  0
VERTEX
  5
2CA3
  8
AM_VIS
 10
566.39627055940798
 20
165.06910034310681
 30
0.0
  0
VERTEX
  5
2CA4
  8
AM_VIS
 10
566.35519842488554
 20
164.99498355099709
 30
0.0
  0
SEQEND
  5
2CA5
  8
AM_VIS
  0
LINE
  5
E94
  8
AM_VIS
 10
560.10778361699465
 20
163.5238692715418
 30
0.0
 11
560.10778361699465
 21
162.46854126080251
 31
0.0
  0
POLYLINE
  5
E95
  8
AM_VIS
 66
     1
 10
0.0
 20
0.0
 30
0.0
  0
VERTEX
  5
2CA6
  8
AM_VIS
 10
560.10885866679735
 20
162.20901221353051
 30
0.0
  0
VERTEX
  5
2CA7
  8
AM_VIS
 10
560.10805278324233
 20
162.3395373716352
 30
0.0
  0
VERTEX
  5
2CA8
  8
AM_VIS
 10
560.10778361699465
 20
162.46854126080251
 30
0.0
  0
SEQEND
  5
2CA9
  8
AM_VIS
  0
POLYLINE
  5
E96
  8
AM_VIS
 66
     1
 10
0.0
 20
0.0
 30
0.0
  0
VERTEX
  5
2CAA
  8
AM_VIS
 10
559.61186692547881
 20
161.70737442009451
 30
0.0
  0
VERTEX
  5
2CAB
  8
AM_VIS
 10
559.785926693855
 20
161.73753427547209
 30
0.0
  0
VERTEX
  5
2CAC
  8
AM_VIS
 10
559.94611563046533
 20
161.83487717035061
 30
0.0
  0
VERTEX
  5
2CAD
  8
AM_VIS
 10
560.05815067287131
 20
161.98456399126121
 30
0.0
  0
VERTEX
  5
2CAE
  8
AM_VIS
 10
560.10733305954045
 20
162.16541419532629
 30
0.0
  0
VERTEX
  5
2CAF
  8
AM_VIS
 10
560.10885866679735
 20
162.20901221353051
 30
0.0
  0
SEQEND
  5
2CB0
  8
AM_VIS
  0
POLYLINE
  5
E97
  8
AM_VIS
 66
     1
 10
0.0
 20
0.0
 30
0.0
  0
VERTEX
  5
2CB1
  8
AM_VIS
 10
558.91561960295485
 20
161.71077249595569
 30
0.0
  0
VERTEX
  5
2CB2
  8
AM_VIS
 10
559.24952050511638
 20
161.70991978919679
 30
0.0
  0
VERTEX
  5
2CB3
  8
AM_VIS
 10
559.61186692547881
 20
161.70737442009451
 30
0.0
  0
SEQEND
  5
2CB4
  8
AM_VIS
  0
POLYLINE
  5
E98
  8
AM_VIS
 66
     1
 10
0.0
 20
0.0
 30
0.0
  0
VERTEX
  5
2CB5
  8
AM_VIS
 10
563.93362332769698
 20
158.384247552631
 30
0.0
  0
VERTEX
  5
2CB6
  8
AM_VIS
 10
563.78746027641546
 20
158.031095836535
 30
0.0
  0
VERTEX
  5
2CB7
  8
AM_VIS
 10
563.43430856031966
 20
157.88493278525371
 30
0.0
  0
SEQEND
  5
2CB8
  8
AM_VIS
  0
POLYLINE
  5
E99
  8
AM_VIS
 66
     1
 10
0.0
 20
0.0
 30
0.0
  0
VERTEX
  5
2CB9
  8
AM_VIS
 10
563.93362332769698
 20
155.8236979340297
 30
0.0
  0
VERTEX
  5
2CBA
  8
AM_VIS
 10
563.7872476714233
 20
155.4702449278156
 30
0.0
  0
VERTEX
  5
2CBB
  8
AM_VIS
 10
563.43379466520923
 20
155.32386927154189
 30
0.0
  0
SEQEND
  5
2CBC
  8
AM_VIS
  0
LINE
  5
E9B
  8
AM_VIS
 10
565.9725598139853
 20
159.68493278525349
 30
0.0
 11
565.9725598139853
 21
155.68493278525349
 31
0.0
  0
LINE
  5
E9C
  8
AM_VIS
 10
566.97255981398519
 20
155.68493278525349
 30
0.0
 11
566.97255981398519
 21
159.68493278525349
 31
0.0
  0
LINE
  5
EA5
  8
AM_VIS
 10
563.93362332769698
 20
159.68493278525349
 30
0.0
 11
563.93362332769698
 21
158.384247552631
 31
0.0
  0
POLYLINE
  5
EA7
  8
AM_VIS
 66
     1
 10
0.0
 20
0.0
 30
0.0
  0
VERTEX
  5
2CBD
  8
AM_VIS
 10
564.57255981398509
 20
155.18476144774141
 30
0.0
  0
VERTEX
  5
2CBE
  8
AM_VIS
 10
564.4261841577113
 20
154.8313084415274
 30
0.0
  0
VERTEX
  5
2CBF
  8
AM_VIS
 10
564.07273115149735
 20
154.68493278525369
 30
0.0
  0
SEQEND
  5
2CC0
  8
AM_VIS
  0
LINE
  5
EA8
  8
AM_VIS
 10
563.93362332769698
 20
158.384247552631
 30
0.0
 11
563.93362332769698
 21
155.8236979340297
 31
0.0
  0
LINE
  5
EAA
  8
AM_VIS
 10
564.57255981398509
 20
155.18476144774141
 30
0.0
 11
564.57255981398509
 21
159.68493278525349
 31
0.0
  0
POLYLINE
  5
EAB
  8
AM_VIS
 66
     1
 10
0.0
 20
0.0
 30
0.0
  0
VERTEX
  5
2CC1
  8
AM_VIS
 10
558.05544766075195
 20
163.52087721704561
 30
0.0
  0
VERTEX
  5
2CC2
  8
AM_VIS
 10
557.74318566489274
 20
162.96158985586811
 30
0.0
  0
VERTEX
  5
2CC3
  8
AM_VIS
 10
556.86328364671169
 20
162.76310845219879
 30
0.0
  0
SEQEND
  5
2CC4
  8
AM_VIS
  0
LINE
  5
EAC
  8
AM_VIS
 10
558.05544766075195
 20
163.52087721704561
 30
0.0
 11
558.05544766075195
 21
163.5238692715418
 31
0.0
  0
ARC
  5
EB1
  8
AM_VIS
 10
564.27255981398525
 20
155.68493278525349
 30
0.0
 40
2.7000000000000379
 50
270.0
 51
292.1916065662719
  0
LINE
  5
1243
  8
AM_VIS
 10
660.81706890498936
 20
386.5759483878881
 30
0.0
 11
733.21252161941845
 21
390.37003329484168
 31
0.0
  0
LINE
  5
1244
  8
AM_VIS
 10
660.89353171595656
 20
398.17995563400882
 30
0.0
 11
733.21252161942573
 21
401.97003329484221
 31
0.0
  0
LINE
  5
1245
  8
AM_VIS
 10
733.78112004566015
 20
405.10578534673601
 30
0.0
 11
759.25495206755124
 21
406.44081231283252
 31
0.0
  0
POLYLINE
  5
1246
  8
AM_VIS
 66
     1
 10
0.0
 20
0.0
 30
0.0
  0
VERTEX
  5
2CC5
  8
AM_VIS
 10
760.59682083254563
 20
405.94190868502869
 30
0.0
  0
VERTEX
  5
2CC6
  8
AM_VIS
 10
760.59682083254563
 20
385.15724843337728
 30
0.0
  0
SEQEND
  5
2CC7
  8
AM_VIS
  0
POLYLINE
  5
1247
  8
AM_VIS
 66
     1
 10
0.0
 20
0.0
 30
0.0
  0
VERTEX
  5
2CC8
  8
AM_VIS
 10
759.78068679496141
 20
405.94190868502869
 30
0.0
  0
VERTEX
  5
2CC9
  8
AM_VIS
 10
759.78068679496141
 20
385.15724843337728
 30
0.0
  0
SEQEND
  5
2CCA
  8
AM_VIS
  0
POLYLINE
  5
1248
  8
AM_VIS
 66
     1
 10
0.0
 20
0.0
 30
0.0
  0
VERTEX
  5
2CCB
  8
AM_VIS
 10
759.25495206752635
 20
402.94560894070992
 30
0.0
  0
VERTEX
  5
2CCC
  8
AM_VIS
 10
759.25350800855927
 20
403.06891822049568
 30
0.0
  0
VERTEX
  5
2CCD
  8
AM_VIS
 10
759.24877389217681
 20
403.50962627874958
 30
0.0
  0
VERTEX
  5
2CCE
  8
AM_VIS
 10
759.2452332927345
 20
403.89105064526711
 30
0.0
  0
VERTEX
  5
2CCF
  8
AM_VIS
 10
759.24264674990718
 20
404.21715808356652
 30
0.0
  0
VERTEX
  5
2CD0
  8
AM_VIS
 10
759.23896825579038
 20
404.85146445287222
 30
0.0
  0
VERTEX
  5
2CD1
  8
AM_VIS
 10
759.2376909065822
 20
405.42716346434912
 30
0.0
  0
VERTEX
  5
2CD2
  8
AM_VIS
 10
759.23907190544071
 20
405.8907080383874
 30
0.0
  0
VERTEX
  5
2CD3
  8
AM_VIS
 10
759.24283266387079
 20
406.21067268410297
 30
0.0
  0
VERTEX
  5
2CD4
  8
AM_VIS
 10
759.24547979254555
 20
406.31803498881089
 30
0.0
  0
VERTEX
  5
2CD5
  8
AM_VIS
 10
759.24910521357674
 20
406.39998443570079
 30
0.0
  0
VERTEX
  5
2CD6
  8
AM_VIS
 10
759.25392501043484
 20
406.43967104415191
 30
0.0
  0
VERTEX
  5
2CD7
  8
AM_VIS
 10
759.25495206755124
 20
406.44081231283229
 30
0.0
  0
SEQEND
  5
2CD8
  8
AM_VIS
  0
POLYLINE
  5
1249
  8
AM_VIS
 66
     1
 10
0.0
 20
0.0
 30
0.0
  0
VERTEX
  5
2CD9
  8
AM_VIS
 10
759.78068679496141
 20
405.94190868502869
 30
0.0
  0
VERTEX
  5
2CDA
  8
AM_VIS
 10
760.59682083254563
 20
405.94190868502869
 30
0.0
  0
SEQEND
  5
2CDB
  8
AM_VIS
  0
ARC
  5
124A
  8
AM_VIS
 10
761.09682083254563
 20
404.38493278525362
 30
0.0
 40
0.3187556988391739
 50
0.0
 51
80.000000000001307
  0
LINE
  5
124B
  8
AM_VIS
 10
760.59682083254563
 20
404.79676929489938
 30
0.0
 11
761.15217217877
 21
404.6988458687872
 31
0.0
  0
POLYLINE
  5
124C
  8
AM_VIS
 66
     1
 10
0.0
 20
0.0
 30
0.0
  0
VERTEX
  5
2CDC
  8
AM_VIS
 10
759.25495206755124
 20
406.44081231283229
 30
0.0
  0
VERTEX
  5
2CDD
  8
AM_VIS
 10
759.78068679496141
 20
405.94190868502869
 30
0.0
  0
SEQEND
  5
2CDE
  8
AM_VIS
  0
POLYLINE
  5
124D
  8
AM_VIS
 66
     1
 10
0.0
 20
0.0
 30
0.0
  0
VERTEX
  5
2CDF
  8
AM_VIS
 10
733.49682083254561
 20
401.61058197509578
 30
0.0
  0
VERTEX
  5
2CE0
  8
AM_VIS
 10
733.49682083254561
 20
402.03303485316849
 30
0.0
  0
VERTEX
  5
2CE1
  8
AM_VIS
 10
733.49682083254561
 20
402.37827874394458
 30
0.0
  0
VERTEX
  5
2CE2
  8
AM_VIS
 10
733.49682083254561
 20
402.70168947094658
 30
0.0
  0
VERTEX
  5
2CE3
  8
AM_VIS
 10
733.49682083254561
 20
403.31567351407011
 30
0.0
  0
VERTEX
  5
2CE4
  8
AM_VIS
 10
733.49682083254561
 20
403.8579152619011
 30
0.0
  0
VERTEX
  5
2CE5
  8
AM_VIS
 10
733.49682083254561
 20
404.29446428517622
 30
0.0
  0
VERTEX
  5
2CE6
  8
AM_VIS
 10
733.49682083254561
 20
404.60231465218368
 30
0.0
  0
VERTEX
  5
2CE7
  8
AM_VIS
 10
733.49682083254561
 20
404.70404798543899
 30
0.0
  0
VERTEX
  5
2CE8
  8
AM_VIS
 10
733.49682083254561
 20
404.77306814238818
 30
0.0
  0
VERTEX
  5
2CE9
  8
AM_VIS
 10
733.49682083254561
 20
404.80619648631028
 30
0.0
  0
SEQEND
  5
2CEA
  8
AM_VIS
  0
POLYLINE
  5
124E
  8
AM_VIS
 66
     1
 10
0.0
 20
0.0
 30
0.0
  0
VERTEX
  5
2CEB
  8
AM_VIS
 10
733.78105045071675
 20
405.10574692421159
 30
0.0
  0
VERTEX
  5
2CEC
  8
AM_VIS
 10
733.63895290553285
 20
404.95598157926048
 30
0.0
  0
VERTEX
  5
2CED
  8
AM_VIS
 10
733.49682083254561
 20
404.80619648631011
 30
0.0
  0
SEQEND
  5
2CEE
  8
AM_VIS
  0
POLYLINE
  5
1250
  8
AM_VIS
 66
     1
 10
0.0
 20
0.0
 30
0.0
  0
VERTEX
  5
2CEF
  8
AM_VIS
 10
659.04512532385388
 20
384.6651005556302
 30
0.0
  0
VERTEX
  5
2CF0
  8
AM_VIS
 10
660.08217453018403
 20
385.78225134350231
 30
0.0
  0
VERTEX
  5
2CF1
  8
AM_VIS
 10
660.79813405493564
 20
386.5564067515503
 30
0.0
  0
SEQEND
  5
2CF2
  8
AM_VIS
  0
POLYLINE
  5
1251
  8
AM_VIS
 66
     1
 10
0.0
 20
0.0
 30
0.0
  0
VERTEX
  5
2CF3
  8
AM_VIS
 10
658.49682083254561
 20
395.6543493390256
 30
0.0
  0
VERTEX
  5
2CF4
  8
AM_VIS
 10
658.50959753483994
 20
395.6678131739701
 30
0.0
  0
VERTEX
  5
2CF5
  8
AM_VIS
 10
658.98938914136011
 20
396.17340803319769
 30
0.0
  0
VERTEX
  5
2CF6
  8
AM_VIS
 10
659.40914926999153
 20
396.61574291413473
 30
0.0
  0
VERTEX
  5
2CF7
  8
AM_VIS
 10
659.70880801238366
 20
396.93151734123433
 30
0.0
  0
VERTEX
  5
2CF8
  8
AM_VIS
 10
659.8585632653203
 20
397.08932645043529
 30
0.0
  0
VERTEX
  5
2CF9
  8
AM_VIS
 10
660.0681337173969
 20
397.3101676276799
 30
0.0
  0
VERTEX
  5
2CFA
  8
AM_VIS
 10
660.36139349577093
 20
397.6191989536747
 30
0.0
  0
VERTEX
  5
2CFB
  8
AM_VIS
 10
660.77192175647781
 20
398.05180547567369
 30
0.0
  0
VERTEX
  5
2CFC
  8
AM_VIS
 10
660.85603189349422
 20
398.14043906639631
 30
0.0
  0
SEQEND
  5
2CFD
  8
AM_VIS
  0
POLYLINE
  5
1253
  8
L6
 66
     1
 10
0.0
 20
0.0
 30
0.0
  0
VERTEX
  5
2CFE
  8
L6
 10
917.78082728149548
 20
454.29520031470599
 30
0.0
  0
VERTEX
  5
2CFF
  8
L6
 10
917.78082728149548
 20
591.98970509764547
 30
0.0
  0
SEQEND
  5
2D00
  8
L6
  0
LINE
  5
1254
  8
AM_VIS
 10
917.78082728149548
 20
573.26860772816713
 30
0.0
 11
838.55227259818105
 21
573.25993596702301
 31
0.0
  0
LINE
  5
1255
  8
AM_VIS
 10
836.03580443274279
 20
570.87189684475595
 30
0.0
 11
917.78082728149548
 21
570.87189684475595
 31
0.0
  0
POLYLINE
  5
1256
  8
AM_VIS
 66
     1
 10
0.0
 20
0.0
 30
0.0
  0
VERTEX
  5
2D01
  8
AM_VIS
 10
829.10997472001475
 20
497.98430851503991
 30
0.0
  0
VERTEX
  5
2D02
  8
AM_VIS
 10
841.48557108267426
 20
497.98430851503991
 30
0.0
  0
VERTEX
  5
2D03
  8
AM_VIS
 10
857.99555822192553
 20
497.98430851503991
 30
0.0
  0
VERTEX
  5
2D04
  8
AM_VIS
 10
874.50557521642395
 20
497.98430851503991
 30
0.0
  0
VERTEX
  5
2D05
  8
AM_VIS
 10
891.01693614966359
 20
497.98430851503991
 30
0.0
  0
VERTEX
  5
2D06
  8
AM_VIS
 10
907.52769140265946
 20
497.98430851503991
 30
0.0
  0
VERTEX
  5
2D07
  8
AM_VIS
 10
917.78082728149548
 20
497.98430851503991
 30
0.0
  0
SEQEND
  5
2D08
  8
AM_VIS
  0
LINE
  5
1257
  8
AM_VIS
 10
829.83082728149805
 20
470.34985202932791
 30
0.0
 11
917.78082728149548
 21
470.34985202932791
 31
0.0
  0
POLYLINE
  5
1258
  8
AM_VIS
 66
     1
 10
0.0
 20
0.0
 30
0.0
  0
VERTEX
  5
2D09
  8
AM_VIS
 10
849.85621321666076
 20
471.66860772816699
 30
0.0
  0
VERTEX
  5
2D0A
  8
AM_VIS
 10
859.40685138135234
 20
471.66860772816699
 30
0.0
  0
VERTEX
  5
2D0B
  8
AM_VIS
 10
876.10448610109506
 20
471.66860772816699
 30
0.0
  0
VERTEX
  5
2D0C
  8
AM_VIS
 10
892.80240451217549
 20
471.66860772816699
 30
0.0
  0
VERTEX
  5
2D0D
  8
AM_VIS
 10
908.45551173779154
 20
471.66860772816699
 30
0.0
  0
VERTEX
  5
2D0E
  8
AM_VIS
 10
917.78082728149548
 20
471.66860772816699
 30
0.0
  0
SEQEND
  5
2D0F
  8
AM_VIS
  0
POLYLINE
  5
1259
  8
AM_VIS
 66
     1
 10
0.0
 20
0.0
 30
0.0
  0
VERTEX
  5
2D10
  8
AM_VIS
 10
917.78082728149548
 20
472.51047649316138
 30
0.0
  0
VERTEX
  5
2D11
  8
AM_VIS
 10
908.45551173779154
 20
472.51047649316138
 30
0.0
  0
VERTEX
  5
2D12
  8
AM_VIS
 10
892.80240451217549
 20
472.51047649316138
 30
0.0
  0
VERTEX
  5
2D13
  8
AM_VIS
 10
876.10448610109506
 20
472.51047649316138
 30
0.0
  0
VERTEX
  5
2D14
  8
AM_VIS
 10
859.40685138135234
 20
472.51047649316138
 30
0.0
  0
VERTEX
  5
2D15
  8
AM_VIS
 10
842.7162467036552
 20
472.51047649316138
 30
0.0
  0
VERTEX
  5
2D16
  8
AM_VIS
 10
827.77494775391915
 20
472.51047649316138
 30
0.0
  0
SEQEND
  5
2D17
  8
AM_VIS
  0
POLYLINE
  5
125A
  8
AM_VIS
 66
     1
 10
0.0
 20
0.0
 30
0.0
  0
VERTEX
  5
2D18
  8
AM_VIS
 10
917.78082728149548
 20
498.26860772816713
 30
0.0
  0
VERTEX
  5
2D19
  8
AM_VIS
 10
907.52769140265946
 20
498.26860772816713
 30
0.0
  0
VERTEX
  5
2D1A
  8
AM_VIS
 10
891.01693614966359
 20
498.26860772816713
 30
0.0
  0
VERTEX
  5
2D1B
  8
AM_VIS
 10
874.50557521642395
 20
498.26860772816713
 30
0.0
  0
VERTEX
  5
2D1C
  8
AM_VIS
 10
857.99555822192553
 20
498.26860772816713
 30
0.0
  0
VERTEX
  5
2D1D
  8
AM_VIS
 10
841.48557108267426
 20
498.26860772816713
 30
0.0
  0
VERTEX
  5
2D1E
  8
AM_VIS
 10
829.4095635804415
 20
498.26860772816713
 30
0.0
  0
SEQEND
  5
2D1F
  8
AM_VIS
  0
LINE
  5
125B
  8
AM_VIS
 10
1005.730827281492
 20
470.34985202932779
 30
0.0
 11
917.78082728149548
 21
470.34985202932791
 31
0.0
  0
POLYLINE
  5
125C
  8
AM_VIS
 66
     1
 10
0.0
 20
0.0
 30
0.0
  0
VERTEX
  5
2D20
  8
AM_VIS
 10
1006.451679842975
 20
497.98430851503991
 30
0.0
  0
VERTEX
  5
2D21
  8
AM_VIS
 10
994.07608348031692
 20
497.98430851503991
 30
0.0
  0
VERTEX
  5
2D22
  8
AM_VIS
 10
977.56609634106564
 20
497.98430851503991
 30
0.0
  0
VERTEX
  5
2D23
  8
AM_VIS
 10
961.05607934656689
 20
497.98430851503991
 30
0.0
  0
VERTEX
  5
2D24
  8
AM_VIS
 10
944.54471841332747
 20
497.98430851503991
 30
0.0
  0
VERTEX
  5
2D25
  8
AM_VIS
 10
928.03396316033161
 20
497.98430851503991
 30
0.0
  0
VERTEX
  5
2D26
  8
AM_VIS
 10
917.78082728149548
 20
497.98430851503991
 30
0.0
  0
SEQEND
  5
2D27
  8
AM_VIS
  0
LINE
  5
125D
  8
AM_VIS
 10
917.7808272814957
 20
573.26860772816713
 30
0.0
 11
997.00024383526465
 21
573.26860772816713
 31
0.0
  0
LINE
  5
125E
  8
AM_VIS
 10
999.52585013024782
 20
570.87189684475595
 30
0.0
 11
917.78082728149548
 21
570.87189684475595
 31
0.0
  0
POLYLINE
  5
125F
  8
AM_VIS
 66
     1
 10
0.0
 20
0.0
 30
0.0
  0
VERTEX
  5
2D28
  8
AM_VIS
 10
917.78082728149548
 20
472.51047649316138
 30
0.0
  0
VERTEX
  5
2D29
  8
AM_VIS
 10
927.10614282519953
 20
472.51047649316138
 30
0.0
  0
VERTEX
  5
2D2A
  8
AM_VIS
 10
942.75925005081524
 20
472.51047649316138
 30
0.0
  0
VERTEX
  5
2D2B
  8
AM_VIS
 10
959.45716846189589
 20
472.51047649316138
 30
0.0
  0
VERTEX
  5
2D2C
  8
AM_VIS
 10
976.15480318163873
 20
472.51047649316138
 30
0.0
  0
VERTEX
  5
2D2D
  8
AM_VIS
 10
992.84540785933586
 20
472.51047649316138
 30
0.0
  0
VERTEX
  5
2D2E
  8
AM_VIS
 10
1007.786706809071
 20
472.51047649316132
 30
0.0
  0
SEQEND
  5
2D2F
  8
AM_VIS
  0
POLYLINE
  5
1260
  8
AM_VIS
 66
     1
 10
0.0
 20
0.0
 30
0.0
  0
VERTEX
  5
2D30
  8
AM_VIS
 10
985.75200427339314
 20
471.66860772816699
 30
0.0
  0
VERTEX
  5
2D31
  8
AM_VIS
 10
976.15480318163873
 20
471.66860772816699
 30
0.0
  0
VERTEX
  5
2D32
  8
AM_VIS
 10
959.45716846189589
 20
471.66860772816699
 30
0.0
  0
VERTEX
  5
2D33
  8
AM_VIS
 10
942.75925005081524
 20
471.66860772816699
 30
0.0
  0
VERTEX
  5
2D34
  8
AM_VIS
 10
927.10614282519953
 20
471.66860772816699
 30
0.0
  0
VERTEX
  5
2D35
  8
AM_VIS
 10
917.78082728149548
 20
471.66860772816699
 30
0.0
  0
SEQEND
  5
2D36
  8
AM_VIS
  0
POLYLINE
  5
1261
  8
AM_VIS
 66
     1
 10
0.0
 20
0.0
 30
0.0
  0
VERTEX
  5
2D37
  8
AM_VIS
 10
917.78082728149548
 20
498.26860772816713
 30
0.0
  0
VERTEX
  5
2D38
  8
AM_VIS
 10
928.03396316033161
 20
498.26860772816713
 30
0.0
  0
VERTEX
  5
2D39
  8
AM_VIS
 10
944.54471841332747
 20
498.26860772816713
 30
0.0
  0
VERTEX
  5
2D3A
  8
AM_VIS
 10
961.05607934656689
 20
498.26860772816713
 30
0.0
  0
VERTEX
  5
2D3B
  8
AM_VIS
 10
977.56609634106564
 20
498.26860772816713
 30
0.0
  0
VERTEX
  5
2D3C
  8
AM_VIS
 10
994.07608348031692
 20
498.26860772816713
 30
0.0
  0
VERTEX
  5
2D3D
  8
AM_VIS
 10
1006.152090982549
 20
498.26860772816713
 30
0.0
  0
SEQEND
  5
2D3E
  8
AM_VIS
  0
LINE
  5
1262
  8
AM_VIS
 10
999.52585013024805
 20
570.87189684475595
 30
0.0
 11
1003.315927791081
 21
498.55290694128689
 31
0.0
  0
LINE
  5
1263
  8
AM_VIS
 10
987.92184288412705
 20
570.94835965572327
 30
0.0
 11
991.71592779108084
 21
498.552906941294
 31
0.0
  0
LINE
  5
1264
  8
AM_VIS
 10
1006.451679842975
 20
497.98430851505248
 30
0.0
 11
1007.786706809071
 21
472.51047649316132
 31
0.0
  0
POLYLINE
  5
1265
  8
AM_VIS
 66
     1
 10
0.0
 20
0.0
 30
0.0
  0
VERTEX
  5
2D3F
  8
AM_VIS
 10
1007.287803181267
 20
471.98474176575121
 30
0.0
  0
VERTEX
  5
2D40
  8
AM_VIS
 10
986.50314292961639
 20
471.98474176575132
 30
0.0
  0
SEQEND
  5
2D41
  8
AM_VIS
  0
POLYLINE
  5
1266
  8
AM_VIS
 66
     1
 10
0.0
 20
0.0
 30
0.0
  0
VERTEX
  5
2D42
  8
AM_VIS
 10
1007.287803181267
 20
471.16860772816699
 30
0.0
  0
VERTEX
  5
2D43
  8
AM_VIS
 10
986.50314292961639
 20
471.1686077281671
 30
0.0
  0
SEQEND
  5
2D44
  8
AM_VIS
  0
POLYLINE
  5
1268
  8
AM_VIS
 66
     1
 10
0.0
 20
0.0
 30
0.0
  0
VERTEX
  5
2D45
  8
AM_VIS
 10
1007.287803181267
 20
471.98474176575121
 30
0.0
  0
VERTEX
  5
2D46
  8
AM_VIS
 10
1007.287803181267
 20
471.16860772816699
 30
0.0
  0
SEQEND
  5
2D47
  8
AM_VIS
  0
LINE
  5
1269
  8
AM_VIS
 10
1006.142663791138
 20
471.16860772816699
 30
0.0
 11
1006.044740365026
 21
470.61325638194262
 31
0.0
  0
ARC
  5
126A
  8
AM_VIS
 10
1005.730827281492
 20
470.66860772816699
 30
0.0
 40
0.3187556988391739
 50
270.0
 51
350.00000000000131
  0
POLYLINE
  5
126B
  8
AM_VIS
 66
     1
 10
0.0
 20
0.0
 30
0.0
  0
VERTEX
  5
2D48
  8
AM_VIS
 10
1007.786706809071
 20
472.51047649316132
 30
0.0
  0
VERTEX
  5
2D49
  8
AM_VIS
 10
1007.287803181267
 20
471.98474176575121
 30
0.0
  0
SEQEND
  5
2D4A
  8
AM_VIS
  0
POLYLINE
  5
126D
  8
AM_VIS
 66
     1
 10
0.0
 20
0.0
 30
0.0
  0
VERTEX
  5
2D4B
  8
AM_VIS
 10
1006.45164142045
 20
497.9843781099957
 30
0.0
  0
VERTEX
  5
2D4C
  8
AM_VIS
 10
1006.301876075499
 20
498.12647565517972
 30
0.0
  0
VERTEX
  5
2D4D
  8
AM_VIS
 10
1006.152090982549
 20
498.26860772816713
 30
0.0
  0
SEQEND
  5
2D4E
  8
AM_VIS
  0
POLYLINE
  5
126E
  8
AM_VIS
 66
     1
 10
0.0
 20
0.0
 30
0.0
  0
VERTEX
  5
2D4F
  8
AM_VIS
 10
986.01099505186914
 20
572.72030323685885
 30
0.0
  0
VERTEX
  5
2D50
  8
AM_VIS
 10
987.12814583974148
 20
571.68325403052859
 30
0.0
  0
VERTEX
  5
2D51
  8
AM_VIS
 10
987.90230124778918
 20
570.96729450577709
 30
0.0
  0
SEQEND
  5
2D52
  8
AM_VIS
  0
POLYLINE
  5
126F
  8
AM_VIS
 66
     1
 10
0.0
 20
0.0
 30
0.0
  0
VERTEX
  5
2D53
  8
AM_VIS
 10
997.00024383526465
 20
573.26860772816713
 30
0.0
  0
VERTEX
  5
2D54
  8
AM_VIS
 10
997.01370767020921
 20
573.25583102587279
 30
0.0
  0
VERTEX
  5
2D55
  8
AM_VIS
 10
997.5193025294368
 20
572.77603941935263
 30
0.0
  0
VERTEX
  5
2D56
  8
AM_VIS
 10
997.96163741037378
 20
572.3562792907212
 30
0.0
  0
VERTEX
  5
2D57
  8
AM_VIS
 10
998.27741183747332
 20
572.05662054832897
 30
0.0
  0
VERTEX
  5
2D58
  8
AM_VIS
 10
998.43522094667435
 20
571.90686529539244
 30
0.0
  0
VERTEX
  5
2D59
  8
AM_VIS
 10
998.65606212391901
 20
571.69729484331583
 30
0.0
  0
VERTEX
  5
2D5A
  8
AM_VIS
 10
998.96509344991364
 20
571.40403506494181
 30
0.0
  0
VERTEX
  5
2D5B
  8
AM_VIS
 10
999.39769997191274
 20
570.99350680423493
 30
0.0
  0
VERTEX
  5
2D5C
  8
AM_VIS
 10
999.48633356263531
 20
570.90939666721852
 30
0.0
  0
SEQEND
  5
2D5D
  8
AM_VIS
  0
LINE
  5
1270
  8
AM_VIS
 10
847.63981167886345
 20
570.94835965572327
 30
0.0
 11
843.84572677190977
 21
498.55290694129411
 31
0.0
  0
LINE
  5
1271
  8
AM_VIS
 10
836.03580443274279
 20
570.87189684475595
 30
0.0
 11
832.2457267719094
 21
498.55290694128689
 31
0.0
  0
LINE
  5
1272
  8
AM_VIS
 10
829.10997472001554
 20
497.98430851505259
 30
0.0
 11
827.77494775391915
 21
472.51047649316138
 31
0.0
  0
POLYLINE
  5
1273
  8
AM_VIS
 66
     1
 10
0.0
 20
0.0
 30
0.0
  0
VERTEX
  5
2D5E
  8
AM_VIS
 10
828.27385138172303
 20
471.1686077281671
 30
0.0
  0
VERTEX
  5
2D5F
  8
AM_VIS
 10
849.05851163337434
 20
471.1686077281671
 30
0.0
  0
SEQEND
  5
2D60
  8
AM_VIS
  0
POLYLINE
  5
1274
  8
AM_VIS
 66
     1
 10
0.0
 20
0.0
 30
0.0
  0
VERTEX
  5
2D61
  8
AM_VIS
 10
828.27385138172303
 20
471.98474176575132
 30
0.0
  0
VERTEX
  5
2D62
  8
AM_VIS
 10
849.05851163337434
 20
471.98474176575132
 30
0.0
  0
SEQEND
  5
2D63
  8
AM_VIS
  0
POLYLINE
  5
1276
  8
AM_VIS
 66
     1
 10
0.0
 20
0.0
 30
0.0
  0
VERTEX
  5
2D64
  8
AM_VIS
 10
828.27385138172303
 20
471.98474176575132
 30
0.0
  0
VERTEX
  5
2D65
  8
AM_VIS
 10
828.27385138172303
 20
471.1686077281671
 30
0.0
  0
SEQEND
  5
2D66
  8
AM_VIS
  0
ARC
  5
1277
  8
AM_VIS
 10
829.83082728149827
 20
470.6686077281671
 30
0.0
 40
0.3187556988391739
 50
189.99999999999869
 51
270.0
  0
LINE
  5
1278
  8
AM_VIS
 10
829.41899077185235
 20
471.1686077281671
 30
0.0
 11
829.51691419796452
 21
470.61325638194268
 31
0.0
  0
POLYLINE
  5
1279
  8
AM_VIS
 66
     1
 10
0.0
 20
0.0
 30
0.0
  0
VERTEX
  5
2D67
  8
AM_VIS
 10
827.77494775391926
 20
472.51047649316138
 30
0.0
  0
VERTEX
  5
2D68
  8
AM_VIS
 10
828.27385138172303
 20
471.98474176575132
 30
0.0
  0
SEQEND
  5
2D69
  8
AM_VIS
  0
POLYLINE
  5
127A
  8
AM_VIS
 66
     1
 10
0.0
 20
0.0
 30
0.0
  0
VERTEX
  5
2D6A
  8
AM_VIS
 10
832.60517809165594
 20
498.26860772816713
 30
0.0
  0
VERTEX
  5
2D6B
  8
AM_VIS
 10
832.18272521358313
 20
498.26860772816713
 30
0.0
  0
VERTEX
  5
2D6C
  8
AM_VIS
 10
831.83748132280698
 20
498.26860772816713
 30
0.0
  0
VERTEX
  5
2D6D
  8
AM_VIS
 10
831.51407059580515
 20
498.26860772816713
 30
0.0
  0
VERTEX
  5
2D6E
  8
AM_VIS
 10
830.9000865526815
 20
498.26860772816713
 30
0.0
  0
VERTEX
  5
2D6F
  8
AM_VIS
 10
830.35784480485063
 20
498.26860772816713
 30
0.0
  0
VERTEX
  5
2D70
  8
AM_VIS
 10
829.9212957815754
 20
498.26860772816713
 30
0.0
  0
VERTEX
  5
2D71
  8
AM_VIS
 10
829.61344541456788
 20
498.26860772816713
 30
0.0
  0
VERTEX
  5
2D72
  8
AM_VIS
 10
829.51171208131268
 20
498.26860772816713
 30
0.0
  0
VERTEX
  5
2D73
  8
AM_VIS
 10
829.44269192436354
 20
498.26860772816713
 30
0.0
  0
VERTEX
  5
2D74
  8
AM_VIS
 10
829.40956358044116
 20
498.26860772816713
 30
0.0
  0
SEQEND
  5
2D75
  8
AM_VIS
  0
POLYLINE
  5
127B
  8
AM_VIS
 66
     1
 10
0.0
 20
0.0
 30
0.0
  0
VERTEX
  5
2D76
  8
AM_VIS
 10
829.11001314253997
 20
497.98437810999582
 30
0.0
  0
VERTEX
  5
2D77
  8
AM_VIS
 10
829.25977848749096
 20
498.12647565517972
 30
0.0
  0
VERTEX
  5
2D78
  8
AM_VIS
 10
829.4095635804415
 20
498.26860772816713
 30
0.0
  0
SEQEND
  5
2D79
  8
AM_VIS
  0
POLYLINE
  5
127C
  8
AM_VIS
 66
     1
 10
0.0
 20
0.0
 30
0.0
  0
VERTEX
  5
2D7A
  8
AM_VIS
 10
850.13455062411936
 20
573.26860772816713
 30
0.0
  0
VERTEX
  5
2D7B
  8
AM_VIS
 10
850.01399043317394
 20
573.26860772816713
 30
0.0
  0
VERTEX
  5
2D7C
  8
AM_VIS
 10
849.63940701734828
 20
573.26860772816713
 30
0.0
  0
VERTEX
  5
2D7D
  8
AM_VIS
 10
849.03672900787467
 20
573.26860772816713
 30
0.0
  0
VERTEX
  5
2D7E
  8
AM_VIS
 10
848.34255704759562
 20
573.26860772816713
 30
0.0
  0
VERTEX
  5
2D7F
  8
AM_VIS
 10
847.14605556291849
 20
573.26860772816713
 30
0.0
  0
VERTEX
  5
2D80
  8
AM_VIS
 10
846.10711255340652
 20
573.26860772816713
 30
0.0
  0
VERTEX
  5
2D81
  8
AM_VIS
 10
845.48013923322549
 20
573.26860772816713
 30
0.0
  0
VERTEX
  5
2D82
  8
AM_VIS
 10
843.41197956901112
 20
573.26860772816713
 30
0.0
  0
VERTEX
  5
2D83
  8
AM_VIS
 10
840.19604722597444
 20
573.26860772816713
 30
0.0
  0
SEQEND
  5
2D84
  8
AM_VIS
  0
POLYLINE
  5
127D
  8
AM_VIS
 66
     1
 10
0.0
 20
0.0
 30
0.0
  0
VERTEX
  5
2D85
  8
AM_VIS
 10
849.55065951112135
 20
572.72030323685885
 30
0.0
  0
VERTEX
  5
2D86
  8
AM_VIS
 10
848.43350872324925
 20
571.68325403052859
 30
0.0
  0
VERTEX
  5
2D87
  8
AM_VIS
 10
847.6593533152012
 20
570.96729450577709
 30
0.0
  0
SEQEND
  5
2D88
  8
AM_VIS
  0
POLYLINE
  5
127E
  8
AM_VIS
 66
     1
 10
0.0
 20
0.0
 30
0.0
  0
VERTEX
  5
2D89
  8
AM_VIS
 10
838.56141072772607
 20
573.26860772816713
 30
0.0
  0
VERTEX
  5
2D8A
  8
AM_VIS
 10
838.54794689278151
 20
573.25583102587279
 30
0.0
  0
VERTEX
  5
2D8B
  8
AM_VIS
 10
838.04235203355381
 20
572.77603941935263
 30
0.0
  0
VERTEX
  5
2D8C
  8
AM_VIS
 10
837.60001715261683
 20
572.3562792907212
 30
0.0
  0
VERTEX
  5
2D8D
  8
AM_VIS
 10
837.28424272551729
 20
572.05662054832897
 30
0.0
  0
VERTEX
  5
2D8E
  8
AM_VIS
 10
837.12643361631626
 20
571.90686529539244
 30
0.0
  0
VERTEX
  5
2D8F
  8
AM_VIS
 10
836.90559243907182
 20
571.69729484331583
 30
0.0
  0
VERTEX
  5
2D90
  8
AM_VIS
 10
836.59656111307675
 20
571.40403506494181
 30
0.0
  0
VERTEX
  5
2D91
  8
AM_VIS
 10
836.16395459107787
 20
570.99350680423493
 30
0.0
  0
VERTEX
  5
2D92
  8
AM_VIS
 10
836.07532100035542
 20
570.90939666721852
 30
0.0
  0
SEQEND
  5
2D93
  8
AM_VIS
  0
POLYLINE
  5
1282
  8
AM_VIS
 66
     1
 10
0.0
 20
0.0
 30
0.0
  0
VERTEX
  5
2D94
  8
AM_VIS
 10
849.85621321666065
 20
86.201257842340397
 30
0.0
  0
VERTEX
  5
2D95
  8
AM_VIS
 10
859.40685138135234
 20
86.201257842340397
 30
0.0
  0
VERTEX
  5
2D96
  8
AM_VIS
 10
876.10448610109506
 20
86.201257842340397
 30
0.0
  0
VERTEX
  5
2D97
  8
AM_VIS
 10
892.80240451217549
 20
86.201257842340397
 30
0.0
  0
VERTEX
  5
2D98
  8
AM_VIS
 10
908.45551173779154
 20
86.201257842340397
 30
0.0
  0
VERTEX
  5
2D99
  8
AM_VIS
 10
917.78082728149525
 20
86.201257842340397
 30
0.0
  0
SEQEND
  5
2D9A
  8
AM_VIS
  0
POLYLINE
  5
1283
  8
AM_VIS
 66
     1
 10
0.0
 20
0.0
 30
0.0
  0
VERTEX
  5
2D9B
  8
AM_VIS
 10
917.78082728149525
 20
85.359389077346123
 30
0.0
  0
VERTEX
  5
2D9C
  8
AM_VIS
 10
908.45551173779154
 20
85.359389077346123
 30
0.0
  0
VERTEX
  5
2D9D
  8
AM_VIS
 10
892.80240451217549
 20
85.359389077346123
 30
0.0
  0
VERTEX
  5
2D9E
  8
AM_VIS
 10
876.10448610109506
 20
85.359389077346123
 30
0.0
  0
VERTEX
  5
2D9F
  8
AM_VIS
 10
859.40685138135234
 20
85.359389077346123
 30
0.0
  0
VERTEX
  5
2DA0
  8
AM_VIS
 10
842.71624670365497
 20
85.359389077346123
 30
0.0
  0
VERTEX
  5
2DA1
  8
AM_VIS
 10
827.77494775391904
 20
85.359389077346123
 30
0.0
  0
SEQEND
  5
2DA2
  8
AM_VIS
  0
LINE
  5
1284
  8
AM_VIS
 10
829.83082728149793
 20
87.520013541179537
 30
0.0
 11
917.78082728149525
 21
87.520013541179537
 31
0.0
  0
POLYLINE
  5
1286
  8
AM_VIS
 66
     1
 10
0.0
 20
0.0
 30
0.0
  0
VERTEX
  5
2DA3
  8
AM_VIS
 10
917.78082728149525
 20
59.601257842340367
 30
0.0
  0
VERTEX
  5
2DA4
  8
AM_VIS
 10
907.52769140265934
 20
59.601257842340367
 30
0.0
  0
VERTEX
  5
2DA5
  8
AM_VIS
 10
891.01693614966348
 20
59.601257842340367
 30
0.0
  0
VERTEX
  5
2DA6
  8
AM_VIS
 10
874.50557521642395
 20
59.601257842340367
 30
0.0
  0
VERTEX
  5
2DA7
  8
AM_VIS
 10
857.99555822192542
 20
59.601257842340367
 30
0.0
  0
VERTEX
  5
2DA8
  8
AM_VIS
 10
841.48557108267403
 20
59.601257842340367
 30
0.0
  0
VERTEX
  5
2DA9
  8
AM_VIS
 10
829.40956358044139
 20
59.601257842340367
 30
0.0
  0
SEQEND
  5
2DAA
  8
AM_VIS
  0
LINE
  5
1287
  8
AM_VIS
 10
917.78082728149548
 20
-15.398742157659621
 30
0.0
 11
838.55227259818093
 21
-15.39007039651551
 31
0.0
  0
POLYLINE
  5
1289
  8
L6
 66
     1
 10
0.0
 20
0.0
 30
0.0
  0
VERTEX
  5
2DAB
  8
L6
 10
917.78082728149548
 20
103.57466525580131
 30
0.0
  0
VERTEX
  5
2DAC
  8
L6
 10
917.78082728149548
 20
-34.119839527138083
 30
0.0
  0
SEQEND
  5
2DAD
  8
L6
  0
LINE
  5
128A
  8
AM_VIS
 10
999.52585013024782
 20
-13.00203127424856
 30
0.0
 11
1003.315927791081
 21
59.316958629220437
 31
0.0
  0
LINE
  5
128D
  8
AM_VIS
 10
917.78082728149548
 20
-15.398742157659621
 30
0.0
 11
997.00024383526465
 21
-15.398742157659621
 31
0.0
  0
POLYLINE
  5
128E
  8
AM_VIS
 66
     1
 10
0.0
 20
0.0
 30
0.0
  0
VERTEX
  5
2DAE
  8
AM_VIS
 10
997.00024383526465
 20
-15.398742157659621
 30
0.0
  0
VERTEX
  5
2DAF
  8
AM_VIS
 10
997.0137076702091
 20
-15.385965455365289
 30
0.0
  0
VERTEX
  5
2DB0
  8
AM_VIS
 10
997.51930252943657
 20
-14.90617384884513
 30
0.0
  0
VERTEX
  5
2DB1
  8
AM_VIS
 10
997.96163741037356
 20
-14.486413720213701
 30
0.0
  0
VERTEX
  5
2DB2
  8
AM_VIS
 10
998.27741183747332
 20
-14.186754977821581
 30
0.0
  0
VERTEX
  5
2DB3
  8
AM_VIS
 10
998.43522094667424
 20
-14.036999724884931
 30
0.0
  0
VERTEX
  5
2DB4
  8
AM_VIS
 10
998.65606212391879
 20
-13.827429272808329
 30
0.0
  0
VERTEX
  5
2DB5
  8
AM_VIS
 10
998.96509344991364
 20
-13.5341694944343
 30
0.0
  0
VERTEX
  5
2DB6
  8
AM_VIS
 10
999.39769997191274
 20
-13.123641233727421
 30
0.0
  0
VERTEX
  5
2DB7
  8
AM_VIS
 10
999.48633356263531
 20
-13.039531096711009
 30
0.0
  0
SEQEND
  5
2DB8
  8
AM_VIS
  0
LINE
  5
1290
  8
AM_VIS
 10
1005.730827281492
 20
87.520013541179594
 30
0.0
 11
917.78082728149525
 21
87.520013541179537
 31
0.0
  0
POLYLINE
  5
1291
  8
AM_VIS
 66
     1
 10
0.0
 20
0.0
 30
0.0
  0
VERTEX
  5
2DB9
  8
AM_VIS
 10
985.75200427339314
 20
86.201257842340326
 30
0.0
  0
VERTEX
  5
2DBA
  8
AM_VIS
 10
976.15480318163873
 20
86.201257842340326
 30
0.0
  0
VERTEX
  5
2DBB
  8
AM_VIS
 10
959.45716846189566
 20
86.201257842340326
 30
0.0
  0
VERTEX
  5
2DBC
  8
AM_VIS
 10
942.75925005081524
 20
86.201257842340326
 30
0.0
  0
VERTEX
  5
2DBD
  8
AM_VIS
 10
927.1061428251993
 20
86.201257842340397
 30
0.0
  0
VERTEX
  5
2DBE
  8
AM_VIS
 10
917.78082728149525
 20
86.201257842340397
 30
0.0
  0
SEQEND
  5
2DBF
  8
AM_VIS
  0
POLYLINE
  5
1292
  8
AM_VIS
 66
     1
 10
0.0
 20
0.0
 30
0.0
  0
VERTEX
  5
2DC0
  8
AM_VIS
 10
917.78082728149525
 20
85.359389077346123
 30
0.0
  0
VERTEX
  5
2DC1
  8
AM_VIS
 10
927.1061428251993
 20
85.359389077346123
 30
0.0
  0
VERTEX
  5
2DC2
  8
AM_VIS
 10
942.75925005081524
 20
85.359389077346066
 30
0.0
  0
VERTEX
  5
2DC3
  8
AM_VIS
 10
959.45716846189566
 20
85.359389077346066
 30
0.0
  0
VERTEX
  5
2DC4
  8
AM_VIS
 10
976.15480318163873
 20
85.359389077346066
 30
0.0
  0
VERTEX
  5
2DC5
  8
AM_VIS
 10
992.84540785933586
 20
85.359389077346066
 30
0.0
  0
VERTEX
  5
2DC6
  8
AM_VIS
 10
1007.786706809071
 20
85.359389077346066
 30
0.0
  0
SEQEND
  5
2DC7
  8
AM_VIS
  0
POLYLINE
  5
1294
  8
AM_VIS
 66
     1
 10
0.0
 20
0.0
 30
0.0
  0
VERTEX
  5
2DC8
  8
AM_VIS
 10
917.78082728149548
 20
59.601257842340367
 30
0.0
  0
VERTEX
  5
2DC9
  8
AM_VIS
 10
928.0339631603315
 20
59.601257842340367
 30
0.0
  0
VERTEX
  5
2DCA
  8
AM_VIS
 10
944.54471841332747
 20
59.601257842340317
 30
0.0
  0
VERTEX
  5
2DCB
  8
AM_VIS
 10
961.05607934656689
 20
59.601257842340317
 30
0.0
  0
VERTEX
  5
2DCC
  8
AM_VIS
 10
977.56609634106542
 20
59.601257842340317
 30
0.0
  0
VERTEX
  5
2DCD
  8
AM_VIS
 10
994.0760834803167
 20
59.601257842340317
 30
0.0
  0
VERTEX
  5
2DCE
  8
AM_VIS
 10
1006.152090982549
 20
59.601257842340317
 30
0.0
  0
SEQEND
  5
2DCF
  8
AM_VIS
  0
POLYLINE
  5
1295
  8
AM_VIS
 66
     1
 10
0.0
 20
0.0
 30
0.0
  0
VERTEX
  5
2DD0
  8
AM_VIS
 10
1007.287803181267
 20
85.885123804756105
 30
0.0
  0
VERTEX
  5
2DD1
  8
AM_VIS
 10
986.50314292961639
 20
85.885123804756105
 30
0.0
  0
SEQEND
  5
2DD2
  8
AM_VIS
  0
POLYLINE
  5
1296
  8
AM_VIS
 66
     1
 10
0.0
 20
0.0
 30
0.0
  0
VERTEX
  5
2DD3
  8
AM_VIS
 10
1007.287803181267
 20
86.70125784234034
 30
0.0
  0
VERTEX
  5
2DD4
  8
AM_VIS
 10
986.50314292961639
 20
86.70125784234034
 30
0.0
  0
SEQEND
  5
2DD5
  8
AM_VIS
  0
LINE
  5
1297
  8
AM_VIS
 10
1006.451679842975
 20
59.885557055454854
 30
0.0
 11
1007.786706809071
 21
85.359389077346066
 31
0.0
  0
POLYLINE
  5
1298
  8
AM_VIS
 66
     1
 10
0.0
 20
0.0
 30
0.0
  0
VERTEX
  5
2DD6
  8
AM_VIS
 10
1006.45164142045
 20
59.88548746051157
 30
0.0
  0
VERTEX
  5
2DD7
  8
AM_VIS
 10
1006.301876075499
 20
59.743389915327668
 30
0.0
  0
VERTEX
  5
2DD8
  8
AM_VIS
 10
1006.152090982549
 20
59.601257842340317
 30
0.0
  0
SEQEND
  5
2DD9
  8
AM_VIS
  0
ARC
  5
1299
  8
AM_VIS
 10
1005.730827281492
 20
87.201257842340453
 30
0.0
 40
0.3187556988391739
 50
9.9999999999986855
 51
90.0
  0
LINE
  5
129A
  8
AM_VIS
 10
1006.142663791138
 20
86.70125784234034
 30
0.0
 11
1006.044740365026
 21
87.25660918856471
 31
0.0
  0
POLYLINE
  5
129B
  8
AM_VIS
 66
     1
 10
0.0
 20
0.0
 30
0.0
  0
VERTEX
  5
2DDA
  8
AM_VIS
 10
1007.786706809071
 20
85.359389077346066
 30
0.0
  0
VERTEX
  5
2DDB
  8
AM_VIS
 10
1007.287803181267
 20
85.885123804756105
 30
0.0
  0
SEQEND
  5
2DDC
  8
AM_VIS
  0
POLYLINE
  5
129C
  8
AM_VIS
 66
     1
 10
0.0
 20
0.0
 30
0.0
  0
VERTEX
  5
2DDD
  8
AM_VIS
 10
1007.287803181267
 20
85.885123804756105
 30
0.0
  0
VERTEX
  5
2DDE
  8
AM_VIS
 10
1007.287803181267
 20
86.70125784234034
 30
0.0
  0
SEQEND
  5
2DDF
  8
AM_VIS
  0
LINE
  5
129D
  8
AM_VIS
 10
836.03580443274279
 20
-13.00203127424856
 30
0.0
 11
832.24572677190929
 21
59.316958629220487
 31
0.0
  0
POLYLINE
  5
129F
  8
AM_VIS
 66
     1
 10
0.0
 20
0.0
 30
0.0
  0
VERTEX
  5
2DE0
  8
AM_VIS
 10
838.56141072772596
 20
-15.398742157659621
 30
0.0
  0
VERTEX
  5
2DE1
  8
AM_VIS
 10
838.5479468927814
 20
-15.385965455365289
 30
0.0
  0
VERTEX
  5
2DE2
  8
AM_VIS
 10
838.04235203355381
 20
-14.90617384884513
 30
0.0
  0
VERTEX
  5
2DE3
  8
AM_VIS
 10
837.6000171526166
 20
-14.486413720213701
 30
0.0
  0
VERTEX
  5
2DE4
  8
AM_VIS
 10
837.28424272551717
 20
-14.186754977821581
 30
0.0
  0
VERTEX
  5
2DE5
  8
AM_VIS
 10
837.12643361631615
 20
-14.036999724884931
 30
0.0
  0
VERTEX
  5
2DE6
  8
AM_VIS
 10
836.90559243907182
 20
-13.827429272808329
 30
0.0
  0
VERTEX
  5
2DE7
  8
AM_VIS
 10
836.59656111307675
 20
-13.5341694944343
 30
0.0
  0
VERTEX
  5
2DE8
  8
AM_VIS
 10
836.16395459107775
 20
-13.123641233727421
 30
0.0
  0
VERTEX
  5
2DE9
  8
AM_VIS
 10
836.0753210003553
 20
-13.039531096711009
 30
0.0
  0
SEQEND
  5
2DEA
  8
AM_VIS
  0
POLYLINE
  5
12A1
  8
AM_VIS
 66
     1
 10
0.0
 20
0.0
 30
0.0
  0
VERTEX
  5
2DEB
  8
AM_VIS
 10
850.13455062411913
 20
-15.398742157659621
 30
0.0
  0
VERTEX
  5
2DEC
  8
AM_VIS
 10
850.01399043317394
 20
-15.398742157659621
 30
0.0
  0
VERTEX
  5
2DED
  8
AM_VIS
 10
849.63940701734805
 20
-15.398742157659621
 30
0.0
  0
VERTEX
  5
2DEE
  8
AM_VIS
 10
849.03672900787467
 20
-15.398742157659621
 30
0.0
  0
VERTEX
  5
2DEF
  8
AM_VIS
 10
848.34255704759539
 20
-15.398742157659621
 30
0.0
  0
VERTEX
  5
2DF0
  8
AM_VIS
 10
847.14605556291826
 20
-15.398742157659621
 30
0.0
  0
VERTEX
  5
2DF1
  8
AM_VIS
 10
846.1071125534063
 20
-15.398742157659621
 30
0.0
  0
VERTEX
  5
2DF2
  8
AM_VIS
 10
845.48013923322549
 20
-15.398742157659621
 30
0.0
  0
VERTEX
  5
2DF3
  8
AM_VIS
 10
843.41197956901112
 20
-15.398742157659621
 30
0.0
  0
VERTEX
  5
2DF4
  8
AM_VIS
 10
840.19604722597444
 20
-15.398742157659621
 30
0.0
  0
SEQEND
  5
2DF5
  8
AM_VIS
  0
POLYLINE
  5
12A2
  8
AM_VIS
 66
     1
 10
0.0
 20
0.0
 30
0.0
  0
VERTEX
  5
2DF6
  8
AM_VIS
 10
828.27385138172281
 20
86.701257842340397
 30
0.0
  0
VERTEX
  5
2DF7
  8
AM_VIS
 10
849.05851163337422
 20
86.701257842340397
 30
0.0
  0
SEQEND
  5
2DF8
  8
AM_VIS
  0
POLYLINE
  5
12A3
  8
AM_VIS
 66
     1
 10
0.0
 20
0.0
 30
0.0
  0
VERTEX
  5
2DF9
  8
AM_VIS
 10
828.27385138172281
 20
85.885123804756176
 30
0.0
  0
VERTEX
  5
2DFA
  8
AM_VIS
 10
849.05851163337422
 20
85.885123804756176
 30
0.0
  0
SEQEND
  5
2DFB
  8
AM_VIS
  0
LINE
  5
12A4
  8
AM_VIS
 10
829.10997472001554
 20
59.88555705545491
 30
0.0
 11
827.77494775391904
 21
85.359389077346123
 31
0.0
  0
POLYLINE
  5
12A5
  8
AM_VIS
 66
     1
 10
0.0
 20
0.0
 30
0.0
  0
VERTEX
  5
2DFC
  8
AM_VIS
 10
832.60517809165572
 20
59.601257842340367
 30
0.0
  0
VERTEX
  5
2DFD
  8
AM_VIS
 10
832.1827252135829
 20
59.601257842340367
 30
0.0
  0
VERTEX
  5
2DFE
  8
AM_VIS
 10
831.83748132280675
 20
59.601257842340367
 30
0.0
  0
VERTEX
  5
2DFF
  8
AM_VIS
 10
831.51407059580504
 20
59.601257842340367
 30
0.0
  0
VERTEX
  5
2E00
  8
AM_VIS
 10
830.9000865526815
 20
59.601257842340367
 30
0.0
  0
VERTEX
  5
2E01
  8
AM_VIS
 10
830.3578448048504
 20
59.601257842340367
 30
0.0
  0
VERTEX
  5
2E02
  8
AM_VIS
 10
829.9212957815754
 20
59.601257842340367
 30
0.0
  0
VERTEX
  5
2E03
  8
AM_VIS
 10
829.61344541456765
 20
59.601257842340367
 30
0.0
  0
VERTEX
  5
2E04
  8
AM_VIS
 10
829.51171208131257
 20
59.601257842340367
 30
0.0
  0
VERTEX
  5
2E05
  8
AM_VIS
 10
829.44269192436332
 20
59.601257842340367
 30
0.0
  0
VERTEX
  5
2E06
  8
AM_VIS
 10
829.40956358044116
 20
59.601257842340367
 30
0.0
  0
SEQEND
  5
2E07
  8
AM_VIS
  0
POLYLINE
  5
12A6
  8
AM_VIS
 66
     1
 10
0.0
 20
0.0
 30
0.0
  0
VERTEX
  5
2E08
  8
AM_VIS
 10
829.11001314253997
 20
59.885487460511619
 30
0.0
  0
VERTEX
  5
2E09
  8
AM_VIS
 10
829.25977848749096
 20
59.743389915327718
 30
0.0
  0
VERTEX
  5
2E0A
  8
AM_VIS
 10
829.40956358044139
 20
59.601257842340367
 30
0.0
  0
SEQEND
  5
2E0B
  8
AM_VIS
  0
ARC
  5
12A7
  8
AM_VIS
 10
829.83082728149805
 20
87.201257842340397
 30
0.0
 40
0.3187556988391739
 50
90.0
 51
170.00000000000119
  0
POLYLINE
  5
12A8
  8
AM_VIS
 66
     1
 10
0.0
 20
0.0
 30
0.0
  0
VERTEX
  5
2E0C
  8
AM_VIS
 10
828.27385138172281
 20
85.885123804756176
 30
0.0
  0
VERTEX
  5
2E0D
  8
AM_VIS
 10
828.27385138172281
 20
86.701257842340397
 30
0.0
  0
SEQEND
  5
2E0E
  8
AM_VIS
  0
POLYLINE
  5
12A9
  8
AM_VIS
 66
     1
 10
0.0
 20
0.0
 30
0.0
  0
VERTEX
  5
2E0F
  8
AM_VIS
 10
827.77494775391915
 20
85.359389077346123
 30
0.0
  0
VERTEX
  5
2E10
  8
AM_VIS
 10
828.27385138172281
 20
85.885123804756176
 30
0.0
  0
SEQEND
  5
2E11
  8
AM_VIS
  0
LINE
  5
12AA
  8
AM_VIS
 10
829.41899077185212
 20
86.701257842340397
 30
0.0
 11
829.5169141979643
 21
87.256609188564767
 31
0.0
  0
LINE
  5
12AC
  8
L6
 10
997.5049875707906
 20
-11.20011262290495
 30
0.0
 11
1001.330827281492
 21
61.801257842340362
 31
0.0
  0
LINE
  5
12AD
  8
L6
 10
838.05666699220001
 20
-11.20011262290495
 30
0.0
 11
834.2308272814978
 21
61.801257842340419
 31
0.0
  0
LINE
  5
12B5
  8
L6
 10
997.5049875707906
 20
-11.20011262290495
 30
0.0
 11
996.45265161454745
 21
-12.198742157659581
 31
0.0
  0
LINE
  5
12B7
  8
L6
 10
838.05666699220001
 20
-11.20011262290495
 30
0.0
 11
839.10900294844294
 21
-12.198742157659581
 31
0.0
  0
LINE
  5
12BD
  8
L6
 10
1003.8918907952039
 20
61.80125784234059
 30
0.0
 11
1004.530827281492
 21
86.201257842340453
 31
0.0
  0
LINE
  5
12C3
  8
L6
 10
1001.330827281492
 20
61.80125784234059
 30
0.0
 11
1003.8918907952039
 21
61.80125784234059
 31
0.0
  0
LINE
  5
12CB
  8
L6
 10
831.66976376778598
 20
61.80125784234064
 30
0.0
 11
831.03082728149775
 21
86.20125784234051
 31
0.0
  0
LINE
  5
12CC
  8
L6
 10
834.2308272814978
 20
61.80125784234064
 30
0.0
 11
831.66976376778598
 21
61.80125784234064
 31
0.0
  0
LINE
  5
12E3
  8
AM_VIS
 10
999.52585013025055
 20
173.2871690060079
 30
0.0
 11
999.52585013025055
 21
278.93493278525369
 31
0.0
  0
LINE
  5
12E4
  8
AM_VIS
 10
997.0002438352675
 20
278.93493278525369
 30
0.0
 11
997.0002438352675
 21
175.44625505896181
 31
0.0
  0
LINE
  5
12E5
  8
AM_VIS
 10
985.83082728149566
 20
278.93493278525369
 30
0.0
 11
985.83082728149566
 21
175.3849327852536
 31
0.0
  0
POLYLINE
  5
12E6
  8
AM_VIS
 66
     1
 10
0.0
 20
0.0
 30
0.0
  0
VERTEX
  5
2E12
  8
AM_VIS
 10
1007.786706809074
 20
278.93493278525369
 30
0.0
  0
VERTEX
  5
2E13
  8
AM_VIS
 10
1007.786706809074
 20
269.60961724154947
 30
0.0
  0
VERTEX
  5
2E14
  8
AM_VIS
 10
1007.786706809074
 20
253.95651001593379
 30
0.0
  0
VERTEX
  5
2E15
  8
AM_VIS
 10
1007.786706809074
 20
237.25859160485319
 30
0.0
  0
VERTEX
  5
2E16
  8
AM_VIS
 10
1007.786706809074
 20
220.56095688511019
 30
0.0
  0
VERTEX
  5
2E17
  8
AM_VIS
 10
1007.786706809074
 20
203.87035220741299
 30
0.0
  0
VERTEX
  5
2E18
  8
AM_VIS
 10
1007.786706809074
 20
187.16094477299649
 30
0.0
  0
VERTEX
  5
2E19
  8
AM_VIS
 10
1007.786706809074
 20
170.45169114342369
 30
0.0
  0
VERTEX
  5
2E1A
  8
AM_VIS
 10
1007.786706809074
 20
162.1553200243396
 30
0.0
  0
VERTEX
  5
2E1B
  8
AM_VIS
 10
1007.786706809074
 20
158.01277403713101
 30
0.0
  0
VERTEX
  5
2E1C
  8
AM_VIS
 10
1007.786706809074
 20
155.93393956878111
 30
0.0
  0
VERTEX
  5
2E1D
  8
AM_VIS
 10
1007.786706809074
 20
155.412691231011
 30
0.0
  0
VERTEX
  5
2E1E
  8
AM_VIS
 10
1007.7867068090731
 20
154.92425662979721
 30
0.0
  0
SEQEND
  5
2E1F
  8
AM_VIS
  0
POLYLINE
  5
12E7
  8
AM_VIS
 66
     1
 10
0.0
 20
0.0
 30
0.0
  0
VERTEX
  5
2E20
  8
AM_VIS
 10
1006.451679842978
 20
156.2592835954116
 30
0.0
  0
VERTEX
  5
2E21
  8
AM_VIS
 10
1006.451679842978
 20
157.26435852536051
 30
0.0
  0
VERTEX
  5
2E22
  8
AM_VIS
 10
1006.451679842978
 20
161.39305446755679
 30
0.0
  0
VERTEX
  5
2E23
  8
AM_VIS
 10
1006.451679842978
 20
169.6176491476904
 30
0.0
  0
VERTEX
  5
2E24
  8
AM_VIS
 10
1006.451679842978
 20
186.12237951870631
 30
0.0
  0
VERTEX
  5
2E25
  8
AM_VIS
 10
1006.451679842978
 20
202.63967658643239
 30
0.0
  0
VERTEX
  5
2E26
  8
AM_VIS
 10
1006.451679842978
 20
219.14966372568381
 30
0.0
  0
VERTEX
  5
2E27
  8
AM_VIS
 10
1006.451679842978
 20
235.65968072018231
 30
0.0
  0
VERTEX
  5
2E28
  8
AM_VIS
 10
1006.451679842978
 20
252.1710416534217
 30
0.0
  0
VERTEX
  5
2E29
  8
AM_VIS
 10
1006.451679842978
 20
268.68179690641762
 30
0.0
  0
VERTEX
  5
2E2A
  8
AM_VIS
 10
1006.451679842978
 20
278.93493278525369
 30
0.0
  0
SEQEND
  5
2E2B
  8
AM_VIS
  0
POLYLINE
  5
12E8
  8
AM_VIS
 66
     1
 10
0.0
 20
0.0
 30
0.0
  0
VERTEX
  5
2E2C
  8
AM_VIS
 10
1006.152090982552
 20
278.93493278525369
 30
0.0
  0
VERTEX
  5
2E2D
  8
AM_VIS
 10
1006.152090982552
 20
268.68179690641762
 30
0.0
  0
VERTEX
  5
2E2E
  8
AM_VIS
 10
1006.152090982552
 20
252.1710416534217
 30
0.0
  0
VERTEX
  5
2E2F
  8
AM_VIS
 10
1006.152090982552
 20
235.65968072018231
 30
0.0
  0
VERTEX
  5
2E30
  8
AM_VIS
 10
1006.152090982552
 20
219.14966372568381
 30
0.0
  0
VERTEX
  5
2E31
  8
AM_VIS
 10
1006.152090982552
 20
202.63967658643239
 30
0.0
  0
VERTEX
  5
2E32
  8
AM_VIS
 10
1006.152090982552
 20
186.12237951870631
 30
0.0
  0
VERTEX
  5
2E33
  8
AM_VIS
 10
1006.152090982552
 20
169.6176491476904
 30
0.0
  0
VERTEX
  5
2E34
  8
AM_VIS
 10
1006.152090982552
 20
161.39305446755679
 30
0.0
  0
VERTEX
  5
2E35
  8
AM_VIS
 10
1006.152090982552
 20
157.26435852536051
 30
0.0
  0
VERTEX
  5
2E36
  8
AM_VIS
 10
1006.152090982552
 20
156.2592835954116
 30
0.0
  0
SEQEND
  5
2E37
  8
AM_VIS
  0
POLYLINE
  5
12E9
  8
AM_VIS
 66
     1
 10
0.0
 20
0.0
 30
0.0
  0
VERTEX
  5
2E38
  8
AM_VIS
 10
1003.615516651509
 20
169.4970913451767
 30
0.0
  0
VERTEX
  5
2E39
  8
AM_VIS
 10
1003.615516651509
 20
170.39996135629079
 30
0.0
  0
VERTEX
  5
2E3A
  8
AM_VIS
 10
1003.61551665151
 20
174.10473992134749
 30
0.0
  0
VERTEX
  5
2E3B
  8
AM_VIS
 10
1003.61551665151
 20
181.46710730447811
 30
0.0
  0
VERTEX
  5
2E3C
  8
AM_VIS
 10
1003.615516651509
 20
188.82575900481299
 30
0.0
  0
VERTEX
  5
2E3D
  8
AM_VIS
 10
1003.61551665151
 20
196.17722308404811
 30
0.0
  0
VERTEX
  5
2E3E
  8
AM_VIS
 10
1003.615516651509
 20
210.89720922589069
 30
0.0
  0
VERTEX
  5
2E3F
  8
AM_VIS
 10
1003.61551665151
 20
225.62466096966361
 30
0.0
  0
VERTEX
  5
2E40
  8
AM_VIS
 10
1003.61551665151
 20
240.34616996766681
 30
0.0
  0
VERTEX
  5
2E41
  8
AM_VIS
 10
1003.61551665151
 20
255.06897942507911
 30
0.0
  0
VERTEX
  5
2E42
  8
AM_VIS
 10
1003.61551665151
 20
269.7921712188388
 30
0.0
  0
VERTEX
  5
2E43
  8
AM_VIS
 10
1003.61551665151
 20
278.93493278525369
 30
0.0
  0
SEQEND
  5
2E44
  8
AM_VIS
  0
LINE
  5
12EA
  8
AM_VIS
 10
917.78082728149548
 20
159.68990993649871
 30
0.0
 11
985.92859106074127
 21
159.68990993649871
 31
0.0
  0
LINE
  5
12EB
  8
AM_VIS
 10
983.76950427081385
 20
162.2155162314817
 30
0.0
 11
917.78082728149548
 21
162.2155162314817
 31
0.0
  0
LINE
  5
12EC
  8
AM_VIS
 10
983.83082728149543
 20
173.38493278525371
 30
0.0
 11
917.78082728149548
 21
173.3849327852538
 31
0.0
  0
POLYLINE
  5
12ED
  8
AM_VIS
 66
     1
 10
0.0
 20
0.0
 30
0.0
  0
VERTEX
  5
2E45
  8
AM_VIS
 10
1004.291503437433
 20
151.42905325767481
 30
0.0
  0
VERTEX
  5
2E46
  8
AM_VIS
 10
1004.234983044881
 20
151.42905325767481
 30
0.0
  0
VERTEX
  5
2E47
  8
AM_VIS
 10
1002.753229434441
 20
151.42905325767481
 30
0.0
  0
VERTEX
  5
2E48
  8
AM_VIS
 10
996.85070975884253
 20
151.42905325767481
 30
0.0
  0
VERTEX
  5
2E49
  8
AM_VIS
 10
990.91501434230304
 20
151.42905325767481
 30
0.0
  0
VERTEX
  5
2E4A
  8
AM_VIS
 10
984.93914420222359
 20
151.42905325767481
 30
0.0
  0
VERTEX
  5
2E4B
  8
AM_VIS
 10
972.99345595938303
 20
151.42905325767481
 30
0.0
  0
VERTEX
  5
2E4C
  8
AM_VIS
 10
961.07271501909315
 20
151.42905325767481
 30
0.0
  0
VERTEX
  5
2E4D
  8
AM_VIS
 10
949.1463519548787
 20
151.42905325767481
 30
0.0
  0
VERTEX
  5
2E4E
  8
AM_VIS
 10
937.2183420665292
 20
151.42905325767489
 30
0.0
  0
VERTEX
  5
2E4F
  8
AM_VIS
 10
925.29199840890408
 20
151.42905325767489
 30
0.0
  0
VERTEX
  5
2E50
  8
AM_VIS
 10
917.78082728149548
 20
151.42905325767489
 30
0.0
  0
SEQEND
  5
2E51
  8
AM_VIS
  0
POLYLINE
  5
12EE
  8
AM_VIS
 66
     1
 10
0.0
 20
0.0
 30
0.0
  0
VERTEX
  5
2E52
  8
AM_VIS
 10
917.78082728149548
 20
152.7640802237708
 30
0.0
  0
VERTEX
  5
2E53
  8
AM_VIS
 10
923.70489838014544
 20
152.7640802237708
 30
0.0
  0
VERTEX
  5
2E54
  8
AM_VIS
 10
933.97402410102882
 20
152.7640802237708
 30
0.0
  0
VERTEX
  5
2E55
  8
AM_VIS
 10
945.71062986823904
 20
152.7640802237708
 30
0.0
  0
VERTEX
  5
2E56
  8
AM_VIS
 10
957.44682429715886
 20
152.7640802237708
 30
0.0
  0
VERTEX
  5
2E57
  8
AM_VIS
 10
969.18121988399366
 20
152.7640802237708
 30
0.0
  0
VERTEX
  5
2E58
  8
AM_VIS
 10
980.92283503330134
 20
152.7640802237708
 30
0.0
  0
VERTEX
  5
2E59
  8
AM_VIS
 10
992.65941450196806
 20
152.7640802237708
 30
0.0
  0
VERTEX
  5
2E5A
  8
AM_VIS
 10
998.50315440671011
 20
152.7640802237708
 30
0.0
  0
VERTEX
  5
2E5B
  8
AM_VIS
 10
1001.429027069231
 20
152.7640802237708
 30
0.0
  0
VERTEX
  5
2E5C
  8
AM_VIS
 10
1002.90029001023
 20
152.76408022377069
 30
0.0
  0
VERTEX
  5
2E5D
  8
AM_VIS
 10
1002.956476471216
 20
152.764080223771
 30
0.0
  0
SEQEND
  5
2E5E
  8
AM_VIS
  0
POLYLINE
  5
12EF
  8
AM_VIS
 66
     1
 10
0.0
 20
0.0
 30
0.0
  0
VERTEX
  5
2E5F
  8
AM_VIS
 10
1002.9564764709741
 20
153.0636690841971
 30
0.0
  0
VERTEX
  5
2E60
  8
AM_VIS
 10
1002.90029001023
 20
153.0636690841969
 30
0.0
  0
VERTEX
  5
2E61
  8
AM_VIS
 10
1001.429027069231
 20
153.0636690841971
 30
0.0
  0
VERTEX
  5
2E62
  8
AM_VIS
 10
998.50315440671011
 20
153.0636690841971
 30
0.0
  0
VERTEX
  5
2E63
  8
AM_VIS
 10
992.65941450196806
 20
153.0636690841969
 30
0.0
  0
VERTEX
  5
2E64
  8
AM_VIS
 10
980.92283503330134
 20
153.0636690841971
 30
0.0
  0
VERTEX
  5
2E65
  8
AM_VIS
 10
969.18121988399366
 20
153.0636690841969
 30
0.0
  0
VERTEX
  5
2E66
  8
AM_VIS
 10
957.44682429715886
 20
153.0636690841971
 30
0.0
  0
VERTEX
  5
2E67
  8
AM_VIS
 10
945.71062986823904
 20
153.0636690841969
 30
0.0
  0
VERTEX
  5
2E68
  8
AM_VIS
 10
933.97402410102882
 20
153.0636690841971
 30
0.0
  0
VERTEX
  5
2E69
  8
AM_VIS
 10
923.70489838014544
 20
153.0636690841971
 30
0.0
  0
VERTEX
  5
2E6A
  8
AM_VIS
 10
917.78082728149548
 20
153.0636690841971
 30
0.0
  0
SEQEND
  5
2E6B
  8
AM_VIS
  0
POLYLINE
  5
12F0
  8
AM_VIS
 66
     1
 10
0.0
 20
0.0
 30
0.0
  0
VERTEX
  5
2E6C
  8
AM_VIS
 10
917.7808272814957
 20
155.60024341523919
 30
0.0
  0
VERTEX
  5
2E6D
  8
AM_VIS
 10
923.18818207091533
 20
155.60024341523919
 30
0.0
  0
VERTEX
  5
2E6E
  8
AM_VIS
 10
932.26537574090366
 20
155.60024341523919
 30
0.0
  0
VERTEX
  5
2E6F
  8
AM_VIS
 10
941.94751317384259
 20
155.60024341523919
 30
0.0
  0
VERTEX
  5
2E70
  8
AM_VIS
 10
951.62850367239571
 20
155.60024341523911
 30
0.0
  0
VERTEX
  5
2E71
  8
AM_VIS
 10
961.31373160102771
 20
155.60024341523911
 30
0.0
  0
VERTEX
  5
2E72
  8
AM_VIS
 10
970.99500279178335
 20
155.60024341523911
 30
0.0
  0
VERTEX
  5
2E73
  8
AM_VIS
 10
975.82723681301343
 20
155.60024341523911
 30
0.0
  0
VERTEX
  5
2E74
  8
AM_VIS
 10
980.66561011327178
 20
155.60024341523911
 30
0.0
  0
VERTEX
  5
2E75
  8
AM_VIS
 10
985.5092847680603
 20
155.60024341523911
 30
0.0
  0
VERTEX
  5
2E76
  8
AM_VIS
 10
987.940503010518
 20
155.60024341523919
 30
0.0
  0
VERTEX
  5
2E77
  8
AM_VIS
 10
989.16362446153516
 20
155.60024341523919
 30
0.0
  0
VERTEX
  5
2E78
  8
AM_VIS
 10
989.71866872178282
 20
155.60024341523911
 30
0.0
  0
SEQEND
  5
2E79
  8
AM_VIS
  0
LINE
  5
12F1
  8
AM_VIS
 10
1001.996871559202
 20
154.5318827390378
 30
0.0
 11
1001.457645482394
 21
155.07110881584561
 31
0.0
  0
LINE
  5
12F2
  8
AM_VIS
 10
999.6954164787885
 20
164.68222309062261
 30
0.0
 11
1004.528117586864
 21
159.84952198254641
 31
0.0
  0
POLYLINE
  5
12F3
  8
AM_VIS
 66
     1
 10
0.0
 20
0.0
 30
0.0
  0
VERTEX
  5
2E7A
  8
AM_VIS
 10
1001.318668721574
 20
167.20024341523921
 30
0.0
  0
VERTEX
  5
2E7B
  8
AM_VIS
 10
1001.623638631849
 20
167.22053140880061
 30
0.0
  0
VERTEX
  5
2E7C
  8
AM_VIS
 10
1002.109526808739
 20
167.34042484527311
 30
0.0
  0
VERTEX
  5
2E7D
  8
AM_VIS
 10
1002.5609310683629
 20
167.5646318257337
 30
0.0
  0
VERTEX
  5
2E7E
  8
AM_VIS
 10
1002.949933201235
 20
167.87938838559811
 30
0.0
  0
VERTEX
  5
2E7F
  8
AM_VIS
 10
1003.26126814791
 20
168.27075724213319
 30
0.0
  0
VERTEX
  5
2E80
  8
AM_VIS
 10
1003.48308217223
 20
168.72771952582309
 30
0.0
  0
VERTEX
  5
2E81
  8
AM_VIS
 10
1003.597561459897
 20
169.2101140077751
 30
0.0
  0
VERTEX
  5
2E82
  8
AM_VIS
 10
1003.615516651509
 20
169.4970913451767
 30
0.0
  0
SEQEND
  5
2E83
  8
AM_VIS
  0
CIRCLE
  5
12F4
  8
AM_VIS
 10
999.53082728149536
 20
159.68493278525369
 30
0.0
 40
6.1000000000000014
  0
CIRCLE
  5
12F5
  8
AM_VIS
 10
999.53082728149536
 20
159.68493278525369
 30
0.0
 40
5.7973820393505093
  0
POLYLINE
  5
12F6
  8
AM_VIS
 66
     1
 10
0.0
 20
0.0
 30
0.0
  0
VERTEX
  5
2E84
  8
AM_VIS
 10
987.92198020654075
 20
163.50446948912281
 30
0.0
  0
VERTEX
  5
2E85
  8
AM_VIS
 10
987.9407114536707
 20
164.04319071227511
 30
0.0
  0
VERTEX
  5
2E86
  8
AM_VIS
 10
988.11349006837168
 20
165.2151496565188
 30
0.0
  0
VERTEX
  5
2E87
  8
AM_VIS
 10
989.3624818600631
 20
168.0126862879502
 30
0.0
  0
VERTEX
  5
2E88
  8
AM_VIS
 10
991.57767971392809
 20
170.1034371812618
 30
0.0
  0
VERTEX
  5
2E89
  8
AM_VIS
 10
993.93400345200178
 20
171.0869150387731
 30
0.0
  0
VERTEX
  5
2E8A
  8
AM_VIS
 10
995.20064922623965
 20
171.27697498581239
 30
0.0
  0
VERTEX
  5
2E8B
  8
AM_VIS
 10
995.7112923703279
 20
171.29377806750691
 30
0.0
  0
SEQEND
  5
2E8C
  8
AM_VIS
  0
POLYLINE
  5
12F7
  8
AM_VIS
 66
     1
 10
0.0
 20
0.0
 30
0.0
  0
VERTEX
  5
2E8D
  8
AM_VIS
 10
995.36557558961658
 20
173.7939613608734
 30
0.0
  0
VERTEX
  5
2E8E
  8
AM_VIS
 10
993.09985195658226
 20
173.79357782313011
 30
0.0
  0
VERTEX
  5
2E8F
  8
AM_VIS
 10
992.03002850971495
 20
173.7930675609899
 30
0.0
  0
VERTEX
  5
2E90
  8
AM_VIS
 10
991.09281021316406
 20
173.79257933971871
 30
0.0
  0
VERTEX
  5
2E91
  8
AM_VIS
 10
989.01212064706488
 20
173.78954863256979
 30
0.0
  0
VERTEX
  5
2E92
  8
AM_VIS
 10
988.13042010478409
 20
173.79176035218961
 30
0.0
  0
VERTEX
  5
2E93
  8
AM_VIS
 10
986.74902445742725
 20
173.66809593692969
 30
0.0
  0
VERTEX
  5
2E94
  8
AM_VIS
 10
986.11297093503083
 20
173.29351252110399
 30
0.0
  0
VERTEX
  5
2E95
  8
AM_VIS
 10
985.64412051826787
 20
172.69083451163061
 30
0.0
  0
VERTEX
  5
2E96
  8
AM_VIS
 10
985.44405962422616
 20
171.99666255135139
 30
0.0
  0
VERTEX
  5
2E97
  8
AM_VIS
 10
985.42726866681619
 20
170.80016106667421
 30
0.0
  0
VERTEX
  5
2E98
  8
AM_VIS
 10
985.42384048736233
 20
169.76121805716221
 30
0.0
  0
VERTEX
  5
2E99
  8
AM_VIS
 10
985.42308566708311
 20
169.1342447369812
 30
0.0
  0
VERTEX
  5
2E9A
  8
AM_VIS
 10
985.42270170798656
 20
167.0660850727669
 30
0.0
  0
VERTEX
  5
2E9B
  8
AM_VIS
 10
985.42168837842735
 20
163.8501527297303
 30
0.0
  0
SEQEND
  5
2E9C
  8
AM_VIS
  0
POLYLINE
  5
12F8
  8
AM_VIS
 66
     1
 10
0.0
 20
0.0
 30
0.0
  0
VERTEX
  5
2E9D
  8
AM_VIS
 10
992.0155166515101
 20
159.71052190457991
 30
0.0
  0
VERTEX
  5
2E9E
  8
AM_VIS
 10
992.01696702075924
 20
159.85810901523399
 30
0.0
  0
VERTEX
  5
2E9F
  8
AM_VIS
 10
992.06911963423886
 20
160.60606971295769
 30
0.0
  0
VERTEX
  5
2EA0
  8
AM_VIS
 10
992.37858136494151
 20
162.01638430567351
 30
0.0
  0
VERTEX
  5
2EA1
  8
AM_VIS
 10
992.94993419526099
 20
163.335945868507
 30
0.0
  0
VERTEX
  5
2EA2
  8
AM_VIS
 10
993.76359087566607
 20
164.522492109041
 30
0.0
  0
VERTEX
  5
2EA3
  8
AM_VIS
 10
994.78967894582456
 20
165.53158610470859
 30
0.0
  0
VERTEX
  5
2EA4
  8
AM_VIS
 10
995.9905258667186
 20
166.32578965951959
 30
0.0
  0
VERTEX
  5
2EA5
  8
AM_VIS
 10
997.32161313444431
 20
166.8755166006045
 30
0.0
  0
VERTEX
  5
2EA6
  8
AM_VIS
 10
998.73136375770514
 20
167.1602546450699
 30
0.0
  0
VERTEX
  5
2EA7
  8
AM_VIS
 10
999.42788142768757
 20
167.19984499954751
 30
0.0
  0
VERTEX
  5
2EA8
  8
AM_VIS
 10
999.50523816215241
 20
167.20024341523921
 30
0.0
  0
SEQEND
  5
2EA9
  8
AM_VIS
  0
ARC
  5
12F9
  8
AM_VIS
 10
983.83082728149543
 20
175.38493278525371
 30
0.0
 40
2.0
 50
270.0
 51
0.0
  0
POLYLINE
  5
12FA
  8
AM_VIS
 66
     1
 10
0.0
 20
0.0
 30
0.0
  0
VERTEX
  5
2EAA
  8
AM_VIS
 10
999.50523816215241
 20
167.20024341523921
 30
0.0
  0
VERTEX
  5
2EAB
  8
AM_VIS
 10
999.66022316600777
 20
167.20024341523921
 30
0.0
  0
VERTEX
  5
2EAC
  8
AM_VIS
 10
999.91203610631339
 20
167.2002434152391
 30
0.0
  0
VERTEX
  5
2EAD
  8
AM_VIS
 10
1000.165298750684
 20
167.20024341523921
 30
0.0
  0
VERTEX
  5
2EAE
  8
AM_VIS
 10
1000.417243063422
 20
167.20024341523921
 30
0.0
  0
VERTEX
  5
2EAF
  8
AM_VIS
 10
1000.670732007173
 20
167.2002434152393
 30
0.0
  0
VERTEX
  5
2EB0
  8
AM_VIS
 10
1000.920782575407
 20
167.20024341523921
 30
0.0
  0
VERTEX
  5
2EB1
  8
AM_VIS
 10
1001.173612635306
 20
167.2002434152393
 30
0.0
  0
VERTEX
  5
2EB2
  8
AM_VIS
 10
1001.318668721574
 20
167.20024341523921
 30
0.0
  0
SEQEND
  5
2EB3
  8
AM_VIS
  0
POLYLINE
  5
12FB
  8
AM_VIS
 66
     1
 10
0.0
 20
0.0
 30
0.0
  0
VERTEX
  5
2EB4
  8
AM_VIS
 10
999.52585013025055
 20
173.2871690060079
 30
0.0
  0
VERTEX
  5
2EB5
  8
AM_VIS
 10
999.5159465996577
 20
173.0937625895599
 30
0.0
  0
VERTEX
  5
2EB6
  8
AM_VIS
 10
999.4863290822467
 20
172.903210447368
 30
0.0
  0
SEQEND
  5
2EB7
  8
AM_VIS
  0
POLYLINE
  5
12FC
  8
AM_VIS
 66
     1
 10
0.0
 20
0.0
 30
0.0
  0
VERTEX
  5
2EB8
  8
AM_VIS
 10
997.78979283623789
 20
171.31264256218509
 30
0.0
  0
VERTEX
  5
2EB9
  8
AM_VIS
 10
998.49054230752881
 20
171.5505451518907
 30
0.0
  0
VERTEX
  5
2EBA
  8
AM_VIS
 10
999.06362942092505
 20
172.02882521369091
 30
0.0
  0
VERTEX
  5
2EBB
  8
AM_VIS
 10
999.32587024617817
 20
172.43521336643761
 30
0.0
  0
VERTEX
  5
2EBC
  8
AM_VIS
 10
999.48632908224681
 20
172.903210447368
 30
0.0
  0
SEQEND
  5
2EBD
  8
AM_VIS
  0
POLYLINE
  5
12FD
  8
AM_VIS
 66
     1
 10
0.0
 20
0.0
 30
0.0
  0
VERTEX
  5
2EBE
  8
AM_VIS
 10
995.7112923703279
 20
171.29377806750691
 30
0.0
  0
VERTEX
  5
2EBF
  8
AM_VIS
 10
996.47621998774548
 20
171.293601175048
 30
0.0
  0
VERTEX
  5
2EC0
  8
AM_VIS
 10
997.52458408700591
 20
171.29391329853911
 30
0.0
  0
SEQEND
  5
2EC1
  8
AM_VIS
  0
POLYLINE
  5
12FE
  8
AM_VIS
 66
     1
 10
0.0
 20
0.0
 30
0.0
  0
VERTEX
  5
2EC2
  8
AM_VIS
 10
997.0002438352675
 20
175.4462550589617
 30
0.0
  0
VERTEX
  5
2EC3
  8
AM_VIS
 10
996.86747224134706
 20
174.7014541364448
 30
0.0
  0
VERTEX
  5
2EC4
  8
AM_VIS
 10
996.56554903697418
 20
174.2359423850717
 30
0.0
  0
VERTEX
  5
2EC5
  8
AM_VIS
 10
996.13435341287152
 20
173.94183390921859
 30
0.0
  0
VERTEX
  5
2EC6
  8
AM_VIS
 10
995.77385773022422
 20
173.83119372485481
 30
0.0
  0
VERTEX
  5
2EC7
  8
AM_VIS
 10
995.36557558452455
 20
173.79402524935441
 30
0.0
  0
SEQEND
  5
2EC8
  8
AM_VIS
  0
POLYLINE
  5
12FF
  8
AM_VIS
 66
     1
 10
0.0
 20
0.0
 30
0.0
  0
VERTEX
  5
2EC9
  8
AM_VIS
 10
997.78979284110756
 20
171.31264256336999
 30
0.0
  0
VERTEX
  5
2ECA
  8
AM_VIS
 10
997.68927222704042
 20
171.30111255796419
 30
0.0
  0
VERTEX
  5
2ECB
  8
AM_VIS
 10
997.57565350955156
 20
171.29461382128841
 30
0.0
  0
VERTEX
  5
2ECC
  8
AM_VIS
 10
997.52458381462225
 20
171.2939171826192
 30
0.0
  0
SEQEND
  5
2ECD
  8
AM_VIS
  0
POLYLINE
  5
1300
  8
AM_VIS
 66
     1
 10
0.0
 20
0.0
 30
0.0
  0
VERTEX
  5
2ECE
  8
AM_VIS
 10
985.42173472495278
 20
163.85015273019201
 30
0.0
  0
VERTEX
  5
2ECF
  8
AM_VIS
 10
985.29127486079256
 20
163.12250305751209
 30
0.0
  0
VERTEX
  5
2ED0
  8
AM_VIS
 10
984.99109221066556
 20
162.66145968602521
 30
0.0
  0
VERTEX
  5
2ED1
  8
AM_VIS
 10
984.55860806993212
 20
162.36696536806221
 30
0.0
  0
VERTEX
  5
2ED2
  8
AM_VIS
 10
984.18905739522825
 20
162.25358062041229
 30
0.0
  0
VERTEX
  5
2ED3
  8
AM_VIS
 10
983.76950427081385
 20
162.2155162314817
 30
0.0
  0
SEQEND
  5
2ED4
  8
AM_VIS
  0
ARC
  5
1301
  8
AM_VIS
 10
999.53082728149536
 20
159.68493278525369
 30
0.0
 40
5.0
 50
268.1136059458986
 51
292.6663173421943
  0
POLYLINE
  5
1302
  8
AM_VIS
 66
     1
 10
0.0
 20
0.0
 30
0.0
  0
VERTEX
  5
2ED5
  8
AM_VIS
 10
992.0155166515101
 20
157.8970913446496
 30
0.0
  0
VERTEX
  5
2ED6
  8
AM_VIS
 10
992.0155166515101
 20
158.06339355788251
 30
0.0
  0
VERTEX
  5
2ED7
  8
AM_VIS
 10
992.0155166515101
 20
158.3120245705253
 30
0.0
  0
VERTEX
  5
2ED8
  8
AM_VIS
 10
992.0155166515101
 20
158.55935801865579
 30
0.0
  0
VERTEX
  5
2ED9
  8
AM_VIS
 10
992.0155166515101
 20
158.8097242612825
 30
0.0
  0
VERTEX
  5
2EDA
  8
AM_VIS
 10
992.0155166515101
 20
159.05855056853369
 30
0.0
  0
VERTEX
  5
2EDB
  8
AM_VIS
 10
992.0155166515101
 20
159.30876266360579
 30
0.0
  0
VERTEX
  5
2EDC
  8
AM_VIS
 10
992.01551665150987
 20
159.55740596673579
 30
0.0
  0
VERTEX
  5
2EDD
  8
AM_VIS
 10
992.0155166515101
 20
159.71052190457991
 30
0.0
  0
SEQEND
  5
2EDE
  8
AM_VIS
  0
POLYLINE
  5
1303
  8
AM_VIS
 66
     1
 10
0.0
 20
0.0
 30
0.0
  0
VERTEX
  5
2EDF
  8
AM_VIS
 10
989.71866872178282
 20
155.60024341523911
 30
0.0
  0
VERTEX
  5
2EE0
  8
AM_VIS
 10
990.00603073322759
 20
155.61824697273431
 30
0.0
  0
VERTEX
  5
2EE1
  8
AM_VIS
 10
990.48846455928651
 20
155.7328284448275
 30
0.0
  0
VERTEX
  5
2EE2
  8
AM_VIS
 10
990.94524494061773
 20
155.9546446745756
 30
0.0
  0
VERTEX
  5
2EE3
  8
AM_VIS
 10
991.33653770986643
 20
156.26599152853149
 30
0.0
  0
VERTEX
  5
2EE4
  8
AM_VIS
 10
991.65122353166362
 20
156.65497734715629
 30
0.0
  0
VERTEX
  5
2EE5
  8
AM_VIS
 10
991.87537234150682
 20
157.10633463594371
 30
0.0
  0
VERTEX
  5
2EE6
  8
AM_VIS
 10
991.99523395140204
 20
157.59216103992881
 30
0.0
  0
VERTEX
  5
2EE7
  8
AM_VIS
 10
992.0155166515101
 20
157.8970913446496
 30
0.0
  0
SEQEND
  5
2EE8
  8
AM_VIS
  0
POLYLINE
  5
1304
  8
AM_VIS
 66
     1
 10
0.0
 20
0.0
 30
0.0
  0
VERTEX
  5
2EE9
  8
AM_VIS
 10
986.31252817625125
 20
159.72942650354989
 30
0.0
  0
VERTEX
  5
2EEA
  8
AM_VIS
 10
986.12198654205281
 20
159.69981234156469
 30
0.0
  0
VERTEX
  5
2EEB
  8
AM_VIS
 10
985.92859106074127
 20
159.68990993649871
 30
0.0
  0
SEQEND
  5
2EEC
  8
AM_VIS
  0
POLYLINE
  5
1305
  8
AM_VIS
 66
     1
 10
0.0
 20
0.0
 30
0.0
  0
VERTEX
  5
2EED
  8
AM_VIS
 10
987.92184323662912
 20
161.69117588251021
 30
0.0
  0
VERTEX
  5
2EEE
  8
AM_VIS
 10
987.92187006464019
 20
161.80180923024639
 30
0.0
  0
VERTEX
  5
2EEF
  8
AM_VIS
 10
987.92198020654075
 20
163.50446948912281
 30
0.0
  0
SEQEND
  5
2EF0
  8
AM_VIS
  0
POLYLINE
  5
1306
  8
AM_VIS
 66
     1
 10
0.0
 20
0.0
 30
0.0
  0
VERTEX
  5
2EF1
  8
AM_VIS
 10
987.92184325524181
 20
161.69117588101651
 30
0.0
  0
VERTEX
  5
2EF2
  8
AM_VIS
 10
987.92152189341448
 20
161.6566076962871
 30
0.0
  0
VERTEX
  5
2EF3
  8
AM_VIS
 10
987.9166048281005
 20
161.55063266380839
 30
0.0
  0
VERTEX
  5
2EF4
  8
AM_VIS
 10
987.90310809862285
 20
161.4258913182386
 30
0.0
  0
SEQEND
  5
2EF5
  8
AM_VIS
  0
POLYLINE
  5
1307
  8
AM_VIS
 66
     1
 10
0.0
 20
0.0
 30
0.0
  0
VERTEX
  5
2EF6
  8
AM_VIS
 10
986.31252817697805
 20
159.7294265037018
 30
0.0
  0
VERTEX
  5
2EF7
  8
AM_VIS
 10
987.00908822588917
 20
160.020343219512
 30
0.0
  0
VERTEX
  5
2EF8
  8
AM_VIS
 10
987.54949688468434
 20
160.5425934350188
 30
0.0
  0
VERTEX
  5
2EF9
  8
AM_VIS
 10
987.77563411590859
 20
160.9543947891903
 30
0.0
  0
VERTEX
  5
2EFA
  8
AM_VIS
 10
987.90310810495498
 20
161.4258913190487
 30
0.0
  0
SEQEND
  5
2EFB
  8
AM_VIS
  0
LINE
  5
1308
  8
AM_VIS
 10
999.36623808420256
 20
154.6876424798846
 30
0.0
 11
994.53353697612647
 21
159.52034358796081
 31
0.0
  0
ARC
  5
1309
  8
AM_VIS
 10
999.53082728149536
 20
159.68493278525369
 30
0.0
 40
5.0
 50
88.113605945898598
 51
181.88639405410129
  0
POLYLINE
  5
130A
  8
AM_VIS
 66
     1
 10
0.0
 20
0.0
 30
0.0
  0
VERTEX
  5
2EFC
  8
AM_VIS
 10
1002.036109391629
 20
154.49264490661119
 30
0.0
  0
VERTEX
  5
2EFD
  8
AM_VIS
 10
1001.996871559202
 20
154.5318827390378
 30
0.0
  0
SEQEND
  5
2EFE
  8
AM_VIS
  0
ARC
  5
130B
  8
AM_VIS
 10
999.53082728149536
 20
159.68493278525369
 30
0.0
 40
5.0
 50
337.33368265780467
 51
1.8863940541013939
  0
LINE
  5
130C
  8
AM_VIS
 10
1004.1446512509031
 20
157.7581145843545
 30
0.0
 11
1004.683877327711
 21
157.21888850754669
 31
0.0
  0
POLYLINE
  5
130D
  8
AM_VIS
 66
     1
 10
0.0
 20
0.0
 30
0.0
  0
VERTEX
  5
2EFF
  8
AM_VIS
 10
1004.683877327711
 20
157.21888850754669
 30
0.0
  0
VERTEX
  5
2F00
  8
AM_VIS
 10
1004.723115160137
 20
157.17965067512009
 30
0.0
  0
SEQEND
  5
2F01
  8
AM_VIS
  0
POLYLINE
  5
130E
  8
AM_VIS
 66
     1
 10
0.0
 20
0.0
 30
0.0
  0
VERTEX
  5
2F02
  8
AM_VIS
 10
1002.956476471216
 20
152.764080223771
 30
0.0
  0
VERTEX
  5
2F03
  8
AM_VIS
 10
1003.458933093174
 20
152.80042353431961
 30
0.0
  0
VERTEX
  5
2F04
  8
AM_VIS
 10
1003.833863282218
 20
152.8759844565258
 30
0.0
  0
VERTEX
  5
2F05
  8
AM_VIS
 10
1004.185822674674
 20
152.98731165649201
 30
0.0
  0
VERTEX
  5
2F06
  8
AM_VIS
 10
1004.854637145037
 20
153.32410077045199
 30
0.0
  0
VERTEX
  5
2F07
  8
AM_VIS
 10
1005.442161059367
 20
153.8016020368369
 30
0.0
  0
VERTEX
  5
2F08
  8
AM_VIS
 10
1005.913062618113
 20
154.39465033634991
 30
0.0
  0
VERTEX
  5
2F09
  8
AM_VIS
 10
1006.241803839093
 20
155.06611510248089
 30
0.0
  0
VERTEX
  5
2F0A
  8
AM_VIS
 10
1006.349368706187
 20
155.4197879357522
 30
0.0
  0
VERTEX
  5
2F0B
  8
AM_VIS
 10
1006.420976101802
 20
155.79732677859229
 30
0.0
  0
VERTEX
  5
2F0C
  8
AM_VIS
 10
1006.451679842978
 20
156.2592835954116
 30
0.0
  0
SEQEND
  5
2F0D
  8
AM_VIS
  0
POLYLINE
  5
130F
  8
AM_VIS
 66
     1
 10
0.0
 20
0.0
 30
0.0
  0
VERTEX
  5
2F0E
  8
AM_VIS
 10
1006.152090982552
 20
156.2592835954116
 30
0.0
  0
VERTEX
  5
2F0F
  8
AM_VIS
 10
1006.124111350457
 20
155.83683071733881
 30
0.0
  0
VERTEX
  5
2F10
  8
AM_VIS
 10
1006.058707251789
 20
155.49158682656281
 30
0.0
  0
VERTEX
  5
2F11
  8
AM_VIS
 10
1005.960414938456
 20
155.16817609956081
 30
0.0
  0
VERTEX
  5
2F12
  8
AM_VIS
 10
1005.659924936221
 20
154.5541920564373
 30
0.0
  0
VERTEX
  5
2F13
  8
AM_VIS
 10
1005.22941252793
 20
154.01195030860629
 30
0.0
  0
VERTEX
  5
2F14
  8
AM_VIS
 10
1004.692224243123
 20
153.5754012853312
 30
0.0
  0
VERTEX
  5
2F15
  8
AM_VIS
 10
1004.080665618749
 20
153.26755091832371
 30
0.0
  0
VERTEX
  5
2F16
  8
AM_VIS
 10
1003.758822638933
 20
153.16581758506831
 30
0.0
  0
VERTEX
  5
2F17
  8
AM_VIS
 10
1003.415965208453
 20
153.0967974281192
 30
0.0
  0
VERTEX
  5
2F18
  8
AM_VIS
 10
1002.9564764709741
 20
153.0636690841971
 30
0.0
  0
SEQEND
  5
2F19
  8
AM_VIS
  0
POLYLINE
  5
1310
  8
AM_VIS
 66
     1
 10
0.0
 20
0.0
 30
0.0
  0
VERTEX
  5
2F1A
  8
AM_VIS
 10
1007.7867068090731
 20
154.92425662979721
 30
0.0
  0
VERTEX
  5
2F1B
  8
AM_VIS
 10
1007.784458374936
 20
154.8009473500114
 30
0.0
  0
VERTEX
  5
2F1C
  8
AM_VIS
 10
1007.740628930071
 20
154.36023929175749
 30
0.0
  0
VERTEX
  5
2F1D
  8
AM_VIS
 10
1007.656026205365
 20
153.9788149252401
 30
0.0
  0
VERTEX
  5
2F1E
  8
AM_VIS
 10
1007.546758288493
 20
153.65270748694081
 30
0.0
  0
VERTEX
  5
2F1F
  8
AM_VIS
 10
1007.2208337853079
 20
153.01840111763499
 30
0.0
  0
VERTEX
  5
2F20
  8
AM_VIS
 10
1006.752219716786
 20
152.44270210615801
 30
0.0
  0
VERTEX
  5
2F21
  8
AM_VIS
 10
1006.172900863455
 20
151.9791575321199
 30
0.0
  0
VERTEX
  5
2F22
  8
AM_VIS
 10
1005.537657827773
 20
151.65919288640421
 30
0.0
  0
VERTEX
  5
2F23
  8
AM_VIS
 10
1005.208376864312
 20
151.55183058169641
 30
0.0
  0
VERTEX
  5
2F24
  8
AM_VIS
 10
1004.822494865823
 20
151.46988113480629
 30
0.0
  0
VERTEX
  5
2F25
  8
AM_VIS
 10
1004.378746730514
 20
151.43019452635539
 30
0.0
  0
VERTEX
  5
2F26
  8
AM_VIS
 10
1004.291503437433
 20
151.42905325767481
 30
0.0
  0
SEQEND
  5
2F27
  8
AM_VIS
  0
LINE
  5
1311
  8
AM_VIS
 10
836.03580443274029
 20
384.58269656449949
 30
0.0
 11
836.03580443274029
 21
278.93493278525369
 31
0.0
  0
LINE
  5
1312
  8
AM_VIS
 10
838.56141072772323
 20
278.93493278525369
 30
0.0
 11
838.56141072772323
 21
382.42361051154552
 31
0.0
  0
LINE
  5
1313
  8
AM_VIS
 10
849.73082728149529
 20
278.93493278525369
 30
0.0
 11
849.73082728149529
 21
382.48493278525359
 31
0.0
  0
POLYLINE
  5
1314
  8
AM_VIS
 66
     1
 10
0.0
 20
0.0
 30
0.0
  0
VERTEX
  5
2F28
  8
AM_VIS
 10
827.77494775391654
 20
278.93493278525369
 30
0.0
  0
VERTEX
  5
2F29
  8
AM_VIS
 10
827.77494775391654
 20
288.26024832895791
 30
0.0
  0
VERTEX
  5
2F2A
  8
AM_VIS
 10
827.77494775391654
 20
303.91335555457363
 30
0.0
  0
VERTEX
  5
2F2B
  8
AM_VIS
 10
827.77494775391654
 20
320.61127396565411
 30
0.0
  0
VERTEX
  5
2F2C
  8
AM_VIS
 10
827.77494775391654
 20
337.30890868539723
 30
0.0
  0
VERTEX
  5
2F2D
  8
AM_VIS
 10
827.77494775391654
 20
353.99951336309431
 30
0.0
  0
VERTEX
  5
2F2E
  8
AM_VIS
 10
827.77494775391654
 20
370.70892079751093
 30
0.0
  0
VERTEX
  5
2F2F
  8
AM_VIS
 10
827.77494775391654
 20
387.41817442708373
 30
0.0
  0
VERTEX
  5
2F30
  8
AM_VIS
 10
827.77494775391654
 20
395.7145455461677
 30
0.0
  0
VERTEX
  5
2F31
  8
AM_VIS
 10
827.77494775391654
 20
399.85709153337638
 30
0.0
  0
VERTEX
  5
2F32
  8
AM_VIS
 10
827.77494775391654
 20
401.93592600172627
 30
0.0
  0
VERTEX
  5
2F33
  8
AM_VIS
 10
827.77494775391654
 20
402.45717433949642
 30
0.0
  0
VERTEX
  5
2F34
  8
AM_VIS
 10
827.77494775391779
 20
402.94560894071009
 30
0.0
  0
SEQEND
  5
2F35
  8
AM_VIS
  0
POLYLINE
  5
1315
  8
AM_VIS
 66
     1
 10
0.0
 20
0.0
 30
0.0
  0
VERTEX
  5
2F36
  8
AM_VIS
 10
829.10997472001225
 20
401.61058197509578
 30
0.0
  0
VERTEX
  5
2F37
  8
AM_VIS
 10
829.10997472001225
 20
400.60550704514679
 30
0.0
  0
VERTEX
  5
2F38
  8
AM_VIS
 10
829.10997472001225
 20
396.47681110295048
 30
0.0
  0
VERTEX
  5
2F39
  8
AM_VIS
 10
829.10997472001225
 20
388.2522164228169
 30
0.0
  0
VERTEX
  5
2F3A
  8
AM_VIS
 10
829.10997472001225
 20
371.74748605180099
 30
0.0
  0
VERTEX
  5
2F3B
  8
AM_VIS
 10
829.10997472001225
 20
355.23018898407491
 30
0.0
  0
VERTEX
  5
2F3C
  8
AM_VIS
 10
829.10997472001225
 20
338.72020184482352
 30
0.0
  0
VERTEX
  5
2F3D
  8
AM_VIS
 10
829.10997472001225
 20
322.21018485032499
 30
0.0
  0
VERTEX
  5
2F3E
  8
AM_VIS
 10
829.10997472001225
 20
305.69882391708558
 30
0.0
  0
VERTEX
  5
2F3F
  8
AM_VIS
 10
829.10997472001225
 20
289.18806866408971
 30
0.0
  0
VERTEX
  5
2F40
  8
AM_VIS
 10
829.10997472001225
 20
278.93493278525369
 30
0.0
  0
SEQEND
  5
2F41
  8
AM_VIS
  0
POLYLINE
  5
1316
  8
AM_VIS
 66
     1
 10
0.0
 20
0.0
 30
0.0
  0
VERTEX
  5
2F42
  8
AM_VIS
 10
829.40956358043866
 20
278.93493278525369
 30
0.0
  0
VERTEX
  5
2F43
  8
AM_VIS
 10
829.40956358043866
 20
289.18806866408971
 30
0.0
  0
VERTEX
  5
2F44
  8
AM_VIS
 10
829.40956358043866
 20
305.69882391708558
 30
0.0
  0
VERTEX
  5
2F45
  8
AM_VIS
 10
829.40956358043866
 20
322.21018485032499
 30
0.0
  0
VERTEX
  5
2F46
  8
AM_VIS
 10
829.40956358043866
 20
338.72020184482352
 30
0.0
  0
VERTEX
  5
2F47
  8
AM_VIS
 10
829.40956358043866
 20
355.23018898407491
 30
0.0
  0
VERTEX
  5
2F48
  8
AM_VIS
 10
829.40956358043866
 20
371.74748605180099
 30
0.0
  0
VERTEX
  5
2F49
  8
AM_VIS
 10
829.40956358043866
 20
388.2522164228169
 30
0.0
  0
VERTEX
  5
2F4A
  8
AM_VIS
 10
829.40956358043866
 20
396.47681110295048
 30
0.0
  0
VERTEX
  5
2F4B
  8
AM_VIS
 10
829.40956358043866
 20
400.60550704514679
 30
0.0
  0
VERTEX
  5
2F4C
  8
AM_VIS
 10
829.40956358043866
 20
401.61058197509578
 30
0.0
  0
SEQEND
  5
2F4D
  8
AM_VIS
  0
POLYLINE
  5
1317
  8
AM_VIS
 66
     1
 10
0.0
 20
0.0
 30
0.0
  0
VERTEX
  5
2F4E
  8
AM_VIS
 10
831.94613791148095
 20
388.3727742253306
 30
0.0
  0
VERTEX
  5
2F4F
  8
AM_VIS
 10
831.94613791148095
 20
387.46990421421663
 30
0.0
  0
VERTEX
  5
2F50
  8
AM_VIS
 10
831.94613791148095
 20
383.76512564915993
 30
0.0
  0
VERTEX
  5
2F51
  8
AM_VIS
 10
831.94613791148095
 20
376.40275826602931
 30
0.0
  0
VERTEX
  5
2F52
  8
AM_VIS
 10
831.94613791148095
 20
369.04410656569439
 30
0.0
  0
VERTEX
  5
2F53
  8
AM_VIS
 10
831.94613791148095
 20
361.69264248645919
 30
0.0
  0
VERTEX
  5
2F54
  8
AM_VIS
 10
831.94613791148095
 20
346.97265634461661
 30
0.0
  0
VERTEX
  5
2F55
  8
AM_VIS
 10
831.94613791148095
 20
332.24520460084369
 30
0.0
  0
VERTEX
  5
2F56
  8
AM_VIS
 10
831.94613791148095
 20
317.52369560284052
 30
0.0
  0
VERTEX
  5
2F57
  8
AM_VIS
 10
831.94613791148095
 20
302.80088614542831
 30
0.0
  0
VERTEX
  5
2F58
  8
AM_VIS
 10
831.94613791148095
 20
288.07769435166853
 30
0.0
  0
VERTEX
  5
2F59
  8
AM_VIS
 10
831.94613791148095
 20
278.93493278525369
 30
0.0
  0
SEQEND
  5
2F5A
  8
AM_VIS
  0
LINE
  5
1318
  8
AM_VIS
 10
917.78082728149548
 20
398.17995563400871
 30
0.0
 11
849.63306350224946
 21
398.17995563400871
 31
0.0
  0
LINE
  5
1319
  8
AM_VIS
 10
851.79215029217687
 20
395.6543493390256
 30
0.0
 11
917.78082728149548
 21
395.6543493390256
 31
0.0
  0
LINE
  5
131A
  8
AM_VIS
 10
851.73082728149541
 20
384.4849327852537
 30
0.0
 11
917.78082728149548
 21
384.4849327852537
 31
0.0
  0
POLYLINE
  5
131B
  8
AM_VIS
 66
     1
 10
0.0
 20
0.0
 30
0.0
  0
VERTEX
  5
2F5B
  8
AM_VIS
 10
831.27015112555728
 20
406.44081231283252
 30
0.0
  0
VERTEX
  5
2F5C
  8
AM_VIS
 10
831.32667151810972
 20
406.44081231283252
 30
0.0
  0
VERTEX
  5
2F5D
  8
AM_VIS
 10
832.80842512854963
 20
406.44081231283252
 30
0.0
  0
VERTEX
  5
2F5E
  8
AM_VIS
 10
838.71094480414854
 20
406.44081231283252
 30
0.0
  0
VERTEX
  5
2F5F
  8
AM_VIS
 10
844.64664022068803
 20
406.44081231283252
 30
0.0
  0
VERTEX
  5
2F60
  8
AM_VIS
 10
850.62251036076736
 20
406.44081231283252
 30
0.0
  0
VERTEX
  5
2F61
  8
AM_VIS
 10
862.56819860360793
 20
406.44081231283252
 30
0.0
  0
VERTEX
  5
2F62
  8
AM_VIS
 10
874.4889395438978
 20
406.44081231283252
 30
0.0
  0
VERTEX
  5
2F63
  8
AM_VIS
 10
886.41530260811214
 20
406.44081231283252
 30
0.0
  0
VERTEX
  5
2F64
  8
AM_VIS
 10
898.34331249646175
 20
406.44081231283252
 30
0.0
  0
VERTEX
  5
2F65
  8
AM_VIS
 10
910.26965615408665
 20
406.44081231283252
 30
0.0
  0
VERTEX
  5
2F66
  8
AM_VIS
 10
917.78082728149525
 20
406.44081231283252
 30
0.0
  0
SEQEND
  5
2F67
  8
AM_VIS
  0
POLYLINE
  5
131C
  8
AM_VIS
 66
     1
 10
0.0
 20
0.0
 30
0.0
  0
VERTEX
  5
2F68
  8
AM_VIS
 10
917.78082728149525
 20
405.10578534673658
 30
0.0
  0
VERTEX
  5
2F69
  8
AM_VIS
 10
911.8567561828454
 20
405.10578534673658
 30
0.0
  0
VERTEX
  5
2F6A
  8
AM_VIS
 10
901.58763046196225
 20
405.10578534673658
 30
0.0
  0
VERTEX
  5
2F6B
  8
AM_VIS
 10
889.85102469475203
 20
405.10578534673658
 30
0.0
  0
VERTEX
  5
2F6C
  8
AM_VIS
 10
878.1148302658321
 20
405.10578534673658
 30
0.0
  0
VERTEX
  5
2F6D
  8
AM_VIS
 10
866.38043467899729
 20
405.10578534673658
 30
0.0
  0
VERTEX
  5
2F6E
  8
AM_VIS
 10
854.63881952968973
 20
405.10578534673658
 30
0.0
  0
VERTEX
  5
2F6F
  8
AM_VIS
 10
842.90224006102289
 20
405.10578534673658
 30
0.0
  0
VERTEX
  5
2F70
  8
AM_VIS
 10
837.05850015628062
 20
405.10578534673658
 30
0.0
  0
VERTEX
  5
2F71
  8
AM_VIS
 10
834.13262749375906
 20
405.10578534673658
 30
0.0
  0
VERTEX
  5
2F72
  8
AM_VIS
 10
832.66136455276057
 20
405.10578534673681
 30
0.0
  0
VERTEX
  5
2F73
  8
AM_VIS
 10
832.60517809177463
 20
405.10578534673641
 30
0.0
  0
SEQEND
  5
2F74
  8
AM_VIS
  0
POLYLINE
  5
131D
  8
AM_VIS
 66
     1
 10
0.0
 20
0.0
 30
0.0
  0
VERTEX
  5
2F75
  8
AM_VIS
 10
832.60517809201667
 20
404.80619648631028
 30
0.0
  0
VERTEX
  5
2F76
  8
AM_VIS
 10
832.66136455276057
 20
404.8061964863104
 30
0.0
  0
VERTEX
  5
2F77
  8
AM_VIS
 10
834.13262749375906
 20
404.80619648631028
 30
0.0
  0
VERTEX
  5
2F78
  8
AM_VIS
 10
837.05850015628062
 20
404.80619648631028
 30
0.0
  0
VERTEX
  5
2F79
  8
AM_VIS
 10
842.90224006102289
 20
404.8061964863104
 30
0.0
  0
VERTEX
  5
2F7A
  8
AM_VIS
 10
854.63881952968973
 20
404.80619648631028
 30
0.0
  0
VERTEX
  5
2F7B
  8
AM_VIS
 10
866.38043467899729
 20
404.8061964863104
 30
0.0
  0
VERTEX
  5
2F7C
  8
AM_VIS
 10
878.1148302658321
 20
404.80619648631028
 30
0.0
  0
VERTEX
  5
2F7D
  8
AM_VIS
 10
889.85102469475203
 20
404.8061964863104
 30
0.0
  0
VERTEX
  5
2F7E
  8
AM_VIS
 10
901.58763046196225
 20
404.80619648631028
 30
0.0
  0
VERTEX
  5
2F7F
  8
AM_VIS
 10
911.8567561828454
 20
404.80619648631028
 30
0.0
  0
VERTEX
  5
2F80
  8
AM_VIS
 10
917.78082728149525
 20
404.80619648631028
 30
0.0
  0
SEQEND
  5
2F81
  8
AM_VIS
  0
POLYLINE
  5
131E
  8
AM_VIS
 66
     1
 10
0.0
 20
0.0
 30
0.0
  0
VERTEX
  5
2F82
  8
AM_VIS
 10
917.78082728149525
 20
402.26962215526822
 30
0.0
  0
VERTEX
  5
2F83
  8
AM_VIS
 10
912.37347249207562
 20
402.26962215526822
 30
0.0
  0
VERTEX
  5
2F84
  8
AM_VIS
 10
903.29627882208717
 20
402.26962215526822
 30
0.0
  0
VERTEX
  5
2F85
  8
AM_VIS
 10
893.61414138914824
 20
402.26962215526822
 30
0.0
  0
VERTEX
  5
2F86
  8
AM_VIS
 10
883.93315089059524
 20
402.26962215526822
 30
0.0
  0
VERTEX
  5
2F87
  8
AM_VIS
 10
874.24792296196324
 20
402.26962215526822
 30
0.0
  0
VERTEX
  5
2F88
  8
AM_VIS
 10
864.5666517712076
 20
402.26962215526822
 30
0.0
  0
VERTEX
  5
2F89
  8
AM_VIS
 10
859.73441774997764
 20
402.26962215526822
 30
0.0
  0
VERTEX
  5
2F8A
  8
AM_VIS
 10
854.89604444971906
 20
402.26962215526822
 30
0.0
  0
VERTEX
  5
2F8B
  8
AM_VIS
 10
850.05236979493066
 20
402.26962215526822
 30
0.0
  0
VERTEX
  5
2F8C
  8
AM_VIS
 10
847.62115155247272
 20
402.26962215526811
 30
0.0
  0
VERTEX
  5
2F8D
  8
AM_VIS
 10
846.39803010145579
 20
402.26962215526811
 30
0.0
  0
VERTEX
  5
2F8E
  8
AM_VIS
 10
845.84298584120791
 20
402.26962215526822
 30
0.0
  0
SEQEND
  5
2F8F
  8
AM_VIS
  0
LINE
  5
131F
  8
AM_VIS
 10
833.56478300378853
 20
403.3379828314695
 30
0.0
 11
834.10400908059626
 21
402.79875675466178
 31
0.0
  0
LINE
  5
1320
  8
AM_VIS
 10
835.86623808420245
 20
393.18764247988469
 30
0.0
 11
831.03353697612647
 21
398.02034358796089
 31
0.0
  0
POLYLINE
  5
1321
  8
AM_VIS
 66
     1
 10
0.0
 20
0.0
 30
0.0
  0
VERTEX
  5
2F90
  8
AM_VIS
 10
834.24298584141627
 20
390.66962215526809
 30
0.0
  0
VERTEX
  5
2F91
  8
AM_VIS
 10
833.93801593114154
 20
390.64933416170669
 30
0.0
  0
VERTEX
  5
2F92
  8
AM_VIS
 10
833.45212775425148
 20
390.52944072523428
 30
0.0
  0
VERTEX
  5
2F93
  8
AM_VIS
 10
833.00072349462744
 20
390.3052337447736
 30
0.0
  0
VERTEX
  5
2F94
  8
AM_VIS
 10
832.61172136175549
 20
389.99047718490931
 30
0.0
  0
VERTEX
  5
2F95
  8
AM_VIS
 10
832.30038641508088
 20
389.59910832837397
 30
0.0
  0
VERTEX
  5
2F96
  8
AM_VIS
 10
832.07857239076066
 20
389.1421460446843
 30
0.0
  0
VERTEX
  5
2F97
  8
AM_VIS
 10
831.96409310309366
 20
388.6597515627322
 30
0.0
  0
VERTEX
  5
2F98
  8
AM_VIS
 10
831.94613791148095
 20
388.3727742253306
 30
0.0
  0
SEQEND
  5
2F99
  8
AM_VIS
  0
CIRCLE
  5
1322
  8
AM_VIS
 10
836.03082728149536
 20
398.18493278525369
 30
0.0
 40
6.1000000000000014
  0
CIRCLE
  5
1323
  8
AM_VIS
 10
836.03082728149536
 20
398.18493278525369
 30
0.0
 40
5.7973820393505093
  0
POLYLINE
  5
1324
  8
AM_VIS
 66
     1
 10
0.0
 20
0.0
 30
0.0
  0
VERTEX
  5
2F9A
  8
AM_VIS
 10
847.63967435645009
 20
394.36539608138452
 30
0.0
  0
VERTEX
  5
2F9B
  8
AM_VIS
 10
847.62094310932014
 20
393.82667485823231
 30
0.0
  0
VERTEX
  5
2F9C
  8
AM_VIS
 10
847.44816449461928
 20
392.65471591398858
 30
0.0
  0
VERTEX
  5
2F9D
  8
AM_VIS
 10
846.19917270292785
 20
389.85717928255718
 30
0.0
  0
VERTEX
  5
2F9E
  8
AM_VIS
 10
843.98397484906275
 20
387.7664283892455
 30
0.0
  0
VERTEX
  5
2F9F
  8
AM_VIS
 10
841.62765111098895
 20
386.78295053173429
 30
0.0
  0
VERTEX
  5
2FA0
  8
AM_VIS
 10
840.3610053367513
 20
386.59289058469489
 30
0.0
  0
VERTEX
  5
2FA1
  8
AM_VIS
 10
839.85036219266294
 20
386.57608750300028
 30
0.0
  0
SEQEND
  5
2FA2
  8
AM_VIS
  0
POLYLINE
  5
1325
  8
AM_VIS
 66
     1
 10
0.0
 20
0.0
 30
0.0
  0
VERTEX
  5
2FA3
  8
AM_VIS
 10
840.19607897337426
 20
384.07590420963402
 30
0.0
  0
VERTEX
  5
2FA4
  8
AM_VIS
 10
842.46180260640881
 20
384.07628774737719
 30
0.0
  0
VERTEX
  5
2FA5
  8
AM_VIS
 10
843.531626053276
 20
384.0767980095174
 30
0.0
  0
VERTEX
  5
2FA6
  8
AM_VIS
 10
844.46884434982678
 20
384.07728623078862
 30
0.0
  0
VERTEX
  5
2FA7
  8
AM_VIS
 10
846.54953391592608
 20
384.08031693793748
 30
0.0
  0
VERTEX
  5
2FA8
  8
AM_VIS
 10
847.43123445820675
 20
384.07810521831777
 30
0.0
  0
VERTEX
  5
2FA9
  8
AM_VIS
 10
848.81263010556358
 20
384.20176963357761
 30
0.0
  0
VERTEX
  5
2FAA
  8
AM_VIS
 10
849.44868362796024
 20
384.57635304940328
 30
0.0
  0
VERTEX
  5
2FAB
  8
AM_VIS
 10
849.91753404472297
 20
385.17903105887677
 30
0.0
  0
VERTEX
  5
2FAC
  8
AM_VIS
 10
850.11759493876468
 20
385.87320301915599
 30
0.0
  0
VERTEX
  5
2FAD
  8
AM_VIS
 10
850.13438589617476
 20
387.06970450383318
 30
0.0
  0
VERTEX
  5
2FAE
  8
AM_VIS
 10
850.13781407562851
 20
388.1086475133452
 30
0.0
  0
VERTEX
  5
2FAF
  8
AM_VIS
 10
850.13856889590795
 20
388.73562083352613
 30
0.0
  0
VERTEX
  5
2FB0
  8
AM_VIS
 10
850.13895285500416
 20
390.80378049774038
 30
0.0
  0
VERTEX
  5
2FB1
  8
AM_VIS
 10
850.13996618456372
 20
394.019712840777
 30
0.0
  0
SEQEND
  5
2FB2
  8
AM_VIS
  0
POLYLINE
  5
1326
  8
AM_VIS
 66
     1
 10
0.0
 20
0.0
 30
0.0
  0
VERTEX
  5
2FB3
  8
AM_VIS
 10
843.54613791148086
 20
398.15934366592751
 30
0.0
  0
VERTEX
  5
2FB4
  8
AM_VIS
 10
843.5446875422316
 20
398.01175655527339
 30
0.0
  0
VERTEX
  5
2FB5
  8
AM_VIS
 10
843.49253492875209
 20
397.26379585754961
 30
0.0
  0
VERTEX
  5
2FB6
  8
AM_VIS
 10
843.18307319804933
 20
395.85348126483382
 30
0.0
  0
VERTEX
  5
2FB7
  8
AM_VIS
 10
842.61172036772996
 20
394.53391970200039
 30
0.0
  0
VERTEX
  5
2FB8
  8
AM_VIS
 10
841.79806368732488
 20
393.34737346146642
 30
0.0
  0
VERTEX
  5
2FB9
  8
AM_VIS
 10
840.77197561716616
 20
392.33827946579868
 30
0.0
  0
VERTEX
  5
2FBA
  8
AM_VIS
 10
839.57112869627235
 20
391.54407591098771
 30
0.0
  0
VERTEX
  5
2FBB
  8
AM_VIS
 10
838.24004142854653
 20
390.99434896990289
 30
0.0
  0
VERTEX
  5
2FBC
  8
AM_VIS
 10
836.8302908052857
 20
390.7096109254374
 30
0.0
  0
VERTEX
  5
2FBD
  8
AM_VIS
 10
836.13377313530316
 20
390.67002057095988
 30
0.0
  0
VERTEX
  5
2FBE
  8
AM_VIS
 10
836.05641640083854
 20
390.66962215526809
 30
0.0
  0
SEQEND
  5
2FBF
  8
AM_VIS
  0
ARC
  5
1327
  8
AM_VIS
 10
851.73082728149541
 20
382.4849327852537
 30
0.0
 40
2.0
 50
90.0
 51
180.0
  0
POLYLINE
  5
1328
  8
AM_VIS
 66
     1
 10
0.0
 20
0.0
 30
0.0
  0
VERTEX
  5
2FC0
  8
AM_VIS
 10
836.05641640083854
 20
390.66962215526809
 30
0.0
  0
VERTEX
  5
2FC1
  8
AM_VIS
 10
835.90143139698307
 20
390.66962215526809
 30
0.0
  0
VERTEX
  5
2FC2
  8
AM_VIS
 10
835.64961845667744
 20
390.6696221552682
 30
0.0
  0
VERTEX
  5
2FC3
  8
AM_VIS
 10
835.39635581230641
 20
390.66962215526809
 30
0.0
  0
VERTEX
  5
2FC4
  8
AM_VIS
 10
835.14441149956895
 20
390.66962215526809
 30
0.0
  0
VERTEX
  5
2FC5
  8
AM_VIS
 10
834.89092255581772
 20
390.66962215526809
 30
0.0
  0
VERTEX
  5
2FC6
  8
AM_VIS
 10
834.6408719875833
 20
390.66962215526809
 30
0.0
  0
VERTEX
  5
2FC7
  8
AM_VIS
 10
834.38804192768498
 20
390.66962215526809
 30
0.0
  0
VERTEX
  5
2FC8
  8
AM_VIS
 10
834.24298584141627
 20
390.66962215526809
 30
0.0
  0
SEQEND
  5
2FC9
  8
AM_VIS
  0
POLYLINE
  5
1329
  8
AM_VIS
 66
     1
 10
0.0
 20
0.0
 30
0.0
  0
VERTEX
  5
2FCA
  8
AM_VIS
 10
836.03580443274029
 20
384.58269656449949
 30
0.0
  0
VERTEX
  5
2FCB
  8
AM_VIS
 10
836.04570796333314
 20
384.77610298094748
 30
0.0
  0
VERTEX
  5
2FCC
  8
AM_VIS
 10
836.07532548074425
 20
384.96665512313928
 30
0.0
  0
SEQEND
  5
2FCD
  8
AM_VIS
  0
POLYLINE
  5
132A
  8
AM_VIS
 66
     1
 10
0.0
 20
0.0
 30
0.0
  0
VERTEX
  5
2FCE
  8
AM_VIS
 10
837.77186172675306
 20
386.55722300832218
 30
0.0
  0
VERTEX
  5
2FCF
  8
AM_VIS
 10
837.07111225546225
 20
386.31932041861671
 30
0.0
  0
VERTEX
  5
2FD0
  8
AM_VIS
 10
836.4980251420659
 20
385.84104035681651
 30
0.0
  0
VERTEX
  5
2FD1
  8
AM_VIS
 10
836.23578431681278
 20
385.43465220406978
 30
0.0
  0
VERTEX
  5
2FD2
  8
AM_VIS
 10
836.07532548074414
 20
384.96665512313928
 30
0.0
  0
SEQEND
  5
2FD3
  8
AM_VIS
  0
POLYLINE
  5
132B
  8
AM_VIS
 66
     1
 10
0.0
 20
0.0
 30
0.0
  0
VERTEX
  5
2FD4
  8
AM_VIS
 10
839.85036219266294
 20
386.57608750300028
 30
0.0
  0
VERTEX
  5
2FD5
  8
AM_VIS
 10
839.08543457524524
 20
386.5762643954593
 30
0.0
  0
VERTEX
  5
2FD6
  8
AM_VIS
 10
838.03707047598505
 20
386.57595227196822
 30
0.0
  0
SEQEND
  5
2FD7
  8
AM_VIS
  0
POLYLINE
  5
132C
  8
AM_VIS
 66
     1
 10
0.0
 20
0.0
 30
0.0
  0
VERTEX
  5
2FD8
  8
AM_VIS
 10
838.56141072772323
 20
382.42361051154558
 30
0.0
  0
VERTEX
  5
2FD9
  8
AM_VIS
 10
838.69418232164389
 20
383.16841143406248
 30
0.0
  0
VERTEX
  5
2FDA
  8
AM_VIS
 10
838.99610552601666
 20
383.63392318543561
 30
0.0
  0
VERTEX
  5
2FDB
  8
AM_VIS
 10
839.42730115011943
 20
383.9280316612888
 30
0.0
  0
VERTEX
  5
2FDC
  8
AM_VIS
 10
839.78779683276684
 20
384.03867184565257
 30
0.0
  0
VERTEX
  5
2FDD
  8
AM_VIS
 10
840.19607897846629
 20
384.07584032115301
 30
0.0
  0
SEQEND
  5
2FDE
  8
AM_VIS
  0
POLYLINE
  5
132D
  8
AM_VIS
 66
     1
 10
0.0
 20
0.0
 30
0.0
  0
VERTEX
  5
2FDF
  8
AM_VIS
 10
837.77186172188317
 20
386.5572230071374
 30
0.0
  0
VERTEX
  5
2FE0
  8
AM_VIS
 10
837.87238233595053
 20
386.56875301254303
 30
0.0
  0
VERTEX
  5
2FE1
  8
AM_VIS
 10
837.98600105343928
 20
386.57525174921898
 30
0.0
  0
VERTEX
  5
2FE2
  8
AM_VIS
 10
838.03707074836859
 20
386.5759483878881
 30
0.0
  0
SEQEND
  5
2FE3
  8
AM_VIS
  0
POLYLINE
  5
132E
  8
AM_VIS
 66
     1
 10
0.0
 20
0.0
 30
0.0
  0
VERTEX
  5
2FE4
  8
AM_VIS
 10
850.13991983803805
 20
394.01971284031532
 30
0.0
  0
VERTEX
  5
2FE5
  8
AM_VIS
 10
850.2703797021984
 20
394.74736251299532
 30
0.0
  0
VERTEX
  5
2FE6
  8
AM_VIS
 10
850.57056235232551
 20
395.20840588448209
 30
0.0
  0
VERTEX
  5
2FE7
  8
AM_VIS
 10
851.00304649305883
 20
395.50290020244512
 30
0.0
  0
VERTEX
  5
2FE8
  8
AM_VIS
 10
851.37259716776259
 20
395.61628495009501
 30
0.0
  0
VERTEX
  5
2FE9
  8
AM_VIS
 10
851.79215029217687
 20
395.6543493390256
 30
0.0
  0
SEQEND
  5
2FEA
  8
AM_VIS
  0
ARC
  5
132F
  8
AM_VIS
 10
836.03082728149536
 20
398.18493278525369
 30
0.0
 40
5.0
 50
88.113605945898598
 51
112.6663173421943
  0
POLYLINE
  5
1330
  8
AM_VIS
 66
     1
 10
0.0
 20
0.0
 30
0.0
  0
VERTEX
  5
2FEB
  8
AM_VIS
 10
843.54613791148086
 20
399.97277422585779
 30
0.0
  0
VERTEX
  5
2FEC
  8
AM_VIS
 10
843.54613791148086
 20
399.80647201262491
 30
0.0
  0
VERTEX
  5
2FED
  8
AM_VIS
 10
843.54613791148086
 20
399.55784099998198
 30
0.0
  0
VERTEX
  5
2FEE
  8
AM_VIS
 10
843.54613791148086
 20
399.31050755185157
 30
0.0
  0
VERTEX
  5
2FEF
  8
AM_VIS
 10
843.54613791148086
 20
399.06014130922489
 30
0.0
  0
VERTEX
  5
2FF0
  8
AM_VIS
 10
843.54613791148086
 20
398.81131500197358
 30
0.0
  0
VERTEX
  5
2FF1
  8
AM_VIS
 10
843.54613791148086
 20
398.56110290690162
 30
0.0
  0
VERTEX
  5
2FF2
  8
AM_VIS
 10
843.54613791148086
 20
398.31245960377152
 30
0.0
  0
VERTEX
  5
2FF3
  8
AM_VIS
 10
843.54613791148086
 20
398.15934366592751
 30
0.0
  0
SEQEND
  5
2FF4
  8
AM_VIS
  0
POLYLINE
  5
1331
  8
AM_VIS
 66
     1
 10
0.0
 20
0.0
 30
0.0
  0
VERTEX
  5
2FF5
  8
AM_VIS
 10
845.84298584120791
 20
402.26962215526822
 30
0.0
  0
VERTEX
  5
2FF6
  8
AM_VIS
 10
845.55562382976325
 20
402.25161859777307
 30
0.0
  0
VERTEX
  5
2FF7
  8
AM_VIS
 10
845.07319000370455
 20
402.1370371256798
 30
0.0
  0
VERTEX
  5
2FF8
  8
AM_VIS
 10
844.616409622373
 20
401.91522089593178
 30
0.0
  0
VERTEX
  5
2FF9
  8
AM_VIS
 10
844.2251168531244
 20
401.60387404197593
 30
0.0
  0
VERTEX
  5
2FFA
  8
AM_VIS
 10
843.91043103132745
 20
401.21488822335101
 30
0.0
  0
VERTEX
  5
2FFB
  8
AM_VIS
 10
843.68628222148391
 20
400.76353093456368
 30
0.0
  0
VERTEX
  5
2FFC
  8
AM_VIS
 10
843.56642061158891
 20
400.27770453057849
 30
0.0
  0
VERTEX
  5
2FFD
  8
AM_VIS
 10
843.54613791148086
 20
399.97277422585779
 30
0.0
  0
SEQEND
  5
2FFE
  8
AM_VIS
  0
POLYLINE
  5
1332
  8
AM_VIS
 66
     1
 10
0.0
 20
0.0
 30
0.0
  0
VERTEX
  5
2FFF
  8
AM_VIS
 10
849.24912638673959
 20
398.14043906695741
 30
0.0
  0
VERTEX
  5
3000
  8
AM_VIS
 10
849.43966802093826
 20
398.17005322894272
 30
0.0
  0
VERTEX
  5
3001
  8
AM_VIS
 10
849.63306350224946
 20
398.17995563400871
 30
0.0
  0
SEQEND
  5
3002
  8
AM_VIS
  0
POLYLINE
  5
1333
  8
AM_VIS
 66
     1
 10
0.0
 20
0.0
 30
0.0
  0
VERTEX
  5
3003
  8
AM_VIS
 10
847.63981132636161
 20
396.17868968799718
 30
0.0
  0
VERTEX
  5
3004
  8
AM_VIS
 10
847.63978449835065
 20
396.06805634026102
 30
0.0
  0
VERTEX
  5
3005
  8
AM_VIS
 10
847.63967435645009
 20
394.36539608138452
 30
0.0
  0
SEQEND
  5
3006
  8
AM_VIS
  0
POLYLINE
  5
1334
  8
AM_VIS
 66
     1
 10
0.0
 20
0.0
 30
0.0
  0
VERTEX
  5
3007
  8
AM_VIS
 10
847.63981130774914
 20
396.1786896894908
 30
0.0
  0
VERTEX
  5
3008
  8
AM_VIS
 10
847.64013266957625
 20
396.21325787422029
 30
0.0
  0
VERTEX
  5
3009
  8
AM_VIS
 10
847.64504973489034
 20
396.31923290669891
 30
0.0
  0
VERTEX
  5
300A
  8
AM_VIS
 10
847.6585464643681
 20
396.44397425226879
 30
0.0
  0
SEQEND
  5
300B
  8
AM_VIS
  0
POLYLINE
  5
1335
  8
AM_VIS
 66
     1
 10
0.0
 20
0.0
 30
0.0
  0
VERTEX
  5
300C
  8
AM_VIS
 10
849.2491263860129
 20
398.14043906680553
 30
0.0
  0
VERTEX
  5
300D
  8
AM_VIS
 10
848.55256633710167
 20
397.8495223509953
 30
0.0
  0
VERTEX
  5
300E
  8
AM_VIS
 10
848.01215767830661
 20
397.3272721354885
 30
0.0
  0
VERTEX
  5
300F
  8
AM_VIS
 10
847.78602044708236
 20
396.91547078131708
 30
0.0
  0
VERTEX
  5
3010
  8
AM_VIS
 10
847.65854645803586
 20
396.44397425145849
 30
0.0
  0
SEQEND
  5
3011
  8
AM_VIS
  0
LINE
  5
1336
  8
AM_VIS
 10
836.19541647878827
 20
403.1822230906227
 30
0.0
 11
841.02811758686448
 21
398.34952198254649
 31
0.0
  0
ARC
  5
1337
  8
AM_VIS
 10
836.03082728149536
 20
398.18493278525369
 30
0.0
 40
5.0
 50
268.1136059458986
 51
1.8863940541013939
  0
POLYLINE
  5
1338
  8
AM_VIS
 66
     1
 10
0.0
 20
0.0
 30
0.0
  0
VERTEX
  5
3012
  8
AM_VIS
 10
833.52554517136195
 20
403.37722066389608
 30
0.0
  0
VERTEX
  5
3013
  8
AM_VIS
 10
833.56478300378831
 20
403.3379828314695
 30
0.0
  0
SEQEND
  5
3014
  8
AM_VIS
  0
ARC
  5
1339
  8
AM_VIS
 10
836.03082728149536
 20
398.18493278525369
 30
0.0
 40
5.0
 50
157.33368265780479
 51
181.88639405410129
  0
LINE
  5
133A
  8
AM_VIS
 10
831.41700331208733
 20
400.1117509861528
 30
0.0
 11
830.87777723527961
 21
400.65097706296058
 31
0.0
  0
POLYLINE
  5
133B
  8
AM_VIS
 66
     1
 10
0.0
 20
0.0
 30
0.0
  0
VERTEX
  5
3015
  8
AM_VIS
 10
830.87777723527961
 20
400.65097706296058
 30
0.0
  0
VERTEX
  5
3016
  8
AM_VIS
 10
830.83853940285303
 20
400.69021489538721
 30
0.0
  0
SEQEND
  5
3017
  8
AM_VIS
  0
POLYLINE
  5
133C
  8
AM_VIS
 66
     1
 10
0.0
 20
0.0
 30
0.0
  0
VERTEX
  5
3018
  8
AM_VIS
 10
832.60517809177463
 20
405.10578534673641
 30
0.0
  0
VERTEX
  5
3019
  8
AM_VIS
 10
832.10272146981652
 20
405.0694420361877
 30
0.0
  0
VERTEX
  5
301A
  8
AM_VIS
 10
831.72779128077207
 20
404.9938811139815
 30
0.0
  0
VERTEX
  5
301B
  8
AM_VIS
 10
831.37583188831695
 20
404.88255391401532
 30
0.0
  0
VERTEX
  5
301C
  8
AM_VIS
 10
830.70701741795358
 20
404.54576480005539
 30
0.0
  0
VERTEX
  5
301D
  8
AM_VIS
 10
830.11949350362329
 20
404.0682635336704
 30
0.0
  0
VERTEX
  5
301E
  8
AM_VIS
 10
829.64859194487792
 20
403.47521523415747
 30
0.0
  0
VERTEX
  5
301F
  8
AM_VIS
 10
829.31985072389784
 20
402.80375046802652
 30
0.0
  0
VERTEX
  5
3020
  8
AM_VIS
 10
829.21228585680308
 20
402.45007763475519
 30
0.0
  0
VERTEX
  5
3021
  8
AM_VIS
 10
829.14067846118826
 20
402.07253879191512
 30
0.0
  0
VERTEX
  5
3022
  8
AM_VIS
 10
829.10997472001225
 20
401.61058197509578
 30
0.0
  0
SEQEND
  5
3023
  8
AM_VIS
  0
POLYLINE
  5
133D
  8
AM_VIS
 66
     1
 10
0.0
 20
0.0
 30
0.0
  0
VERTEX
  5
3024
  8
AM_VIS
 10
829.40956358043866
 20
401.61058197509578
 30
0.0
  0
VERTEX
  5
3025
  8
AM_VIS
 10
829.43754321253311
 20
402.03303485316849
 30
0.0
  0
VERTEX
  5
3026
  8
AM_VIS
 10
829.50294731120141
 20
402.37827874394458
 30
0.0
  0
VERTEX
  5
3027
  8
AM_VIS
 10
829.60123962453406
 20
402.70168947094658
 30
0.0
  0
VERTEX
  5
3028
  8
AM_VIS
 10
829.90172962676945
 20
403.31567351407011
 30
0.0
  0
VERTEX
  5
3029
  8
AM_VIS
 10
830.33224203506029
 20
403.8579152619011
 30
0.0
  0
VERTEX
  5
302A
  8
AM_VIS
 10
830.86943031986743
 20
404.29446428517622
 30
0.0
  0
VERTEX
  5
302B
  8
AM_VIS
 10
831.48098894424129
 20
404.60231465218368
 30
0.0
  0
VERTEX
  5
302C
  8
AM_VIS
 10
831.80283192405727
 20
404.70404798543899
 30
0.0
  0
VERTEX
  5
302D
  8
AM_VIS
 10
832.14568935453701
 20
404.77306814238818
 30
0.0
  0
VERTEX
  5
302E
  8
AM_VIS
 10
832.60517809201667
 20
404.80619648631028
 30
0.0
  0
SEQEND
  5
302F
  8
AM_VIS
  0
POLYLINE
  5
133E
  8
AM_VIS
 66
     1
 10
0.0
 20
0.0
 30
0.0
  0
VERTEX
  5
3030
  8
AM_VIS
 10
827.77494775391779
 20
402.94560894071009
 30
0.0
  0
VERTEX
  5
3031
  8
AM_VIS
 10
827.77719618805463
 20
403.06891822049602
 30
0.0
  0
VERTEX
  5
3032
  8
AM_VIS
 10
827.82102563291994
 20
403.50962627874992
 30
0.0
  0
VERTEX
  5
3033
  8
AM_VIS
 10
827.90562835762523
 20
403.89105064526728
 30
0.0
  0
VERTEX
  5
3034
  8
AM_VIS
 10
828.01489627449735
 20
404.21715808356652
 30
0.0
  0
VERTEX
  5
3035
  8
AM_VIS
 10
828.34082077768255
 20
404.85146445287228
 30
0.0
  0
VERTEX
  5
3036
  8
AM_VIS
 10
828.80943484620445
 20
405.42716346434941
 30
0.0
  0
VERTEX
  5
3037
  8
AM_VIS
 10
829.38875369953507
 20
405.89070803838752
 30
0.0
  0
VERTEX
  5
3038
  8
AM_VIS
 10
830.02399673521779
 20
406.21067268410309
 30
0.0
  0
VERTEX
  5
3039
  8
AM_VIS
 10
830.35327769867808
 20
406.31803498881089
 30
0.0
  0
VERTEX
  5
303A
  8
AM_VIS
 10
830.73915969716757
 20
406.39998443570101
 30
0.0
  0
VERTEX
  5
303B
  8
AM_VIS
 10
831.18290783247642
 20
406.43967104415191
 30
0.0
  0
VERTEX
  5
303C
  8
AM_VIS
 10
831.27015112555728
 20
406.44081231283252
 30
0.0
  0
SEQEND
  5
303D
  8
AM_VIS
  0
POLYLINE
  5
133F
  8
AM_VIS
 66
     1
 10
0.0
 20
0.0
 30
0.0
  0
VERTEX
  5
303E
  8
AM_VIS
 10
1003.615516651509
 20
388.3727742253306
 30
0.0
  0
VERTEX
  5
303F
  8
AM_VIS
 10
1003.615516651509
 20
387.46990421421663
 30
0.0
  0
VERTEX
  5
3040
  8
AM_VIS
 10
1003.61551665151
 20
383.76512564915993
 30
0.0
  0
VERTEX
  5
3041
  8
AM_VIS
 10
1003.61551665151
 20
376.40275826602931
 30
0.0
  0
VERTEX
  5
3042
  8
AM_VIS
 10
1003.615516651509
 20
369.04410656569439
 30
0.0
  0
VERTEX
  5
3043
  8
AM_VIS
 10
1003.61551665151
 20
361.69264248645919
 30
0.0
  0
VERTEX
  5
3044
  8
AM_VIS
 10
1003.615516651509
 20
346.97265634461661
 30
0.0
  0
VERTEX
  5
3045
  8
AM_VIS
 10
1003.61551665151
 20
332.24520460084369
 30
0.0
  0
VERTEX
  5
3046
  8
AM_VIS
 10
1003.61551665151
 20
317.52369560284052
 30
0.0
  0
VERTEX
  5
3047
  8
AM_VIS
 10
1003.61551665151
 20
302.80088614542831
 30
0.0
  0
VERTEX
  5
3048
  8
AM_VIS
 10
1003.61551665151
 20
288.07769435166853
 30
0.0
  0
VERTEX
  5
3049
  8
AM_VIS
 10
1003.61551665151
 20
278.93493278525369
 30
0.0
  0
SEQEND
  5
304A
  8
AM_VIS
  0
POLYLINE
  5
1340
  8
AM_VIS
 66
     1
 10
0.0
 20
0.0
 30
0.0
  0
VERTEX
  5
304B
  8
AM_VIS
 10
1006.152090982552
 20
278.93493278525369
 30
0.0
  0
VERTEX
  5
304C
  8
AM_VIS
 10
1006.152090982552
 20
289.18806866408971
 30
0.0
  0
VERTEX
  5
304D
  8
AM_VIS
 10
1006.152090982552
 20
305.69882391708558
 30
0.0
  0
VERTEX
  5
304E
  8
AM_VIS
 10
1006.152090982552
 20
322.21018485032499
 30
0.0
  0
VERTEX
  5
304F
  8
AM_VIS
 10
1006.152090982552
 20
338.72020184482352
 30
0.0
  0
VERTEX
  5
3050
  8
AM_VIS
 10
1006.152090982552
 20
355.23018898407491
 30
0.0
  0
VERTEX
  5
3051
  8
AM_VIS
 10
1006.152090982552
 20
371.74748605180099
 30
0.0
  0
VERTEX
  5
3052
  8
AM_VIS
 10
1006.152090982552
 20
388.2522164228169
 30
0.0
  0
VERTEX
  5
3053
  8
AM_VIS
 10
1006.152090982552
 20
396.47681110295048
 30
0.0
  0
VERTEX
  5
3054
  8
AM_VIS
 10
1006.152090982552
 20
400.60550704514679
 30
0.0
  0
VERTEX
  5
3055
  8
AM_VIS
 10
1006.152090982552
 20
401.61058197509578
 30
0.0
  0
SEQEND
  5
3056
  8
AM_VIS
  0
POLYLINE
  5
1341
  8
AM_VIS
 66
     1
 10
0.0
 20
0.0
 30
0.0
  0
VERTEX
  5
3057
  8
AM_VIS
 10
1006.451679842978
 20
401.61058197509578
 30
0.0
  0
VERTEX
  5
3058
  8
AM_VIS
 10
1006.451679842978
 20
400.60550704514679
 30
0.0
  0
VERTEX
  5
3059
  8
AM_VIS
 10
1006.451679842978
 20
396.47681110295048
 30
0.0
  0
VERTEX
  5
305A
  8
AM_VIS
 10
1006.451679842978
 20
388.2522164228169
 30
0.0
  0
VERTEX
  5
305B
  8
AM_VIS
 10
1006.451679842978
 20
371.74748605180099
 30
0.0
  0
VERTEX
  5
305C
  8
AM_VIS
 10
1006.451679842978
 20
355.23018898407491
 30
0.0
  0
VERTEX
  5
305D
  8
AM_VIS
 10
1006.451679842978
 20
338.72020184482352
 30
0.0
  0
VERTEX
  5
305E
  8
AM_VIS
 10
1006.451679842978
 20
322.21018485032499
 30
0.0
  0
VERTEX
  5
305F
  8
AM_VIS
 10
1006.451679842978
 20
305.69882391708558
 30
0.0
  0
VERTEX
  5
3060
  8
AM_VIS
 10
1006.451679842978
 20
289.18806866408971
 30
0.0
  0
VERTEX
  5
3061
  8
AM_VIS
 10
1006.451679842978
 20
278.93493278525369
 30
0.0
  0
SEQEND
  5
3062
  8
AM_VIS
  0
POLYLINE
  5
1342
  8
AM_VIS
 66
     1
 10
0.0
 20
0.0
 30
0.0
  0
VERTEX
  5
3063
  8
AM_VIS
 10
1007.786706809074
 20
278.93493278525369
 30
0.0
  0
VERTEX
  5
3064
  8
AM_VIS
 10
1007.786706809074
 20
288.2602483289578
 30
0.0
  0
VERTEX
  5
3065
  8
AM_VIS
 10
1007.786706809074
 20
303.91335555457363
 30
0.0
  0
VERTEX
  5
3066
  8
AM_VIS
 10
1007.786706809074
 20
320.61127396565411
 30
0.0
  0
VERTEX
  5
3067
  8
AM_VIS
 10
1007.786706809074
 20
337.30890868539723
 30
0.0
  0
VERTEX
  5
3068
  8
AM_VIS
 10
1007.786706809074
 20
353.99951336309431
 30
0.0
  0
VERTEX
  5
3069
  8
AM_VIS
 10
1007.786706809074
 20
370.70892079751093
 30
0.0
  0
VERTEX
  5
306A
  8
AM_VIS
 10
1007.786706809074
 20
387.41817442708373
 30
0.0
  0
VERTEX
  5
306B
  8
AM_VIS
 10
1007.786706809074
 20
395.7145455461677
 30
0.0
  0
VERTEX
  5
306C
  8
AM_VIS
 10
1007.786706809074
 20
399.85709153337638
 30
0.0
  0
VERTEX
  5
306D
  8
AM_VIS
 10
1007.786706809074
 20
401.93592600172627
 30
0.0
  0
VERTEX
  5
306E
  8
AM_VIS
 10
1007.786706809074
 20
402.45717433949642
 30
0.0
  0
VERTEX
  5
306F
  8
AM_VIS
 10
1007.7867068090731
 20
402.94560894071009
 30
0.0
  0
SEQEND
  5
3070
  8
AM_VIS
  0
LINE
  5
1343
  8
AM_VIS
 10
985.83082728149566
 20
278.93493278525369
 30
0.0
 11
985.83082728149566
 21
382.48493278525359
 31
0.0
  0
LINE
  5
1344
  8
AM_VIS
 10
997.0002438352675
 20
278.93493278525369
 30
0.0
 11
997.0002438352675
 21
382.42361051154552
 31
0.0
  0
LINE
  5
1345
  8
AM_VIS
 10
999.52585013025055
 20
384.58269656449949
 30
0.0
 11
999.52585013025055
 21
278.93493278525369
 31
0.0
  0
POLYLINE
  5
1346
  8
AM_VIS
 66
     1
 10
0.0
 20
0.0
 30
0.0
  0
VERTEX
  5
3071
  8
AM_VIS
 10
917.7808272814957
 20
402.26962215526822
 30
0.0
  0
VERTEX
  5
3072
  8
AM_VIS
 10
923.18818207091533
 20
402.26962215526822
 30
0.0
  0
VERTEX
  5
3073
  8
AM_VIS
 10
932.26537574090366
 20
402.26962215526822
 30
0.0
  0
VERTEX
  5
3074
  8
AM_VIS
 10
941.94751317384259
 20
402.26962215526822
 30
0.0
  0
VERTEX
  5
3075
  8
AM_VIS
 10
951.62850367239571
 20
402.26962215526822
 30
0.0
  0
VERTEX
  5
3076
  8
AM_VIS
 10
961.31373160102771
 20
402.26962215526822
 30
0.0
  0
VERTEX
  5
3077
  8
AM_VIS
 10
970.99500279178335
 20
402.26962215526822
 30
0.0
  0
VERTEX
  5
3078
  8
AM_VIS
 10
975.82723681301343
 20
402.26962215526822
 30
0.0
  0
VERTEX
  5
3079
  8
AM_VIS
 10
980.66561011327178
 20
402.26962215526822
 30
0.0
  0
VERTEX
  5
307A
  8
AM_VIS
 10
985.5092847680603
 20
402.26962215526822
 30
0.0
  0
VERTEX
  5
307B
  8
AM_VIS
 10
987.940503010518
 20
402.26962215526811
 30
0.0
  0
VERTEX
  5
307C
  8
AM_VIS
 10
989.16362446153516
 20
402.26962215526811
 30
0.0
  0
VERTEX
  5
307D
  8
AM_VIS
 10
989.71866872178282
 20
402.26962215526822
 30
0.0
  0
SEQEND
  5
307E
  8
AM_VIS
  0
POLYLINE
  5
1347
  8
AM_VIS
 66
     1
 10
0.0
 20
0.0
 30
0.0
  0
VERTEX
  5
307F
  8
AM_VIS
 10
1002.9564764709741
 20
404.80619648631028
 30
0.0
  0
VERTEX
  5
3080
  8
AM_VIS
 10
1002.90029001023
 20
404.8061964863104
 30
0.0
  0
VERTEX
  5
3081
  8
AM_VIS
 10
1001.429027069231
 20
404.80619648631028
 30
0.0
  0
VERTEX
  5
3082
  8
AM_VIS
 10
998.50315440671011
 20
404.80619648631028
 30
0.0
  0
VERTEX
  5
3083
  8
AM_VIS
 10
992.65941450196806
 20
404.8061964863104
 30
0.0
  0
VERTEX
  5
3084
  8
AM_VIS
 10
980.92283503330134
 20
404.80619648631028
 30
0.0
  0
VERTEX
  5
3085
  8
AM_VIS
 10
969.18121988399366
 20
404.8061964863104
 30
0.0
  0
VERTEX
  5
3086
  8
AM_VIS
 10
957.44682429715886
 20
404.80619648631028
 30
0.0
  0
VERTEX
  5
3087
  8
AM_VIS
 10
945.71062986823904
 20
404.8061964863104
 30
0.0
  0
VERTEX
  5
3088
  8
AM_VIS
 10
933.97402410102882
 20
404.80619648631028
 30
0.0
  0
VERTEX
  5
3089
  8
AM_VIS
 10
923.70489838014544
 20
404.80619648631028
 30
0.0
  0
VERTEX
  5
308A
  8
AM_VIS
 10
917.78082728149548
 20
404.80619648631028
 30
0.0
  0
SEQEND
  5
308B
  8
AM_VIS
  0
POLYLINE
  5
1348
  8
AM_VIS
 66
     1
 10
0.0
 20
0.0
 30
0.0
  0
VERTEX
  5
308C
  8
AM_VIS
 10
917.78082728149548
 20
405.10578534673658
 30
0.0
  0
VERTEX
  5
308D
  8
AM_VIS
 10
923.70489838014544
 20
405.10578534673658
 30
0.0
  0
VERTEX
  5
308E
  8
AM_VIS
 10
933.97402410102882
 20
405.10578534673658
 30
0.0
  0
VERTEX
  5
308F
  8
AM_VIS
 10
945.71062986823904
 20
405.10578534673658
 30
0.0
  0
VERTEX
  5
3090
  8
AM_VIS
 10
957.44682429715886
 20
405.10578534673658
 30
0.0
  0
VERTEX
  5
3091
  8
AM_VIS
 10
969.18121988399366
 20
405.10578534673658
 30
0.0
  0
VERTEX
  5
3092
  8
AM_VIS
 10
980.92283503330134
 20
405.10578534673658
 30
0.0
  0
VERTEX
  5
3093
  8
AM_VIS
 10
992.65941450196806
 20
405.10578534673658
 30
0.0
  0
VERTEX
  5
3094
  8
AM_VIS
 10
998.50315440671011
 20
405.10578534673658
 30
0.0
  0
VERTEX
  5
3095
  8
AM_VIS
 10
1001.429027069231
 20
405.10578534673658
 30
0.0
  0
VERTEX
  5
3096
  8
AM_VIS
 10
1002.90029001023
 20
405.10578534673681
 30
0.0
  0
VERTEX
  5
3097
  8
AM_VIS
 10
1002.956476471216
 20
405.10578534673641
 30
0.0
  0
SEQEND
  5
3098
  8
AM_VIS
  0
POLYLINE
  5
1349
  8
AM_VIS
 66
     1
 10
0.0
 20
0.0
 30
0.0
  0
VERTEX
  5
3099
  8
AM_VIS
 10
1004.291503437433
 20
406.44081231283252
 30
0.0
  0
VERTEX
  5
309A
  8
AM_VIS
 10
1004.234983044881
 20
406.44081231283252
 30
0.0
  0
VERTEX
  5
309B
  8
AM_VIS
 10
1002.753229434441
 20
406.44081231283252
 30
0.0
  0
VERTEX
  5
309C
  8
AM_VIS
 10
996.85070975884253
 20
406.44081231283252
 30
0.0
  0
VERTEX
  5
309D
  8
AM_VIS
 10
990.91501434230304
 20
406.44081231283252
 30
0.0
  0
VERTEX
  5
309E
  8
AM_VIS
 10
984.93914420222359
 20
406.44081231283252
 30
0.0
  0
VERTEX
  5
309F
  8
AM_VIS
 10
972.99345595938303
 20
406.44081231283252
 30
0.0
  0
VERTEX
  5
30A0
  8
AM_VIS
 10
961.07271501909315
 20
406.44081231283252
 30
0.0
  0
VERTEX
  5
30A1
  8
AM_VIS
 10
949.1463519548787
 20
406.44081231283252
 30
0.0
  0
VERTEX
  5
30A2
  8
AM_VIS
 10
937.2183420665292
 20
406.44081231283252
 30
0.0
  0
VERTEX
  5
30A3
  8
AM_VIS
 10
925.29199840890408
 20
406.44081231283252
 30
0.0
  0
VERTEX
  5
30A4
  8
AM_VIS
 10
917.78082728149548
 20
406.44081231283252
 30
0.0
  0
SEQEND
  5
30A5
  8
AM_VIS
  0
LINE
  5
134A
  8
AM_VIS
 10
983.83082728149543
 20
384.4849327852537
 30
0.0
 11
917.78082728149548
 21
384.4849327852537
 31
0.0
  0
LINE
  5
134B
  8
AM_VIS
 10
983.76950427081385
 20
395.6543493390256
 30
0.0
 11
917.78082728149548
 21
395.6543493390256
 31
0.0
  0
LINE
  5
134C
  8
AM_VIS
 10
917.78082728149548
 20
398.17995563400871
 30
0.0
 11
985.92859106074127
 21
398.17995563400871
 31
0.0
  0
POLYLINE
  5
134D
  8
AM_VIS
 66
     1
 10
0.0
 20
0.0
 30
0.0
  0
VERTEX
  5
30A6
  8
AM_VIS
 10
992.0155166515101
 20
398.15934366592751
 30
0.0
  0
VERTEX
  5
30A7
  8
AM_VIS
 10
992.01696702075924
 20
398.01175655527339
 30
0.0
  0
VERTEX
  5
30A8
  8
AM_VIS
 10
992.06911963423886
 20
397.26379585754961
 30
0.0
  0
VERTEX
  5
30A9
  8
AM_VIS
 10
992.37858136494151
 20
395.85348126483382
 30
0.0
  0
VERTEX
  5
30AA
  8
AM_VIS
 10
992.94993419526099
 20
394.53391970200039
 30
0.0
  0
VERTEX
  5
30AB
  8
AM_VIS
 10
993.76359087566607
 20
393.34737346146642
 30
0.0
  0
VERTEX
  5
30AC
  8
AM_VIS
 10
994.78967894582456
 20
392.33827946579868
 30
0.0
  0
VERTEX
  5
30AD
  8
AM_VIS
 10
995.9905258667186
 20
391.54407591098771
 30
0.0
  0
VERTEX
  5
30AE
  8
AM_VIS
 10
997.32161313444431
 20
390.99434896990289
 30
0.0
  0
VERTEX
  5
30AF
  8
AM_VIS
 10
998.73136375770514
 20
390.7096109254374
 30
0.0
  0
VERTEX
  5
30B0
  8
AM_VIS
 10
999.42788142768757
 20
390.67002057095988
 30
0.0
  0
VERTEX
  5
30B1
  8
AM_VIS
 10
999.50523816215241
 20
390.66962215526809
 30
0.0
  0
SEQEND
  5
30B2
  8
AM_VIS
  0
POLYLINE
  5
134E
  8
AM_VIS
 66
     1
 10
0.0
 20
0.0
 30
0.0
  0
VERTEX
  5
30B3
  8
AM_VIS
 10
995.36557558961658
 20
384.07590420963402
 30
0.0
  0
VERTEX
  5
30B4
  8
AM_VIS
 10
993.09985195658226
 20
384.07628774737719
 30
0.0
  0
VERTEX
  5
30B5
  8
AM_VIS
 10
992.03002850971495
 20
384.0767980095174
 30
0.0
  0
VERTEX
  5
30B6
  8
AM_VIS
 10
991.09281021316406
 20
384.07728623078862
 30
0.0
  0
VERTEX
  5
30B7
  8
AM_VIS
 10
989.01212064706488
 20
384.08031693793748
 30
0.0
  0
VERTEX
  5
30B8
  8
AM_VIS
 10
988.13042010478409
 20
384.07810521831777
 30
0.0
  0
VERTEX
  5
30B9
  8
AM_VIS
 10
986.74902445742725
 20
384.20176963357761
 30
0.0
  0
VERTEX
  5
30BA
  8
AM_VIS
 10
986.11297093503083
 20
384.57635304940328
 30
0.0
  0
VERTEX
  5
30BB
  8
AM_VIS
 10
985.64412051826787
 20
385.17903105887677
 30
0.0
  0
VERTEX
  5
30BC
  8
AM_VIS
 10
985.44405962422616
 20
385.87320301915599
 30
0.0
  0
VERTEX
  5
30BD
  8
AM_VIS
 10
985.42726866681619
 20
387.06970450383318
 30
0.0
  0
VERTEX
  5
30BE
  8
AM_VIS
 10
985.42384048736233
 20
388.1086475133452
 30
0.0
  0
VERTEX
  5
30BF
  8
AM_VIS
 10
985.42308566708311
 20
388.73562083352613
 30
0.0
  0
VERTEX
  5
30C0
  8
AM_VIS
 10
985.42270170798656
 20
390.80378049774038
 30
0.0
  0
VERTEX
  5
30C1
  8
AM_VIS
 10
985.42168837842735
 20
394.019712840777
 30
0.0
  0
SEQEND
  5
30C2
  8
AM_VIS
  0
POLYLINE
  5
134F
  8
AM_VIS
 66
     1
 10
0.0
 20
0.0
 30
0.0
  0
VERTEX
  5
30C3
  8
AM_VIS
 10
987.92198020654075
 20
394.36539608138452
 30
0.0
  0
VERTEX
  5
30C4
  8
AM_VIS
 10
987.9407114536707
 20
393.82667485823231
 30
0.0
  0
VERTEX
  5
30C5
  8
AM_VIS
 10
988.11349006837168
 20
392.65471591398858
 30
0.0
  0
VERTEX
  5
30C6
  8
AM_VIS
 10
989.3624818600631
 20
389.85717928255718
 30
0.0
  0
VERTEX
  5
30C7
  8
AM_VIS
 10
991.57767971392809
 20
387.7664283892455
 30
0.0
  0
VERTEX
  5
30C8
  8
AM_VIS
 10
993.93400345200178
 20
386.78295053173429
 30
0.0
  0
VERTEX
  5
30C9
  8
AM_VIS
 10
995.20064922623965
 20
386.59289058469489
 30
0.0
  0
VERTEX
  5
30CA
  8
AM_VIS
 10
995.7112923703279
 20
386.57608750300028
 30
0.0
  0
SEQEND
  5
30CB
  8
AM_VIS
  0
POLYLINE
  5
1350
  8
AM_VIS
 66
     1
 10
0.0
 20
0.0
 30
0.0
  0
VERTEX
  5
30CC
  8
AM_VIS
 10
997.78979284110756
 20
386.5572230071374
 30
0.0
  0
VERTEX
  5
30CD
  8
AM_VIS
 10
997.68927222704042
 20
386.56875301254303
 30
0.0
  0
VERTEX
  5
30CE
  8
AM_VIS
 10
997.57565350955156
 20
386.57525174921898
 30
0.0
  0
VERTEX
  5
30CF
  8
AM_VIS
 10
997.52458381462225
 20
386.5759483878881
 30
0.0
  0
SEQEND
  5
30D0
  8
AM_VIS
  0
POLYLINE
  5
1351
  8
AM_VIS
 66
     1
 10
0.0
 20
0.0
 30
0.0
  0
VERTEX
  5
30D1
  8
AM_VIS
 10
997.0002438352675
 20
382.42361051154558
 30
0.0
  0
VERTEX
  5
30D2
  8
AM_VIS
 10
996.86747224134706
 20
383.16841143406248
 30
0.0
  0
VERTEX
  5
30D3
  8
AM_VIS
 10
996.56554903697418
 20
383.63392318543561
 30
0.0
  0
VERTEX
  5
30D4
  8
AM_VIS
 10
996.13435341287152
 20
383.9280316612888
 30
0.0
  0
VERTEX
  5
30D5
  8
AM_VIS
 10
995.77385773022422
 20
384.03867184565257
 30
0.0
  0
VERTEX
  5
30D6
  8
AM_VIS
 10
995.36557558452455
 20
384.07584032115301
 30
0.0
  0
SEQEND
  5
30D7
  8
AM_VIS
  0
POLYLINE
  5
1352
  8
AM_VIS
 66
     1
 10
0.0
 20
0.0
 30
0.0
  0
VERTEX
  5
30D8
  8
AM_VIS
 10
995.7112923703279
 20
386.57608750300028
 30
0.0
  0
VERTEX
  5
30D9
  8
AM_VIS
 10
996.47621998774548
 20
386.5762643954593
 30
0.0
  0
VERTEX
  5
30DA
  8
AM_VIS
 10
997.52458408700591
 20
386.57595227196822
 30
0.0
  0
SEQEND
  5
30DB
  8
AM_VIS
  0
POLYLINE
  5
1353
  8
AM_VIS
 66
     1
 10
0.0
 20
0.0
 30
0.0
  0
VERTEX
  5
30DC
  8
AM_VIS
 10
997.78979283623789
 20
386.55722300832218
 30
0.0
  0
VERTEX
  5
30DD
  8
AM_VIS
 10
998.49054230752881
 20
386.31932041861671
 30
0.0
  0
VERTEX
  5
30DE
  8
AM_VIS
 10
999.06362942092505
 20
385.84104035681651
 30
0.0
  0
VERTEX
  5
30DF
  8
AM_VIS
 10
999.32587024617817
 20
385.43465220406978
 30
0.0
  0
VERTEX
  5
30E0
  8
AM_VIS
 10
999.48632908224681
 20
384.96665512313928
 30
0.0
  0
SEQEND
  5
30E1
  8
AM_VIS
  0
POLYLINE
  5
1354
  8
AM_VIS
 66
     1
 10
0.0
 20
0.0
 30
0.0
  0
VERTEX
  5
30E2
  8
AM_VIS
 10
999.52585013025055
 20
384.58269656449949
 30
0.0
  0
VERTEX
  5
30E3
  8
AM_VIS
 10
999.5159465996577
 20
384.77610298094748
 30
0.0
  0
VERTEX
  5
30E4
  8
AM_VIS
 10
999.4863290822467
 20
384.96665512313928
 30
0.0
  0
SEQEND
  5
30E5
  8
AM_VIS
  0
POLYLINE
  5
1355
  8
AM_VIS
 66
     1
 10
0.0
 20
0.0
 30
0.0
  0
VERTEX
  5
30E6
  8
AM_VIS
 10
999.50523816215241
 20
390.66962215526809
 30
0.0
  0
VERTEX
  5
30E7
  8
AM_VIS
 10
999.66022316600777
 20
390.66962215526809
 30
0.0
  0
VERTEX
  5
30E8
  8
AM_VIS
 10
999.91203610631339
 20
390.6696221552682
 30
0.0
  0
VERTEX
  5
30E9
  8
AM_VIS
 10
1000.165298750684
 20
390.66962215526809
 30
0.0
  0
VERTEX
  5
30EA
  8
AM_VIS
 10
1000.417243063422
 20
390.66962215526809
 30
0.0
  0
VERTEX
  5
30EB
  8
AM_VIS
 10
1000.670732007173
 20
390.66962215526809
 30
0.0
  0
VERTEX
  5
30EC
  8
AM_VIS
 10
1000.920782575407
 20
390.66962215526809
 30
0.0
  0
VERTEX
  5
30ED
  8
AM_VIS
 10
1001.173612635306
 20
390.66962215526809
 30
0.0
  0
VERTEX
  5
30EE
  8
AM_VIS
 10
1001.318668721574
 20
390.66962215526809
 30
0.0
  0
SEQEND
  5
30EF
  8
AM_VIS
  0
POLYLINE
  5
1356
  8
AM_VIS
 66
     1
 10
0.0
 20
0.0
 30
0.0
  0
VERTEX
  5
30F0
  8
AM_VIS
 10
1001.318668721574
 20
390.66962215526809
 30
0.0
  0
VERTEX
  5
30F1
  8
AM_VIS
 10
1001.623638631849
 20
390.64933416170669
 30
0.0
  0
VERTEX
  5
30F2
  8
AM_VIS
 10
1002.109526808739
 20
390.52944072523428
 30
0.0
  0
VERTEX
  5
30F3
  8
AM_VIS
 10
1002.5609310683629
 20
390.3052337447736
 30
0.0
  0
VERTEX
  5
30F4
  8
AM_VIS
 10
1002.949933201235
 20
389.99047718490931
 30
0.0
  0
VERTEX
  5
30F5
  8
AM_VIS
 10
1003.26126814791
 20
389.59910832837397
 30
0.0
  0
VERTEX
  5
30F6
  8
AM_VIS
 10
1003.48308217223
 20
389.1421460446843
 30
0.0
  0
VERTEX
  5
30F7
  8
AM_VIS
 10
1003.597561459897
 20
388.6597515627322
 30
0.0
  0
VERTEX
  5
30F8
  8
AM_VIS
 10
1003.615516651509
 20
388.3727742253306
 30
0.0
  0
SEQEND
  5
30F9
  8
AM_VIS
  0
ARC
  5
1357
  8
AM_VIS
 10
983.83082728149543
 20
382.4849327852537
 30
0.0
 40
2.0
 50
0.0
 51
90.0
  0
ARC
  5
1358
  8
AM_VIS
 10
999.53082728149536
 20
398.18493278525369
 30
0.0
 40
5.0
 50
178.11360594589851
 51
271.88639405410129
  0
CIRCLE
  5
1359
  8
AM_VIS
 10
999.53082728149536
 20
398.18493278525369
 30
0.0
 40
5.7973820393505093
  0
CIRCLE
  5
135A
  8
AM_VIS
 10
999.53082728149536
 20
398.18493278525369
 30
0.0
 40
6.1000000000000014
  0
POLYLINE
  5
135B
  8
AM_VIS
 66
     1
 10
0.0
 20
0.0
 30
0.0
  0
VERTEX
  5
30FA
  8
AM_VIS
 10
1007.7867068090731
 20
402.94560894071009
 30
0.0
  0
VERTEX
  5
30FB
  8
AM_VIS
 10
1007.784458374936
 20
403.06891822049602
 30
0.0
  0
VERTEX
  5
30FC
  8
AM_VIS
 10
1007.740628930071
 20
403.50962627874992
 30
0.0
  0
VERTEX
  5
30FD
  8
AM_VIS
 10
1007.656026205365
 20
403.89105064526728
 30
0.0
  0
VERTEX
  5
30FE
  8
AM_VIS
 10
1007.546758288493
 20
404.21715808356652
 30
0.0
  0
VERTEX
  5
30FF
  8
AM_VIS
 10
1007.2208337853079
 20
404.85146445287228
 30
0.0
  0
VERTEX
  5
3100
  8
AM_VIS
 10
1006.752219716786
 20
405.42716346434941
 30
0.0
  0
VERTEX
  5
3101
  8
AM_VIS
 10
1006.172900863455
 20
405.89070803838752
 30
0.0
  0
VERTEX
  5
3102
  8
AM_VIS
 10
1005.537657827773
 20
406.21067268410309
 30
0.0
  0
VERTEX
  5
3103
  8
AM_VIS
 10
1005.208376864312
 20
406.31803498881089
 30
0.0
  0
VERTEX
  5
3104
  8
AM_VIS
 10
1004.822494865823
 20
406.39998443570101
 30
0.0
  0
VERTEX
  5
3105
  8
AM_VIS
 10
1004.378746730514
 20
406.43967104415191
 30
0.0
  0
VERTEX
  5
3106
  8
AM_VIS
 10
1004.291503437433
 20
406.44081231283252
 30
0.0
  0
SEQEND
  5
3107
  8
AM_VIS
  0
POLYLINE
  5
135C
  8
AM_VIS
 66
     1
 10
0.0
 20
0.0
 30
0.0
  0
VERTEX
  5
3108
  8
AM_VIS
 10
1006.152090982552
 20
401.61058197509578
 30
0.0
  0
VERTEX
  5
3109
  8
AM_VIS
 10
1006.124111350457
 20
402.03303485316849
 30
0.0
  0
VERTEX
  5
310A
  8
AM_VIS
 10
1006.058707251789
 20
402.37827874394458
 30
0.0
  0
VERTEX
  5
310B
  8
AM_VIS
 10
1005.960414938456
 20
402.70168947094658
 30
0.0
  0
VERTEX
  5
310C
  8
AM_VIS
 10
1005.659924936221
 20
403.31567351407011
 30
0.0
  0
VERTEX
  5
310D
  8
AM_VIS
 10
1005.22941252793
 20
403.8579152619011
 30
0.0
  0
VERTEX
  5
310E
  8
AM_VIS
 10
1004.692224243123
 20
404.29446428517622
 30
0.0
  0
VERTEX
  5
310F
  8
AM_VIS
 10
1004.080665618749
 20
404.60231465218368
 30
0.0
  0
VERTEX
  5
3110
  8
AM_VIS
 10
1003.758822638933
 20
404.70404798543899
 30
0.0
  0
VERTEX
  5
3111
  8
AM_VIS
 10
1003.415965208453
 20
404.77306814238818
 30
0.0
  0
VERTEX
  5
3112
  8
AM_VIS
 10
1002.9564764709741
 20
404.80619648631028
 30
0.0
  0
SEQEND
  5
3113
  8
AM_VIS
  0
POLYLINE
  5
135D
  8
AM_VIS
 66
     1
 10
0.0
 20
0.0
 30
0.0
  0
VERTEX
  5
3114
  8
AM_VIS
 10
1002.956476471216
 20
405.10578534673641
 30
0.0
  0
VERTEX
  5
3115
  8
AM_VIS
 10
1003.458933093174
 20
405.0694420361877
 30
0.0
  0
VERTEX
  5
3116
  8
AM_VIS
 10
1003.833863282218
 20
404.9938811139815
 30
0.0
  0
VERTEX
  5
3117
  8
AM_VIS
 10
1004.185822674674
 20
404.88255391401532
 30
0.0
  0
VERTEX
  5
3118
  8
AM_VIS
 10
1004.854637145037
 20
404.54576480005539
 30
0.0
  0
VERTEX
  5
3119
  8
AM_VIS
 10
1005.442161059367
 20
404.0682635336704
 30
0.0
  0
VERTEX
  5
311A
  8
AM_VIS
 10
1005.913062618113
 20
403.47521523415747
 30
0.0
  0
VERTEX
  5
311B
  8
AM_VIS
 10
1006.241803839093
 20
402.80375046802652
 30
0.0
  0
VERTEX
  5
311C
  8
AM_VIS
 10
1006.349368706187
 20
402.45007763475519
 30
0.0
  0
VERTEX
  5
311D
  8
AM_VIS
 10
1006.420976101802
 20
402.07253879191512
 30
0.0
  0
VERTEX
  5
311E
  8
AM_VIS
 10
1006.451679842978
 20
401.61058197509578
 30
0.0
  0
SEQEND
  5
311F
  8
AM_VIS
  0
POLYLINE
  5
135E
  8
AM_VIS
 66
     1
 10
0.0
 20
0.0
 30
0.0
  0
VERTEX
  5
3120
  8
AM_VIS
 10
1004.683877327711
 20
400.65097706296058
 30
0.0
  0
VERTEX
  5
3121
  8
AM_VIS
 10
1004.723115160137
 20
400.69021489538721
 30
0.0
  0
SEQEND
  5
3122
  8
AM_VIS
  0
LINE
  5
135F
  8
AM_VIS
 10
1004.1446512509031
 20
400.1117509861528
 30
0.0
 11
1004.683877327711
 21
400.65097706296058
 31
0.0
  0
ARC
  5
1360
  8
AM_VIS
 10
999.53082728149536
 20
398.18493278525369
 30
0.0
 40
5.0
 50
358.1136059458986
 51
22.66631734219521
  0
POLYLINE
  5
1361
  8
AM_VIS
 66
     1
 10
0.0
 20
0.0
 30
0.0
  0
VERTEX
  5
3123
  8
AM_VIS
 10
1002.036109391629
 20
403.37722066389608
 30
0.0
  0
VERTEX
  5
3124
  8
AM_VIS
 10
1001.996871559202
 20
403.3379828314695
 30
0.0
  0
SEQEND
  5
3125
  8
AM_VIS
  0
LINE
  5
1362
  8
AM_VIS
 10
999.36623808420256
 20
403.1822230906227
 30
0.0
 11
994.53353697612647
 21
398.34952198254649
 31
0.0
  0
ARC
  5
1363
  8
AM_VIS
 10
999.53082728149536
 20
398.18493278525369
 30
0.0
 40
5.0
 50
67.333682657805596
 51
91.886394054101416
  0
LINE
  5
1364
  8
AM_VIS
 10
999.6954164787885
 20
393.18764247988469
 30
0.0
 11
1004.528117586864
 21
398.02034358796089
 31
0.0
  0
LINE
  5
1365
  8
AM_VIS
 10
1001.996871559202
 20
403.3379828314695
 30
0.0
 11
1001.457645482394
 21
402.79875675466178
 31
0.0
  0
POLYLINE
  5
1366
  8
AM_VIS
 66
     1
 10
0.0
 20
0.0
 30
0.0
  0
VERTEX
  5
3126
  8
AM_VIS
 10
986.31252817697805
 20
398.14043906680553
 30
0.0
  0
VERTEX
  5
3127
  8
AM_VIS
 10
987.00908822588917
 20
397.8495223509953
 30
0.0
  0
VERTEX
  5
3128
  8
AM_VIS
 10
987.54949688468434
 20
397.3272721354885
 30
0.0
  0
VERTEX
  5
3129
  8
AM_VIS
 10
987.77563411590859
 20
396.91547078131708
 30
0.0
  0
VERTEX
  5
312A
  8
AM_VIS
 10
987.90310810495498
 20
396.44397425145849
 30
0.0
  0
SEQEND
  5
312B
  8
AM_VIS
  0
POLYLINE
  5
1367
  8
AM_VIS
 66
     1
 10
0.0
 20
0.0
 30
0.0
  0
VERTEX
  5
312C
  8
AM_VIS
 10
987.92184325524181
 20
396.1786896894908
 30
0.0
  0
VERTEX
  5
312D
  8
AM_VIS
 10
987.92152189341448
 20
396.21325787422029
 30
0.0
  0
VERTEX
  5
312E
  8
AM_VIS
 10
987.9166048281005
 20
396.31923290669891
 30
0.0
  0
VERTEX
  5
312F
  8
AM_VIS
 10
987.90310809862285
 20
396.44397425226879
 30
0.0
  0
SEQEND
  5
3130
  8
AM_VIS
  0
POLYLINE
  5
1368
  8
AM_VIS
 66
     1
 10
0.0
 20
0.0
 30
0.0
  0
VERTEX
  5
3131
  8
AM_VIS
 10
987.92184323662912
 20
396.17868968799718
 30
0.0
  0
VERTEX
  5
3132
  8
AM_VIS
 10
987.92187006464019
 20
396.06805634026102
 30
0.0
  0
VERTEX
  5
3133
  8
AM_VIS
 10
987.92198020654075
 20
394.36539608138452
 30
0.0
  0
SEQEND
  5
3134
  8
AM_VIS
  0
POLYLINE
  5
1369
  8
AM_VIS
 66
     1
 10
0.0
 20
0.0
 30
0.0
  0
VERTEX
  5
3135
  8
AM_VIS
 10
986.31252817625125
 20
398.14043906695741
 30
0.0
  0
VERTEX
  5
3136
  8
AM_VIS
 10
986.12198654205281
 20
398.17005322894272
 30
0.0
  0
VERTEX
  5
3137
  8
AM_VIS
 10
985.92859106074127
 20
398.17995563400871
 30
0.0
  0
SEQEND
  5
3138
  8
AM_VIS
  0
POLYLINE
  5
136A
  8
AM_VIS
 66
     1
 10
0.0
 20
0.0
 30
0.0
  0
VERTEX
  5
3139
  8
AM_VIS
 10
989.71866872178282
 20
402.26962215526822
 30
0.0
  0
VERTEX
  5
313A
  8
AM_VIS
 10
990.00603073322759
 20
402.25161859777307
 30
0.0
  0
VERTEX
  5
313B
  8
AM_VIS
 10
990.48846455928651
 20
402.1370371256798
 30
0.0
  0
VERTEX
  5
313C
  8
AM_VIS
 10
990.94524494061773
 20
401.91522089593178
 30
0.0
  0
VERTEX
  5
313D
  8
AM_VIS
 10
991.33653770986643
 20
401.60387404197593
 30
0.0
  0
VERTEX
  5
313E
  8
AM_VIS
 10
991.65122353166362
 20
401.21488822335101
 30
0.0
  0
VERTEX
  5
313F
  8
AM_VIS
 10
991.87537234150682
 20
400.76353093456368
 30
0.0
  0
VERTEX
  5
3140
  8
AM_VIS
 10
991.99523395140204
 20
400.27770453057849
 30
0.0
  0
VERTEX
  5
3141
  8
AM_VIS
 10
992.0155166515101
 20
399.97277422585779
 30
0.0
  0
SEQEND
  5
3142
  8
AM_VIS
  0
POLYLINE
  5
136B
  8
AM_VIS
 66
     1
 10
0.0
 20
0.0
 30
0.0
  0
VERTEX
  5
3143
  8
AM_VIS
 10
992.0155166515101
 20
399.97277422585779
 30
0.0
  0
VERTEX
  5
3144
  8
AM_VIS
 10
992.0155166515101
 20
399.80647201262491
 30
0.0
  0
VERTEX
  5
3145
  8
AM_VIS
 10
992.0155166515101
 20
399.55784099998198
 30
0.0
  0
VERTEX
  5
3146
  8
AM_VIS
 10
992.0155166515101
 20
399.31050755185157
 30
0.0
  0
VERTEX
  5
3147
  8
AM_VIS
 10
992.0155166515101
 20
399.06014130922489
 30
0.0
  0
VERTEX
  5
3148
  8
AM_VIS
 10
992.0155166515101
 20
398.81131500197358
 30
0.0
  0
VERTEX
  5
3149
  8
AM_VIS
 10
992.0155166515101
 20
398.56110290690162
 30
0.0
  0
VERTEX
  5
314A
  8
AM_VIS
 10
992.01551665150987
 20
398.31245960377152
 30
0.0
  0
VERTEX
  5
314B
  8
AM_VIS
 10
992.0155166515101
 20
398.15934366592751
 30
0.0
  0
SEQEND
  5
314C
  8
AM_VIS
  0
POLYLINE
  5
136C
  8
AM_VIS
 66
     1
 10
0.0
 20
0.0
 30
0.0
  0
VERTEX
  5
314D
  8
AM_VIS
 10
985.42173472495278
 20
394.01971284031532
 30
0.0
  0
VERTEX
  5
314E
  8
AM_VIS
 10
985.29127486079256
 20
394.74736251299532
 30
0.0
  0
VERTEX
  5
314F
  8
AM_VIS
 10
984.99109221066556
 20
395.20840588448209
 30
0.0
  0
VERTEX
  5
3150
  8
AM_VIS
 10
984.55860806993212
 20
395.50290020244512
 30
0.0
  0
VERTEX
  5
3151
  8
AM_VIS
 10
984.18905739522825
 20
395.61628495009501
 30
0.0
  0
VERTEX
  5
3152
  8
AM_VIS
 10
983.76950427081385
 20
395.6543493390256
 30
0.0
  0
SEQEND
  5
3153
  8
AM_VIS
  0
LINE
  5
136D
  8
AM_VIS
 10
566.16695700575838
 20
167.90909550392459
 30
0.0
 11
565.14839709531429
 21
166.89053559348031
 31
0.0
  0
LINE
  5
1370
  8
AM_VIS
 10
580.07255981398521
 20
389.08493278525378
 30
0.0
 11
580.07255981398521
 21
278.93493278525369
 31
0.0
  0
LINE
  5
1371
  8
AM_VIS
 10
579.07255981398521
 20
278.93493278525369
 30
0.0
 11
579.07255981398521
 21
389.08493278525378
 31
0.0
  0
LINE
  5
1372
  8
AM_VIS
 10
578.37255981398505
 20
388.88510412276599
 30
0.0
 11
578.37255981398505
 21
278.93493278525369
 31
0.0
  0
LINE
  5
1373
  8
AM_VIS
 10
577.73362332769693
 20
278.93493278525369
 30
0.0
 11
577.73362332769693
 21
388.24616763647782
 31
0.0
  0
LINE
  5
1374
  8
AM_VIS
 10
575.172559813985
 20
388.24668153158831
 30
0.0
 11
575.172559813985
 21
278.93493278525369
 31
0.0
  0
LINE
  5
1375
  8
AM_VIS
 10
571.32055212516161
 20
278.93493278525369
 30
0.0
 11
571.32055212516161
 21
382.70182459610191
 31
0.0
  0
LINE
  5
1376
  8
AM_VIS
 10
570.79438414704009
 20
381.67565661798039
 30
0.0
 11
570.79438414704009
 21
278.93493278525369
 31
0.0
  0
POLYLINE
  5
1377
  8
AM_VIS
 66
     1
 10
0.0
 20
0.0
 30
0.0
  0
VERTEX
  5
3154
  8
AM_VIS
 10
580.82953571376038
 20
398.18493278525392
 30
0.0
  0
VERTEX
  5
3155
  8
AM_VIS
 10
580.82953571376038
 20
395.7145455461677
 30
0.0
  0
VERTEX
  5
3156
  8
AM_VIS
 10
580.82953571376038
 20
387.41817442708361
 30
0.0
  0
VERTEX
  5
3157
  8
AM_VIS
 10
580.82953571376038
 20
370.70892079751093
 30
0.0
  0
VERTEX
  5
3158
  8
AM_VIS
 10
580.82953571376038
 20
353.99951336309431
 30
0.0
  0
VERTEX
  5
3159
  8
AM_VIS
 10
580.82953571376038
 20
337.30890868539723
 30
0.0
  0
VERTEX
  5
315A
  8
AM_VIS
 10
580.82953571376038
 20
320.61127396565439
 30
0.0
  0
VERTEX
  5
315B
  8
AM_VIS
 10
580.82953571376038
 20
303.9133555545738
 30
0.0
  0
VERTEX
  5
315C
  8
AM_VIS
 10
580.82953571376038
 20
288.26024832895791
 30
0.0
  0
VERTEX
  5
315D
  8
AM_VIS
 10
580.82953571376038
 20
278.93493278525392
 30
0.0
  0
SEQEND
  5
315E
  8
AM_VIS
  0
POLYLINE
  5
1378
  8
AM_VIS
 66
     1
 10
0.0
 20
0.0
 30
0.0
  0
VERTEX
  5
315F
  8
AM_VIS
 10
581.62843934156399
 20
278.93493278525392
 30
0.0
  0
VERTEX
  5
3160
  8
AM_VIS
 10
581.62843934156399
 20
288.26024832895791
 30
0.0
  0
VERTEX
  5
3161
  8
AM_VIS
 10
581.62843934156399
 20
303.9133555545738
 30
0.0
  0
VERTEX
  5
3162
  8
AM_VIS
 10
581.62843934156399
 20
320.61127396565439
 30
0.0
  0
VERTEX
  5
3163
  8
AM_VIS
 10
581.62843934156399
 20
337.30890868539723
 30
0.0
  0
VERTEX
  5
3164
  8
AM_VIS
 10
581.62843934156399
 20
353.99951336309431
 30
0.0
  0
VERTEX
  5
3165
  8
AM_VIS
 10
581.62843934156399
 20
370.70892079751093
 30
0.0
  0
VERTEX
  5
3166
  8
AM_VIS
 10
581.62843934156399
 20
387.41817442708361
 30
0.0
  0
VERTEX
  5
3167
  8
AM_VIS
 10
581.62843934156399
 20
395.7145455461677
 30
0.0
  0
VERTEX
  5
3168
  8
AM_VIS
 10
581.62843934156399
 20
399.85709153337638
 30
0.0
  0
VERTEX
  5
3169
  8
AM_VIS
 10
581.62843934156399
 20
401.93592600172599
 30
0.0
  0
VERTEX
  5
316A
  8
AM_VIS
 10
581.62843934156399
 20
402.45717433949631
 30
0.0
  0
VERTEX
  5
316B
  8
AM_VIS
 10
581.62843934156263
 20
402.94560894071009
 30
0.0
  0
SEQEND
  5
316C
  8
AM_VIS
  0
LINE
  5
1379
  8
AM_VIS
 10
570.45586810732402
 20
404.53133991213639
 30
0.0
 11
567.18898613519605
 21
401.26445794000819
 31
0.0
  0
LINE
  5
137A
  8
AM_VIS
 10
566.08662534218195
 20
404.468506464043
 30
0.0
 11
570.39303465923047
 21
404.468506464043
 31
0.0
  0
LINE
  5
137B
  8
AM_VIS
 10
565.29236371670356
 20
404.68493278525392
 30
0.0
 11
577.27265881401831
 21
404.68493278525392
 31
0.0
  0
LINE
  5
137C
  8
AM_VIS
 10
568.35807200125691
 20
398.35697940727772
 30
0.0
 11
573.20051319196125
 21
403.1994205979824
 31
0.0
  0
ARC
  5
137D
  8
AM_VIS
 10
573.37255981398516
 20
398.18493278525398
 30
0.0
 40
8.8000000000000007
 50
232.88513754492661
 51
270.00000000000028
  0
ARC
  5
137E
  8
AM_VIS
 10
573.37255981398516
 20
398.18493278525398
 30
0.0
 40
9.4389364862881635
 50
233.31070994755669
 51
270.00000000000028
  0
LINE
  5
137F
  8
AM_VIS
 10
569.53362332769711
 20
388.74599629896568
 30
0.0
 11
573.37255981398528
 21
388.74599629896568
 31
0.0
  0
LINE
  5
1380
  8
AM_VIS
 10
570.84740533590571
 20
384.92015658826352
 30
0.0
 11
569.53362332769711
 21
384.92015658826352
 31
0.0
  0
LINE
  5
1381
  8
AM_VIS
 10
569.53362332769711
 20
382.86782063202048
 30
0.0
 11
570.03661538219319
 21
382.86782063202048
 31
0.0
  0
ARC
  5
1382
  8
AM_VIS
 10
573.37255981398516
 20
398.18493278525398
 30
0.0
 40
5.0174537355815172
 50
179.965681469223
 51
270.03431853077819
  0
ARC
  5
1383
  8
AM_VIS
 10
573.37255981398516
 20
398.18493278525398
 30
0.0
 40
6.3999999999999844
 50
180.0
 51
270.0
  0
ARC
  5
1384
  8
AM_VIS
 10
573.37255981398516
 20
398.18493278525398
 30
0.0
 40
7.4000000000000261
 50
180.0
 51
270.0
  0
POLYLINE
  5
1385
  8
AM_VIS
 66
     1
 10
0.0
 20
0.0
 30
0.0
  0
VERTEX
  5
316D
  8
AM_VIS
 10
578.13323596992313
 20
406.44081231283252
 30
0.0
  0
VERTEX
  5
316E
  8
AM_VIS
 10
578.07671557737103
 20
406.44081231283252
 30
0.0
  0
VERTEX
  5
316F
  8
AM_VIS
 10
576.59496196693078
 20
406.44081231283252
 30
0.0
  0
VERTEX
  5
3170
  8
AM_VIS
 10
570.6924422913321
 20
406.44081231283252
 30
0.0
  0
VERTEX
  5
3171
  8
AM_VIS
 10
564.7567468747925
 20
406.44081231283252
 30
0.0
  0
VERTEX
  5
3172
  8
AM_VIS
 10
558.78087673471327
 20
406.44081231283252
 30
0.0
  0
VERTEX
  5
3173
  8
AM_VIS
 10
546.8351884918726
 20
406.44081231283252
 30
0.0
  0
VERTEX
  5
3174
  8
AM_VIS
 10
534.91444755158273
 20
406.44081231283252
 30
0.0
  0
VERTEX
  5
3175
  8
AM_VIS
 10
522.98808448736816
 20
406.44081231283252
 30
0.0
  0
VERTEX
  5
3176
  8
AM_VIS
 10
511.06007459901889
 20
406.44081231283252
 30
0.0
  0
VERTEX
  5
3177
  8
AM_VIS
 10
499.13373094139382
 20
406.4408123128328
 30
0.0
  0
VERTEX
  5
3178
  8
AM_VIS
 10
491.62255981398522
 20
406.44081231283252
 30
0.0
  0
SEQEND
  5
3179
  8
AM_VIS
  0
POLYLINE
  5
1386
  8
AM_VIS
 66
     1
 10
0.0
 20
0.0
 30
0.0
  0
VERTEX
  5
317A
  8
AM_VIS
 10
491.62255981398522
 20
405.64190868502891
 30
0.0
  0
VERTEX
  5
317B
  8
AM_VIS
 10
499.13373094139382
 20
405.64190868502891
 30
0.0
  0
VERTEX
  5
317C
  8
AM_VIS
 10
511.06007459901889
 20
405.64190868502891
 30
0.0
  0
VERTEX
  5
317D
  8
AM_VIS
 10
522.98808448736816
 20
405.64190868502891
 30
0.0
  0
VERTEX
  5
317E
  8
AM_VIS
 10
534.91444755158273
 20
405.64190868502891
 30
0.0
  0
VERTEX
  5
317F
  8
AM_VIS
 10
546.8351884918726
 20
405.64190868502891
 30
0.0
  0
VERTEX
  5
3180
  8
AM_VIS
 10
558.78087673471327
 20
405.64190868502891
 30
0.0
  0
VERTEX
  5
3181
  8
AM_VIS
 10
564.7567468747925
 20
405.64190868502891
 30
0.0
  0
VERTEX
  5
3182
  8
AM_VIS
 10
570.6924422913321
 20
405.64190868502891
 30
0.0
  0
VERTEX
  5
3183
  8
AM_VIS
 10
573.37255981398516
 20
405.64190868502891
 30
0.0
  0
SEQEND
  5
3184
  8
AM_VIS
  0
ARC
  5
1387
  8
AM_VIS
 10
577.37255981398516
 20
389.0849327852539
 30
0.0
 40
1.6999999999999951
 50
0.0
 51
90.0
  0
LINE
  5
1388
  8
AM_VIS
 10
579.6561334927743
 20
395.20540763049911
 30
0.0
 11
579.6561334927743
 21
390.89899831345082
 31
0.0
  0
LINE
  5
1389
  8
AM_VIS
 10
579.87255981398505
 20
402.08503178528707
 30
0.0
 11
579.87255981398505
 21
390.10473668797238
 31
0.0
  0
ARC
  5
138A
  8
AM_VIS
 10
577.37255981398516
 20
389.0849327852539
 30
0.0
 40
2.7000000000000379
 50
22.191606566275741
 51
90.0
  0
ARC
  5
138B
  8
AM_VIS
 10
577.37255981398516
 20
389.0849327852539
 30
0.0
 40
2.9164263212108068
 50
38.463545887715689
 51
89.999999999998877
  0
LINE
  5
138C
  8
AM_VIS
 10
574.67324504660792
 20
388.74599629896568
 30
0.0
 11
573.37255981398528
 21
388.74599629896568
 31
0.0
  0
POLYLINE
  5
138D
  8
AM_VIS
 66
     1
 10
0.0
 20
0.0
 30
0.0
  0
VERTEX
  5
3185
  8
AM_VIS
 10
570.79438414704009
 20
381.67565661798039
 30
0.0
  0
VERTEX
  5
3186
  8
AM_VIS
 10
570.59590274337074
 20
382.55555863616132
 30
0.0
  0
VERTEX
  5
3187
  8
AM_VIS
 10
570.03661538219353
 20
382.86782063202071
 30
0.0
  0
SEQEND
  5
3188
  8
AM_VIS
  0
POLYLINE
  5
138E
  8
AM_VIS
 66
     1
 10
0.0
 20
0.0
 30
0.0
  0
VERTEX
  5
3189
  8
AM_VIS
 10
571.33776057216335
 20
384.41188228976671
 30
0.0
  0
VERTEX
  5
318A
  8
AM_VIS
 10
571.32493859385932
 20
383.50160808867213
 30
0.0
  0
VERTEX
  5
318B
  8
AM_VIS
 10
571.32055212516161
 20
382.70182459610191
 30
0.0
  0
SEQEND
  5
318C
  8
AM_VIS
  0
POLYLINE
  5
138F
  8
AM_VIS
 66
     1
 10
0.0
 20
0.0
 30
0.0
  0
VERTEX
  5
318D
  8
AM_VIS
 10
571.06293332297264
 20
384.86941451456607
 30
0.0
  0
VERTEX
  5
318E
  8
AM_VIS
 10
571.06882299461574
 20
384.8664180307785
 30
0.0
  0
VERTEX
  5
318F
  8
AM_VIS
 10
571.2215622425723
 20
384.74367684799103
 30
0.0
  0
VERTEX
  5
3190
  8
AM_VIS
 10
571.31477583638411
 20
384.57250493179862
 30
0.0
  0
VERTEX
  5
3191
  8
AM_VIS
 10
571.33776057216335
 20
384.41188228976671
 30
0.0
  0
SEQEND
  5
3192
  8
AM_VIS
  0
POLYLINE
  5
1390
  8
AM_VIS
 66
     1
 10
0.0
 20
0.0
 30
0.0
  0
VERTEX
  5
3193
  8
AM_VIS
 10
571.06293332297264
 20
384.86941451456607
 30
0.0
  0
VERTEX
  5
3194
  8
AM_VIS
 10
570.95830397306963
 20
384.90731047581289
 30
0.0
  0
VERTEX
  5
3195
  8
AM_VIS
 10
570.84740533590571
 20
384.92015658826352
 30
0.0
  0
SEQEND
  5
3196
  8
AM_VIS
  0
POLYLINE
  5
1391
  8
AM_VIS
 66
     1
 10
0.0
 20
0.0
 30
0.0
  0
VERTEX
  5
3197
  8
AM_VIS
 10
577.73362332769693
 20
388.24616763647782
 30
0.0
  0
VERTEX
  5
3198
  8
AM_VIS
 10
577.58724767142326
 20
388.59962064269189
 30
0.0
  0
VERTEX
  5
3199
  8
AM_VIS
 10
577.23379466520919
 20
388.74599629896551
 30
0.0
  0
SEQEND
  5
319A
  8
AM_VIS
  0
POLYLINE
  5
1392
  8
AM_VIS
 66
     1
 10
0.0
 20
0.0
 30
0.0
  0
VERTEX
  5
319B
  8
AM_VIS
 10
578.37255981398505
 20
388.88510412276599
 30
0.0
  0
VERTEX
  5
319C
  8
AM_VIS
 10
578.22618415771137
 20
389.23855712898012
 30
0.0
  0
VERTEX
  5
319D
  8
AM_VIS
 10
577.87273115149742
 20
389.38493278525368
 30
0.0
  0
SEQEND
  5
319E
  8
AM_VIS
  0
ARC
  5
1393
  8
AM_VIS
 10
577.37255981398516
 20
389.0849327852539
 30
0.0
 40
2.7000000000000379
 50
0.0
 51
22.191606566275741
  0
POLYLINE
  5
1394
  8
AM_VIS
 66
     1
 10
0.0
 20
0.0
 30
0.0
  0
VERTEX
  5
319F
  8
AM_VIS
 10
575.172559813985
 20
388.24668153158831
 30
0.0
  0
VERTEX
  5
31A0
  8
AM_VIS
 10
575.02639676270383
 20
388.59983324768422
 30
0.0
  0
VERTEX
  5
31A1
  8
AM_VIS
 10
574.67324504660792
 20
388.74599629896568
 30
0.0
  0
SEQEND
  5
31A2
  8
AM_VIS
  0
LINE
  5
1395
  8
AM_VIS
 10
577.37255981398516
 20
390.78493278525377
 30
0.0
 11
573.37255981398516
 21
390.78493278525377
 31
0.0
  0
LINE
  5
1396
  8
AM_VIS
 10
573.37255981398516
 20
389.38493278525368
 30
0.0
 11
577.87273115149742
 21
389.38493278525368
 31
0.0
  0
LINE
  5
1397
  8
AM_VIS
 10
577.23379466520919
 20
388.74599629896568
 30
0.0
 11
574.67324504660792
 21
388.74599629896568
 31
0.0
  0
LINE
  5
1398
  8
AM_VIS
 10
576.45208496873977
 20
392.00135910646458
 30
0.0
 11
579.71896694086786
 21
395.2682410785925
 31
0.0
  0
POLYLINE
  5
1399
  8
AM_VIS
 66
     1
 10
0.0
 20
0.0
 30
0.0
  0
VERTEX
  5
31A3
  8
AM_VIS
 10
573.37255981398516
 20
404.68493278525392
 30
0.0
  0
VERTEX
  5
31A4
  8
AM_VIS
 10
573.37255981398516
 20
405.9409042256176
 30
0.0
  0
SEQEND
  5
31A5
  8
AM_VIS
  0
POLYLINE
  5
139A
  8
AM_VIS
 66
     1
 10
0.0
 20
0.0
 30
0.0
  0
VERTEX
  5
31A6
  8
AM_VIS
 10
578.21573983569976
 20
405.9409042256176
 30
0.0
  0
VERTEX
  5
31A7
  8
AM_VIS
 10
573.37255981398516
 20
405.9409042256176
 30
0.0
  0
SEQEND
  5
31A8
  8
AM_VIS
  0
LINE
  5
139B
  8
AM_VIS
 10
573.20797061669225
 20
403.18222309062298
 30
0.0
 11
573.20051319196125
 21
403.1994205979824
 31
0.0
  0
POLYLINE
  5
139C
  8
AM_VIS
 66
     1
 10
0.0
 20
0.0
 30
0.0
  0
VERTEX
  5
31A9
  8
AM_VIS
 10
573.20051319196125
 20
403.1994205979824
 30
0.0
  0
VERTEX
  5
31AA
  8
AM_VIS
 10
573.20395489550674
 20
403.19953474962063
 30
0.0
  0
VERTEX
  5
31AB
  8
AM_VIS
 10
573.20739668605643
 20
403.19964888799831
 30
0.0
  0
SEQEND
  5
31AC
  8
AM_VIS
  0
LINE
  5
139D
  8
AM_VIS
 10
573.20797061669225
 20
403.1822230906227
 30
0.0
 11
573.20739668605665
 21
403.19964888799831
 31
0.0
  0
POLYLINE
  5
139E
  8
AM_VIS
 66
     1
 10
0.0
 20
0.0
 30
0.0
  0
VERTEX
  5
31AD
  8
AM_VIS
 10
573.20739668605643
 20
403.19964888799831
 30
0.0
  0
VERTEX
  5
31AE
  8
AM_VIS
 10
573.36955450309461
 20
403.2023856207876
 30
0.0
  0
SEQEND
  5
31AF
  8
AM_VIS
  0
ARC
  5
139F
  8
AM_VIS
 10
573.37255981398516
 20
398.18493278525398
 30
0.0
 40
5.0174537355815172
 50
80.308760840966755
 51
90.034318530776943
  0
LINE
  5
13A0
  8
AM_VIS
 10
573.53714901127785
 20
393.18764247988491
 30
0.0
 11
573.54460643600885
 21
393.1704449725255
 31
0.0
  0
LINE
  5
13A1
  8
AM_VIS
 10
573.53714901127785
 20
393.18764247988491
 30
0.0
 11
573.5377229419139
 21
393.17021668250931
 31
0.0
  0
POLYLINE
  5
13A2
  8
AM_VIS
 66
     1
 10
0.0
 20
0.0
 30
0.0
  0
VERTEX
  5
31B0
  8
AM_VIS
 10
573.54460643600885
 20
393.1704449725255
 30
0.0
  0
VERTEX
  5
31B1
  8
AM_VIS
 10
573.54116473246347
 20
393.17033082088699
 30
0.0
  0
VERTEX
  5
31B2
  8
AM_VIS
 10
573.5377229419139
 20
393.17021668250908
 30
0.0
  0
SEQEND
  5
31B3
  8
AM_VIS
  0
POLYLINE
  5
13A3
  8
AM_VIS
 66
     1
 10
0.0
 20
0.0
 30
0.0
  0
VERTEX
  5
31B4
  8
AM_VIS
 10
573.5377229419139
 20
393.17021668250908
 30
0.0
  0
VERTEX
  5
31B5
  8
AM_VIS
 10
573.37556512487572
 20
393.16747994972002
 30
0.0
  0
SEQEND
  5
31B6
  8
AM_VIS
  0
LINE
  5
13A4
  8
AM_VIS
 10
573.37556512487572
 20
393.16747994972002
 30
0.0
 11
572.22609250701043
 21
392.01800733185468
 31
0.0
  0
LINE
  5
13A5
  8
AM_VIS
 10
578.36985011935417
 20
398.02034358796089
 30
0.0
 11
578.38704762671364
 21
398.01288616322989
 31
0.0
  0
POLYLINE
  5
13A6
  8
AM_VIS
 66
     1
 10
0.0
 20
0.0
 30
0.0
  0
VERTEX
  5
31B7
  8
AM_VIS
 10
578.38727591672966
 20
398.01976965732518
 30
0.0
  0
VERTEX
  5
31B8
  8
AM_VIS
 10
578.38716177835204
 20
398.01632786677533
 30
0.0
  0
VERTEX
  5
31B9
  8
AM_VIS
 10
578.38704762671364
 20
398.01288616322989
 30
0.0
  0
SEQEND
  5
31BA
  8
AM_VIS
  0
POLYLINE
  5
13A7
  8
AM_VIS
 66
     1
 10
0.0
 20
0.0
 30
0.0
  0
VERTEX
  5
31BB
  8
AM_VIS
 10
578.39001264951912
 20
398.18192747436319
 30
0.0
  0
VERTEX
  5
31BC
  8
AM_VIS
 10
578.38727591672966
 20
398.01976965732518
 30
0.0
  0
SEQEND
  5
31BD
  8
AM_VIS
  0
LINE
  5
13A8
  8
AM_VIS
 10
578.36985011935417
 20
398.02034358796089
 30
0.0
 11
578.38727591672966
 21
398.01976965732518
 31
0.0
  0
ARC
  5
13A9
  8
AM_VIS
 10
573.37255981398516
 20
398.18493278525398
 30
0.0
 40
5.0174537355815172
 50
359.96568146922169
 51
9.6912391590339553
  0
POLYLINE
  5
13AA
  8
AM_VIS
 66
     1
 10
0.0
 20
0.0
 30
0.0
  0
VERTEX
  5
31BE
  8
AM_VIS
 10
575.29937801488416
 20
402.79875675466178
 30
0.0
  0
VERTEX
  5
31BF
  8
AM_VIS
 10
575.30604829652805
 20
402.80542703630562
 30
0.0
  0
SEQEND
  5
31C0
  8
AM_VIS
  0
POLYLINE
  5
13AB
  8
AM_VIS
 66
     1
 10
0.0
 20
0.0
 30
0.0
  0
VERTEX
  5
31C1
  8
AM_VIS
 10
577.99305406503697
 20
400.11842126779669
 30
0.0
  0
VERTEX
  5
31C2
  8
AM_VIS
 10
577.98638378339308
 20
400.11175098615303
 30
0.0
  0
SEQEND
  5
31C3
  8
AM_VIS
  0
POLYLINE
  5
13AC
  8
AM_VIS
 66
     1
 10
0.0
 20
0.0
 30
0.0
  0
VERTEX
  5
31C4
  8
AM_VIS
 10
577.99305406503697
 20
400.11842126779669
 30
0.0
  0
VERTEX
  5
31C5
  8
AM_VIS
 10
577.9930784291663
 20
400.11843788288053
 30
0.0
  0
VERTEX
  5
31C6
  8
AM_VIS
 10
578.02827472749163
 20
400.04122798664861
 30
0.0
  0
VERTEX
  5
31C7
  8
AM_VIS
 10
578.11334184447026
 20
399.82030518854037
 30
0.0
  0
VERTEX
  5
31C8
  8
AM_VIS
 10
578.22625801526726
 20
399.45395039881822
 30
0.0
  0
VERTEX
  5
31C9
  8
AM_VIS
 10
578.3184105737655
 20
399.029564214152
 30
0.0
  0
SEQEND
  5
31CA
  8
AM_VIS
  0
ARC
  5
13AD
  8
AM_VIS
 10
573.37255981398516
 20
398.18493278525398
 30
0.0
 40
5.7842916379766338
 50
25.823709302286371
 51
64.176290697713625
  0
POLYLINE
  5
13AE
  8
AM_VIS
 66
     1
 10
0.0
 20
0.0
 30
0.0
  0
VERTEX
  5
31CB
  8
AM_VIS
 10
579.87255981398505
 20
398.18493278525392
 30
0.0
  0
VERTEX
  5
31CC
  8
AM_VIS
 10
581.12759929398362
 20
398.18493278525392
 30
0.0
  0
SEQEND
  5
31CD
  8
AM_VIS
  0
POLYLINE
  5
13AF
  8
AM_VIS
 66
     1
 10
0.0
 20
0.0
 30
0.0
  0
VERTEX
  5
31CE
  8
AM_VIS
 10
581.12759929398362
 20
403.05821432217567
 30
0.0
  0
VERTEX
  5
31CF
  8
AM_VIS
 10
581.12759929398362
 20
398.18493278525392
 30
0.0
  0
SEQEND
  5
31D0
  8
AM_VIS
  0
LINE
  5
13B0
  8
AM_VIS
 10
579.74514754424013
 20
399.5370623690842
 30
0.0
 11
578.39001264951912
 21
398.18192747436319
 31
0.0
  0
LINE
  5
13B1
  8
AM_VIS
 10
579.73642067644926
 20
401.86178787920898
 30
0.0
 11
577.99305406503697
 21
400.11842126779669
 31
0.0
  0
LINE
  5
13B2
  8
AM_VIS
 10
577.37255981398516
 20
392.00135910646458
 30
0.0
 11
576.45208496873977
 21
392.00135910646458
 31
0.0
  0
POLYLINE
  5
13B3
  8
AM_VIS
 66
     1
 10
0.0
 20
0.0
 30
0.0
  0
VERTEX
  5
31D1
  8
AM_VIS
 10
574.21719124288336
 20
403.13078354503398
 30
0.0
  0
VERTEX
  5
31D2
  8
AM_VIS
 10
574.64157742754958
 20
403.03863098653602
 30
0.0
  0
VERTEX
  5
31D3
  8
AM_VIS
 10
575.0079322172719
 20
402.92571481573913
 30
0.0
  0
VERTEX
  5
31D4
  8
AM_VIS
 10
575.22885501537996
 20
402.84064769876022
 30
0.0
  0
VERTEX
  5
31D5
  8
AM_VIS
 10
575.30606491161177
 20
402.805451400435
 30
0.0
  0
VERTEX
  5
31D6
  8
AM_VIS
 10
575.30604829652805
 20
402.80542703630562
 30
0.0
  0
SEQEND
  5
31D7
  8
AM_VIS
  0
LINE
  5
13B4
  8
AM_VIS
 10
578.38704762671364
 20
398.01288616322989
 30
0.0
 11
573.54460643600885
 21
393.1704449725255
 31
0.0
  0
LINE
  5
13B5
  8
AM_VIS
 10
573.37255981398516
 20
391.78493278525377
 30
0.0
 11
577.37255981398516
 21
391.78493278525377
 31
0.0
  0
LINE
  5
13B6
  8
AM_VIS
 10
575.30604829652805
 20
402.80542703630562
 30
0.0
 11
577.04941490794045
 21
404.5487936477179
 31
0.0
  0
LINE
  5
13B7
  8
AM_VIS
 10
573.36955450309461
 20
403.2023856207876
 30
0.0
 11
574.72468939781584
 21
404.55752051550871
 31
0.0
  0
POLYLINE
  5
13B8
  8
AM_VIS
 66
     1
 10
0.0
 20
0.0
 30
0.0
  0
VERTEX
  5
31D8
  8
AM_VIS
 10
581.62843934156263
 20
402.94560894071009
 30
0.0
  0
VERTEX
  5
31D9
  8
AM_VIS
 10
581.62619090742601
 20
403.06891822049602
 30
0.0
  0
VERTEX
  5
31DA
  8
AM_VIS
 10
581.58236146256081
 20
403.50962627874992
 30
0.0
  0
VERTEX
  5
31DB
  8
AM_VIS
 10
581.49775873785518
 20
403.89105064526728
 30
0.0
  0
VERTEX
  5
31DC
  8
AM_VIS
 10
581.38849082098307
 20
404.2171580835668
 30
0.0
  0
VERTEX
  5
31DD
  8
AM_VIS
 10
581.06256631779797
 20
404.85146445287251
 30
0.0
  0
VERTEX
  5
31DE
  8
AM_VIS
 10
580.59395224927596
 20
405.42716346434941
 30
0.0
  0
VERTEX
  5
31DF
  8
AM_VIS
 10
580.01463339594545
 20
405.89070803838757
 30
0.0
  0
VERTEX
  5
31E0
  8
AM_VIS
 10
579.37939036026273
 20
406.21067268410309
 30
0.0
  0
VERTEX
  5
31E1
  8
AM_VIS
 10
579.05010939680255
 20
406.31803498881118
 30
0.0
  0
VERTEX
  5
31E2
  8
AM_VIS
 10
578.66422739831296
 20
406.39998443570101
 30
0.0
  0
VERTEX
  5
31E3
  8
AM_VIS
 10
578.22047926300399
 20
406.43967104415208
 30
0.0
  0
VERTEX
  5
31E4
  8
AM_VIS
 10
578.13323596992313
 20
406.44081231283252
 30
0.0
  0
SEQEND
  5
31E5
  8
AM_VIS
  0
POLYLINE
  5
13B9
  8
AM_VIS
 66
     1
 10
0.0
 20
0.0
 30
0.0
  0
VERTEX
  5
31E6
  8
AM_VIS
 10
578.13697272052218
 20
405.94188541195098
 30
0.0
  0
VERTEX
  5
31E7
  8
AM_VIS
 10
578.21573983569976
 20
405.9409042256176
 30
0.0
  0
VERTEX
  5
31E8
  8
AM_VIS
 10
578.58760133847363
 20
405.90787727191667
 30
0.0
  0
VERTEX
  5
31E9
  8
AM_VIS
 10
578.91864242882275
 20
405.83777186037628
 30
0.0
  0
VERTEX
  5
31EA
  8
AM_VIS
 10
579.209554867713
 20
405.74308210080193
 30
0.0
  0
VERTEX
  5
31EB
  8
AM_VIS
 10
579.74813164340594
 20
405.47205833358851
 30
0.0
  0
VERTEX
  5
31EC
  8
AM_VIS
 10
580.24464478702771
 20
405.07488276862898
 30
0.0
  0
VERTEX
  5
31ED
  8
AM_VIS
 10
580.64618087312124
 20
404.58146215987529
 30
0.0
  0
VERTEX
  5
31EE
  8
AM_VIS
 10
580.92221254925926
 20
404.04377469312249
 30
0.0
  0
VERTEX
  5
31EF
  8
AM_VIS
 10
581.01862806957479
 20
403.75554774196388
 30
0.0
  0
VERTEX
  5
31F0
  8
AM_VIS
 10
581.09102456262872
 20
403.42827758933407
 30
0.0
  0
VERTEX
  5
31F1
  8
AM_VIS
 10
581.12759929398362
 20
403.05821432217567
 30
0.0
  0
VERTEX
  5
31F2
  8
AM_VIS
 10
581.12948921011343
 20
402.95089098723082
 30
0.0
  0
SEQEND
  5
31F3
  8
AM_VIS
  0
POLYLINE
  5
13BA
  8
AM_VIS
 66
     1
 10
0.0
 20
0.0
 30
0.0
  0
VERTEX
  5
31F4
  8
AM_VIS
 10
579.87255981398505
 20
402.08503178528707
 30
0.0
  0
VERTEX
  5
31F5
  8
AM_VIS
 10
579.11107845112269
 20
403.92345142239122
 30
0.0
  0
VERTEX
  5
31F6
  8
AM_VIS
 10
577.27265881401831
 20
404.68493278525392
 30
0.0
  0
SEQEND
  5
31F7
  8
AM_VIS
  0
LINE
  5
13BB
  8
AM_VIS
 10
558.91561960295485
 20
396.15909307455172
 30
0.0
 11
491.62255981398522
 21
396.15909307455172
 31
0.0
  0
LINE
  5
13BC
  8
AM_VIS
 10
563.43379466520923
 20
402.54599629896569
 30
0.0
 11
491.62255981398522
 21
402.54599629896569
 31
0.0
  0
LINE
  5
13BD
  8
AM_VIS
 10
491.62255981398522
 20
399.9849327852537
 30
0.0
 11
563.43430856031966
 21
399.9849327852537
 31
0.0
  0
LINE
  5
13BE
  8
AM_VIS
 10
491.62255981398522
 20
395.10675711830862
 30
0.0
 11
556.86328364671169
 21
395.10675711830862
 31
0.0
  0
LINE
  5
13BF
  8
AM_VIS
 10
491.62255981398522
 20
404.88493278525368
 30
0.0
 11
564.27255981398525
 21
404.88493278525368
 31
0.0
  0
LINE
  5
13C0
  8
AM_VIS
 10
491.62255981398522
 20
403.18493278525398
 30
0.0
 11
564.07273115149735
 21
403.18493278525398
 31
0.0
  0
LINE
  5
13C1
  8
AM_VIS
 10
564.27255981398525
 20
403.88493278525368
 30
0.0
 11
491.62255981398522
 21
403.88493278525368
 31
0.0
  0
LINE
  5
13C2
  8
AM_VIS
 10
566.16695700575838
 20
389.96077006658282
 30
0.0
 11
565.14839709531429
 21
390.97932997702708
 31
0.0
  0
LINE
  5
13C3
  8
AM_VIS
 10
566.17955486931214
 20
390.24930857982548
 30
0.0
 11
565.43693560855672
 21
390.99192784058067
 31
0.0
  0
LINE
  5
13C4
  8
AM_VIS
 10
567.6886473280781
 20
391.15811105328203
 30
0.0
 11
566.5845077666213
 21
390.23162795449548
 31
0.0
  0
ARC
  5
13C5
  8
AM_VIS
 10
569.53362332769711
 20
394.3459962989657
 30
0.0
 40
5.5999999999999988
 50
180.0
 51
270.0
  0
ARC
  5
13C6
  8
AM_VIS
 10
569.53362332769711
 20
394.3459962989657
 30
0.0
 40
9.4258397107021779
 50
180.0000000000004
 51
270.00000000000068
  0
ARC
  5
13C7
  8
AM_VIS
 10
569.53362332769711
 20
394.3459962989657
 30
0.0
 40
11.478175666945051
 50
180.0
 51
270.00000000000023
  0
POLYLINE
  5
13C8
  8
AM_VIS
 66
     1
 10
0.0
 20
0.0
 30
0.0
  0
VERTEX
  5
31F8
  8
AM_VIS
 10
566.5845077666213
 20
390.23162795449548
 30
0.0
  0
VERTEX
  5
31F9
  8
AM_VIS
 10
566.37859344512412
 20
390.16172803358768
 30
0.0
  0
VERTEX
  5
31FA
  8
AM_VIS
 10
566.17955486931214
 20
390.24930857982548
 30
0.0
  0
SEQEND
  5
31FB
  8
AM_VIS
  0
POLYLINE
  5
13C9
  8
AM_VIS
 66
     1
 10
0.0
 20
0.0
 30
0.0
  0
VERTEX
  5
31FC
  8
AM_VIS
 10
566.57190990306776
 20
389.94308944125282
 30
0.0
  0
VERTEX
  5
31FD
  8
AM_VIS
 10
566.36599558157047
 20
389.87318952034502
 30
0.0
  0
VERTEX
  5
31FE
  8
AM_VIS
 10
566.16695700575838
 20
389.96077006658282
 30
0.0
  0
SEQEND
  5
31FF
  8
AM_VIS
  0
POLYLINE
  5
13CA
  8
AM_VIS
 66
     1
 10
0.0
 20
0.0
 30
0.0
  0
VERTEX
  5
3200
  8
AM_VIS
 10
567.73302873035504
 20
390.61596910790979
 30
0.0
  0
VERTEX
  5
3201
  8
AM_VIS
 10
567.62831245833615
 20
390.66599073577657
 30
0.0
  0
VERTEX
  5
3202
  8
AM_VIS
 10
567.51243214381395
 20
390.67251381073368
 30
0.0
  0
VERTEX
  5
3203
  8
AM_VIS
 10
567.43195143505125
 20
390.64951165373259
 30
0.0
  0
VERTEX
  5
3204
  8
AM_VIS
 10
567.36094836553366
 20
390.60517132409268
 30
0.0
  0
SEQEND
  5
3205
  8
AM_VIS
  0
LINE
  5
13CB
  8
AM_VIS
 10
567.36094836553366
 20
390.60517132409268
 30
0.0
 11
566.57190990306776
 21
389.94308944125282
 31
0.0
  0
LINE
  5
13CC
  8
AM_VIS
 10
565.41925498322655
 20
391.39688073788977
 30
0.0
 11
566.34573808201344
 21
392.50102029934658
 31
0.0
  0
LINE
  5
13CD
  8
AM_VIS
 10
558.05544766075195
 20
394.34898835346178
 30
0.0
 11
558.05544766075195
 21
394.3459962989657
 31
0.0
  0
POLYLINE
  5
13CE
  8
AM_VIS
 66
     1
 10
0.0
 20
0.0
 30
0.0
  0
VERTEX
  5
3206
  8
AM_VIS
 10
558.05544766075195
 20
394.34898835346178
 30
0.0
  0
VERTEX
  5
3207
  8
AM_VIS
 10
557.74318566489274
 20
394.90827571463927
 30
0.0
  0
VERTEX
  5
3208
  8
AM_VIS
 10
556.86328364671169
 20
395.10675711830862
 30
0.0
  0
SEQEND
  5
3209
  8
AM_VIS
  0
ARC
  5
13CF
  8
AM_VIS
 10
564.27255981398525
 20
402.18493278525398
 30
0.0
 40
2.7000000000000379
 50
67.808393433728099
 51
90.0
  0
LINE
  5
13D0
  8
AM_VIS
 10
564.57255981398509
 20
402.68510412276601
 30
0.0
 11
564.57255981398509
 21
398.18493278525392
 31
0.0
  0
LINE
  5
13D1
  8
AM_VIS
 10
563.93362332769698
 20
399.4856180178765
 30
0.0
 11
563.93362332769698
 21
402.04616763647772
 31
0.0
  0
POLYLINE
  5
13D2
  8
AM_VIS
 66
     1
 10
0.0
 20
0.0
 30
0.0
  0
VERTEX
  5
320A
  8
AM_VIS
 10
564.57255981398509
 20
402.68510412276601
 30
0.0
  0
VERTEX
  5
320B
  8
AM_VIS
 10
564.4261841577113
 20
403.03855712898007
 30
0.0
  0
VERTEX
  5
320C
  8
AM_VIS
 10
564.07273115149735
 20
403.18493278525369
 30
0.0
  0
SEQEND
  5
320D
  8
AM_VIS
  0
LINE
  5
13D3
  8
AM_VIS
 10
563.93362332769698
 20
398.18493278525392
 30
0.0
 11
563.93362332769698
 21
399.4856180178765
 31
0.0
  0
LINE
  5
13D4
  8
AM_VIS
 10
565.9725598139853
 20
398.18493278525392
 30
0.0
 11
565.9725598139853
 21
402.18493278525398
 31
0.0
  0
POLYLINE
  5
13D5
  8
AM_VIS
 66
     1
 10
0.0
 20
0.0
 30
0.0
  0
VERTEX
  5
320E
  8
AM_VIS
 10
563.93362332769698
 20
402.04616763647772
 30
0.0
  0
VERTEX
  5
320F
  8
AM_VIS
 10
563.7872476714233
 20
402.39962064269179
 30
0.0
  0
VERTEX
  5
3210
  8
AM_VIS
 10
563.43379466520923
 20
402.54599629896552
 30
0.0
  0
SEQEND
  5
3211
  8
AM_VIS
  0
POLYLINE
  5
13D6
  8
AM_VIS
 66
     1
 10
0.0
 20
0.0
 30
0.0
  0
VERTEX
  5
3212
  8
AM_VIS
 10
563.93362332769698
 20
399.4856180178765
 30
0.0
  0
VERTEX
  5
3213
  8
AM_VIS
 10
563.78746027641546
 20
399.83876973397241
 30
0.0
  0
VERTEX
  5
3214
  8
AM_VIS
 10
563.43430856031966
 20
399.9849327852537
 30
0.0
  0
SEQEND
  5
3215
  8
AM_VIS
  0
POLYLINE
  5
13D7
  8
AM_VIS
 66
     1
 10
0.0
 20
0.0
 30
0.0
  0
VERTEX
  5
3216
  8
AM_VIS
 10
558.91561960295485
 20
396.15909307455172
 30
0.0
  0
VERTEX
  5
3217
  8
AM_VIS
 10
559.24952050511638
 20
396.15994578131063
 30
0.0
  0
VERTEX
  5
3218
  8
AM_VIS
 10
559.61186692547881
 20
396.1624911504129
 30
0.0
  0
SEQEND
  5
3219
  8
AM_VIS
  0
POLYLINE
  5
13D8
  8
AM_VIS
 66
     1
 10
0.0
 20
0.0
 30
0.0
  0
VERTEX
  5
321A
  8
AM_VIS
 10
559.61186692547881
 20
396.1624911504129
 30
0.0
  0
VERTEX
  5
321B
  8
AM_VIS
 10
559.785926693855
 20
396.13233129503533
 30
0.0
  0
VERTEX
  5
321C
  8
AM_VIS
 10
559.94611563046533
 20
396.03498840015681
 30
0.0
  0
VERTEX
  5
321D
  8
AM_VIS
 10
560.05815067287131
 20
395.88530157924617
 30
0.0
  0
VERTEX
  5
321E
  8
AM_VIS
 10
560.10733305954045
 20
395.70445137518118
 30
0.0
  0
VERTEX
  5
321F
  8
AM_VIS
 10
560.10885866679735
 20
395.66085335697687
 30
0.0
  0
SEQEND
  5
3220
  8
AM_VIS
  0
POLYLINE
  5
13D9
  8
AM_VIS
 66
     1
 10
0.0
 20
0.0
 30
0.0
  0
VERTEX
  5
3221
  8
AM_VIS
 10
560.10885866679735
 20
395.66085335697687
 30
0.0
  0
VERTEX
  5
3222
  8
AM_VIS
 10
560.10805278324233
 20
395.53032819887221
 30
0.0
  0
VERTEX
  5
3223
  8
AM_VIS
 10
560.10778361699465
 20
395.40132430970488
 30
0.0
  0
SEQEND
  5
3224
  8
AM_VIS
  0
LINE
  5
13DA
  8
AM_VIS
 10
560.10778361699465
 20
394.3459962989657
 30
0.0
 11
560.10778361699465
 21
395.40132430970488
 31
0.0
  0
POLYLINE
  5
13DB
  8
AM_VIS
 66
     1
 10
0.0
 20
0.0
 30
0.0
  0
VERTEX
  5
3225
  8
AM_VIS
 10
566.34573808201344
 20
392.50102029934658
 30
0.0
  0
VERTEX
  5
3226
  8
AM_VIS
 10
566.40177081876186
 20
392.60276068529538
 30
0.0
  0
VERTEX
  5
3227
  8
AM_VIS
 10
566.41497262485359
 20
392.71811582192572
 30
0.0
  0
VERTEX
  5
3228
  8
AM_VIS
 10
566.39627055940798
 20
392.80076522740057
 30
0.0
  0
VERTEX
  5
3229
  8
AM_VIS
 10
566.35519842488554
 20
392.87488201951032
 30
0.0
  0
SEQEND
  5
322A
  8
AM_VIS
  0
POLYLINE
  5
13DC
  8
AM_VIS
 66
     1
 10
0.0
 20
0.0
 30
0.0
  0
VERTEX
  5
322B
  8
AM_VIS
 10
565.79279835282375
 20
392.17332133680219
 30
0.0
  0
VERTEX
  5
322C
  8
AM_VIS
 10
565.84883103051061
 20
392.27506160951788
 30
0.0
  0
VERTEX
  5
322D
  8
AM_VIS
 10
565.86203284129942
 20
392.39041667781902
 30
0.0
  0
VERTEX
  5
322E
  8
AM_VIS
 10
565.84372565293916
 20
392.47202470502469
 30
0.0
  0
VERTEX
  5
322F
  8
AM_VIS
 10
565.80359613664132
 20
392.5454017016238
 30
0.0
  0
SEQEND
  5
3230
  8
AM_VIS
  0
ARC
  5
13DD
  8
AM_VIS
 10
573.37255981398516
 20
398.18493278525398
 30
0.0
 40
8.8000000000000007
 50
180.0
 51
217.11486245507331
  0
ARC
  5
13DE
  8
AM_VIS
 10
573.37255981398516
 20
398.18493278525398
 30
0.0
 40
9.4389364862881635
 50
180.0
 51
216.6892900524432
  0
LINE
  5
13DF
  8
AM_VIS
 10
563.93362332769698
 20
398.18493278525392
 30
0.0
 11
563.93362332769698
 21
394.3459962989657
 31
0.0
  0
LINE
  5
13E0
  8
AM_VIS
 10
566.97255981398519
 20
402.18493278525398
 30
0.0
 11
566.97255981398519
 21
398.18493278525392
 31
0.0
  0
LINE
  5
13E1
  8
AM_VIS
 10
568.37526950861627
 20
398.34952198254672
 30
0.0
 11
568.35784371124055
 21
398.35009591318271
 31
0.0
  0
LINE
  5
13E2
  8
AM_VIS
 10
568.37526950861627
 20
398.34952198254649
 30
0.0
 11
568.35807200125691
 21
398.35697940727772
 31
0.0
  0
POLYLINE
  5
13E3
  8
AM_VIS
 66
     1
 10
0.0
 20
0.0
 30
0.0
  0
VERTEX
  5
3231
  8
AM_VIS
 10
568.35784371124055
 20
398.35009591318271
 30
0.0
  0
VERTEX
  5
3232
  8
AM_VIS
 10
568.35795784961851
 20
398.35353770373212
 30
0.0
  0
VERTEX
  5
3233
  8
AM_VIS
 10
568.35807200125657
 20
398.35697940727772
 30
0.0
  0
SEQEND
  5
3234
  8
AM_VIS
  0
POLYLINE
  5
13E4
  8
AM_VIS
 66
     1
 10
0.0
 20
0.0
 30
0.0
  0
VERTEX
  5
3235
  8
AM_VIS
 10
568.35510697845109
 20
398.18793809614431
 30
0.0
  0
VERTEX
  5
3236
  8
AM_VIS
 10
568.35784371124055
 20
398.35009591318271
 30
0.0
  0
SEQEND
  5
3237
  8
AM_VIS
  0
LINE
  5
13E5
  8
AM_VIS
 10
567.18898613519605
 20
401.26445794000819
 30
0.0
 11
567.18898613519605
 21
402.18493278525398
 31
0.0
  0
LINE
  5
13E6
  8
AM_VIS
 10
567.2056343605858
 20
397.03846547827902
 30
0.0
 11
568.35510697845109
 21
398.18793809614431
 31
0.0
  0
POLYLINE
  5
13E7
  8
AM_VIS
 66
     1
 10
0.0
 20
0.0
 30
0.0
  0
VERTEX
  5
3238
  8
AM_VIS
 10
565.14839709531429
 20
390.97932997702708
 30
0.0
  0
VERTEX
  5
3239
  8
AM_VIS
 10
565.06081654907643
 20
391.17836855283912
 30
0.0
  0
VERTEX
  5
323A
  8
AM_VIS
 10
565.13071646998424
 20
391.38428287433629
 30
0.0
  0
SEQEND
  5
323B
  8
AM_VIS
  0
POLYLINE
  5
13E8
  8
AM_VIS
 66
     1
 10
0.0
 20
0.0
 30
0.0
  0
VERTEX
  5
323C
  8
AM_VIS
 10
565.43693560855672
 20
390.99192784058067
 30
0.0
  0
VERTEX
  5
323D
  8
AM_VIS
 10
565.34935506231875
 20
391.19096641639271
 30
0.0
  0
VERTEX
  5
323E
  8
AM_VIS
 10
565.41925498322655
 20
391.39688073788977
 30
0.0
  0
SEQEND
  5
323F
  8
AM_VIS
  0
POLYLINE
  5
13E9
  8
AM_VIS
 66
     1
 10
0.0
 20
0.0
 30
0.0
  0
VERTEX
  5
3240
  8
AM_VIS
 10
568.06250904824174
 20
391.16757139615419
 30
0.0
  0
VERTEX
  5
3241
  8
AM_VIS
 10
567.95816717536024
 20
391.21836941988499
 30
0.0
  0
VERTEX
  5
3242
  8
AM_VIS
 10
567.8423390754665
 20
391.22575288433382
 30
0.0
  0
VERTEX
  5
3243
  8
AM_VIS
 10
567.76066935642689
 20
391.20290211343871
 30
0.0
  0
VERTEX
  5
3244
  8
AM_VIS
 10
567.68864732807833
 20
391.1581110532822
 30
0.0
  0
SEQEND
  5
3245
  8
AM_VIS
  0
LINE
  5
13EA
  8
AM_VIS
 10
565.13071646998424
 20
391.38428287433629
 30
0.0
 11
565.79279835282375
 21
392.17332133680219
 31
0.0
  0
ARC
  5
13EB
  8
AM_VIS
 10
564.27255981398525
 20
402.18493278525398
 30
0.0
 40
1.6999999999999951
 50
0.0
 51
90.0
  0
ARC
  5
13EC
  8
AM_VIS
 10
564.27255981398525
 20
402.18493278525398
 30
0.0
 40
2.7000000000000379
 50
0.0
 51
67.808393433728099
  0
ARC
  5
13ED
  8
AM_VIS
 10
564.27255981398525
 20
402.18493278525398
 30
0.0
 40
2.9164263212108068
 50
359.99999999999881
 51
51.536454112282549
  0
LINE
  5
13EE
  8
AM_VIS
 10
403.17255981398512
 20
168.78493278525369
 30
0.0
 11
403.17255981398512
 21
278.93493278525381
 31
0.0
  0
LINE
  5
13EF
  8
AM_VIS
 10
404.172559813985
 20
278.93493278525381
 30
0.0
 11
404.172559813985
 21
168.78493278525369
 31
0.0
  0
LINE
  5
13F0
  8
AM_VIS
 10
404.87255981398511
 20
168.9847614477415
 30
0.0
 11
404.87255981398511
 21
278.93493278525381
 31
0.0
  0
LINE
  5
13F1
  8
AM_VIS
 10
405.51149630027339
 20
278.93493278525381
 30
0.0
 11
405.51149630027339
 21
169.62369793402971
 31
0.0
  0
LINE
  5
13F2
  8
AM_VIS
 10
408.07255981398521
 20
169.62318403891919
 30
0.0
 11
408.07255981398521
 21
278.93493278525381
 31
0.0
  0
LINE
  5
13F3
  8
AM_VIS
 10
411.92456750280871
 20
278.93493278525381
 30
0.0
 11
411.92456750280871
 21
175.16804097440561
 31
0.0
  0
LINE
  5
13F4
  8
AM_VIS
 10
412.45073548093018
 20
176.19420895252711
 30
0.0
 11
412.45073548093018
 21
278.93493278525381
 31
0.0
  0
POLYLINE
  5
13F5
  8
AM_VIS
 66
     1
 10
0.0
 20
0.0
 30
0.0
  0
VERTEX
  5
3246
  8
AM_VIS
 10
402.41558391420989
 20
159.68493278525349
 30
0.0
  0
VERTEX
  5
3247
  8
AM_VIS
 10
402.41558391420989
 20
162.1553200243398
 30
0.0
  0
VERTEX
  5
3248
  8
AM_VIS
 10
402.41558391420989
 20
170.45169114342389
 30
0.0
  0
VERTEX
  5
3249
  8
AM_VIS
 10
402.41558391420989
 20
187.1609447729966
 30
0.0
  0
VERTEX
  5
324A
  8
AM_VIS
 10
402.41558391420989
 20
203.87035220741311
 30
0.0
  0
VERTEX
  5
324B
  8
AM_VIS
 10
402.41558391420989
 20
220.5609568851103
 30
0.0
  0
VERTEX
  5
324C
  8
AM_VIS
 10
402.41558391420989
 20
237.25859160485311
 30
0.0
  0
VERTEX
  5
324D
  8
AM_VIS
 10
402.41558391420989
 20
253.95651001593359
 30
0.0
  0
VERTEX
  5
324E
  8
AM_VIS
 10
402.41558391420989
 20
269.60961724154959
 30
0.0
  0
VERTEX
  5
324F
  8
AM_VIS
 10
402.41558391420989
 20
278.93493278525352
 30
0.0
  0
SEQEND
  5
3250
  8
AM_VIS
  0
POLYLINE
  5
13F6
  8
AM_VIS
 66
     1
 10
0.0
 20
0.0
 30
0.0
  0
VERTEX
  5
3251
  8
AM_VIS
 10
401.61668028640628
 20
278.93493278525352
 30
0.0
  0
VERTEX
  5
3252
  8
AM_VIS
 10
401.61668028640628
 20
269.60961724154959
 30
0.0
  0
VERTEX
  5
3253
  8
AM_VIS
 10
401.61668028640628
 20
253.95651001593359
 30
0.0
  0
VERTEX
  5
3254
  8
AM_VIS
 10
401.61668028640628
 20
237.25859160485311
 30
0.0
  0
VERTEX
  5
3255
  8
AM_VIS
 10
401.61668028640628
 20
220.5609568851103
 30
0.0
  0
VERTEX
  5
3256
  8
AM_VIS
 10
401.61668028640628
 20
203.87035220741311
 30
0.0
  0
VERTEX
  5
3257
  8
AM_VIS
 10
401.61668028640628
 20
187.1609447729966
 30
0.0
  0
VERTEX
  5
3258
  8
AM_VIS
 10
401.61668028640628
 20
170.45169114342389
 30
0.0
  0
VERTEX
  5
3259
  8
AM_VIS
 10
401.61668028640628
 20
162.1553200243398
 30
0.0
  0
VERTEX
  5
325A
  8
AM_VIS
 10
401.61668028640628
 20
158.01277403713109
 30
0.0
  0
VERTEX
  5
325B
  8
AM_VIS
 10
401.61668028640628
 20
155.9339395687814
 30
0.0
  0
VERTEX
  5
325C
  8
AM_VIS
 10
401.61668028640628
 20
155.41269123101119
 30
0.0
  0
VERTEX
  5
325D
  8
AM_VIS
 10
401.61668028640759
 20
154.92425662979741
 30
0.0
  0
SEQEND
  5
325E
  8
AM_VIS
  0
LINE
  5
13F7
  8
AM_VIS
 10
412.7892515206463
 20
153.33852565837111
 30
0.0
 11
416.05613349277422
 21
156.60540763049929
 31
0.0
  0
LINE
  5
13F8
  8
AM_VIS
 10
417.15849428578821
 20
153.4013591064645
 30
0.0
 11
412.85208496873969
 21
153.4013591064645
 31
0.0
  0
LINE
  5
13F9
  8
AM_VIS
 10
417.95275591126659
 20
153.18493278525349
 30
0.0
 11
405.97246081395201
 21
153.18493278525349
 31
0.0
  0
LINE
  5
13FA
  8
AM_VIS
 10
414.8870476267133
 20
159.51288616322969
 30
0.0
 11
410.04460643600891
 21
154.6704449725251
 31
0.0
  0
ARC
  5
13FB
  8
AM_VIS
 10
409.87255981398511
 20
159.68493278525349
 30
0.0
 40
8.8000000000000007
 50
52.885137544926579
 51
90.000000000000313
  0
ARC
  5
13FC
  8
AM_VIS
 10
409.87255981398511
 20
159.68493278525349
 30
0.0
 40
9.4389364862881635
 50
53.310709947556738
 51
90.000000000000313
  0
LINE
  5
13FD
  8
AM_VIS
 10
413.71149630027321
 20
169.12386927154171
 30
0.0
 11
409.87255981398488
 21
169.12386927154171
 31
0.0
  0
LINE
  5
13FE
  8
AM_VIS
 10
412.39771429206451
 20
172.94970898224389
 30
0.0
 11
413.71149630027321
 21
172.94970898224389
 31
0.0
  0
LINE
  5
13FF
  8
AM_VIS
 10
413.71149630027321
 20
175.00204493848699
 30
0.0
 11
413.20850424577702
 21
175.00204493848699
 31
0.0
  0
ARC
  5
1400
  8
AM_VIS
 10
409.87255981398511
 20
159.68493278525349
 30
0.0
 40
5.0174537355815172
 50
359.965681469223
 51
90.034318530778293
  0
ARC
  5
1401
  8
AM_VIS
 10
409.87255981398511
 20
159.68493278525349
 30
0.0
 40
6.3999999999999844
 50
0.0
 51
90.0
  0
ARC
  5
1402
  8
AM_VIS
 10
409.87255981398511
 20
159.68493278525349
 30
0.0
 40
7.4000000000000261
 50
0.0
 51
90.0
  0
POLYLINE
  5
1403
  8
AM_VIS
 66
     1
 10
0.0
 20
0.0
 30
0.0
  0
VERTEX
  5
325F
  8
AM_VIS
 10
405.11188365804719
 20
151.42905325767489
 30
0.0
  0
VERTEX
  5
3260
  8
AM_VIS
 10
405.16840405059929
 20
151.42905325767489
 30
0.0
  0
VERTEX
  5
3261
  8
AM_VIS
 10
406.65015766103937
 20
151.42905325767489
 30
0.0
  0
VERTEX
  5
3262
  8
AM_VIS
 10
412.55267733663823
 20
151.42905325767489
 30
0.0
  0
VERTEX
  5
3263
  8
AM_VIS
 10
418.48837275317783
 20
151.42905325767489
 30
0.0
  0
VERTEX
  5
3264
  8
AM_VIS
 10
424.46424289325699
 20
151.42905325767489
 30
0.0
  0
VERTEX
  5
3265
  8
AM_VIS
 10
436.40993113609761
 20
151.42905325767489
 30
0.0
  0
VERTEX
  5
3266
  8
AM_VIS
 10
448.33067207638749
 20
151.42905325767489
 30
0.0
  0
VERTEX
  5
3267
  8
AM_VIS
 10
460.257035140602
 20
151.42905325767489
 30
0.0
  0
VERTEX
  5
3268
  8
AM_VIS
 10
472.18504502895138
 20
151.42905325767489
 30
0.0
  0
VERTEX
  5
3269
  8
AM_VIS
 10
484.11138868657639
 20
151.4290532576747
 30
0.0
  0
VERTEX
  5
326A
  8
AM_VIS
 10
491.62255981398522
 20
151.42905325767489
 30
0.0
  0
SEQEND
  5
326B
  8
AM_VIS
  0
POLYLINE
  5
1404
  8
AM_VIS
 66
     1
 10
0.0
 20
0.0
 30
0.0
  0
VERTEX
  5
326C
  8
AM_VIS
 10
491.62255981398522
 20
152.22795688547851
 30
0.0
  0
VERTEX
  5
326D
  8
AM_VIS
 10
484.11138868657639
 20
152.22795688547851
 30
0.0
  0
VERTEX
  5
326E
  8
AM_VIS
 10
472.18504502895138
 20
152.22795688547851
 30
0.0
  0
VERTEX
  5
326F
  8
AM_VIS
 10
460.257035140602
 20
152.22795688547851
 30
0.0
  0
VERTEX
  5
3270
  8
AM_VIS
 10
448.33067207638749
 20
152.22795688547851
 30
0.0
  0
VERTEX
  5
3271
  8
AM_VIS
 10
436.40993113609761
 20
152.22795688547851
 30
0.0
  0
VERTEX
  5
3272
  8
AM_VIS
 10
424.46424289325699
 20
152.22795688547851
 30
0.0
  0
VERTEX
  5
3273
  8
AM_VIS
 10
418.48837275317783
 20
152.22795688547851
 30
0.0
  0
VERTEX
  5
3274
  8
AM_VIS
 10
412.55267733663823
 20
152.22795688547851
 30
0.0
  0
VERTEX
  5
3275
  8
AM_VIS
 10
409.87255981398511
 20
152.22795688547851
 30
0.0
  0
SEQEND
  5
3276
  8
AM_VIS
  0
ARC
  5
1405
  8
AM_VIS
 10
405.87255981398511
 20
168.78493278525369
 30
0.0
 40
1.6999999999999951
 50
180.0
 51
270.0
  0
LINE
  5
1406
  8
AM_VIS
 10
403.58898613519591
 20
162.6644579400083
 30
0.0
 11
403.58898613519591
 21
166.9708672570566
 31
0.0
  0
LINE
  5
1407
  8
AM_VIS
 10
403.37255981398511
 20
155.7848337852204
 30
0.0
 11
403.37255981398511
 21
167.76512888253501
 31
0.0
  0
ARC
  5
1408
  8
AM_VIS
 10
405.87255981398511
 20
168.78493278525369
 30
0.0
 40
2.7000000000000379
 50
202.19160656627571
 51
270.0
  0
ARC
  5
1409
  8
AM_VIS
 10
405.87255981398511
 20
168.78493278525369
 30
0.0
 40
2.9164263212108068
 50
218.46354588771561
 51
269.99999999999881
  0
LINE
  5
140A
  8
AM_VIS
 10
408.57187458136241
 20
169.12386927154171
 30
0.0
 11
409.87255981398488
 21
169.12386927154171
 31
0.0
  0
POLYLINE
  5
140B
  8
AM_VIS
 66
     1
 10
0.0
 20
0.0
 30
0.0
  0
VERTEX
  5
3277
  8
AM_VIS
 10
412.45073548093018
 20
176.19420895252711
 30
0.0
  0
VERTEX
  5
3278
  8
AM_VIS
 10
412.64921688459953
 20
175.31430693434621
 30
0.0
  0
VERTEX
  5
3279
  8
AM_VIS
 10
413.20850424577668
 20
175.0020449384867
 30
0.0
  0
SEQEND
  5
327A
  8
AM_VIS
  0
POLYLINE
  5
140C
  8
AM_VIS
 66
     1
 10
0.0
 20
0.0
 30
0.0
  0
VERTEX
  5
327B
  8
AM_VIS
 10
411.90735905580681
 20
173.45798328074079
 30
0.0
  0
VERTEX
  5
327C
  8
AM_VIS
 10
411.92018103411101
 20
174.3682574818354
 30
0.0
  0
VERTEX
  5
327D
  8
AM_VIS
 10
411.92456750280871
 20
175.16804097440561
 30
0.0
  0
SEQEND
  5
327E
  8
AM_VIS
  0
POLYLINE
  5
140D
  8
AM_VIS
 66
     1
 10
0.0
 20
0.0
 30
0.0
  0
VERTEX
  5
327F
  8
AM_VIS
 10
412.18218630499757
 20
173.00045105594131
 30
0.0
  0
VERTEX
  5
3280
  8
AM_VIS
 10
412.17629663335453
 20
173.003447539729
 30
0.0
  0
VERTEX
  5
3281
  8
AM_VIS
 10
412.02355738539791
 20
173.12618872251639
 30
0.0
  0
VERTEX
  5
3282
  8
AM_VIS
 10
411.93034379158621
 20
173.2973606387088
 30
0.0
  0
VERTEX
  5
3283
  8
AM_VIS
 10
411.90735905580681
 20
173.45798328074079
 30
0.0
  0
SEQEND
  5
3284
  8
AM_VIS
  0
POLYLINE
  5
140E
  8
AM_VIS
 66
     1
 10
0.0
 20
0.0
 30
0.0
  0
VERTEX
  5
3285
  8
AM_VIS
 10
412.18218630499757
 20
173.00045105594131
 30
0.0
  0
VERTEX
  5
3286
  8
AM_VIS
 10
412.28681565490069
 20
172.96255509469461
 30
0.0
  0
VERTEX
  5
3287
  8
AM_VIS
 10
412.39771429206451
 20
172.94970898224389
 30
0.0
  0
SEQEND
  5
3288
  8
AM_VIS
  0
POLYLINE
  5
140F
  8
AM_VIS
 66
     1
 10
0.0
 20
0.0
 30
0.0
  0
VERTEX
  5
3289
  8
AM_VIS
 10
405.51149630027339
 20
169.62369793402971
 30
0.0
  0
VERTEX
  5
328A
  8
AM_VIS
 10
405.65787195654701
 20
169.27024492781561
 30
0.0
  0
VERTEX
  5
328B
  8
AM_VIS
 10
406.01132496276108
 20
169.12386927154191
 30
0.0
  0
SEQEND
  5
328C
  8
AM_VIS
  0
POLYLINE
  5
1410
  8
AM_VIS
 66
     1
 10
0.0
 20
0.0
 30
0.0
  0
VERTEX
  5
328D
  8
AM_VIS
 10
404.87255981398511
 20
168.9847614477415
 30
0.0
  0
VERTEX
  5
328E
  8
AM_VIS
 10
405.01893547025878
 20
168.63130844152741
 30
0.0
  0
VERTEX
  5
328F
  8
AM_VIS
 10
405.37238847647279
 20
168.4849327852537
 30
0.0
  0
SEQEND
  5
3290
  8
AM_VIS
  0
ARC
  5
1411
  8
AM_VIS
 10
405.87255981398511
 20
168.78493278525369
 30
0.0
 40
2.7000000000000379
 50
180.0
 51
202.19160656627571
  0
POLYLINE
  5
1412
  8
AM_VIS
 66
     1
 10
0.0
 20
0.0
 30
0.0
  0
VERTEX
  5
3291
  8
AM_VIS
 10
408.07255981398521
 20
169.62318403891919
 30
0.0
  0
VERTEX
  5
3292
  8
AM_VIS
 10
408.2187228652665
 20
169.2700323228232
 30
0.0
  0
VERTEX
  5
3293
  8
AM_VIS
 10
408.57187458136241
 20
169.12386927154171
 30
0.0
  0
SEQEND
  5
3294
  8
AM_VIS
  0
LINE
  5
1413
  8
AM_VIS
 10
405.87255981398511
 20
167.08493278525361
 30
0.0
 11
409.87255981398511
 21
167.08493278525361
 31
0.0
  0
LINE
  5
1414
  8
AM_VIS
 10
409.87255981398511
 20
168.4849327852537
 30
0.0
 11
405.37238847647279
 21
168.4849327852537
 31
0.0
  0
LINE
  5
1415
  8
AM_VIS
 10
406.01132496276108
 20
169.12386927154171
 30
0.0
 11
408.57187458136241
 21
169.12386927154171
 31
0.0
  0
LINE
  5
1416
  8
AM_VIS
 10
406.79303465923039
 20
165.86850646404289
 30
0.0
 11
403.52615268710241
 21
162.60162449191489
 31
0.0
  0
POLYLINE
  5
1417
  8
AM_VIS
 66
     1
 10
0.0
 20
0.0
 30
0.0
  0
VERTEX
  5
3295
  8
AM_VIS
 10
409.87255981398511
 20
153.18493278525349
 30
0.0
  0
VERTEX
  5
3296
  8
AM_VIS
 10
409.87255981398511
 20
151.92896134488981
 30
0.0
  0
SEQEND
  5
3297
  8
AM_VIS
  0
POLYLINE
  5
1418
  8
AM_VIS
 66
     1
 10
0.0
 20
0.0
 30
0.0
  0
VERTEX
  5
3298
  8
AM_VIS
 10
405.02937979227039
 20
151.92896134488981
 30
0.0
  0
VERTEX
  5
3299
  8
AM_VIS
 10
409.87255981398511
 20
151.92896134488981
 30
0.0
  0
SEQEND
  5
329A
  8
AM_VIS
  0
LINE
  5
1419
  8
AM_VIS
 10
410.0371490112779
 20
154.68764247988449
 30
0.0
 11
410.04460643600891
 21
154.6704449725251
 31
0.0
  0
POLYLINE
  5
141A
  8
AM_VIS
 66
     1
 10
0.0
 20
0.0
 30
0.0
  0
VERTEX
  5
329B
  8
AM_VIS
 10
410.04460643600891
 20
154.6704449725251
 30
0.0
  0
VERTEX
  5
329C
  8
AM_VIS
 10
410.04116473246353
 20
154.6703308208869
 30
0.0
  0
VERTEX
  5
329D
  8
AM_VIS
 10
410.03772294191378
 20
154.67021668250919
 30
0.0
  0
SEQEND
  5
329E
  8
AM_VIS
  0
LINE
  5
141B
  8
AM_VIS
 10
410.0371490112779
 20
154.68764247988469
 30
0.0
 11
410.03772294191361
 21
154.67021668250919
 31
0.0
  0
POLYLINE
  5
141C
  8
AM_VIS
 66
     1
 10
0.0
 20
0.0
 30
0.0
  0
VERTEX
  5
329F
  8
AM_VIS
 10
410.03772294191378
 20
154.67021668250919
 30
0.0
  0
VERTEX
  5
32A0
  8
AM_VIS
 10
409.87556512487561
 20
154.66747994971979
 30
0.0
  0
SEQEND
  5
32A1
  8
AM_VIS
  0
ARC
  5
141D
  8
AM_VIS
 10
409.87255981398511
 20
159.68493278525349
 30
0.0
 40
5.0174537355815172
 50
260.30876084096673
 51
270.03431853077689
  0
LINE
  5
141E
  8
AM_VIS
 10
409.70797061669231
 20
164.6822230906225
 30
0.0
 11
409.70051319196142
 21
164.699420597982
 31
0.0
  0
LINE
  5
141F
  8
AM_VIS
 10
409.70797061669231
 20
164.6822230906225
 30
0.0
 11
409.70739668605643
 21
164.69964888799811
 31
0.0
  0
POLYLINE
  5
1420
  8
AM_VIS
 66
     1
 10
0.0
 20
0.0
 30
0.0
  0
VERTEX
  5
32A2
  8
AM_VIS
 10
409.70051319196142
 20
164.699420597982
 30
0.0
  0
VERTEX
  5
32A3
  8
AM_VIS
 10
409.70395489550668
 20
164.6995347496204
 30
0.0
  0
VERTEX
  5
32A4
  8
AM_VIS
 10
409.70739668605643
 20
164.69964888799839
 30
0.0
  0
SEQEND
  5
32A5
  8
AM_VIS
  0
POLYLINE
  5
1421
  8
AM_VIS
 66
     1
 10
0.0
 20
0.0
 30
0.0
  0
VERTEX
  5
32A6
  8
AM_VIS
 10
409.70739668605643
 20
164.69964888799839
 30
0.0
  0
VERTEX
  5
32A7
  8
AM_VIS
 10
409.86955450309449
 20
164.70238562078751
 30
0.0
  0
SEQEND
  5
32A8
  8
AM_VIS
  0
LINE
  5
1422
  8
AM_VIS
 10
409.86955450309449
 20
164.70238562078751
 30
0.0
 11
411.01902712095989
 21
165.8518582386528
 31
0.0
  0
LINE
  5
1423
  8
AM_VIS
 10
404.8752695086161
 20
159.84952198254661
 30
0.0
 11
404.85807200125669
 21
159.85697940727761
 31
0.0
  0
POLYLINE
  5
1424
  8
AM_VIS
 66
     1
 10
0.0
 20
0.0
 30
0.0
  0
VERTEX
  5
32A9
  8
AM_VIS
 10
404.85784371124049
 20
159.85009591318229
 30
0.0
  0
VERTEX
  5
32AA
  8
AM_VIS
 10
404.85795784961817
 20
159.8535377037322
 30
0.0
  0
VERTEX
  5
32AB
  8
AM_VIS
 10
404.85807200125669
 20
159.85697940727761
 30
0.0
  0
SEQEND
  5
32AC
  8
AM_VIS
  0
POLYLINE
  5
1425
  8
AM_VIS
 66
     1
 10
0.0
 20
0.0
 30
0.0
  0
VERTEX
  5
32AD
  8
AM_VIS
 10
404.8551069784512
 20
159.68793809614431
 30
0.0
  0
VERTEX
  5
32AE
  8
AM_VIS
 10
404.85784371124049
 20
159.85009591318229
 30
0.0
  0
SEQEND
  5
32AF
  8
AM_VIS
  0
LINE
  5
1426
  8
AM_VIS
 10
404.8752695086161
 20
159.84952198254661
 30
0.0
 11
404.85784371124049
 21
159.85009591318229
 31
0.0
  0
ARC
  5
1427
  8
AM_VIS
 10
409.87255981398511
 20
159.68493278525349
 30
0.0
 40
5.0174537355815172
 50
179.96568146922169
 51
189.6912391590339
  0
POLYLINE
  5
1428
  8
AM_VIS
 66
     1
 10
0.0
 20
0.0
 30
0.0
  0
VERTEX
  5
32B0
  8
AM_VIS
 10
407.945741613086
 20
155.07110881584569
 30
0.0
  0
VERTEX
  5
32B1
  8
AM_VIS
 10
407.93907133144211
 20
155.0644385342018
 30
0.0
  0
SEQEND
  5
32B2
  8
AM_VIS
  0
POLYLINE
  5
1429
  8
AM_VIS
 66
     1
 10
0.0
 20
0.0
 30
0.0
  0
VERTEX
  5
32B3
  8
AM_VIS
 10
405.25206556293318
 20
157.75144430271081
 30
0.0
  0
VERTEX
  5
32B4
  8
AM_VIS
 10
405.25873584457707
 20
157.75811458435439
 30
0.0
  0
SEQEND
  5
32B5
  8
AM_VIS
  0
POLYLINE
  5
142A
  8
AM_VIS
 66
     1
 10
0.0
 20
0.0
 30
0.0
  0
VERTEX
  5
32B6
  8
AM_VIS
 10
405.25206556293318
 20
157.75144430271081
 30
0.0
  0
VERTEX
  5
32B7
  8
AM_VIS
 10
405.25204119880391
 20
157.751427687627
 30
0.0
  0
VERTEX
  5
32B8
  8
AM_VIS
 10
405.21684490047869
 20
157.82863758385881
 30
0.0
  0
VERTEX
  5
32B9
  8
AM_VIS
 10
405.13177778350001
 20
158.04956038196701
 30
0.0
  0
VERTEX
  5
32BA
  8
AM_VIS
 10
405.01886161270289
 20
158.41591517168919
 30
0.0
  0
VERTEX
  5
32BB
  8
AM_VIS
 10
404.92670905420482
 20
158.84030135635541
 30
0.0
  0
SEQEND
  5
32BC
  8
AM_VIS
  0
ARC
  5
142B
  8
AM_VIS
 10
409.87255981398511
 20
159.68493278525349
 30
0.0
 40
5.7842916379766338
 50
205.82370930228629
 51
244.1762906977136
  0
POLYLINE
  5
142C
  8
AM_VIS
 66
     1
 10
0.0
 20
0.0
 30
0.0
  0
VERTEX
  5
32BD
  8
AM_VIS
 10
403.37255981398511
 20
159.68493278525349
 30
0.0
  0
VERTEX
  5
32BE
  8
AM_VIS
 10
402.1175203339867
 20
159.68493278525349
 30
0.0
  0
SEQEND
  5
32BF
  8
AM_VIS
  0
POLYLINE
  5
142D
  8
AM_VIS
 66
     1
 10
0.0
 20
0.0
 30
0.0
  0
VERTEX
  5
32C0
  8
AM_VIS
 10
402.1175203339867
 20
154.8116512483318
 30
0.0
  0
VERTEX
  5
32C1
  8
AM_VIS
 10
402.1175203339867
 20
159.68493278525349
 30
0.0
  0
SEQEND
  5
32C2
  8
AM_VIS
  0
LINE
  5
142E
  8
AM_VIS
 10
403.49997208373009
 20
158.3328032014233
 30
0.0
 11
404.8551069784512
 21
159.68793809614431
 31
0.0
  0
LINE
  5
142F
  8
AM_VIS
 10
403.5086989515209
 20
156.0080776912985
 30
0.0
 11
405.25206556293318
 21
157.75144430271081
 31
0.0
  0
LINE
  5
1430
  8
AM_VIS
 10
405.87255981398511
 20
165.86850646404289
 30
0.0
 11
406.79303465923039
 21
165.86850646404289
 31
0.0
  0
POLYLINE
  5
1431
  8
AM_VIS
 66
     1
 10
0.0
 20
0.0
 30
0.0
  0
VERTEX
  5
32C3
  8
AM_VIS
 10
409.0279283850868
 20
154.73908202547341
 30
0.0
  0
VERTEX
  5
32C4
  8
AM_VIS
 10
408.60354220042058
 20
154.83123458397151
 30
0.0
  0
VERTEX
  5
32C5
  8
AM_VIS
 10
408.23718741069843
 20
154.94415075476829
 30
0.0
  0
VERTEX
  5
32C6
  8
AM_VIS
 10
408.01626461259019
 20
155.02921787174731
 30
0.0
  0
VERTEX
  5
32C7
  8
AM_VIS
 10
407.93905471635838
 20
155.0644141700725
 30
0.0
  0
VERTEX
  5
32C8
  8
AM_VIS
 10
407.93907133144211
 20
155.0644385342018
 30
0.0
  0
SEQEND
  5
32C9
  8
AM_VIS
  0
LINE
  5
1432
  8
AM_VIS
 10
404.85807200125669
 20
159.85697940727761
 30
0.0
 11
409.70051319196142
 21
164.699420597982
 31
0.0
  0
LINE
  5
1433
  8
AM_VIS
 10
409.87255981398511
 20
166.08493278525361
 30
0.0
 11
405.87255981398511
 21
166.08493278525361
 31
0.0
  0
LINE
  5
1434
  8
AM_VIS
 10
407.93907133144211
 20
155.0644385342018
 30
0.0
 11
406.19570472002988
 21
153.3210719227896
 31
0.0
  0
LINE
  5
1435
  8
AM_VIS
 10
409.87556512487561
 20
154.66747994971979
 30
0.0
 11
408.52043023015437
 21
153.31234505499879
 31
0.0
  0
POLYLINE
  5
1436
  8
AM_VIS
 66
     1
 10
0.0
 20
0.0
 30
0.0
  0
VERTEX
  5
32CA
  8
AM_VIS
 10
401.61668028640759
 20
154.92425662979741
 30
0.0
  0
VERTEX
  5
32CB
  8
AM_VIS
 10
401.61892872054432
 20
154.80094735001151
 30
0.0
  0
VERTEX
  5
32CC
  8
AM_VIS
 10
401.66275816540951
 20
154.36023929175761
 30
0.0
  0
VERTEX
  5
32CD
  8
AM_VIS
 10
401.74736089011498
 20
153.97881492524019
 30
0.0
  0
VERTEX
  5
32CE
  8
AM_VIS
 10
401.85662880698709
 20
153.6527074869407
 30
0.0
  0
VERTEX
  5
32CF
  8
AM_VIS
 10
402.1825533101723
 20
153.01840111763499
 30
0.0
  0
VERTEX
  5
32D0
  8
AM_VIS
 10
402.6511673786942
 20
152.44270210615809
 30
0.0
  0
VERTEX
  5
32D1
  8
AM_VIS
 10
403.2304862320247
 20
151.9791575321199
 30
0.0
  0
VERTEX
  5
32D2
  8
AM_VIS
 10
403.86572926770759
 20
151.6591928864043
 30
0.0
  0
VERTEX
  5
32D3
  8
AM_VIS
 10
404.19501023116783
 20
151.55183058169629
 30
0.0
  0
VERTEX
  5
32D4
  8
AM_VIS
 10
404.58089222965731
 20
151.4698811348064
 30
0.0
  0
VERTEX
  5
32D5
  8
AM_VIS
 10
405.02464036496622
 20
151.43019452635531
 30
0.0
  0
VERTEX
  5
32D6
  8
AM_VIS
 10
405.11188365804719
 20
151.42905325767489
 30
0.0
  0
SEQEND
  5
32D7
  8
AM_VIS
  0
POLYLINE
  5
1437
  8
AM_VIS
 66
     1
 10
0.0
 20
0.0
 30
0.0
  0
VERTEX
  5
32D8
  8
AM_VIS
 10
405.10814690744809
 20
151.92798015855649
 30
0.0
  0
VERTEX
  5
32D9
  8
AM_VIS
 10
405.02937979227039
 20
151.92896134488981
 30
0.0
  0
VERTEX
  5
32DA
  8
AM_VIS
 10
404.65751828949669
 20
151.9619882985908
 30
0.0
  0
VERTEX
  5
32DB
  8
AM_VIS
 10
404.32647719914752
 20
152.03209371013119
 30
0.0
  0
VERTEX
  5
32DC
  8
AM_VIS
 10
404.03556476025727
 20
152.12678346970549
 30
0.0
  0
VERTEX
  5
32DD
  8
AM_VIS
 10
403.49698798456433
 20
152.39780723691891
 30
0.0
  0
VERTEX
  5
32DE
  8
AM_VIS
 10
403.0004748409425
 20
152.7949828018784
 30
0.0
  0
VERTEX
  5
32DF
  8
AM_VIS
 10
402.59893875484909
 20
153.2884034106321
 30
0.0
  0
VERTEX
  5
32E0
  8
AM_VIS
 10
402.32290707871113
 20
153.82609087738501
 30
0.0
  0
VERTEX
  5
32E1
  8
AM_VIS
 10
402.22649155839548
 20
154.11431782854359
 30
0.0
  0
VERTEX
  5
32E2
  8
AM_VIS
 10
402.15409506534161
 20
154.4415879811734
 30
0.0
  0
VERTEX
  5
32E3
  8
AM_VIS
 10
402.1175203339867
 20
154.8116512483318
 30
0.0
  0
VERTEX
  5
32E4
  8
AM_VIS
 10
402.11563041785678
 20
154.91897458327659
 30
0.0
  0
SEQEND
  5
32E5
  8
AM_VIS
  0
POLYLINE
  5
1438
  8
AM_VIS
 66
     1
 10
0.0
 20
0.0
 30
0.0
  0
VERTEX
  5
32E6
  8
AM_VIS
 10
403.37255981398511
 20
155.7848337852204
 30
0.0
  0
VERTEX
  5
32E7
  8
AM_VIS
 10
404.13404117684757
 20
153.94641414811619
 30
0.0
  0
VERTEX
  5
32E8
  8
AM_VIS
 10
405.97246081395201
 20
153.18493278525349
 30
0.0
  0
SEQEND
  5
32E9
  8
AM_VIS
  0
LINE
  5
1439
  8
AM_VIS
 10
424.32950002501548
 20
161.71077249595581
 30
0.0
 11
491.62255981398522
 21
161.71077249595569
 31
0.0
  0
LINE
  5
143A
  8
AM_VIS
 10
419.81132496276109
 20
155.3238692715417
 30
0.0
 11
491.62255981398522
 21
155.3238692715417
 31
0.0
  0
LINE
  5
143B
  8
AM_VIS
 10
491.62255981398522
 20
157.88493278525371
 30
0.0
 11
419.81081106765049
 21
157.8849327852538
 31
0.0
  0
LINE
  5
143C
  8
AM_VIS
 10
491.62255981398522
 20
162.76310845219879
 30
0.0
 11
426.38183598125852
 21
162.76310845219879
 31
0.0
  0
LINE
  5
143D
  8
AM_VIS
 10
491.62255981398522
 20
152.9849327852537
 30
0.0
 11
418.97255981398501
 21
152.9849327852537
 31
0.0
  0
LINE
  5
143E
  8
AM_VIS
 10
491.62255981398522
 20
154.68493278525349
 30
0.0
 11
419.1723884764728
 21
154.68493278525349
 31
0.0
  0
LINE
  5
143F
  8
AM_VIS
 10
418.97255981398501
 20
153.9849327852537
 30
0.0
 11
491.62255981398522
 21
153.9849327852537
 31
0.0
  0
LINE
  5
1440
  8
AM_VIS
 10
417.07816262221189
 20
167.90909550392459
 30
0.0
 11
418.09672253265592
 21
166.89053559348031
 31
0.0
  0
LINE
  5
1441
  8
AM_VIS
 10
417.06556475865813
 20
167.62055699068199
 30
0.0
 11
417.8081840194136
 21
166.8779377299268
 31
0.0
  0
LINE
  5
1442
  8
AM_VIS
 10
415.55647229989222
 20
166.7117545172255
 30
0.0
 11
416.66061186134903
 21
167.63823761601199
 31
0.0
  0
ARC
  5
1443
  8
AM_VIS
 10
413.71149630027321
 20
163.5238692715418
 30
0.0
 40
5.5999999999999988
 50
0.0
 51
90.0
  0
ARC
  5
1444
  8
AM_VIS
 10
413.71149630027321
 20
163.5238692715418
 30
0.0
 40
9.4258397107021779
 50
0.0000000000003997
 51
90.000000000000725
  0
ARC
  5
1445
  8
AM_VIS
 10
413.71149630027321
 20
163.5238692715418
 30
0.0
 40
11.478175666945051
 50
0.0
 51
90.000000000000313
  0
POLYLINE
  5
1446
  8
AM_VIS
 66
     1
 10
0.0
 20
0.0
 30
0.0
  0
VERTEX
  5
32EA
  8
AM_VIS
 10
416.66061186134903
 20
167.63823761601199
 30
0.0
  0
VERTEX
  5
32EB
  8
AM_VIS
 10
416.86652618284609
 20
167.70813753691979
 30
0.0
  0
VERTEX
  5
32EC
  8
AM_VIS
 10
417.06556475865813
 20
167.62055699068199
 30
0.0
  0
SEQEND
  5
32ED
  8
AM_VIS
  0
POLYLINE
  5
1447
  8
AM_VIS
 66
     1
 10
0.0
 20
0.0
 30
0.0
  0
VERTEX
  5
32EE
  8
AM_VIS
 10
416.67320972490251
 20
167.9267761292547
 30
0.0
  0
VERTEX
  5
32EF
  8
AM_VIS
 10
416.87912404639968
 20
167.99667605016251
 30
0.0
  0
VERTEX
  5
32F0
  8
AM_VIS
 10
417.07816262221189
 20
167.90909550392459
 30
0.0
  0
SEQEND
  5
32F1
  8
AM_VIS
  0
POLYLINE
  5
1448
  8
AM_VIS
 66
     1
 10
0.0
 20
0.0
 30
0.0
  0
VERTEX
  5
32F2
  8
AM_VIS
 10
415.51209089761528
 20
167.2538964625976
 30
0.0
  0
VERTEX
  5
32F3
  8
AM_VIS
 10
415.616807169634
 20
167.2038748347309
 30
0.0
  0
VERTEX
  5
32F4
  8
AM_VIS
 10
415.73268748415632
 20
167.19735175977371
 30
0.0
  0
VERTEX
  5
32F5
  8
AM_VIS
 10
415.81316819291891
 20
167.22035391677491
 30
0.0
  0
VERTEX
  5
32F6
  8
AM_VIS
 10
415.88417126243661
 20
167.26469424641479
 30
0.0
  0
SEQEND
  5
32F7
  8
AM_VIS
  0
LINE
  5
1449
  8
AM_VIS
 10
415.88417126243661
 20
167.26469424641479
 30
0.0
 11
416.67320972490251
 21
167.9267761292547
 31
0.0
  0
LINE
  5
144A
  8
AM_VIS
 10
417.8258646447436
 20
166.47298483261761
 30
0.0
 11
416.89938154595683
 21
165.36884527116081
 31
0.0
  0
LINE
  5
144B
  8
AM_VIS
 10
425.18967196721832
 20
163.52087721704561
 30
0.0
 11
425.18967196721832
 21
163.5238692715418
 31
0.0
  0
POLYLINE
  5
144C
  8
AM_VIS
 66
     1
 10
0.0
 20
0.0
 30
0.0
  0
VERTEX
  5
32F8
  8
AM_VIS
 10
425.18967196721832
 20
163.52087721704561
 30
0.0
  0
VERTEX
  5
32F9
  8
AM_VIS
 10
425.50193396307748
 20
162.9615898558682
 30
0.0
  0
VERTEX
  5
32FA
  8
AM_VIS
 10
426.38183598125852
 20
162.76310845219879
 30
0.0
  0
SEQEND
  5
32FB
  8
AM_VIS
  0
ARC
  5
144D
  8
AM_VIS
 10
418.97255981398501
 20
155.68493278525349
 30
0.0
 40
2.7000000000000379
 50
247.80839343372801
 51
270.0
  0
LINE
  5
144E
  8
AM_VIS
 10
418.67255981398512
 20
155.18476144774149
 30
0.0
 11
418.67255981398512
 21
159.68493278525349
 31
0.0
  0
LINE
  5
144F
  8
AM_VIS
 10
419.31149630027329
 20
158.384247552631
 30
0.0
 11
419.31149630027329
 21
155.8236979340297
 31
0.0
  0
POLYLINE
  5
1450
  8
AM_VIS
 66
     1
 10
0.0
 20
0.0
 30
0.0
  0
VERTEX
  5
32FC
  8
AM_VIS
 10
418.67255981398512
 20
155.18476144774149
 30
0.0
  0
VERTEX
  5
32FD
  8
AM_VIS
 10
418.81893547025902
 20
154.8313084415274
 30
0.0
  0
VERTEX
  5
32FE
  8
AM_VIS
 10
419.1723884764728
 20
154.68493278525381
 30
0.0
  0
SEQEND
  5
32FF
  8
AM_VIS
  0
LINE
  5
1451
  8
AM_VIS
 10
419.31149630027329
 20
159.68493278525349
 30
0.0
 11
419.31149630027329
 21
158.384247552631
 31
0.0
  0
LINE
  5
1452
  8
AM_VIS
 10
417.27255981398503
 20
159.68493278525349
 30
0.0
 11
417.27255981398503
 21
155.68493278525349
 31
0.0
  0
POLYLINE
  5
1453
  8
AM_VIS
 66
     1
 10
0.0
 20
0.0
 30
0.0
  0
VERTEX
  5
3300
  8
AM_VIS
 10
419.31149630027329
 20
155.8236979340297
 30
0.0
  0
VERTEX
  5
3301
  8
AM_VIS
 10
419.45787195654702
 20
155.47024492781571
 30
0.0
  0
VERTEX
  5
3302
  8
AM_VIS
 10
419.81132496276109
 20
155.32386927154201
 30
0.0
  0
SEQEND
  5
3303
  8
AM_VIS
  0
POLYLINE
  5
1454
  8
AM_VIS
 66
     1
 10
0.0
 20
0.0
 30
0.0
  0
VERTEX
  5
3304
  8
AM_VIS
 10
419.31149630027329
 20
158.384247552631
 30
0.0
  0
VERTEX
  5
3305
  8
AM_VIS
 10
419.45765935155481
 20
158.03109583653509
 30
0.0
  0
VERTEX
  5
3306
  8
AM_VIS
 10
419.81081106765049
 20
157.8849327852538
 30
0.0
  0
SEQEND
  5
3307
  8
AM_VIS
  0
POLYLINE
  5
1455
  8
AM_VIS
 66
     1
 10
0.0
 20
0.0
 30
0.0
  0
VERTEX
  5
3308
  8
AM_VIS
 10
424.32950002501548
 20
161.71077249595581
 30
0.0
  0
VERTEX
  5
3309
  8
AM_VIS
 10
423.99559912285389
 20
161.7099197891969
 30
0.0
  0
VERTEX
  5
330A
  8
AM_VIS
 10
423.63325270249152
 20
161.70737442009451
 30
0.0
  0
SEQEND
  5
330B
  8
AM_VIS
  0
POLYLINE
  5
1456
  8
AM_VIS
 66
     1
 10
0.0
 20
0.0
 30
0.0
  0
VERTEX
  5
330C
  8
AM_VIS
 10
423.63325270249152
 20
161.70737442009451
 30
0.0
  0
VERTEX
  5
330D
  8
AM_VIS
 10
423.45919293411521
 20
161.7375342754722
 30
0.0
  0
VERTEX
  5
330E
  8
AM_VIS
 10
423.29900399750488
 20
161.83487717035061
 30
0.0
  0
VERTEX
  5
330F
  8
AM_VIS
 10
423.18696895509902
 20
161.98456399126121
 30
0.0
  0
VERTEX
  5
3310
  8
AM_VIS
 10
423.13778656842982
 20
162.16541419532629
 30
0.0
  0
VERTEX
  5
3311
  8
AM_VIS
 10
423.13626096117281
 20
162.20901221353051
 30
0.0
  0
SEQEND
  5
3312
  8
AM_VIS
  0
POLYLINE
  5
1457
  8
AM_VIS
 66
     1
 10
0.0
 20
0.0
 30
0.0
  0
VERTEX
  5
3313
  8
AM_VIS
 10
423.13626096117281
 20
162.20901221353051
 30
0.0
  0
VERTEX
  5
3314
  8
AM_VIS
 10
423.13706684472788
 20
162.33953737163529
 30
0.0
  0
VERTEX
  5
3315
  8
AM_VIS
 10
423.1373360109755
 20
162.4685412608026
 30
0.0
  0
SEQEND
  5
3316
  8
AM_VIS
  0
LINE
  5
1458
  8
AM_VIS
 10
423.1373360109755
 20
163.5238692715418
 30
0.0
 11
423.1373360109755
 21
162.4685412608026
 31
0.0
  0
POLYLINE
  5
1459
  8
AM_VIS
 66
     1
 10
0.0
 20
0.0
 30
0.0
  0
VERTEX
  5
3317
  8
AM_VIS
 10
416.89938154595683
 20
165.36884527116081
 30
0.0
  0
VERTEX
  5
3318
  8
AM_VIS
 10
416.84334880920841
 20
165.26710488521209
 30
0.0
  0
VERTEX
  5
3319
  8
AM_VIS
 10
416.83014700311668
 20
165.15174974858181
 30
0.0
  0
VERTEX
  5
331A
  8
AM_VIS
 10
416.84884906856217
 20
165.06910034310681
 30
0.0
  0
VERTEX
  5
331B
  8
AM_VIS
 10
416.88992120308461
 20
164.9949835509972
 30
0.0
  0
SEQEND
  5
331C
  8
AM_VIS
  0
POLYLINE
  5
145A
  8
AM_VIS
 66
     1
 10
0.0
 20
0.0
 30
0.0
  0
VERTEX
  5
331D
  8
AM_VIS
 10
417.45232127514652
 20
165.69654423370531
 30
0.0
  0
VERTEX
  5
331E
  8
AM_VIS
 10
417.39628859745972
 20
165.59480396098959
 30
0.0
  0
VERTEX
  5
331F
  8
AM_VIS
 10
417.38308678667079
 20
165.4794488926884
 30
0.0
  0
VERTEX
  5
3320
  8
AM_VIS
 10
417.40139397503111
 20
165.39784086548281
 30
0.0
  0
VERTEX
  5
3321
  8
AM_VIS
 10
417.44152349132901
 20
165.3244638688837
 30
0.0
  0
SEQEND
  5
3322
  8
AM_VIS
  0
ARC
  5
145B
  8
AM_VIS
 10
409.87255981398511
 20
159.68493278525349
 30
0.0
 40
8.8000000000000007
 50
0.0
 51
37.114862455073329
  0
ARC
  5
145C
  8
AM_VIS
 10
409.87255981398511
 20
159.68493278525349
 30
0.0
 40
9.4389364862881635
 50
0.0
 51
36.689290052443248
  0
LINE
  5
145D
  8
AM_VIS
 10
419.31149630027329
 20
159.68493278525349
 30
0.0
 11
419.31149630027329
 21
163.5238692715418
 31
0.0
  0
LINE
  5
145E
  8
AM_VIS
 10
416.27255981398503
 20
155.68493278525349
 30
0.0
 11
416.27255981398503
 21
159.68493278525349
 31
0.0
  0
LINE
  5
145F
  8
AM_VIS
 10
414.86985011935388
 20
159.5203435879607
 30
0.0
 11
414.88727591672972
 21
159.51976965732479
 31
0.0
  0
LINE
  5
1460
  8
AM_VIS
 10
414.86985011935388
 20
159.52034358796101
 30
0.0
 11
414.8870476267133
 21
159.51288616322969
 31
0.0
  0
POLYLINE
  5
1461
  8
AM_VIS
 66
     1
 10
0.0
 20
0.0
 30
0.0
  0
VERTEX
  5
3323
  8
AM_VIS
 10
414.88727591672972
 20
159.51976965732479
 30
0.0
  0
VERTEX
  5
3324
  8
AM_VIS
 10
414.88716177835181
 20
159.5163278667753
 30
0.0
  0
VERTEX
  5
3325
  8
AM_VIS
 10
414.88704762671358
 20
159.51288616322969
 30
0.0
  0
SEQEND
  5
3326
  8
AM_VIS
  0
POLYLINE
  5
1462
  8
AM_VIS
 66
     1
 10
0.0
 20
0.0
 30
0.0
  0
VERTEX
  5
3327
  8
AM_VIS
 10
414.89001264951912
 20
159.68192747436319
 30
0.0
  0
VERTEX
  5
3328
  8
AM_VIS
 10
414.88727591672972
 20
159.51976965732479
 30
0.0
  0
SEQEND
  5
3329
  8
AM_VIS
  0
LINE
  5
1463
  8
AM_VIS
 10
416.05613349277422
 20
156.60540763049929
 30
0.0
 11
416.05613349277422
 21
155.68493278525349
 31
0.0
  0
LINE
  5
1464
  8
AM_VIS
 10
416.03948526738441
 20
160.83140009222851
 30
0.0
 11
414.89001264951912
 21
159.68192747436319
 31
0.0
  0
POLYLINE
  5
1465
  8
AM_VIS
 66
     1
 10
0.0
 20
0.0
 30
0.0
  0
VERTEX
  5
332A
  8
AM_VIS
 10
418.09672253265592
 20
166.89053559348031
 30
0.0
  0
VERTEX
  5
332B
  8
AM_VIS
 10
418.18430307889389
 20
166.6914970176683
 30
0.0
  0
VERTEX
  5
332C
  8
AM_VIS
 10
418.11440315798609
 20
166.48558269617121
 30
0.0
  0
SEQEND
  5
332D
  8
AM_VIS
  0
POLYLINE
  5
1466
  8
AM_VIS
 66
     1
 10
0.0
 20
0.0
 30
0.0
  0
VERTEX
  5
332E
  8
AM_VIS
 10
417.8081840194136
 20
166.8779377299268
 30
0.0
  0
VERTEX
  5
332F
  8
AM_VIS
 10
417.8957645656514
 20
166.67889915411479
 30
0.0
  0
VERTEX
  5
3330
  8
AM_VIS
 10
417.8258646447436
 20
166.47298483261761
 30
0.0
  0
SEQEND
  5
3331
  8
AM_VIS
  0
POLYLINE
  5
1467
  8
AM_VIS
 66
     1
 10
0.0
 20
0.0
 30
0.0
  0
VERTEX
  5
3332
  8
AM_VIS
 10
415.18261057972859
 20
166.70229417435331
 30
0.0
  0
VERTEX
  5
3333
  8
AM_VIS
 10
415.28695245260991
 20
166.65149615062251
 30
0.0
  0
VERTEX
  5
3334
  8
AM_VIS
 10
415.40278055250371
 20
166.64411268617371
 30
0.0
  0
VERTEX
  5
3335
  8
AM_VIS
 10
415.48445027154338
 20
166.6669634570687
 30
0.0
  0
VERTEX
  5
3336
  8
AM_VIS
 10
415.55647229989199
 20
166.7117545172253
 30
0.0
  0
SEQEND
  5
3337
  8
AM_VIS
  0
LINE
  5
1468
  8
AM_VIS
 10
418.11440315798609
 20
166.48558269617121
 30
0.0
 11
417.45232127514652
 21
165.69654423370531
 31
0.0
  0
ARC
  5
1469
  8
AM_VIS
 10
418.97255981398501
 20
155.68493278525349
 30
0.0
 40
1.6999999999999951
 50
180.0
 51
270.0
  0
ARC
  5
146A
  8
AM_VIS
 10
418.97255981398501
 20
155.68493278525349
 30
0.0
 40
2.7000000000000379
 50
180.0
 51
247.80839343372801
  0
ARC
  5
146B
  8
AM_VIS
 10
418.97255981398501
 20
155.68493278525349
 30
0.0
 40
2.9164263212108068
 50
179.99999999999881
 51
231.53645411228251
  0
POLYLINE
  5
146C
  8
AM_VIS
 66
     1
 10
0.0
 20
0.0
 30
0.0
  0
VERTEX
  5
3338
  8
AM_VIS
 10
491.62255981398522
 20
405.64190868502891
 30
0.0
  0
VERTEX
  5
3339
  8
AM_VIS
 10
484.11138868657639
 20
405.64190868502891
 30
0.0
  0
VERTEX
  5
333A
  8
AM_VIS
 10
472.18504502895138
 20
405.64190868502891
 30
0.0
  0
VERTEX
  5
333B
  8
AM_VIS
 10
460.257035140602
 20
405.64190868502891
 30
0.0
  0
VERTEX
  5
333C
  8
AM_VIS
 10
448.33067207638749
 20
405.64190868502891
 30
0.0
  0
VERTEX
  5
333D
  8
AM_VIS
 10
436.40993113609761
 20
405.64190868502891
 30
0.0
  0
VERTEX
  5
333E
  8
AM_VIS
 10
424.46424289325699
 20
405.64190868502891
 30
0.0
  0
VERTEX
  5
333F
  8
AM_VIS
 10
418.48837275317783
 20
405.64190868502891
 30
0.0
  0
VERTEX
  5
3340
  8
AM_VIS
 10
412.55267733663823
 20
405.64190868502891
 30
0.0
  0
VERTEX
  5
3341
  8
AM_VIS
 10
409.87255981398511
 20
405.64190868502891
 30
0.0
  0
SEQEND
  5
3342
  8
AM_VIS
  0
POLYLINE
  5
146D
  8
AM_VIS
 66
     1
 10
0.0
 20
0.0
 30
0.0
  0
VERTEX
  5
3343
  8
AM_VIS
 10
405.11188365804719
 20
406.44081231283252
 30
0.0
  0
VERTEX
  5
3344
  8
AM_VIS
 10
405.16840405059929
 20
406.44081231283252
 30
0.0
  0
VERTEX
  5
3345
  8
AM_VIS
 10
406.65015766103937
 20
406.44081231283252
 30
0.0
  0
VERTEX
  5
3346
  8
AM_VIS
 10
412.55267733663823
 20
406.44081231283252
 30
0.0
  0
VERTEX
  5
3347
  8
AM_VIS
 10
418.48837275317783
 20
406.44081231283252
 30
0.0
  0
VERTEX
  5
3348
  8
AM_VIS
 10
424.46424289325699
 20
406.44081231283252
 30
0.0
  0
VERTEX
  5
3349
  8
AM_VIS
 10
436.40993113609761
 20
406.44081231283252
 30
0.0
  0
VERTEX
  5
334A
  8
AM_VIS
 10
448.33067207638749
 20
406.44081231283252
 30
0.0
  0
VERTEX
  5
334B
  8
AM_VIS
 10
460.257035140602
 20
406.44081231283252
 30
0.0
  0
VERTEX
  5
334C
  8
AM_VIS
 10
472.18504502895138
 20
406.44081231283252
 30
0.0
  0
VERTEX
  5
334D
  8
AM_VIS
 10
484.11138868657639
 20
406.4408123128328
 30
0.0
  0
VERTEX
  5
334E
  8
AM_VIS
 10
491.62255981398522
 20
406.44081231283252
 30
0.0
  0
SEQEND
  5
334F
  8
AM_VIS
  0
ARC
  5
146E
  8
AM_VIS
 10
409.87255981398522
 20
398.18493278525398
 30
0.0
 40
7.4000000000000261
 50
270.0
 51
0.0
  0
ARC
  5
146F
  8
AM_VIS
 10
409.87255981398522
 20
398.18493278525398
 30
0.0
 40
6.3999999999999844
 50
270.0
 51
0.0
  0
ARC
  5
1470
  8
AM_VIS
 10
409.87255981398522
 20
398.18493278525398
 30
0.0
 40
5.0174537355815172
 50
269.96568146922169
 51
0.0343185307769378
  0
LINE
  5
1471
  8
AM_VIS
 10
413.71149630027321
 20
382.86782063202048
 30
0.0
 11
413.20850424577702
 21
382.86782063202048
 31
0.0
  0
LINE
  5
1472
  8
AM_VIS
 10
412.39771429206451
 20
384.92015658826352
 30
0.0
 11
413.71149630027321
 21
384.92015658826352
 31
0.0
  0
LINE
  5
1473
  8
AM_VIS
 10
413.71149630027321
 20
388.74599629896568
 30
0.0
 11
409.87255981398488
 21
388.74599629896568
 31
0.0
  0
ARC
  5
1474
  8
AM_VIS
 10
409.87255981398522
 20
398.18493278525398
 30
0.0
 40
9.4389364862881635
 50
269.9999999999996
 51
306.6892900524432
  0
ARC
  5
1475
  8
AM_VIS
 10
409.87255981398522
 20
398.18493278525398
 30
0.0
 40
8.8000000000000007
 50
269.9999999999996
 51
307.11486245507331
  0
LINE
  5
1476
  8
AM_VIS
 10
414.8870476267133
 20
398.35697940727772
 30
0.0
 11
410.04460643600891
 21
403.1994205979824
 31
0.0
  0
LINE
  5
1477
  8
AM_VIS
 10
417.95275591126659
 20
404.68493278525392
 30
0.0
 11
405.97246081395201
 21
404.68493278525392
 31
0.0
  0
LINE
  5
1478
  8
AM_VIS
 10
417.15849428578821
 20
404.468506464043
 30
0.0
 11
412.85208496873969
 21
404.468506464043
 31
0.0
  0
LINE
  5
1479
  8
AM_VIS
 10
412.7892515206463
 20
404.53133991213639
 30
0.0
 11
416.05613349277422
 21
401.26445794000819
 31
0.0
  0
POLYLINE
  5
147A
  8
AM_VIS
 66
     1
 10
0.0
 20
0.0
 30
0.0
  0
VERTEX
  5
3350
  8
AM_VIS
 10
401.61668028640628
 20
278.93493278525398
 30
0.0
  0
VERTEX
  5
3351
  8
AM_VIS
 10
401.61668028640628
 20
288.26024832895791
 30
0.0
  0
VERTEX
  5
3352
  8
AM_VIS
 10
401.61668028640628
 20
303.9133555545738
 30
0.0
  0
VERTEX
  5
3353
  8
AM_VIS
 10
401.61668028640628
 20
320.61127396565439
 30
0.0
  0
VERTEX
  5
3354
  8
AM_VIS
 10
401.61668028640628
 20
337.30890868539723
 30
0.0
  0
VERTEX
  5
3355
  8
AM_VIS
 10
401.61668028640628
 20
353.99951336309431
 30
0.0
  0
VERTEX
  5
3356
  8
AM_VIS
 10
401.61668028640628
 20
370.70892079751093
 30
0.0
  0
VERTEX
  5
3357
  8
AM_VIS
 10
401.61668028640628
 20
387.41817442708361
 30
0.0
  0
VERTEX
  5
3358
  8
AM_VIS
 10
401.61668028640628
 20
395.7145455461677
 30
0.0
  0
VERTEX
  5
3359
  8
AM_VIS
 10
401.61668028640628
 20
399.85709153337638
 30
0.0
  0
VERTEX
  5
335A
  8
AM_VIS
 10
401.61668028640628
 20
401.93592600172599
 30
0.0
  0
VERTEX
  5
335B
  8
AM_VIS
 10
401.61668028640628
 20
402.45717433949631
 30
0.0
  0
VERTEX
  5
335C
  8
AM_VIS
 10
401.61668028640759
 20
402.94560894071009
 30
0.0
  0
SEQEND
  5
335D
  8
AM_VIS
  0
POLYLINE
  5
147B
  8
AM_VIS
 66
     1
 10
0.0
 20
0.0
 30
0.0
  0
VERTEX
  5
335E
  8
AM_VIS
 10
402.41558391420989
 20
398.18493278525392
 30
0.0
  0
VERTEX
  5
335F
  8
AM_VIS
 10
402.41558391420989
 20
395.7145455461677
 30
0.0
  0
VERTEX
  5
3360
  8
AM_VIS
 10
402.41558391420989
 20
387.41817442708361
 30
0.0
  0
VERTEX
  5
3361
  8
AM_VIS
 10
402.41558391420989
 20
370.70892079751093
 30
0.0
  0
VERTEX
  5
3362
  8
AM_VIS
 10
402.41558391420989
 20
353.99951336309431
 30
0.0
  0
VERTEX
  5
3363
  8
AM_VIS
 10
402.41558391420989
 20
337.30890868539723
 30
0.0
  0
VERTEX
  5
3364
  8
AM_VIS
 10
402.41558391420989
 20
320.61127396565439
 30
0.0
  0
VERTEX
  5
3365
  8
AM_VIS
 10
402.41558391420989
 20
303.9133555545738
 30
0.0
  0
VERTEX
  5
3366
  8
AM_VIS
 10
402.41558391420989
 20
288.26024832895791
 30
0.0
  0
VERTEX
  5
3367
  8
AM_VIS
 10
402.41558391420989
 20
278.93493278525398
 30
0.0
  0
SEQEND
  5
3368
  8
AM_VIS
  0
LINE
  5
147C
  8
AM_VIS
 10
412.45073548093018
 20
381.67565661798039
 30
0.0
 11
412.45073548093018
 21
278.93493278525381
 31
0.0
  0
LINE
  5
147D
  8
AM_VIS
 10
411.92456750280871
 20
278.93493278525381
 30
0.0
 11
411.92456750280871
 21
382.70182459610191
 31
0.0
  0
LINE
  5
147E
  8
AM_VIS
 10
408.07255981398521
 20
388.24668153158831
 30
0.0
 11
408.07255981398521
 21
278.93493278525381
 31
0.0
  0
LINE
  5
147F
  8
AM_VIS
 10
405.51149630027339
 20
278.93493278525381
 30
0.0
 11
405.51149630027339
 21
388.24616763647782
 31
0.0
  0
LINE
  5
1480
  8
AM_VIS
 10
404.87255981398511
 20
388.88510412276599
 30
0.0
 11
404.87255981398511
 21
278.93493278525381
 31
0.0
  0
LINE
  5
1481
  8
AM_VIS
 10
404.172559813985
 20
278.93493278525381
 30
0.0
 11
404.172559813985
 21
389.08493278525378
 31
0.0
  0
LINE
  5
1482
  8
AM_VIS
 10
403.17255981398512
 20
389.08493278525378
 30
0.0
 11
403.17255981398512
 21
278.93493278525381
 31
0.0
  0
LINE
  5
1483
  8
AM_VIS
 10
409.86955450309449
 20
393.16747994972002
 30
0.0
 11
411.01902712095989
 21
392.01800733185468
 31
0.0
  0
LINE
  5
1484
  8
AM_VIS
 10
406.79303465923039
 20
392.00135910646458
 30
0.0
 11
403.52615268710241
 21
395.2682410785925
 31
0.0
  0
LINE
  5
1485
  8
AM_VIS
 10
403.37255981398511
 20
402.08503178528707
 30
0.0
 11
403.37255981398511
 21
390.10473668797238
 31
0.0
  0
LINE
  5
1486
  8
AM_VIS
 10
403.58898613519591
 20
395.20540763049911
 30
0.0
 11
403.58898613519591
 21
390.89899831345082
 31
0.0
  0
POLYLINE
  5
1487
  8
AM_VIS
 66
     1
 10
0.0
 20
0.0
 30
0.0
  0
VERTEX
  5
3369
  8
AM_VIS
 10
403.37255981398511
 20
402.08503178528707
 30
0.0
  0
VERTEX
  5
336A
  8
AM_VIS
 10
404.13404117684757
 20
403.92345142239122
 30
0.0
  0
VERTEX
  5
336B
  8
AM_VIS
 10
405.97246081395201
 20
404.68493278525392
 30
0.0
  0
SEQEND
  5
336C
  8
AM_VIS
  0
POLYLINE
  5
1488
  8
AM_VIS
 66
     1
 10
0.0
 20
0.0
 30
0.0
  0
VERTEX
  5
336D
  8
AM_VIS
 10
405.10814690744809
 20
405.94188541195098
 30
0.0
  0
VERTEX
  5
336E
  8
AM_VIS
 10
405.02937979227039
 20
405.9409042256176
 30
0.0
  0
VERTEX
  5
336F
  8
AM_VIS
 10
404.65751828949669
 20
405.90787727191667
 30
0.0
  0
VERTEX
  5
3370
  8
AM_VIS
 10
404.32647719914752
 20
405.83777186037628
 30
0.0
  0
VERTEX
  5
3371
  8
AM_VIS
 10
404.03556476025727
 20
405.74308210080193
 30
0.0
  0
VERTEX
  5
3372
  8
AM_VIS
 10
403.49698798456433
 20
405.47205833358851
 30
0.0
  0
VERTEX
  5
3373
  8
AM_VIS
 10
403.0004748409425
 20
405.07488276862898
 30
0.0
  0
VERTEX
  5
3374
  8
AM_VIS
 10
402.59893875484909
 20
404.58146215987529
 30
0.0
  0
VERTEX
  5
3375
  8
AM_VIS
 10
402.32290707871113
 20
404.04377469312249
 30
0.0
  0
VERTEX
  5
3376
  8
AM_VIS
 10
402.22649155839548
 20
403.75554774196388
 30
0.0
  0
VERTEX
  5
3377
  8
AM_VIS
 10
402.15409506534161
 20
403.42827758933407
 30
0.0
  0
VERTEX
  5
3378
  8
AM_VIS
 10
402.1175203339867
 20
403.05821432217567
 30
0.0
  0
VERTEX
  5
3379
  8
AM_VIS
 10
402.11563041785678
 20
402.95089098723082
 30
0.0
  0
SEQEND
  5
337A
  8
AM_VIS
  0
POLYLINE
  5
1489
  8
AM_VIS
 66
     1
 10
0.0
 20
0.0
 30
0.0
  0
VERTEX
  5
337B
  8
AM_VIS
 10
401.61668028640759
 20
402.94560894071009
 30
0.0
  0
VERTEX
  5
337C
  8
AM_VIS
 10
401.61892872054432
 20
403.06891822049602
 30
0.0
  0
VERTEX
  5
337D
  8
AM_VIS
 10
401.66275816540951
 20
403.50962627874992
 30
0.0
  0
VERTEX
  5
337E
  8
AM_VIS
 10
401.74736089011498
 20
403.89105064526728
 30
0.0
  0
VERTEX
  5
337F
  8
AM_VIS
 10
401.85662880698709
 20
404.2171580835668
 30
0.0
  0
VERTEX
  5
3380
  8
AM_VIS
 10
402.1825533101723
 20
404.85146445287251
 30
0.0
  0
VERTEX
  5
3381
  8
AM_VIS
 10
402.6511673786942
 20
405.42716346434941
 30
0.0
  0
VERTEX
  5
3382
  8
AM_VIS
 10
403.2304862320247
 20
405.89070803838757
 30
0.0
  0
VERTEX
  5
3383
  8
AM_VIS
 10
403.86572926770759
 20
406.21067268410309
 30
0.0
  0
VERTEX
  5
3384
  8
AM_VIS
 10
404.19501023116783
 20
406.31803498881118
 30
0.0
  0
VERTEX
  5
3385
  8
AM_VIS
 10
404.58089222965731
 20
406.39998443570101
 30
0.0
  0
VERTEX
  5
3386
  8
AM_VIS
 10
405.02464036496622
 20
406.43967104415208
 30
0.0
  0
VERTEX
  5
3387
  8
AM_VIS
 10
405.11188365804719
 20
406.44081231283252
 30
0.0
  0
SEQEND
  5
3388
  8
AM_VIS
  0
LINE
  5
148A
  8
AM_VIS
 10
409.87556512487561
 20
403.2023856207876
 30
0.0
 11
408.52043023015437
 21
404.55752051550871
 31
0.0
  0
LINE
  5
148B
  8
AM_VIS
 10
407.93907133144211
 20
402.80542703630562
 30
0.0
 11
406.19570472002988
 21
404.5487936477179
 31
0.0
  0
LINE
  5
148C
  8
AM_VIS
 10
404.85807200125669
 20
398.01288616322989
 30
0.0
 11
409.70051319196142
 21
393.1704449725255
 31
0.0
  0
POLYLINE
  5
148D
  8
AM_VIS
 66
     1
 10
0.0
 20
0.0
 30
0.0
  0
VERTEX
  5
3389
  8
AM_VIS
 10
409.0279283850868
 20
403.13078354503398
 30
0.0
  0
VERTEX
  5
338A
  8
AM_VIS
 10
408.60354220042058
 20
403.03863098653602
 30
0.0
  0
VERTEX
  5
338B
  8
AM_VIS
 10
408.23718741069843
 20
402.92571481573913
 30
0.0
  0
VERTEX
  5
338C
  8
AM_VIS
 10
408.01626461259019
 20
402.84064769876022
 30
0.0
  0
VERTEX
  5
338D
  8
AM_VIS
 10
407.93905471635838
 20
402.805451400435
 30
0.0
  0
VERTEX
  5
338E
  8
AM_VIS
 10
407.93907133144211
 20
402.80542703630562
 30
0.0
  0
SEQEND
  5
338F
  8
AM_VIS
  0
LINE
  5
148E
  8
AM_VIS
 10
403.5086989515209
 20
401.86178787920898
 30
0.0
 11
405.25206556293318
 21
400.11842126779669
 31
0.0
  0
LINE
  5
148F
  8
AM_VIS
 10
403.49997208373009
 20
399.5370623690842
 30
0.0
 11
404.8551069784512
 21
398.18192747436319
 31
0.0
  0
POLYLINE
  5
1490
  8
AM_VIS
 66
     1
 10
0.0
 20
0.0
 30
0.0
  0
VERTEX
  5
3390
  8
AM_VIS
 10
402.1175203339867
 20
403.05821432217567
 30
0.0
  0
VERTEX
  5
3391
  8
AM_VIS
 10
402.1175203339867
 20
398.18493278525392
 30
0.0
  0
SEQEND
  5
3392
  8
AM_VIS
  0
POLYLINE
  5
1491
  8
AM_VIS
 66
     1
 10
0.0
 20
0.0
 30
0.0
  0
VERTEX
  5
3393
  8
AM_VIS
 10
403.37255981398511
 20
398.18493278525392
 30
0.0
  0
VERTEX
  5
3394
  8
AM_VIS
 10
402.1175203339867
 20
398.18493278525392
 30
0.0
  0
SEQEND
  5
3395
  8
AM_VIS
  0
ARC
  5
1492
  8
AM_VIS
 10
409.87255981398522
 20
398.18493278525398
 30
0.0
 40
5.7842916379766338
 50
115.8237093022863
 51
154.17629069771351
  0
POLYLINE
  5
1493
  8
AM_VIS
 66
     1
 10
0.0
 20
0.0
 30
0.0
  0
VERTEX
  5
3396
  8
AM_VIS
 10
405.25206556293318
 20
400.11842126779669
 30
0.0
  0
VERTEX
  5
3397
  8
AM_VIS
 10
405.25204119880391
 20
400.11843788288053
 30
0.0
  0
VERTEX
  5
3398
  8
AM_VIS
 10
405.21684490047869
 20
400.04122798664861
 30
0.0
  0
VERTEX
  5
3399
  8
AM_VIS
 10
405.13177778350001
 20
399.82030518854037
 30
0.0
  0
VERTEX
  5
339A
  8
AM_VIS
 10
405.01886161270289
 20
399.45395039881822
 30
0.0
  0
VERTEX
  5
339B
  8
AM_VIS
 10
404.92670905420482
 20
399.029564214152
 30
0.0
  0
SEQEND
  5
339C
  8
AM_VIS
  0
POLYLINE
  5
1494
  8
AM_VIS
 66
     1
 10
0.0
 20
0.0
 30
0.0
  0
VERTEX
  5
339D
  8
AM_VIS
 10
405.25206556293318
 20
400.11842126779669
 30
0.0
  0
VERTEX
  5
339E
  8
AM_VIS
 10
405.25873584457707
 20
400.11175098615303
 30
0.0
  0
SEQEND
  5
339F
  8
AM_VIS
  0
POLYLINE
  5
1495
  8
AM_VIS
 66
     1
 10
0.0
 20
0.0
 30
0.0
  0
VERTEX
  5
33A0
  8
AM_VIS
 10
407.945741613086
 20
402.79875675466178
 30
0.0
  0
VERTEX
  5
33A1
  8
AM_VIS
 10
407.93907133144211
 20
402.80542703630562
 30
0.0
  0
SEQEND
  5
33A2
  8
AM_VIS
  0
ARC
  5
1496
  8
AM_VIS
 10
409.87255981398522
 20
398.18493278525398
 30
0.0
 40
5.0174537355815172
 50
170.30876084096599
 51
180.03431853077819
  0
LINE
  5
1497
  8
AM_VIS
 10
404.8752695086161
 20
398.02034358796089
 30
0.0
 11
404.85784371124049
 21
398.01976965732518
 31
0.0
  0
POLYLINE
  5
1498
  8
AM_VIS
 66
     1
 10
0.0
 20
0.0
 30
0.0
  0
VERTEX
  5
33A3
  8
AM_VIS
 10
404.8551069784512
 20
398.18192747436319
 30
0.0
  0
VERTEX
  5
33A4
  8
AM_VIS
 10
404.85784371124049
 20
398.01976965732518
 30
0.0
  0
SEQEND
  5
33A5
  8
AM_VIS
  0
POLYLINE
  5
1499
  8
AM_VIS
 66
     1
 10
0.0
 20
0.0
 30
0.0
  0
VERTEX
  5
33A6
  8
AM_VIS
 10
404.85784371124049
 20
398.01976965732518
 30
0.0
  0
VERTEX
  5
33A7
  8
AM_VIS
 10
404.85795784961817
 20
398.01632786677533
 30
0.0
  0
VERTEX
  5
33A8
  8
AM_VIS
 10
404.85807200125669
 20
398.01288616322989
 30
0.0
  0
SEQEND
  5
33A9
  8
AM_VIS
  0
LINE
  5
149A
  8
AM_VIS
 10
404.8752695086161
 20
398.02034358796089
 30
0.0
 11
404.85807200125669
 21
398.01288616322989
 31
0.0
  0
POLYLINE
  5
149B
  8
AM_VIS
 66
     1
 10
0.0
 20
0.0
 30
0.0
  0
VERTEX
  5
33AA
  8
AM_VIS
 10
409.70739668605643
 20
393.17021668250908
 30
0.0
  0
VERTEX
  5
33AB
  8
AM_VIS
 10
409.86955450309449
 20
393.16747994972002
 30
0.0
  0
SEQEND
  5
33AC
  8
AM_VIS
  0
POLYLINE
  5
149C
  8
AM_VIS
 66
     1
 10
0.0
 20
0.0
 30
0.0
  0
VERTEX
  5
33AD
  8
AM_VIS
 10
409.70051319196142
 20
393.1704449725255
 30
0.0
  0
VERTEX
  5
33AE
  8
AM_VIS
 10
409.70395489550668
 20
393.17033082088699
 30
0.0
  0
VERTEX
  5
33AF
  8
AM_VIS
 10
409.70739668605643
 20
393.17021668250908
 30
0.0
  0
SEQEND
  5
33B0
  8
AM_VIS
  0
LINE
  5
149D
  8
AM_VIS
 10
409.70797061669231
 20
393.18764247988491
 30
0.0
 11
409.70739668605643
 21
393.17021668250931
 31
0.0
  0
LINE
  5
149E
  8
AM_VIS
 10
409.70797061669231
 20
393.18764247988491
 30
0.0
 11
409.70051319196142
 21
393.1704449725255
 31
0.0
  0
ARC
  5
149F
  8
AM_VIS
 10
409.87255981398522
 20
398.18493278525398
 30
0.0
 40
5.0174537355815172
 50
89.965681469223057
 51
99.691239159033245
  0
POLYLINE
  5
14A0
  8
AM_VIS
 66
     1
 10
0.0
 20
0.0
 30
0.0
  0
VERTEX
  5
33B1
  8
AM_VIS
 10
410.03772294191378
 20
403.19964888799831
 30
0.0
  0
VERTEX
  5
33B2
  8
AM_VIS
 10
409.87556512487561
 20
403.2023856207876
 30
0.0
  0
SEQEND
  5
33B3
  8
AM_VIS
  0
LINE
  5
14A1
  8
AM_VIS
 10
410.0371490112779
 20
403.1822230906227
 30
0.0
 11
410.03772294191361
 21
403.19964888799831
 31
0.0
  0
POLYLINE
  5
14A2
  8
AM_VIS
 66
     1
 10
0.0
 20
0.0
 30
0.0
  0
VERTEX
  5
33B4
  8
AM_VIS
 10
410.04460643600891
 20
403.1994205979824
 30
0.0
  0
VERTEX
  5
33B5
  8
AM_VIS
 10
410.04116473246353
 20
403.19953474962063
 30
0.0
  0
VERTEX
  5
33B6
  8
AM_VIS
 10
410.03772294191378
 20
403.19964888799831
 30
0.0
  0
SEQEND
  5
33B7
  8
AM_VIS
  0
LINE
  5
14A3
  8
AM_VIS
 10
410.0371490112779
 20
403.18222309062298
 30
0.0
 11
410.04460643600891
 21
403.1994205979824
 31
0.0
  0
POLYLINE
  5
14A4
  8
AM_VIS
 66
     1
 10
0.0
 20
0.0
 30
0.0
  0
VERTEX
  5
33B8
  8
AM_VIS
 10
405.02937979227039
 20
405.9409042256176
 30
0.0
  0
VERTEX
  5
33B9
  8
AM_VIS
 10
409.87255981398511
 20
405.9409042256176
 30
0.0
  0
SEQEND
  5
33BA
  8
AM_VIS
  0
POLYLINE
  5
14A5
  8
AM_VIS
 66
     1
 10
0.0
 20
0.0
 30
0.0
  0
VERTEX
  5
33BB
  8
AM_VIS
 10
409.87255981398511
 20
404.68493278525392
 30
0.0
  0
VERTEX
  5
33BC
  8
AM_VIS
 10
409.87255981398511
 20
405.9409042256176
 30
0.0
  0
SEQEND
  5
33BD
  8
AM_VIS
  0
LINE
  5
14A6
  8
AM_VIS
 10
409.87255981398511
 20
391.78493278525377
 30
0.0
 11
405.87255981398511
 21
391.78493278525377
 31
0.0
  0
LINE
  5
14A7
  8
AM_VIS
 10
405.87255981398511
 20
392.00135910646458
 30
0.0
 11
406.79303465923039
 21
392.00135910646458
 31
0.0
  0
LINE
  5
14A8
  8
AM_VIS
 10
406.01132496276108
 20
388.74599629896568
 30
0.0
 11
408.57187458136241
 21
388.74599629896568
 31
0.0
  0
LINE
  5
14A9
  8
AM_VIS
 10
409.87255981398511
 20
389.38493278525368
 30
0.0
 11
405.37238847647279
 21
389.38493278525368
 31
0.0
  0
LINE
  5
14AA
  8
AM_VIS
 10
405.87255981398511
 20
390.78493278525377
 30
0.0
 11
409.87255981398511
 21
390.78493278525377
 31
0.0
  0
POLYLINE
  5
14AB
  8
AM_VIS
 66
     1
 10
0.0
 20
0.0
 30
0.0
  0
VERTEX
  5
33BE
  8
AM_VIS
 10
408.07255981398521
 20
388.24668153158831
 30
0.0
  0
VERTEX
  5
33BF
  8
AM_VIS
 10
408.2187228652665
 20
388.59983324768422
 30
0.0
  0
VERTEX
  5
33C0
  8
AM_VIS
 10
408.57187458136241
 20
388.74599629896568
 30
0.0
  0
SEQEND
  5
33C1
  8
AM_VIS
  0
ARC
  5
14AC
  8
AM_VIS
 10
405.87255981398522
 20
389.0849327852539
 30
0.0
 40
2.7000000000000379
 50
157.80839343372421
 51
180.0
  0
POLYLINE
  5
14AD
  8
AM_VIS
 66
     1
 10
0.0
 20
0.0
 30
0.0
  0
VERTEX
  5
33C2
  8
AM_VIS
 10
404.87255981398511
 20
388.88510412276599
 30
0.0
  0
VERTEX
  5
33C3
  8
AM_VIS
 10
405.01893547025878
 20
389.23855712898012
 30
0.0
  0
VERTEX
  5
33C4
  8
AM_VIS
 10
405.37238847647279
 20
389.38493278525368
 30
0.0
  0
SEQEND
  5
33C5
  8
AM_VIS
  0
POLYLINE
  5
14AE
  8
AM_VIS
 66
     1
 10
0.0
 20
0.0
 30
0.0
  0
VERTEX
  5
33C6
  8
AM_VIS
 10
405.51149630027339
 20
388.24616763647782
 30
0.0
  0
VERTEX
  5
33C7
  8
AM_VIS
 10
405.65787195654701
 20
388.59962064269189
 30
0.0
  0
VERTEX
  5
33C8
  8
AM_VIS
 10
406.01132496276108
 20
388.74599629896551
 30
0.0
  0
SEQEND
  5
33C9
  8
AM_VIS
  0
POLYLINE
  5
14AF
  8
AM_VIS
 66
     1
 10
0.0
 20
0.0
 30
0.0
  0
VERTEX
  5
33CA
  8
AM_VIS
 10
412.18218630499757
 20
384.86941451456607
 30
0.0
  0
VERTEX
  5
33CB
  8
AM_VIS
 10
412.28681565490069
 20
384.90731047581289
 30
0.0
  0
VERTEX
  5
33CC
  8
AM_VIS
 10
412.39771429206451
 20
384.92015658826352
 30
0.0
  0
SEQEND
  5
33CD
  8
AM_VIS
  0
POLYLINE
  5
14B0
  8
AM_VIS
 66
     1
 10
0.0
 20
0.0
 30
0.0
  0
VERTEX
  5
33CE
  8
AM_VIS
 10
412.18218630499757
 20
384.86941451456607
 30
0.0
  0
VERTEX
  5
33CF
  8
AM_VIS
 10
412.17629663335453
 20
384.8664180307785
 30
0.0
  0
VERTEX
  5
33D0
  8
AM_VIS
 10
412.02355738539791
 20
384.74367684799103
 30
0.0
  0
VERTEX
  5
33D1
  8
AM_VIS
 10
411.93034379158621
 20
384.57250493179862
 30
0.0
  0
VERTEX
  5
33D2
  8
AM_VIS
 10
411.90735905580681
 20
384.41188228976671
 30
0.0
  0
SEQEND
  5
33D3
  8
AM_VIS
  0
POLYLINE
  5
14B1
  8
AM_VIS
 66
     1
 10
0.0
 20
0.0
 30
0.0
  0
VERTEX
  5
33D4
  8
AM_VIS
 10
411.90735905580681
 20
384.41188228976671
 30
0.0
  0
VERTEX
  5
33D5
  8
AM_VIS
 10
411.92018103411101
 20
383.50160808867213
 30
0.0
  0
VERTEX
  5
33D6
  8
AM_VIS
 10
411.92456750280871
 20
382.70182459610191
 30
0.0
  0
SEQEND
  5
33D7
  8
AM_VIS
  0
POLYLINE
  5
14B2
  8
AM_VIS
 66
     1
 10
0.0
 20
0.0
 30
0.0
  0
VERTEX
  5
33D8
  8
AM_VIS
 10
412.45073548093018
 20
381.67565661798039
 30
0.0
  0
VERTEX
  5
33D9
  8
AM_VIS
 10
412.64921688459953
 20
382.55555863616132
 30
0.0
  0
VERTEX
  5
33DA
  8
AM_VIS
 10
413.20850424577668
 20
382.86782063202071
 30
0.0
  0
SEQEND
  5
33DB
  8
AM_VIS
  0
LINE
  5
14B3
  8
AM_VIS
 10
408.57187458136241
 20
388.74599629896568
 30
0.0
 11
409.87255981398488
 21
388.74599629896568
 31
0.0
  0
ARC
  5
14B4
  8
AM_VIS
 10
405.87255981398522
 20
389.0849327852539
 30
0.0
 40
2.9164263212108068
 50
90.000000000001108
 51
141.5364541122843
  0
ARC
  5
14B5
  8
AM_VIS
 10
405.87255981398522
 20
389.0849327852539
 30
0.0
 40
2.7000000000000379
 50
90.0
 51
157.80839343372421
  0
ARC
  5
14B6
  8
AM_VIS
 10
405.87255981398522
 20
389.0849327852539
 30
0.0
 40
1.6999999999999951
 50
90.0
 51
180.0
  0
LINE
  5
14B7
  8
AM_VIS
 10
418.97255981398501
 20
403.88493278525368
 30
0.0
 11
491.62255981398522
 21
403.88493278525368
 31
0.0
  0
LINE
  5
14B8
  8
AM_VIS
 10
491.62255981398522
 20
403.18493278525398
 30
0.0
 11
419.1723884764728
 21
403.18493278525398
 31
0.0
  0
LINE
  5
14B9
  8
AM_VIS
 10
491.62255981398522
 20
404.88493278525368
 30
0.0
 11
418.97255981398501
 21
404.88493278525368
 31
0.0
  0
LINE
  5
14BA
  8
AM_VIS
 10
491.62255981398522
 20
395.10675711830862
 30
0.0
 11
426.38183598125852
 21
395.10675711830862
 31
0.0
  0
LINE
  5
14BB
  8
AM_VIS
 10
491.62255981398522
 20
399.9849327852537
 30
0.0
 11
419.81081106765049
 21
399.9849327852537
 31
0.0
  0
LINE
  5
14BC
  8
AM_VIS
 10
419.81132496276109
 20
402.54599629896569
 30
0.0
 11
491.62255981398522
 21
402.54599629896569
 31
0.0
  0
LINE
  5
14BD
  8
AM_VIS
 10
424.32950002501548
 20
396.15909307455172
 30
0.0
 11
491.62255981398522
 21
396.15909307455172
 31
0.0
  0
ARC
  5
14BE
  8
AM_VIS
 10
409.87255981398522
 20
398.18493278525398
 30
0.0
 40
9.4389364862881635
 50
323.3107099475568
 51
0.0
  0
POLYLINE
  5
14BF
  8
AM_VIS
 66
     1
 10
0.0
 20
0.0
 30
0.0
  0
VERTEX
  5
33DC
  8
AM_VIS
 10
416.89938154595683
 20
392.50102029934658
 30
0.0
  0
VERTEX
  5
33DD
  8
AM_VIS
 10
416.84334880920841
 20
392.60276068529538
 30
0.0
  0
VERTEX
  5
33DE
  8
AM_VIS
 10
416.83014700311668
 20
392.71811582192572
 30
0.0
  0
VERTEX
  5
33DF
  8
AM_VIS
 10
416.84884906856217
 20
392.80076522740057
 30
0.0
  0
VERTEX
  5
33E0
  8
AM_VIS
 10
416.88992120308461
 20
392.87488201951032
 30
0.0
  0
SEQEND
  5
33E1
  8
AM_VIS
  0
ARC
  5
14C0
  8
AM_VIS
 10
413.71149630027332
 20
394.3459962989657
 30
0.0
 40
11.478175666945051
 50
269.99999999999972
 51
0.0
  0
ARC
  5
14C1
  8
AM_VIS
 10
413.71149630027332
 20
394.3459962989657
 30
0.0
 40
9.4258397107021779
 50
269.9999999999992
 51
359.9999999999996
  0
ARC
  5
14C2
  8
AM_VIS
 10
413.71149630027332
 20
394.3459962989657
 30
0.0
 40
5.5999999999999988
 50
270.0
 51
0.0
  0
ARC
  5
14C3
  8
AM_VIS
 10
418.97255981398507
 20
402.18493278525398
 30
0.0
 40
2.9164263212108068
 50
128.4635458877174
 51
180.00000000000111
  0
ARC
  5
14C4
  8
AM_VIS
 10
418.97255981398507
 20
402.18493278525398
 30
0.0
 40
2.7000000000000379
 50
112.1916065662718
 51
180.0
  0
ARC
  5
14C5
  8
AM_VIS
 10
418.97255981398507
 20
402.18493278525398
 30
0.0
 40
1.6999999999999951
 50
90.0
 51
180.0
  0
LINE
  5
14C6
  8
AM_VIS
 10
416.03948526738441
 20
397.03846547827902
 30
0.0
 11
414.89001264951912
 21
398.18793809614431
 31
0.0
  0
LINE
  5
14C7
  8
AM_VIS
 10
416.05613349277422
 20
401.26445794000819
 30
0.0
 11
416.05613349277422
 21
402.18493278525398
 31
0.0
  0
POLYLINE
  5
14C8
  8
AM_VIS
 66
     1
 10
0.0
 20
0.0
 30
0.0
  0
VERTEX
  5
33E2
  8
AM_VIS
 10
414.89001264951912
 20
398.18793809614431
 30
0.0
  0
VERTEX
  5
33E3
  8
AM_VIS
 10
414.88727591672972
 20
398.35009591318271
 30
0.0
  0
SEQEND
  5
33E4
  8
AM_VIS
  0
POLYLINE
  5
14C9
  8
AM_VIS
 66
     1
 10
0.0
 20
0.0
 30
0.0
  0
VERTEX
  5
33E5
  8
AM_VIS
 10
414.88727591672972
 20
398.35009591318271
 30
0.0
  0
VERTEX
  5
33E6
  8
AM_VIS
 10
414.88716177835181
 20
398.35353770373212
 30
0.0
  0
VERTEX
  5
33E7
  8
AM_VIS
 10
414.88704762671358
 20
398.35697940727772
 30
0.0
  0
SEQEND
  5
33E8
  8
AM_VIS
  0
LINE
  5
14CA
  8
AM_VIS
 10
414.86985011935388
 20
398.34952198254649
 30
0.0
 11
414.8870476267133
 21
398.35697940727772
 31
0.0
  0
LINE
  5
14CB
  8
AM_VIS
 10
414.86985011935388
 20
398.34952198254672
 30
0.0
 11
414.88727591672972
 21
398.35009591318271
 31
0.0
  0
LINE
  5
14CC
  8
AM_VIS
 10
416.27255981398503
 20
402.18493278525398
 30
0.0
 11
416.27255981398503
 21
398.18493278525392
 31
0.0
  0
LINE
  5
14CD
  8
AM_VIS
 10
419.31149630027329
 20
398.18493278525392
 30
0.0
 11
419.31149630027329
 21
394.3459962989657
 31
0.0
  0
ARC
  5
14CE
  8
AM_VIS
 10
409.87255981398522
 20
398.18493278525398
 30
0.0
 40
8.8000000000000007
 50
322.88513754492658
 51
0.0
  0
LINE
  5
14CF
  8
AM_VIS
 10
423.1373360109755
 20
394.3459962989657
 30
0.0
 11
423.1373360109755
 21
395.40132430970488
 31
0.0
  0
POLYLINE
  5
14D0
  8
AM_VIS
 66
     1
 10
0.0
 20
0.0
 30
0.0
  0
VERTEX
  5
33E9
  8
AM_VIS
 10
423.13626096117281
 20
395.66085335697687
 30
0.0
  0
VERTEX
  5
33EA
  8
AM_VIS
 10
423.13706684472788
 20
395.53032819887221
 30
0.0
  0
VERTEX
  5
33EB
  8
AM_VIS
 10
423.1373360109755
 20
395.40132430970488
 30
0.0
  0
SEQEND
  5
33EC
  8
AM_VIS
  0
POLYLINE
  5
14D1
  8
AM_VIS
 66
     1
 10
0.0
 20
0.0
 30
0.0
  0
VERTEX
  5
33ED
  8
AM_VIS
 10
423.63325270249152
 20
396.1624911504129
 30
0.0
  0
VERTEX
  5
33EE
  8
AM_VIS
 10
423.45919293411521
 20
396.13233129503533
 30
0.0
  0
VERTEX
  5
33EF
  8
AM_VIS
 10
423.29900399750488
 20
396.03498840015681
 30
0.0
  0
VERTEX
  5
33F0
  8
AM_VIS
 10
423.18696895509902
 20
395.88530157924617
 30
0.0
  0
VERTEX
  5
33F1
  8
AM_VIS
 10
423.13778656842982
 20
395.70445137518118
 30
0.0
  0
VERTEX
  5
33F2
  8
AM_VIS
 10
423.13626096117281
 20
395.66085335697687
 30
0.0
  0
SEQEND
  5
33F3
  8
AM_VIS
  0
POLYLINE
  5
14D2
  8
AM_VIS
 66
     1
 10
0.0
 20
0.0
 30
0.0
  0
VERTEX
  5
33F4
  8
AM_VIS
 10
424.32950002501548
 20
396.15909307455172
 30
0.0
  0
VERTEX
  5
33F5
  8
AM_VIS
 10
423.99559912285389
 20
396.15994578131063
 30
0.0
  0
VERTEX
  5
33F6
  8
AM_VIS
 10
423.63325270249152
 20
396.1624911504129
 30
0.0
  0
SEQEND
  5
33F7
  8
AM_VIS
  0
POLYLINE
  5
14D3
  8
AM_VIS
 66
     1
 10
0.0
 20
0.0
 30
0.0
  0
VERTEX
  5
33F8
  8
AM_VIS
 10
419.31149630027329
 20
399.4856180178765
 30
0.0
  0
VERTEX
  5
33F9
  8
AM_VIS
 10
419.45765935155481
 20
399.83876973397241
 30
0.0
  0
VERTEX
  5
33FA
  8
AM_VIS
 10
419.81081106765049
 20
399.9849327852537
 30
0.0
  0
SEQEND
  5
33FB
  8
AM_VIS
  0
POLYLINE
  5
14D4
  8
AM_VIS
 66
     1
 10
0.0
 20
0.0
 30
0.0
  0
VERTEX
  5
33FC
  8
AM_VIS
 10
419.31149630027329
 20
402.04616763647772
 30
0.0
  0
VERTEX
  5
33FD
  8
AM_VIS
 10
419.45787195654702
 20
402.39962064269179
 30
0.0
  0
VERTEX
  5
33FE
  8
AM_VIS
 10
419.81132496276109
 20
402.54599629896552
 30
0.0
  0
SEQEND
  5
33FF
  8
AM_VIS
  0
LINE
  5
14D5
  8
AM_VIS
 10
417.27255981398503
 20
398.18493278525392
 30
0.0
 11
417.27255981398503
 21
402.18493278525398
 31
0.0
  0
LINE
  5
14D6
  8
AM_VIS
 10
419.31149630027329
 20
398.18493278525392
 30
0.0
 11
419.31149630027329
 21
399.4856180178765
 31
0.0
  0
POLYLINE
  5
14D7
  8
AM_VIS
 66
     1
 10
0.0
 20
0.0
 30
0.0
  0
VERTEX
  5
3400
  8
AM_VIS
 10
418.67255981398512
 20
402.68510412276601
 30
0.0
  0
VERTEX
  5
3401
  8
AM_VIS
 10
418.81893547025902
 20
403.03855712898007
 30
0.0
  0
VERTEX
  5
3402
  8
AM_VIS
 10
419.1723884764728
 20
403.18493278525369
 30
0.0
  0
SEQEND
  5
3403
  8
AM_VIS
  0
LINE
  5
14D8
  8
AM_VIS
 10
419.31149630027329
 20
399.4856180178765
 30
0.0
 11
419.31149630027329
 21
402.04616763647772
 31
0.0
  0
LINE
  5
14D9
  8
AM_VIS
 10
418.67255981398512
 20
402.68510412276601
 30
0.0
 11
418.67255981398512
 21
398.18493278525392
 31
0.0
  0
ARC
  5
14DA
  8
AM_VIS
 10
418.97255981398507
 20
402.18493278525398
 30
0.0
 40
2.7000000000000379
 50
90.0
 51
112.1916065662718
  0
POLYLINE
  5
14DB
  8
AM_VIS
 66
     1
 10
0.0
 20
0.0
 30
0.0
  0
VERTEX
  5
3404
  8
AM_VIS
 10
425.18967196721832
 20
394.34898835346178
 30
0.0
  0
VERTEX
  5
3405
  8
AM_VIS
 10
425.50193396307748
 20
394.90827571463927
 30
0.0
  0
VERTEX
  5
3406
  8
AM_VIS
 10
426.38183598125852
 20
395.10675711830862
 30
0.0
  0
SEQEND
  5
3407
  8
AM_VIS
  0
LINE
  5
14DC
  8
AM_VIS
 10
425.18967196721832
 20
394.34898835346178
 30
0.0
 11
425.18967196721832
 21
394.3459962989657
 31
0.0
  0
LINE
  5
14DD
  8
AM_VIS
 10
418.11440315798609
 20
391.38428287433629
 30
0.0
 11
417.45232127514652
 21
392.17332133680219
 31
0.0
  0
POLYLINE
  5
14DE
  8
AM_VIS
 66
     1
 10
0.0
 20
0.0
 30
0.0
  0
VERTEX
  5
3408
  8
AM_VIS
 10
415.18261057972859
 20
391.16757139615419
 30
0.0
  0
VERTEX
  5
3409
  8
AM_VIS
 10
415.28695245260991
 20
391.21836941988499
 30
0.0
  0
VERTEX
  5
340A
  8
AM_VIS
 10
415.40278055250371
 20
391.22575288433382
 30
0.0
  0
VERTEX
  5
340B
  8
AM_VIS
 10
415.48445027154338
 20
391.20290211343871
 30
0.0
  0
VERTEX
  5
340C
  8
AM_VIS
 10
415.55647229989199
 20
391.1581110532822
 30
0.0
  0
SEQEND
  5
340D
  8
AM_VIS
  0
POLYLINE
  5
14DF
  8
AM_VIS
 66
     1
 10
0.0
 20
0.0
 30
0.0
  0
VERTEX
  5
340E
  8
AM_VIS
 10
417.8081840194136
 20
390.99192784058067
 30
0.0
  0
VERTEX
  5
340F
  8
AM_VIS
 10
417.8957645656514
 20
391.19096641639271
 30
0.0
  0
VERTEX
  5
3410
  8
AM_VIS
 10
417.8258646447436
 20
391.39688073788977
 30
0.0
  0
SEQEND
  5
3411
  8
AM_VIS
  0
POLYLINE
  5
14E0
  8
AM_VIS
 66
     1
 10
0.0
 20
0.0
 30
0.0
  0
VERTEX
  5
3412
  8
AM_VIS
 10
418.09672253265592
 20
390.97932997702708
 30
0.0
  0
VERTEX
  5
3413
  8
AM_VIS
 10
418.18430307889389
 20
391.17836855283912
 30
0.0
  0
VERTEX
  5
3414
  8
AM_VIS
 10
418.11440315798609
 20
391.38428287433629
 30
0.0
  0
SEQEND
  5
3415
  8
AM_VIS
  0
POLYLINE
  5
14E1
  8
AM_VIS
 66
     1
 10
0.0
 20
0.0
 30
0.0
  0
VERTEX
  5
3416
  8
AM_VIS
 10
417.45232127514652
 20
392.17332133680219
 30
0.0
  0
VERTEX
  5
3417
  8
AM_VIS
 10
417.39628859745972
 20
392.27506160951788
 30
0.0
  0
VERTEX
  5
3418
  8
AM_VIS
 10
417.38308678667079
 20
392.39041667781902
 30
0.0
  0
VERTEX
  5
3419
  8
AM_VIS
 10
417.40139397503111
 20
392.47202470502469
 30
0.0
  0
VERTEX
  5
341A
  8
AM_VIS
 10
417.44152349132901
 20
392.5454017016238
 30
0.0
  0
SEQEND
  5
341B
  8
AM_VIS
  0
LINE
  5
14E2
  8
AM_VIS
 10
417.8258646447436
 20
391.39688073788977
 30
0.0
 11
416.89938154595683
 21
392.50102029934658
 31
0.0
  0
LINE
  5
14E3
  8
AM_VIS
 10
415.88417126243661
 20
390.60517132409268
 30
0.0
 11
416.67320972490251
 21
389.94308944125282
 31
0.0
  0
POLYLINE
  5
14E4
  8
AM_VIS
 66
     1
 10
0.0
 20
0.0
 30
0.0
  0
VERTEX
  5
341C
  8
AM_VIS
 10
415.51209089761528
 20
390.61596910790979
 30
0.0
  0
VERTEX
  5
341D
  8
AM_VIS
 10
415.616807169634
 20
390.66599073577657
 30
0.0
  0
VERTEX
  5
341E
  8
AM_VIS
 10
415.73268748415632
 20
390.67251381073368
 30
0.0
  0
VERTEX
  5
341F
  8
AM_VIS
 10
415.81316819291891
 20
390.64951165373259
 30
0.0
  0
VERTEX
  5
3420
  8
AM_VIS
 10
415.88417126243661
 20
390.60517132409268
 30
0.0
  0
SEQEND
  5
3421
  8
AM_VIS
  0
POLYLINE
  5
14E5
  8
AM_VIS
 66
     1
 10
0.0
 20
0.0
 30
0.0
  0
VERTEX
  5
3422
  8
AM_VIS
 10
416.67320972490251
 20
389.94308944125282
 30
0.0
  0
VERTEX
  5
3423
  8
AM_VIS
 10
416.87912404639968
 20
389.87318952034502
 30
0.0
  0
VERTEX
  5
3424
  8
AM_VIS
 10
417.07816262221189
 20
389.96077006658282
 30
0.0
  0
SEQEND
  5
3425
  8
AM_VIS
  0
POLYLINE
  5
14E6
  8
AM_VIS
 66
     1
 10
0.0
 20
0.0
 30
0.0
  0
VERTEX
  5
3426
  8
AM_VIS
 10
416.66061186134903
 20
390.23162795449548
 30
0.0
  0
VERTEX
  5
3427
  8
AM_VIS
 10
416.86652618284609
 20
390.16172803358768
 30
0.0
  0
VERTEX
  5
3428
  8
AM_VIS
 10
417.06556475865813
 20
390.24930857982548
 30
0.0
  0
SEQEND
  5
3429
  8
AM_VIS
  0
LINE
  5
14E7
  8
AM_VIS
 10
415.55647229989222
 20
391.15811105328203
 30
0.0
 11
416.66061186134903
 21
390.23162795449548
 31
0.0
  0
LINE
  5
14E8
  8
AM_VIS
 10
417.06556475865813
 20
390.24930857982548
 30
0.0
 11
417.8081840194136
 21
390.99192784058067
 31
0.0
  0
LINE
  5
14E9
  8
AM_VIS
 10
417.07816262221189
 20
389.96077006658282
 30
0.0
 11
418.09672253265592
 21
390.97932997702708
 31
0.0
  0
LINE
  5
1F6B
  8
L6
 10
1167.8275776709611
 20
278.93493278525369
 30
0.0
 11
1170.52757767096
 21
278.93493278525369
 31
0.0
  0
LINE
  5
1F6C
  8
L6
 10
1170.52757767096
 20
278.93493278525369
 30
0.0
 11
1170.52757767096
 21
173.38493278525371
 31
0.0
  0
LINE
  5
1F6D
  8
L6
 10
1170.52757767096
 20
173.38493278525371
 30
0.0
 11
1171.02757767096
 21
173.3849327852538
 31
0.0
  0
LINE
  5
1F6E
  8
L6
 10
1170.52757767096
 20
278.93493278525369
 30
0.0
 11
1170.52757767096
 21
384.48493278525359
 31
0.0
  0
LINE
  5
1F6F
  8
L6
 10
1170.52757767096
 20
384.48493278525359
 30
0.0
 11
1171.02757767096
 21
384.48493278525359
 31
0.0
  0
ENDSEC
  0
EOF
