  0
SECTION
  2
HEADER
  9
$ACADVER
  1
AC1009
  9
$INSBASE
 10
0.0
 20
0.0
 30
0.0
  9
$EXTMIN
 10
-57.668663558395572
 20
-68.108465510689257
 30
-0.0000000000112498
  9
$EXTMAX
 10
691.14681758791301
 20
448.6594974542802
 30
0.0000000000002956
  9
$LIMMIN
 10
0.0
 20
0.0
  9
$LIMMAX
 10
657.43951684768581
 20
384.2962048123012
  9
$ORTHOMODE
 70
     1
  9
$REGENMODE
 70
     1
  9
$FILLMODE
 70
     1
  9
$QTEXTMODE
 70
     0
  9
$MIRRTEXT
 70
     1
  9
$DRAGMODE
 70
     2
  9
$LTSCALE
 40
15.0
  9
$OSMODE
 70
     5
  9
$ATTMODE
 70
     1
  9
$TEXTSIZE
 40
2.5
  9
$TRACEWID
 40
1.0
  9
$TEXTSTYLE
  7
SIMPLEX
  9
$CLAYER
  8
L1
  9
$CELTYPE
  6
BYLAYER
  9
$CECOLOR
 62
   256
  9
$DIMSCALE
 40
1.0
  9
$DIMASZ
 40
3.5
  9
$DIMEXO
 40
0.1
  9
$DIMDLI
 40
0.38
  9
$DIMRND
 40
0.0
  9
$DIMDLE
 40
0.0
  9
$DIMEXE
 40
0.18
  9
$DIMTP
 40
0.0
  9
$DIMTM
 40
0.0
  9
$DIMTXT
 40
3.5
  9
$DIMCEN
 40
1.0
  9
$DIMTSZ
 40
0.0
  9
$DIMTOL
 70
     0
  9
$DIMLIM
 70
     0
  9
$DIMTIH
 70
     0
  9
$DIMTOH
 70
     0
  9
$DIMSE1
 70
     0
  9
$DIMSE2
 70
     0
  9
$DIMTAD
 70
     1
  9
$DIMZIN
 70
     8
  9
$DIMBLK
  1

  9
$DIMASO
 70
     1
  9
$DIMSHO
 70
     1
  9
$DIMPOST
  1

  9
$DIMAPOST
  1

  9
$DIMALT
 70
     0
  9
$DIMALTD
 70
     2
  9
$DIMALTF
 40
25.399999999999999
  9
$DIMLFAC
 40
1.0
  9
$DIMTOFL
 70
     1
  9
$DIMTVP
 40
0.0
  9
$DIMTIX
 70
     0
  9
$DIMSOXD
 70
     0
  9
$DIMSAH
 70
     0
  9
$DIMBLK1
  1

  9
$DIMBLK2
  1

  9
$DIMSTYLE
  2
FIBOX
  9
$DIMCLRD
 70
     1
  9
$DIMCLRE
 70
     1
  9
$DIMCLRT
 70
     3
  9
$DIMTFAC
 40
1.0
  9
$DIMGAP
 40
1.0
  9
$LUNITS
 70
     2
  9
$LUPREC
 70
     4
  9
$SKETCHINC
 40
1.0
  9
$FILLETRAD
 40
1.5
  9
$AUNITS
 70
     0
  9
$AUPREC
 70
     0
  9
$MENU
  1
.
  9
$ELEVATION
 40
0.0
  9
$PELEVATION
 40
0.0
  9
$THICKNESS
 40
0.0
  9
$LIMCHECK
 70
     0
  9
$BLIPMODE
 70
     0
  9
$CHAMFERA
 40
10.0
  9
$CHAMFERB
 40
10.0
  9
$SKPOLY
 70
     0
  9
$TDCREATE
 40
2450519.5748858559
  9
$TDUPDATE
 40
2453053.4726888072
  9
$TDINDWG
 40
0.6672067361
  9
$TDUSRTIMER
 40
0.6672067361
  9
$USRTIMER
 70
     1
  9
$ANGBASE
 50
0.0
  9
$ANGDIR
 70
     0
  9
$PDMODE
 70
     0
  9
$PDSIZE
 40
0.0
  9
$PLINEWID
 40
0.0
  9
$COORDS
 70
     2
  9
$SPLFRAME
 70
     0
  9
$SPLINETYPE
 70
     6
  9
$SPLINESEGS
 70
     8
  9
$ATTDIA
 70
     0
  9
$ATTREQ
 70
     1
  9
$HANDLING
 70
 22529
  9
$HANDSEED
  5
4079
  9
$SURFTAB1
 70
     6
  9
$SURFTAB2
 70
     6
  9
$SURFTYPE
 70
     6
  9
$SURFU
 70
     6
  9
$SURFV
 70
     6
  9
$UCSNAME
  2

  9
$UCSORG
 10
0.0
 20
0.0
 30
0.0
  9
$UCSXDIR
 10
1.0
 20
0.0
 30
0.0
  9
$UCSYDIR
 10
0.0
 20
1.0
 30
0.0
  9
$PUCSNAME
  2

  9
$PUCSORG
 10
0.0
 20
0.0
 30
0.0
  9
$PUCSXDIR
 10
1.0
 20
0.0
 30
0.0
  9
$PUCSYDIR
 10
0.0
 20
1.0
 30
0.0
  9
$USERI1
 70
     0
  9
$USERI2
 70
     0
  9
$USERI3
 70
     0
  9
$USERI4
 70
     0
  9
$USERI5
 70
     0
  9
$USERR1
 40
0.0
  9
$USERR2
 40
0.0
  9
$USERR3
 40
0.0
  9
$USERR4
 40
0.0
  9
$USERR5
 40
0.0
  9
$WORLDVIEW
 70
     1
  9
$SHADEDGE
 70
     3
  9
$SHADEDIF
 70
    70
  9
$TILEMODE
 70
     1
  9
$MAXACTVP
 70
    16
  9
$PLIMCHECK
 70
     0
  9
$PEXTMIN
 10
-638.68910708808346
 20
51.186559005740087
 30
0.0
  9
$PEXTMAX
 10
201.3108929119164
 20
645.18655900574004
 30
0.0
  9
$PLIMMIN
 10
0.0
 20
0.0
  9
$PLIMMAX
 10
420.0
 20
297.0
  9
$UNITMODE
 70
     0
  9
$VISRETAIN
 70
     0
  9
$PLINEGEN
 70
     0
  9
$PSLTSCALE
 70
     1
  0
ENDSEC
  0
SECTION
  2
TABLES
  0
TABLE
  2
VPORT
 70
    16
  0
VPORT
  2
*ACTIVE
 70
     0
 10
0.0
 20
0.0
 11
1.0
 21
1.0
 12
607.81383768691126
 22
-115.3998357501179
 13
0.0
 23
0.0
 14
10.0
 24
10.0
 15
10.0
 25
10.0
 16
0.0
 26
0.0
 36
1.0
 17
-291.07476067215242
 27
305.67535172191339
 37
115.40421985312589
 40
520.56772739853545
 41
1.4650306748466251
 42
50.0
 43
0.0
 44
0.0
 50
0.0
 51
0.0
 71
     0
 72
   500
 73
     1
 74
     0
 75
     0
 76
     0
 77
     0
 78
     0
  0
ENDTAB
  0
TABLE
  2
LTYPE
 70
     3
  0
LTYPE
  2
CONTINUOUS
 70
     0
  3
Solid line
 72
    65
 73
     0
 40
0.0
  0
LTYPE
  2
HIDDEN
 70
     0
  3
__ __ __ __ __ __ __ __ __ __ __ __ __ __ __ __
 72
    65
 73
     2
 40
0.375
 49
0.25
 49
-0.125
  0
LTYPE
  2
CENTER
 70
     0
  3
____ _ ____ _ ____ _ ____ _ ____ _ ____ _ ____ 
 72
    65
 73
     4
 40
2.0
 49
1.25
 49
-0.25
 49
0.25
 49
-0.25
  0
ENDTAB
  0
TABLE
  2
LAYER
 70
     7
  0
LAYER
  2
0
 70
     0
 62
     7
  6
CONTINUOUS
  0
LAYER
  2
L2
 70
     0
 62
     1
  6
HIDDEN
  0
LAYER
  2
L1
 70
     0
 62
     7
  6
CONTINUOUS
  0
LAYER
  2
L6
 70
     0
 62
     1
  6
CENTER
  0
LAYER
  2
DEFPOINTS
 70
     0
 62
     7
  6
CONTINUOUS
  0
ENDTAB
  0
TABLE
  2
STYLE
 70
     3
  0
STYLE
  2
STANDARD
 70
     0
 40
0.0
 41
1.0
 50
0.0
 71
     0
 42
2.5
  3
ISOCP
  4

  0
STYLE
  2
SIMPLEX
 70
     0
 40
0.0
 41
0.8
 50
0.0
 71
     0
 42
2.5
  3
SIMPLEX.SHX
  4

  0
ENDTAB
  0
TABLE
  2
VIEW
 70
     0
  0
ENDTAB
  0
TABLE
  2
UCS
 70
     0
  0
ENDTAB
  0
TABLE
  2
APPID
 70
     2
  0
APPID
  2
ACAD
 70
     0
  0
APPID
  2
DCO15
 70
     0
  0
ENDTAB
  0
TABLE
  2
DIMSTYLE
 70
     5
  0
DIMSTYLE
  2
FIBOX
 70
     0
  3

  4

  5

  6

  7

 40
1.0
 41
3.5
 42
0.1
 43
0.38
 44
0.18
 45
0.0
 46
0.0
 47
0.0
 48
0.0
140
3.5
141
1.0
142
0.0
143
25.399999999999999
144
1.0
145
0.0
146
1.0
147
1.0
 71
     0
 72
     0
 73
     0
 74
     0
 75
     0
 76
     0
 77
     1
 78
     8
170
     0
171
     2
172
     1
173
     0
174
     0
175
     0
176
     1
177
     1
178
     3
  0
DIMSTYLE
  2
STANDARD
 70
     0
  3

  4

  5

  6

  7

 40
1.0
 41
0.18
 42
0.0625
 43
0.38
 44
0.18
 45
0.0
 46
0.0
 47
0.0
 48
0.0
140
0.18
141
0.09
142
0.0
143
25.399999999999999
144
1.0
145
0.0
146
1.0
147
0.09
 71
     0
 72
     0
 73
     1
 74
     1
 75
     0
 76
     0
 77
     0
 78
     0
170
     0
171
     2
172
     0
173
     0
174
     0
175
     0
176
     0
177
     0
178
     0
  0
ENDTAB
  0
ENDSEC
  0
SECTION
  2
BLOCKS
  0
BLOCK
  8
0
  2
$MODEL_SPACE
 70
     0
 10
0.0
 20
0.0
 30
0.0
  3
$MODEL_SPACE
  1

  0
ENDBLK
  5
6
  8
0
  0
BLOCK
 67
     1
  8
0
  2
$PAPER_SPACE
 70
     0
 10
0.0
 20
0.0
 30
0.0
  3
$PAPER_SPACE
  1

  0
ENDBLK
  5
9
 67
     1
  8
0
  0
BLOCK
  8
0
  2
*X14
 70
     1
 10
0.0
 20
0.0
 30
0.0
  3
*X14
  1

  0
LINE
  5
3FBB
  8
0
 62
     0
 10
108.43573352765721
 20
30.88966635415667
 30
0.0
 11
110.44196793184599
 21
32.895900905212073
 31
0.0
  0
LINE
  5
3FBC
  8
0
 62
     0
 10
108.2065778886225
 20
39.640767148116083
 30
0.0
 11
109.9947693216936
 21
41.428958712091912
 31
0.0
  0
LINE
  5
3FBD
  8
0
 62
     0
 10
107.49373229819891
 20
47.908177955277999
 30
0.0
 11
109.1674899040672
 21
49.581935683673912
 31
0.0
  0
LINE
  5
3FBE
  8
0
 62
     0
 10
107.04653368804649
 20
56.441235762157838
 30
0.0
 11
108.7202912939148
 21
58.114993490553779
 31
0.0
  0
LINE
  5
3FBF
  8
0
 62
     0
 10
106.5993350778941
 20
64.974293569037684
 30
0.0
 11
108.2730926837624
 21
66.648051297433597
 31
0.0
  0
LINE
  5
3FC0
  8
0
 62
     0
 10
106.1521364677417
 20
73.507351375917551
 30
0.0
 11
107.82589407361
 21
75.181109104313464
 31
0.0
  0
LINE
  5
3FC1
  8
0
 62
     0
 10
105.7049378575893
 20
82.040409182797418
 30
0.0
 11
107.3786954634576
 21
83.714166911193303
 31
0.0
  0
LINE
  5
3FC2
  8
0
 62
     0
 10
105.2577392474369
 20
90.573466989677243
 30
0.0
 11
106.93149685330521
 21
92.247224718073156
 31
0.0
  0
LINE
  5
3FC3
  8
0
 62
     0
 10
98.947266923768851
 20
93.243250653819743
 30
0.0
 11
100.94726677735861
 21
95.243250653819757
 31
0.0
  0
LINE
  5
3FC4
  8
0
 62
     0
 10
89.967011131399943
 20
93.243250653819786
 30
0.0
 11
91.633677676058184
 21
94.9099173204865
 31
0.0
  0
LINE
  5
3FC5
  8
0
 62
     0
 10
24.41229231722491
 20
27.688527040704599
 30
0.0
 11
26.31199113204644
 21
29.588225994593781
 31
0.0
  0
LINE
  5
3FC6
  8
0
 62
     0
 10
80.986755339031035
 20
93.243250653819743
 30
0.0
 11
82.653421883689234
 21
94.909917320486457
 31
0.0
  0
LINE
  5
3FC7
  8
0
 62
     0
 10
24.544492879210171
 20
36.80098406213704
 30
0.0
 11
26.553470790983681
 21
38.809962120978042
 31
0.0
  0
LINE
  5
3FC8
  8
0
 62
     0
 10
72.006499546662212
 20
93.243250653819786
 30
0.0
 11
73.673166091320383
 21
94.909917320486457
 31
0.0
  0
LINE
  5
3FC9
  8
0
 62
     0
 10
25.463279760755931
 20
46.700027460712157
 30
0.0
 11
27.32217591892649
 21
48.558923754963381
 31
0.0
  0
LINE
  5
3FCA
  8
0
 62
     0
 10
63.026243754293311
 20
93.243250653819771
 30
0.0
 11
64.692910298951489
 21
94.909917320486457
 31
0.0
  0
LINE
  5
3FCB
  8
0
 62
     0
 10
25.95994413762682
 20
56.176948323710867
 30
0.0
 11
27.81884029579734
 21
58.035844617962098
 31
0.0
  0
LINE
  5
3FCC
  8
0
 62
     0
 10
54.045987961924418
 20
93.243250653819786
 30
0.0
 11
55.712654506582588
 21
94.909917320486457
 31
0.0
  0
LINE
  5
3FCD
  8
0
 62
     0
 10
26.456608514497699
 20
65.653869186709613
 30
0.0
 11
28.315504672668219
 21
67.512765480960809
 31
0.0
  0
LINE
  5
3FCE
  8
0
 62
     0
 10
45.065732169555559
 20
93.243250653819771
 30
0.0
 11
46.732398714213723
 21
94.909917320486457
 31
0.0
  0
LINE
  5
3FCF
  8
0
 62
     0
 10
26.953272891368581
 20
75.130790049708324
 30
0.0
 11
28.812169049539129
 21
76.989686343959548
 31
0.0
  0
LINE
  5
3FD0
  8
0
 62
     0
 10
36.085476377186659
 20
93.243250653819786
 30
0.0
 11
38.085476230776457
 21
95.243250653819786
 31
0.0
  0
LINE
  5
3FD1
  8
0
 62
     0
 10
27.449937268239459
 20
84.607710912707034
 30
0.0
 11
29.30883342640999
 21
86.466607206958244
 31
0.0
  0
ENDBLK
  5
3FD3
  8
0
  0
ENDSEC
  0
SECTION
  2
ENTITIES
  0
LINE
  5
1F
  8
L6
 10
340.1226317750793
 20
190.2874564413481
 30
0.0
 11
526.98672556189524
 21
190.2874564413481
 31
0.0
  0
LINE
  5
32
  8
L1
 10
434.29064264277503
 20
280.29976057225753
 30
0.0
 11
347.77354188350688
 21
280.29976057225741
 31
0.0
  0
LINE
  5
35
  8
L1
 10
366.43604100151362
 20
260.14205808260942
 30
0.0
 11
434.29064264277503
 21
260.14205808260942
 31
0.0
  0
LINE
  5
37
  8
L1
 10
349.11995994973711
 20
278.75361659907639
 30
0.0
 11
434.29064264277503
 21
278.75361659907639
 31
0.0
  0
LINE
  5
3A
  8
L6
 10
37.462422121438692
 20
285.36018723035841
 30
0.0
 11
37.462422121438692
 21
97.198500496559944
 31
0.0
  0
LINE
  5
43
  8
L1
 10
345.82448248504681
 20
275.45813913438627
 30
0.0
 11
345.8244824850467
 21
190.2874564413481
 31
0.0
  0
LINE
  5
44
  8
L1
 10
344.2783385118658
 20
190.2874564413481
 30
0.0
 11
344.2783385118658
 21
276.80455720061639
 31
0.0
  0
LINE
  5
45
  8
L1
 10
-51.830601978785978
 20
103.7304564413478
 30
0.0
 11
-51.830601978785978
 21
276.8444564413482
 31
0.0
  0
LINE
  5
46
  8
L1
 10
-52.549882009470309
 20
276.80455720061639
 30
0.0
 11
-52.549882009470309
 21
103.7703556820796
 31
0.0
  0
ARC
  5
48
  8
L1
 10
-40.2486413922731
 20
267.99851995506009
 30
0.0
 40
5.3999999999999986
 50
270.0
 51
0.0
  0
LINE
  5
49
  8
L1
 10
-50.787577878561187
 20
275.93745644134827
 30
0.0
 11
-50.787577878561187
 21
264.66454833779852
 31
0.0
  0
ARC
  5
4A
  8
L1
 10
-44.287577878561301
 20
272.03745644134841
 30
0.0
 40
6.3999999999999941
 50
269.99999999999892
 51
0.0
  0
LINE
  5
4B
  8
L1
 10
-50.156779942669509
 20
268.87645370154792
 30
0.0
 11
-47.429906639488131
 21
266.1495803983666
 31
0.0
  0
ARC
  5
4C
  8
L1
 10
-44.287577878561187
 20
272.0374564413483
 30
0.0
 40
4.881314598045666
 50
267.80434810777592
 51
2.1956518922220689
  0
ARC
  5
4D
  8
L1
 10
-44.287577878561301
 20
272.03745644134813
 30
0.0
 40
9.4389364862881635
 50
323.31070994755771
 51
0.0
  0
ARC
  5
4E
  8
L1
 10
-44.287577878561301
 20
272.03745644134841
 30
0.0
 40
7.3999999999999604
 50
270.0
 51
0.0
  0
ARC
  5
4F
  8
L1
 10
119.212422121439
 20
272.03745644134841
 30
0.0
 40
7.3999999999999604
 50
180.0
 51
270.0
  0
ARC
  5
50
  8
L1
 10
119.212422121439
 20
272.03745644134813
 30
0.0
 40
9.4389364862881635
 50
180.0
 51
216.6892900524422
  0
ARC
  5
52
  8
L1
 10
115.1734856351508
 20
267.99851995506009
 30
0.0
 40
5.3999999999999986
 50
180.0
 51
270.0
  0
LINE
  5
53
  8
L1
 10
127.47472625234801
 20
276.80455720061639
 30
0.0
 11
127.47472625234801
 21
103.7703556820796
 31
0.0
  0
LINE
  5
54
  8
L1
 10
126.7554462216636
 20
103.7304564413478
 30
0.0
 11
126.7554462216636
 21
276.8444564413482
 31
0.0
  0
ARC
  5
55
  8
L1
 10
119.21242212143891
 20
272.0374564413483
 30
0.0
 40
4.881314598045666
 50
177.80434810777791
 51
272.19565189222402
  0
LINE
  5
56
  8
L1
 10
125.0816241855471
 20
268.87645370154792
 30
0.0
 11
122.35475088236581
 21
266.1495803983666
 31
0.0
  0
ARC
  5
57
  8
L1
 10
119.212422121439
 20
272.03745644134841
 30
0.0
 40
6.3999999999999941
 50
180.0
 51
270.00000000000102
  0
LINE
  5
58
  8
L1
 10
125.71242212143881
 20
275.93745644134827
 30
0.0
 11
125.71242212143881
 21
264.66454833779852
 31
0.0
  0
LINE
  5
59
  8
L6
 10
-57.634676850981812
 20
190.2874564413481
 30
0.0
 11
132.8419052251833
 21
190.2874564413481
 31
0.0
  0
LINE
  5
5A
  8
L1
 10
-34.687577878561051
 20
101.8374564413477
 30
0.0
 11
109.612422121439
 21
101.8374564413477
 31
0.0
  0
LINE
  5
5B
  8
L1
 10
124.01942212143889
 20
100.9944323411232
 30
0.0
 11
-49.09457787856109
 21
100.9944323411232
 31
0.0
  0
LINE
  5
5C
  8
L1
 10
-49.054678637829227
 20
100.2751523104387
 30
0.0
 11
123.97952288070709
 21
100.2751523104387
 31
0.0
  0
LINE
  5
5D
  8
L1
 10
108.2739996476874
 20
103.6763929276361
 30
0.0
 11
-33.349155404809551
 21
103.6763929276361
 31
0.0
  0
LINE
  5
5E
  8
L1
 10
109.612422121439
 20
102.8374564413477
 30
0.0
 11
-34.687577878561051
 21
102.8374564413477
 31
0.0
  0
ARC
  5
5F
  8
L1
 10
-34.687577878561278
 20
105.0374564413477
 30
0.0
 40
3.200000000000057
 50
180.0
 51
230.48205331592339
  0
LINE
  5
60
  8
L1
 10
-36.914669775011411
 20
102.037456441348
 30
0.0
 11
-48.187577878561278
 21
102.037456441348
 31
0.0
  0
ARC
  5
61
  8
L1
 10
-34.687577878561278
 20
105.0374564413477
 30
0.0
 40
2.200000000000033
 50
180.0
 51
270.0
  0
ARC
  5
62
  8
L1
 10
-37.29409970317402
 20
116.54947972414649
 30
0.0
 40
0.3
 50
45.000000000001577
 51
130.00000000000199
  0
ARC
  5
63
  8
L1
 10
-40.2486413922731
 20
112.57639292763611
 30
0.0
 40
5.3999999999999986
 50
0.0
 51
90.0
  0
ARC
  5
64
  8
L1
 10
-44.287577878561301
 20
108.5374564413477
 30
0.0
 40
7.3999999999999604
 50
0.0
 51
90.0
  0
ARC
  5
65
  8
L1
 10
-44.287577878561301
 20
108.5374564413477
 30
0.0
 40
6.3999999999999941
 50
0.0
 51
90.000000000001023
  0
ARC
  5
66
  8
L1
 10
-37.29409970317402
 20
264.02543315854967
 30
0.0
 40
0.3
 50
229.99999999999801
 51
314.99999999999841
  0
LINE
  5
67
  8
L1
 10
-50.987577878561467
 20
262.43745644134827
 30
0.0
 11
-50.987577878561467
 21
118.13745644134789
 31
0.0
  0
LINE
  5
68
  8
L1
 10
-49.148641392273191
 20
119.4758789150994
 30
0.0
 11
-49.148641392273191
 21
261.09903396759682
 31
0.0
  0
LINE
  5
69
  8
L1
 10
-49.987577878561353
 20
118.13745644134779
 30
0.0
 11
-49.987577878561353
 21
262.43745644134827
 31
0.0
  0
ARC
  5
6C
  8
L1
 10
-44.287577878561187
 20
108.5374564413479
 30
0.0
 40
4.881314598045666
 50
357.80434810777791
 51
92.195651892224134
  0
LINE
  5
6D
  8
L1
 10
-44.474590686858789
 20
113.4151873087314
 30
0.0
 11
-49.165308745944849
 21
108.7244692496453
 31
0.0
  0
LINE
  5
6E
  8
L1
 10
-50.787577878561187
 20
104.63745644134789
 30
0.0
 11
-50.787577878561187
 21
115.9103645448976
 31
0.0
  0
ARC
  5
6F
  8
L1
 10
-44.287577878561187
 20
108.5374564413479
 30
0.0
 40
4.881314598045666
 50
247.66928672886399
 51
272.19565189222271
  0
LINE
  5
70
  8
L1
 10
-46.142243423084601
 20
104.0222102771779
 30
0.0
 11
-48.126997258914287
 21
102.037456441348
 31
0.0
  0
ARC
  5
71
  8
L1
 10
-44.287577878561187
 20
108.5374564413479
 30
0.0
 40
5.7825462644184809
 50
206.0136049375553
 51
243.9863950624225
  0
LINE
  5
72
  8
L1
 10
-50.787577878561187
 20
104.69803706099459
 30
0.0
 11
-48.802824042731281
 21
106.6827908968247
 31
0.0
  0
ARC
  5
73
  8
L1
 10
-48.187577878561278
 20
104.63745644134789
 30
0.0
 40
2.6000000000000001
 50
180.0
 51
270.0
  0
ARC
  5
74
  8
L1
 10
-44.287577878561187
 20
108.5374564413479
 30
0.0
 40
4.881314598045666
 50
177.8043481077772
 51
202.3307132711364
  0
POLYLINE
  5
75
  8
L1
 66
     1
 10
0.0
 20
0.0
 30
0.0
  0
VERTEX
  5
3EF8
  8
L1
 10
-40.523115374120771
 20
102.037456441348
 30
0.0
  0
VERTEX
  5
3EF9
  8
L1
 10
-41.081138475295511
 20
102.2066952249523
 30
0.0
  0
VERTEX
  5
3EFA
  8
L1
 10
-41.191631943832299
 20
102.3413183893349
 30
0.0
  0
VERTEX
  5
3EFB
  8
L1
 10
-41.208694215392882
 20
102.5146420226537
 30
0.0
  0
VERTEX
  5
3EFC
  8
L1
 10
-41.126575138760408
 20
102.66825437723951
 30
0.0
  0
SEQEND
  5
3EFD
  8
L1
  0
LINE
  5
76
  8
L1
 10
-37.887577878561331
 20
105.0374564413477
 30
0.0
 11
-37.887577878561331
 21
106.3374564413477
 31
0.0
  0
LINE
  5
77
  8
L1
 10
-44.100565070263819
 20
103.65972557396429
 30
0.0
 11
-39.409847011177639
 21
108.3504436330505
 31
0.0
  0
LINE
  5
78
  8
L1
 10
-37.887577878561331
 20
106.3374564413477
 30
0.0
 11
-37.887577878561331
 21
108.5374564413477
 31
0.0
  0
POLYLINE
  5
79
  8
L1
 66
     1
 10
0.0
 20
0.0
 30
0.0
  0
VERTEX
  5
3EFE
  8
L1
 10
-38.399701835579371
 20
105.3951276804207
 30
0.0
  0
VERTEX
  5
3EFF
  8
L1
 10
-38.246096572610149
 20
105.47723107653739
 30
0.0
  0
VERTEX
  5
3F00
  8
L1
 10
-38.072767572197733
 20
105.4601541948053
 30
0.0
  0
VERTEX
  5
3F01
  8
L1
 10
-37.9381354083311
 20
105.34965280160149
 30
0.0
  0
VERTEX
  5
3F02
  8
L1
 10
-37.887577878561331
 20
105.18297141343611
 30
0.0
  0
SEQEND
  5
3F03
  8
L1
  0
LINE
  5
7A
  8
L1
 10
-38.399701835579371
 20
105.3951276804207
 30
0.0
 11
-41.126575138760529
 21
102.66825437723951
 31
0.0
  0
LINE
  5
7B
  8
L1
 10
-47.787577878561187
 20
115.93745644134771
 30
0.0
 11
-44.287577878561301
 21
115.93745644134771
 31
0.0
  0
LINE
  5
7C
  8
L1
 10
-47.649155404809733
 20
117.9763929276361
 30
0.0
 11
-44.287577878561422
 21
117.9763929276361
 31
0.0
  0
LINE
  5
7D
  8
L1
 10
-44.287577878561301
 20
114.93745644134771
 30
0.0
 11
-46.487577878561353
 21
114.93745644134771
 31
0.0
  0
LINE
  5
7E
  8
L1
 10
-46.487577878561353
 20
114.93745644134771
 30
0.0
 11
-47.787577878561187
 21
114.93745644134771
 31
0.0
  0
ARC
  5
7F
  8
L1
 10
-47.787577878561187
 20
118.13745644134789
 30
0.0
 40
2.2000000000001192
 50
180.0
 51
270.0
  0
ARC
  5
80
  8
L1
 10
-47.787577878561187
 20
118.13745644134789
 30
0.0
 40
3.200000000000141
 50
219.5179466840784
 51
270.0
  0
POLYLINE
  5
81
  8
L1
 66
     1
 10
0.0
 20
0.0
 30
0.0
  0
VERTEX
  5
3F04
  8
L1
 10
-47.650695508862263
 20
117.97639450891501
 30
0.0
  0
VERTEX
  5
3F05
  8
L1
 10
-48.03796246180621
 20
118.02808945041031
 30
0.0
  0
VERTEX
  5
3F06
  8
L1
 10
-48.398859563496501
 20
118.1780721128447
 30
0.0
  0
VERTEX
  5
3F07
  8
L1
 10
-48.708877482578089
 20
118.4161568373313
 30
0.0
  0
VERTEX
  5
3F08
  8
L1
 10
-48.946962207064587
 20
118.7261747564127
 30
0.0
  0
VERTEX
  5
3F09
  8
L1
 10
-49.096944869499062
 20
119.087071858103
 30
0.0
  0
VERTEX
  5
3F0A
  8
L1
 10
-49.148639810994212
 20
119.47433881104701
 30
0.0
  0
SEQEND
  5
3F0B
  8
L1
  0
ARC
  5
82
  8
L1
 10
-47.787577878561187
 20
118.13745644134789
 30
0.0
 40
3.200000000000141
 50
180.0
 51
219.5179466840784
  0
POLYLINE
  5
84
  8
L1
 66
     1
 10
0.0
 20
0.0
 30
0.0
  0
VERTEX
  5
3F0C
  8
L1
 10
-47.642062906472738
 20
114.93745644134771
 30
0.0
  0
VERTEX
  5
3F0D
  8
L1
 10
-47.475381518307302
 20
114.8868989115779
 30
0.0
  0
VERTEX
  5
3F0E
  8
L1
 10
-47.364880125103518
 20
114.7522667477112
 30
0.0
  0
VERTEX
  5
3F0F
  8
L1
 10
-47.347803243371509
 20
114.57893774729889
 30
0.0
  0
VERTEX
  5
3F10
  8
L1
 10
-47.429906639488131
 20
114.4253324843296
 30
0.0
  0
SEQEND
  5
3F11
  8
L1
  0
POLYLINE
  5
85
  8
L1
 66
     1
 10
0.0
 20
0.0
 30
0.0
  0
VERTEX
  5
3F12
  8
L1
 10
-50.156779942669509
 20
111.69845918114829
 30
0.0
  0
VERTEX
  5
3F13
  8
L1
 10
-50.310392297255191
 20
111.6163401045159
 30
0.0
  0
VERTEX
  5
3F14
  8
L1
 10
-50.483715930574078
 20
111.6334023760765
 30
0.0
  0
VERTEX
  5
3F15
  8
L1
 10
-50.618339094956752
 20
111.74389584461321
 30
0.0
  0
VERTEX
  5
3F16
  8
L1
 10
-50.787577878561187
 20
112.3019189457885
 30
0.0
  0
SEQEND
  5
3F17
  8
L1
  0
LINE
  5
86
  8
L1
 10
-50.156779942669509
 20
111.69845918114829
 30
0.0
 11
-47.429906639488131
 21
114.4253324843296
 31
0.0
  0
LINE
  5
87
  8
L1
 10
-38.275966430109463
 20
116.1172179025093
 30
0.0
 11
-37.48693598608002
 21
116.7792930570822
 31
0.0
  0
ARC
  5
88
  8
L1
 10
-44.287577878561301
 20
108.5374564413481
 30
0.0
 40
9.4389364862881635
 50
53.310709947555161
 51
90.000000000000725
  0
LINE
  5
8A
  8
L1
 10
-40.2486413922731
 20
117.9763929276361
 30
0.0
 11
-44.287577878561422
 21
117.9763929276361
 31
0.0
  0
LINE
  5
8B
  8
L1
 10
-44.287577878561301
 20
265.63745644134838
 30
0.0
 11
-46.487577878561353
 21
265.63745644134838
 31
0.0
  0
LINE
  5
8C
  8
L1
 10
-47.649155404809733
 20
262.59851995506
 30
0.0
 11
-44.287577878561422
 21
262.59851995506
 31
0.0
  0
LINE
  5
8D
  8
L1
 10
-47.787577878561187
 20
264.63745644134849
 30
0.0
 11
-44.287577878561301
 21
264.63745644134849
 31
0.0
  0
POLYLINE
  5
8E
  8
L1
 66
     1
 10
0.0
 20
0.0
 30
0.0
  0
VERTEX
  5
3F18
  8
L1
 10
-47.642062906472738
 20
265.63745644134838
 30
0.0
  0
VERTEX
  5
3F19
  8
L1
 10
-47.475381518307302
 20
265.68801397111821
 30
0.0
  0
VERTEX
  5
3F1A
  8
L1
 10
-47.364880125103518
 20
265.82264613498501
 30
0.0
  0
VERTEX
  5
3F1B
  8
L1
 10
-47.347803243371509
 20
265.99597513539732
 30
0.0
  0
VERTEX
  5
3F1C
  8
L1
 10
-47.429906639488131
 20
266.1495803983666
 30
0.0
  0
SEQEND
  5
3F1D
  8
L1
  0
ARC
  5
90
  8
L1
 10
-47.787577878561187
 20
262.43745644134827
 30
0.0
 40
3.200000000000141
 50
140.48205331592149
 51
180.0
  0
POLYLINE
  5
91
  8
L1
 66
     1
 10
0.0
 20
0.0
 30
0.0
  0
VERTEX
  5
3F1E
  8
L1
 10
-47.650695508862263
 20
262.59851837378119
 30
0.0
  0
VERTEX
  5
3F1F
  8
L1
 10
-48.03796246180621
 20
262.54682343228592
 30
0.0
  0
VERTEX
  5
3F20
  8
L1
 10
-48.398859563496501
 20
262.39684076985151
 30
0.0
  0
VERTEX
  5
3F21
  8
L1
 10
-48.708877482578089
 20
262.1587560453649
 30
0.0
  0
VERTEX
  5
3F22
  8
L1
 10
-48.946962207064587
 20
261.84873812628342
 30
0.0
  0
VERTEX
  5
3F23
  8
L1
 10
-49.096944869499062
 20
261.48784102459308
 30
0.0
  0
VERTEX
  5
3F24
  8
L1
 10
-49.148639810994212
 20
261.10057407164919
 30
0.0
  0
SEQEND
  5
3F25
  8
L1
  0
ARC
  5
92
  8
L1
 10
-47.787577878561187
 20
262.43745644134827
 30
0.0
 40
3.200000000000141
 50
90.0
 51
140.48205331592149
  0
ARC
  5
93
  8
L1
 10
-47.787577878561187
 20
262.43745644134827
 30
0.0
 40
2.2000000000001192
 50
90.0
 51
180.0
  0
LINE
  5
94
  8
L1
 10
-46.487577878561353
 20
265.63745644134838
 30
0.0
 11
-47.787577878561187
 21
265.63745644134838
 31
0.0
  0
LINE
  5
95
  8
L1
 10
-40.2486413922731
 20
262.59851995506
 30
0.0
 11
-44.287577878561422
 21
262.59851995506
 31
0.0
  0
ARC
  5
97
  8
L1
 10
-44.287577878561301
 20
272.03745644134813
 30
0.0
 40
9.4389364862881635
 50
269.9999999999992
 51
306.68929005244479
  0
LINE
  5
98
  8
L1
 10
-38.275966430109463
 20
264.45769498018689
 30
0.0
 11
-37.48693598608002
 21
263.79561982561398
 31
0.0
  0
ARC
  5
99
  8
L1
 10
-44.287577878561301
 20
108.5374564413481
 30
0.0
 40
9.4389364862881635
 50
0.0
 51
36.689290052442303
  0
LINE
  5
9A
  8
L1
 10
-34.84864139227323
 20
108.5374564413481
 30
0.0
 11
-34.84864139227323
 21
112.57639292763611
 31
0.0
  0
POLYLINE
  5
9B
  8
L1
 66
     1
 10
0.0
 20
0.0
 30
0.0
  0
VERTEX
  5
3F26
  8
L1
 10
-34.848641392273009
 20
105.1758789150995
 30
0.0
  0
VERTEX
  5
3F27
  8
L1
 10
-34.848640996953179
 20
105.1751086653118
 30
0.0
  0
VERTEX
  5
3F28
  8
L1
 10
-34.848639810994143
 20
105.17433881104689
 30
0.0
  0
SEQEND
  5
3F29
  8
L1
  0
LINE
  5
9C
  8
L1
 10
-34.848641392273009
 20
108.5374564413481
 30
0.0
 11
-34.848641392273009
 21
105.1758789150994
 31
0.0
  0
POLYLINE
  5
9D
  8
L1
 66
     1
 10
0.0
 20
0.0
 30
0.0
  0
VERTEX
  5
3F2A
  8
L1
 10
-33.35069550886243
 20
103.6763945089149
 30
0.0
  0
VERTEX
  5
3F2B
  8
L1
 10
-33.737962461806369
 20
103.7280894504101
 30
0.0
  0
VERTEX
  5
3F2C
  8
L1
 10
-34.09885956349666
 20
103.87807211284461
 30
0.0
  0
VERTEX
  5
3F2D
  8
L1
 10
-34.408877482578021
 20
104.1161568373313
 30
0.0
  0
VERTEX
  5
3F2E
  8
L1
 10
-34.646962207064632
 20
104.42617475641281
 30
0.0
  0
VERTEX
  5
3F2F
  8
L1
 10
-34.7969448694991
 20
104.78707185810291
 30
0.0
  0
VERTEX
  5
3F30
  8
L1
 10
-34.848639810994143
 20
105.17433881104689
 30
0.0
  0
SEQEND
  5
3F31
  8
L1
  0
LINE
  5
9E
  8
L1
 10
-36.887577878561331
 20
108.5374564413477
 30
0.0
 11
-36.887577878561331
 21
105.0374564413477
 31
0.0
  0
ARC
  5
A0
  8
L1
 10
-34.687577878561278
 20
105.0374564413477
 30
0.0
 40
3.200000000000057
 50
230.48205331592339
 51
270.0
  0
LINE
  5
A1
  8
L1
 10
-37.081967668818088
 20
116.7616117585024
 30
0.0
 11
-36.063422561406867
 21
115.7430666510912
 31
0.0
  0
ARC
  5
A2
  8
L1
 10
-36.275554595762799
 20
115.53093461673519
 30
0.0
 40
0.3
 50
319.99999999999841
 51
45.0
  0
LINE
  5
A3
  8
L1
 10
-36.0457412628271
 20
115.33809833382919
 30
0.0
 11
-36.70781641739989
 21
114.5490678897997
 31
0.0
  0
LINE
  5
A5
  8
L1
 10
-36.0457412628271
 20
265.2368145488669
 30
0.0
 11
-36.70781641739989
 21
266.0258449928964
 31
0.0
  0
ARC
  5
A6
  8
L1
 10
-36.275554595762799
 20
265.0439782659609
 30
0.0
 40
0.3
 50
315.0
 51
40.000000000001577
  0
LINE
  5
A7
  8
L1
 10
-37.081967668818088
 20
263.81330112419369
 30
0.0
 11
-36.063422561406867
 21
264.83184623160503
 31
0.0
  0
LINE
  5
C7
  8
L1
 10
124.91242212143899
 20
118.13745644134779
 30
0.0
 11
124.91242212143899
 21
262.43745644134827
 31
0.0
  0
LINE
  5
C8
  8
L1
 10
124.0734856351508
 20
119.4758789150994
 30
0.0
 11
124.0734856351508
 21
261.09903396759682
 31
0.0
  0
LINE
  5
C9
  8
L1
 10
125.91242212143911
 20
262.43745644134827
 30
0.0
 11
125.91242212143911
 21
118.13745644134789
 31
0.0
  0
ARC
  5
CC
  8
L1
 10
124.01942212143889
 20
103.7304564413479
 30
0.0
 40
2.7360241002247609
 50
270.0
 51
0.0
  0
LINE
  5
CE
  8
L1
 10
113.3245460784571
 20
105.3951276804207
 30
0.0
 11
116.0514193816382
 21
102.66825437723951
 31
0.0
  0
LINE
  5
CF
  8
L1
 10
111.8395140178891
 20
102.037456441348
 30
0.0
 11
123.1124221214389
 21
102.037456441348
 31
0.0
  0
ARC
  5
D0
  8
L1
 10
119.212422121439
 20
108.5374564413481
 30
0.0
 40
9.4389364862881635
 50
89.999999999999275
 51
126.6892900524448
  0
ARC
  5
D1
  8
L1
 10
115.1734856351508
 20
112.57639292763611
 30
0.0
 40
5.3999999999999986
 50
90.0
 51
180.0
  0
ARC
  5
D2
  8
L1
 10
119.212422121439
 20
108.5374564413477
 30
0.0
 40
6.3999999999999941
 50
89.999999999998977
 51
180.0
  0
ARC
  5
D3
  8
L1
 10
119.21242212143891
 20
108.5374564413479
 30
0.0
 40
4.881314598045666
 50
87.804348107775894
 51
182.195651892222
  0
ARC
  5
D4
  8
L1
 10
119.212422121439
 20
108.5374564413477
 30
0.0
 40
7.3999999999999604
 50
90.0
 51
180.0
  0
LINE
  5
D5
  8
L1
 10
109.77348563515081
 20
108.5374564413481
 30
0.0
 11
109.77348563515081
 21
112.57639292763611
 31
0.0
  0
ARC
  5
D6
  8
L1
 10
119.212422121439
 20
108.5374564413481
 30
0.0
 40
9.4389364862881635
 50
143.3107099475576
 51
180.0
  0
POLYLINE
  5
D7
  8
L1
 66
     1
 10
0.0
 20
0.0
 30
0.0
  0
VERTEX
  5
3F32
  8
L1
 10
113.3245460784571
 20
105.3951276804207
 30
0.0
  0
VERTEX
  5
3F33
  8
L1
 10
113.1709408154878
 20
105.47723107653739
 30
0.0
  0
VERTEX
  5
3F34
  8
L1
 10
112.9976118150754
 20
105.4601541948053
 30
0.0
  0
VERTEX
  5
3F35
  8
L1
 10
112.8629796512088
 20
105.34965280160149
 30
0.0
  0
VERTEX
  5
3F36
  8
L1
 10
112.8124221214389
 20
105.18297141343611
 30
0.0
  0
SEQEND
  5
3F37
  8
L1
  0
LINE
  5
D8
  8
L1
 10
112.812422121439
 20
106.3374564413477
 30
0.0
 11
112.812422121439
 21
108.5374564413477
 31
0.0
  0
LINE
  5
D9
  8
L1
 10
112.812422121439
 20
105.0374564413477
 30
0.0
 11
112.812422121439
 21
106.3374564413477
 31
0.0
  0
ARC
  5
DB
  8
L1
 10
109.612422121439
 20
105.0374564413477
 30
0.0
 40
3.200000000000057
 50
270.0
 51
309.51794668407649
  0
POLYLINE
  5
DC
  8
L1
 66
     1
 10
0.0
 20
0.0
 30
0.0
  0
VERTEX
  5
3F38
  8
L1
 10
108.2755397517401
 20
103.6763945089149
 30
0.0
  0
VERTEX
  5
3F39
  8
L1
 10
108.6628067046841
 20
103.7280894504101
 30
0.0
  0
VERTEX
  5
3F3A
  8
L1
 10
109.0237038063742
 20
103.87807211284461
 30
0.0
  0
VERTEX
  5
3F3B
  8
L1
 10
109.3337217254557
 20
104.1161568373313
 30
0.0
  0
VERTEX
  5
3F3C
  8
L1
 10
109.5718064499423
 20
104.42617475641281
 30
0.0
  0
VERTEX
  5
3F3D
  8
L1
 10
109.7217891123767
 20
104.78707185810291
 30
0.0
  0
VERTEX
  5
3F3E
  8
L1
 10
109.7734840538718
 20
105.17433881104689
 30
0.0
  0
SEQEND
  5
3F3F
  8
L1
  0
LINE
  5
DD
  8
L1
 10
109.77348563515071
 20
108.5374564413481
 30
0.0
 11
109.77348563515071
 21
105.1758789150994
 31
0.0
  0
POLYLINE
  5
DE
  8
L1
 66
     1
 10
0.0
 20
0.0
 30
0.0
  0
VERTEX
  5
3F40
  8
L1
 10
109.77348563515061
 20
105.1758789150995
 30
0.0
  0
VERTEX
  5
3F41
  8
L1
 10
109.7734852398309
 20
105.1751086653118
 30
0.0
  0
VERTEX
  5
3F42
  8
L1
 10
109.7734840538718
 20
105.17433881104689
 30
0.0
  0
SEQEND
  5
3F43
  8
L1
  0
LINE
  5
DF
  8
L1
 10
111.812422121439
 20
108.5374564413477
 30
0.0
 11
111.812422121439
 21
105.0374564413477
 31
0.0
  0
ARC
  5
E0
  8
L1
 10
109.612422121439
 20
105.0374564413477
 30
0.0
 40
3.200000000000057
 50
309.51794668407649
 51
0.0
  0
ARC
  5
E1
  8
L1
 10
109.612422121439
 20
105.0374564413477
 30
0.0
 40
2.200000000000033
 50
270.0
 51
0.0
  0
LINE
  5
E3
  8
L1
 10
113.2008106729871
 20
116.1172179025093
 30
0.0
 11
112.4117802289577
 21
116.7792930570822
 31
0.0
  0
LINE
  5
E5
  8
L1
 10
110.9705855057048
 20
115.33809833382919
 30
0.0
 11
111.63266066027759
 21
114.5490678897997
 31
0.0
  0
ARC
  5
E6
  8
L1
 10
111.2003988386405
 20
115.53093461673519
 30
0.0
 40
0.3
 50
135.0
 51
220.00000000000159
  0
LINE
  5
E7
  8
L1
 10
112.00681191169581
 20
116.7616117585024
 30
0.0
 11
110.98826680428451
 21
115.7430666510912
 31
0.0
  0
ARC
  5
E8
  8
L1
 10
112.2189439460517
 20
116.54947972414649
 30
0.0
 40
0.3
 50
49.99999999999801
 51
134.99999999999841
  0
LINE
  5
E9
  8
L1
 10
125.71242212143881
 20
104.63745644134789
 30
0.0
 11
125.71242212143881
 21
115.9103645448976
 31
0.0
  0
LINE
  5
EA
  8
L1
 10
119.3994349297364
 20
113.4151873087314
 30
0.0
 11
124.0901529888224
 21
108.7244692496453
 31
0.0
  0
ARC
  5
EB
  8
L1
 10
119.21242212143891
 20
108.5374564413479
 30
0.0
 40
5.7825462644184809
 50
296.01360493757738
 51
333.986395062437
  0
LINE
  5
EC
  8
L1
 10
121.06708766596221
 20
104.0222102771779
 30
0.0
 11
123.051841501792
 21
102.037456441348
 31
0.0
  0
LINE
  5
ED
  8
L1
 10
119.02540931314149
 20
103.65972557396429
 30
0.0
 11
114.3346912540553
 21
108.3504436330505
 31
0.0
  0
ARC
  5
EE
  8
L1
 10
119.21242212143891
 20
108.5374564413479
 30
0.0
 40
4.881314598045666
 50
267.80434810777717
 51
292.33071327113589
  0
POLYLINE
  5
EF
  8
L1
 66
     1
 10
0.0
 20
0.0
 30
0.0
  0
VERTEX
  5
3F44
  8
L1
 10
115.4479596169984
 20
102.037456441348
 30
0.0
  0
VERTEX
  5
3F45
  8
L1
 10
116.0059827181732
 20
102.2066952249523
 30
0.0
  0
VERTEX
  5
3F46
  8
L1
 10
116.1164761867099
 20
102.3413183893349
 30
0.0
  0
VERTEX
  5
3F47
  8
L1
 10
116.13353845827061
 20
102.5146420226537
 30
0.0
  0
VERTEX
  5
3F48
  8
L1
 10
116.0514193816381
 20
102.66825437723951
 30
0.0
  0
SEQEND
  5
3F49
  8
L1
  0
ARC
  5
F0
  8
L1
 10
119.21242212143891
 20
108.5374564413479
 30
0.0
 40
4.881314598045666
 50
337.6692867288632
 51
2.1956518922227302
  0
ARC
  5
F1
  8
L1
 10
123.1124221214389
 20
104.63745644134789
 30
0.0
 40
2.6000000000000001
 50
270.0
 51
0.0
  0
LINE
  5
F2
  8
L1
 10
125.71242212143881
 20
104.69803706099459
 30
0.0
 11
123.7276682856089
 21
106.6827908968247
 31
0.0
  0
POLYLINE
  5
F3
  8
L1
 66
     1
 10
0.0
 20
0.0
 30
0.0
  0
VERTEX
  5
3F4A
  8
L1
 10
122.57553975174
 20
117.97639450891501
 30
0.0
  0
VERTEX
  5
3F4B
  8
L1
 10
122.9628067046839
 20
118.02808945041031
 30
0.0
  0
VERTEX
  5
3F4C
  8
L1
 10
123.3237038063742
 20
118.1780721128447
 30
0.0
  0
VERTEX
  5
3F4D
  8
L1
 10
123.6337217254557
 20
118.4161568373313
 30
0.0
  0
VERTEX
  5
3F4E
  8
L1
 10
123.8718064499423
 20
118.7261747564127
 30
0.0
  0
VERTEX
  5
3F4F
  8
L1
 10
124.02178911237669
 20
119.087071858103
 30
0.0
  0
VERTEX
  5
3F50
  8
L1
 10
124.07348405387189
 20
119.47433881104701
 30
0.0
  0
SEQEND
  5
3F51
  8
L1
  0
LINE
  5
F4
  8
L1
 10
121.41242212143899
 20
114.93745644134771
 30
0.0
 11
122.71242212143891
 21
114.93745644134771
 31
0.0
  0
LINE
  5
F5
  8
L1
 10
122.71242212143891
 20
115.93745644134771
 30
0.0
 11
119.212422121439
 21
115.93745644134771
 31
0.0
  0
LINE
  5
F6
  8
L1
 10
125.0816241855471
 20
111.69845918114829
 30
0.0
 11
122.35475088236581
 21
114.4253324843296
 31
0.0
  0
POLYLINE
  5
F7
  8
L1
 66
     1
 10
0.0
 20
0.0
 30
0.0
  0
VERTEX
  5
3F52
  8
L1
 10
122.5669071493505
 20
114.93745644134771
 30
0.0
  0
VERTEX
  5
3F53
  8
L1
 10
122.4002257611849
 20
114.8868989115779
 30
0.0
  0
VERTEX
  5
3F54
  8
L1
 10
122.28972436798109
 20
114.7522667477112
 30
0.0
  0
VERTEX
  5
3F55
  8
L1
 10
122.2726474862491
 20
114.57893774729889
 30
0.0
  0
VERTEX
  5
3F56
  8
L1
 10
122.35475088236581
 20
114.4253324843296
 30
0.0
  0
SEQEND
  5
3F57
  8
L1
  0
LINE
  5
F8
  8
L1
 10
119.212422121439
 20
114.93745644134771
 30
0.0
 11
121.41242212143899
 21
114.93745644134771
 31
0.0
  0
LINE
  5
F9
  8
L1
 10
115.1734856351508
 20
117.9763929276361
 30
0.0
 11
119.2124221214391
 21
117.9763929276361
 31
0.0
  0
LINE
  5
FA
  8
L1
 10
122.5739996476874
 20
117.9763929276361
 30
0.0
 11
119.2124221214391
 21
117.9763929276361
 31
0.0
  0
ARC
  5
FC
  8
L1
 10
122.71242212143891
 20
118.13745644134789
 30
0.0
 40
3.200000000000141
 50
320.48205331592152
 51
0.0
  0
ARC
  5
FD
  8
L1
 10
122.71242212143891
 20
118.13745644134789
 30
0.0
 40
3.200000000000141
 50
270.0
 51
320.48205331592152
  0
ARC
  5
FE
  8
L1
 10
122.71242212143891
 20
118.13745644134789
 30
0.0
 40
2.2000000000001192
 50
270.0
 51
0.0
  0
POLYLINE
  5
FF
  8
L1
 66
     1
 10
0.0
 20
0.0
 30
0.0
  0
VERTEX
  5
3F58
  8
L1
 10
125.0816241855471
 20
111.69845918114829
 30
0.0
  0
VERTEX
  5
3F59
  8
L1
 10
125.2352365401329
 20
111.6163401045159
 30
0.0
  0
VERTEX
  5
3F5A
  8
L1
 10
125.4085601734517
 20
111.6334023760765
 30
0.0
  0
VERTEX
  5
3F5B
  8
L1
 10
125.54318333783441
 20
111.74389584461321
 30
0.0
  0
VERTEX
  5
3F5C
  8
L1
 10
125.71242212143881
 20
112.3019189457885
 30
0.0
  0
SEQEND
  5
3F5D
  8
L1
  0
ARC
  5
11F
  8
L1
 10
119.212422121439
 20
272.03745644134813
 30
0.0
 40
9.4389364862881635
 50
233.3107099475551
 51
270.00000000000068
  0
ARC
  5
120
  8
L1
 10
112.2189439460517
 20
264.02543315854967
 30
0.0
 40
0.3
 50
225.00000000000151
 51
310.00000000000199
  0
ARC
  5
121
  8
L1
 10
111.2003988386405
 20
265.0439782659609
 30
0.0
 40
0.3
 50
139.99999999999841
 51
225.0
  0
LINE
  5
122
  8
L1
 10
110.9705855057048
 20
265.2368145488669
 30
0.0
 11
111.63266066027759
 21
266.0258449928964
 31
0.0
  0
LINE
  5
124
  8
L1
 10
113.2008106729871
 20
264.45769498018689
 30
0.0
 11
112.4117802289577
 21
263.79561982561398
 31
0.0
  0
LINE
  5
125
  8
L1
 10
112.00681191169581
 20
263.81330112419369
 30
0.0
 11
110.98826680428451
 21
264.83184623160503
 31
0.0
  0
LINE
  5
126
  8
L1
 10
122.71242212143891
 20
264.63745644134849
 30
0.0
 11
119.212422121439
 21
264.63745644134849
 31
0.0
  0
POLYLINE
  5
127
  8
L1
 66
     1
 10
0.0
 20
0.0
 30
0.0
  0
VERTEX
  5
3F5E
  8
L1
 10
122.57553975174
 20
262.59851837378119
 30
0.0
  0
VERTEX
  5
3F5F
  8
L1
 10
122.9628067046839
 20
262.54682343228592
 30
0.0
  0
VERTEX
  5
3F60
  8
L1
 10
123.3237038063742
 20
262.39684076985151
 30
0.0
  0
VERTEX
  5
3F61
  8
L1
 10
123.6337217254557
 20
262.1587560453649
 30
0.0
  0
VERTEX
  5
3F62
  8
L1
 10
123.8718064499423
 20
261.84873812628342
 30
0.0
  0
VERTEX
  5
3F63
  8
L1
 10
124.02178911237669
 20
261.48784102459308
 30
0.0
  0
VERTEX
  5
3F64
  8
L1
 10
124.07348405387189
 20
261.10057407164919
 30
0.0
  0
SEQEND
  5
3F65
  8
L1
  0
LINE
  5
128
  8
L1
 10
121.41242212143899
 20
265.63745644134838
 30
0.0
 11
122.71242212143891
 21
265.63745644134838
 31
0.0
  0
LINE
  5
129
  8
L1
 10
115.1734856351508
 20
262.59851995506
 30
0.0
 11
119.2124221214391
 21
262.59851995506
 31
0.0
  0
LINE
  5
12A
  8
L1
 10
122.5739996476874
 20
262.59851995506
 30
0.0
 11
119.2124221214391
 21
262.59851995506
 31
0.0
  0
LINE
  5
12B
  8
L1
 10
119.212422121439
 20
265.63745644134838
 30
0.0
 11
121.41242212143899
 21
265.63745644134838
 31
0.0
  0
POLYLINE
  5
12C
  8
L1
 66
     1
 10
0.0
 20
0.0
 30
0.0
  0
VERTEX
  5
3F66
  8
L1
 10
122.5669071493505
 20
265.63745644134838
 30
0.0
  0
VERTEX
  5
3F67
  8
L1
 10
122.4002257611849
 20
265.68801397111821
 30
0.0
  0
VERTEX
  5
3F68
  8
L1
 10
122.28972436798109
 20
265.82264613498501
 30
0.0
  0
VERTEX
  5
3F69
  8
L1
 10
122.2726474862491
 20
265.99597513539732
 30
0.0
  0
VERTEX
  5
3F6A
  8
L1
 10
122.35475088236581
 20
266.1495803983666
 30
0.0
  0
SEQEND
  5
3F6B
  8
L1
  0
ARC
  5
12D
  8
L1
 10
122.71242212143891
 20
262.43745644134827
 30
0.0
 40
2.2000000000001192
 50
0.0
 51
90.0
  0
ARC
  5
12E
  8
L1
 10
122.71242212143891
 20
262.43745644134827
 30
0.0
 40
3.200000000000141
 50
39.517946684078488
 51
90.0
  0
ARC
  5
12F
  8
L1
 10
122.71242212143891
 20
262.43745644134827
 30
0.0
 40
3.200000000000141
 50
0.0
 51
39.517946684078488
  0
LINE
  5
136
  8
L1
 10
364.43604100151362
 20
258.14205808260942
 30
0.0
 11
364.43604100151362
 21
190.2874564413481
 31
0.0
  0
ARC
  5
16D
  8
L1
 10
366.43604100151362
 20
258.14205808260942
 30
0.0
 40
2.0
 50
90.0
 51
180.0
  0
LINE
  5
16E
  8
L1
 10
109.612422121439
 20
277.73745644134851
 30
0.0
 11
-34.687577878561051
 21
277.73745644134851
 31
0.0
  0
LINE
  5
16F
  8
L1
 10
108.2739996476874
 20
276.89851995506012
 30
0.0
 11
-33.349155404809551
 21
276.89851995506012
 31
0.0
  0
LINE
  5
170
  8
L1
 10
-49.054678637829227
 20
280.29976057225741
 30
0.0
 11
123.97952288070709
 21
280.29976057225741
 31
0.0
  0
LINE
  5
171
  8
L1
 10
124.01942212143889
 20
279.58048054157302
 30
0.0
 11
-49.09457787856109
 21
279.58048054157302
 31
0.0
  0
LINE
  5
172
  8
L1
 10
-34.687577878561051
 20
278.73745644134851
 30
0.0
 11
109.612422121439
 21
278.73745644134851
 31
0.0
  0
ARC
  5
173
  8
L1
 10
-34.687577878561278
 20
275.53745644134841
 30
0.0
 40
3.200000000000057
 50
129.51794668407649
 51
180.0
  0
ARC
  5
174
  8
L1
 10
-34.687577878561278
 20
275.53745644134841
 30
0.0
 40
2.200000000000033
 50
90.0
 51
180.0
  0
LINE
  5
175
  8
L1
 10
-36.914669775011411
 20
278.53745644134818
 30
0.0
 11
-48.187577878561278
 21
278.53745644134818
 31
0.0
  0
ARC
  5
176
  8
L1
 10
-48.187577878561278
 20
275.93745644134827
 30
0.0
 40
2.6000000000000001
 50
90.0
 51
180.0
  0
LINE
  5
177
  8
L1
 10
-38.399701835579371
 20
275.17978520227553
 30
0.0
 11
-41.126575138760529
 21
277.90665850545662
 31
0.0
  0
LINE
  5
178
  8
L1
 10
-44.100565070263819
 20
276.9151873087319
 30
0.0
 11
-39.409847011177639
 21
272.22446924964572
 31
0.0
  0
ARC
  5
179
  8
L1
 10
-44.287577878561187
 20
272.0374564413483
 30
0.0
 40
5.7825462644184809
 50
116.0136049375774
 51
153.986395062437
  0
LINE
  5
17A
  8
L1
 10
-44.474590686858789
 20
267.15972557396469
 30
0.0
 11
-49.165308745944849
 21
271.85044363305082
 31
0.0
  0
ARC
  5
17B
  8
L1
 10
-44.287577878561187
 20
272.0374564413483
 30
0.0
 40
4.881314598045666
 50
157.6692867288632
 51
182.19565189222271
  0
LINE
  5
17C
  8
L1
 10
-50.787577878561187
 20
275.8768758217015
 30
0.0
 11
-48.802824042731281
 21
273.89212198587148
 31
0.0
  0
POLYLINE
  5
17D
  8
L1
 66
     1
 10
0.0
 20
0.0
 30
0.0
  0
VERTEX
  5
3F6C
  8
L1
 10
-50.156779942669509
 20
268.87645370154792
 30
0.0
  0
VERTEX
  5
3F6D
  8
L1
 10
-50.310392297255191
 20
268.95857277818021
 30
0.0
  0
VERTEX
  5
3F6E
  8
L1
 10
-50.483715930574078
 20
268.94151050661958
 30
0.0
  0
VERTEX
  5
3F6F
  8
L1
 10
-50.618339094956752
 20
268.83101703808302
 30
0.0
  0
VERTEX
  5
3F70
  8
L1
 10
-50.787577878561187
 20
268.27299393690771
 30
0.0
  0
SEQEND
  5
3F71
  8
L1
  0
POLYLINE
  5
17E
  8
L1
 66
     1
 10
0.0
 20
0.0
 30
0.0
  0
VERTEX
  5
3F72
  8
L1
 10
-38.399701835579371
 20
275.17978520227553
 30
0.0
  0
VERTEX
  5
3F73
  8
L1
 10
-38.246096572610149
 20
275.09768180615868
 30
0.0
  0
VERTEX
  5
3F74
  8
L1
 10
-38.072767572197733
 20
275.11475868789091
 30
0.0
  0
VERTEX
  5
3F75
  8
L1
 10
-37.9381354083311
 20
275.22526008109469
 30
0.0
  0
VERTEX
  5
3F76
  8
L1
 10
-37.887577878561331
 20
275.39194146926008
 30
0.0
  0
SEQEND
  5
3F77
  8
L1
  0
LINE
  5
17F
  8
L1
 10
-37.887577878561331
 20
274.23745644134851
 30
0.0
 11
-37.887577878561331
 21
272.03745644134841
 31
0.0
  0
LINE
  5
180
  8
L1
 10
-37.887577878561331
 20
275.53745644134841
 30
0.0
 11
-37.887577878561331
 21
274.23745644134851
 31
0.0
  0
ARC
  5
181
  8
L1
 10
-44.287577878561187
 20
272.0374564413483
 30
0.0
 40
4.881314598045666
 50
87.804348107777244
 51
112.33071327113591
  0
LINE
  5
184
  8
L1
 10
-46.142243423084601
 20
276.55270260551828
 30
0.0
 11
-48.126997258914287
 21
278.53745644134818
 31
0.0
  0
POLYLINE
  5
185
  8
L1
 66
     1
 10
0.0
 20
0.0
 30
0.0
  0
VERTEX
  5
3F78
  8
L1
 10
-40.523115374120771
 20
278.53745644134818
 30
0.0
  0
VERTEX
  5
3F79
  8
L1
 10
-41.081138475295511
 20
278.36821765774391
 30
0.0
  0
VERTEX
  5
3F7A
  8
L1
 10
-41.191631943832299
 20
278.2335944933613
 30
0.0
  0
VERTEX
  5
3F7B
  8
L1
 10
-41.208694215392882
 20
278.06027086004241
 30
0.0
  0
VERTEX
  5
3F7C
  8
L1
 10
-41.126575138760408
 20
277.90665850545662
 30
0.0
  0
SEQEND
  5
3F7D
  8
L1
  0
POLYLINE
  5
186
  8
L1
 66
     1
 10
0.0
 20
0.0
 30
0.0
  0
VERTEX
  5
3F7E
  8
L1
 10
-33.35069550886243
 20
276.8985183737812
 30
0.0
  0
VERTEX
  5
3F7F
  8
L1
 10
-33.737962461806369
 20
276.8468234322861
 30
0.0
  0
VERTEX
  5
3F80
  8
L1
 10
-34.09885956349666
 20
276.69684076985158
 30
0.0
  0
VERTEX
  5
3F81
  8
L1
 10
-34.408877482578021
 20
276.45875604536479
 30
0.0
  0
VERTEX
  5
3F82
  8
L1
 10
-34.646962207064632
 20
276.14873812628338
 30
0.0
  0
VERTEX
  5
3F83
  8
L1
 10
-34.7969448694991
 20
275.78784102459321
 30
0.0
  0
VERTEX
  5
3F84
  8
L1
 10
-34.848639810994143
 20
275.40057407164932
 30
0.0
  0
SEQEND
  5
3F85
  8
L1
  0
LINE
  5
187
  8
L1
 10
-34.848641392273009
 20
272.03745644134813
 30
0.0
 11
-34.848641392273009
 21
275.39903396759672
 31
0.0
  0
POLYLINE
  5
188
  8
L1
 66
     1
 10
0.0
 20
0.0
 30
0.0
  0
VERTEX
  5
3F86
  8
L1
 10
-34.848641392273009
 20
275.39903396759661
 30
0.0
  0
VERTEX
  5
3F87
  8
L1
 10
-34.848640996953179
 20
275.39980421738431
 30
0.0
  0
VERTEX
  5
3F88
  8
L1
 10
-34.848639810994143
 20
275.40057407164932
 30
0.0
  0
SEQEND
  5
3F89
  8
L1
  0
LINE
  5
189
  8
L1
 10
-36.887577878561331
 20
272.03745644134841
 30
0.0
 11
-36.887577878561331
 21
275.53745644134841
 31
0.0
  0
LINE
  5
18A
  8
L1
 10
-34.84864139227323
 20
272.03745644134813
 30
0.0
 11
-34.84864139227323
 21
267.99851995506009
 31
0.0
  0
ARC
  5
18C
  8
L1
 10
-34.687577878561278
 20
275.53745644134841
 30
0.0
 40
3.200000000000057
 50
90.0
 51
129.51794668407649
  0
LINE
  5
18F
  8
L1
 10
111.8395140178891
 20
278.53745644134818
 30
0.0
 11
123.1124221214389
 21
278.53745644134818
 31
0.0
  0
LINE
  5
190
  8
L1
 10
113.3245460784571
 20
275.17978520227553
 30
0.0
 11
116.0514193816382
 21
277.90665850545662
 31
0.0
  0
ARC
  5
191
  8
L1
 10
109.612422121439
 20
275.53745644134841
 30
0.0
 40
2.200000000000033
 50
0.0
 51
90.0
  0
POLYLINE
  5
192
  8
L1
 66
     1
 10
0.0
 20
0.0
 30
0.0
  0
VERTEX
  5
3F8A
  8
L1
 10
108.2755397517401
 20
276.8985183737812
 30
0.0
  0
VERTEX
  5
3F8B
  8
L1
 10
108.6628067046841
 20
276.8468234322861
 30
0.0
  0
VERTEX
  5
3F8C
  8
L1
 10
109.0237038063742
 20
276.69684076985158
 30
0.0
  0
VERTEX
  5
3F8D
  8
L1
 10
109.3337217254557
 20
276.45875604536479
 30
0.0
  0
VERTEX
  5
3F8E
  8
L1
 10
109.5718064499423
 20
276.14873812628338
 30
0.0
  0
VERTEX
  5
3F8F
  8
L1
 10
109.7217891123767
 20
275.78784102459321
 30
0.0
  0
VERTEX
  5
3F90
  8
L1
 10
109.7734840538718
 20
275.40057407164932
 30
0.0
  0
SEQEND
  5
3F91
  8
L1
  0
ARC
  5
193
  8
L1
 10
109.612422121439
 20
275.53745644134841
 30
0.0
 40
3.200000000000057
 50
0.0
 51
50.482053315923501
  0
LINE
  5
194
  8
L1
 10
111.812422121439
 20
272.03745644134841
 30
0.0
 11
111.812422121439
 21
275.53745644134841
 31
0.0
  0
POLYLINE
  5
195
  8
L1
 66
     1
 10
0.0
 20
0.0
 30
0.0
  0
VERTEX
  5
3F92
  8
L1
 10
109.77348563515061
 20
275.39903396759661
 30
0.0
  0
VERTEX
  5
3F93
  8
L1
 10
109.7734852398309
 20
275.39980421738431
 30
0.0
  0
VERTEX
  5
3F94
  8
L1
 10
109.7734840538718
 20
275.40057407164932
 30
0.0
  0
SEQEND
  5
3F95
  8
L1
  0
LINE
  5
196
  8
L1
 10
109.77348563515071
 20
272.03745644134813
 30
0.0
 11
109.77348563515071
 21
275.39903396759672
 31
0.0
  0
LINE
  5
197
  8
L1
 10
109.77348563515081
 20
272.03745644134813
 30
0.0
 11
109.77348563515081
 21
267.99851995506009
 31
0.0
  0
LINE
  5
198
  8
L1
 10
112.812422121439
 20
275.53745644134841
 30
0.0
 11
112.812422121439
 21
274.23745644134851
 31
0.0
  0
LINE
  5
199
  8
L1
 10
112.812422121439
 20
274.23745644134851
 30
0.0
 11
112.812422121439
 21
272.03745644134841
 31
0.0
  0
POLYLINE
  5
19A
  8
L1
 66
     1
 10
0.0
 20
0.0
 30
0.0
  0
VERTEX
  5
3F96
  8
L1
 10
113.3245460784571
 20
275.17978520227553
 30
0.0
  0
VERTEX
  5
3F97
  8
L1
 10
113.1709408154878
 20
275.09768180615868
 30
0.0
  0
VERTEX
  5
3F98
  8
L1
 10
112.9976118150754
 20
275.11475868789091
 30
0.0
  0
VERTEX
  5
3F99
  8
L1
 10
112.8629796512088
 20
275.22526008109469
 30
0.0
  0
VERTEX
  5
3F9A
  8
L1
 10
112.8124221214389
 20
275.39194146926008
 30
0.0
  0
SEQEND
  5
3F9B
  8
L1
  0
ARC
  5
19B
  8
L1
 10
109.612422121439
 20
275.53745644134841
 30
0.0
 40
3.200000000000057
 50
50.482053315923501
 51
90.0
  0
ARC
  5
19D
  8
L1
 10
123.1124221214389
 20
275.93745644134827
 30
0.0
 40
2.6000000000000001
 50
0.0
 51
90.0
  0
ARC
  5
19E
  8
L1
 10
119.21242212143891
 20
272.0374564413483
 30
0.0
 40
5.7825462644184809
 50
26.013604937570602
 51
63.986395062422609
  0
LINE
  5
19F
  8
L1
 10
119.02540931314149
 20
276.9151873087319
 30
0.0
 11
114.3346912540553
 21
272.22446924964572
 31
0.0
  0
LINE
  5
1A0
  8
L1
 10
119.3994349297364
 20
267.15972557396469
 30
0.0
 11
124.0901529888224
 21
271.85044363305082
 31
0.0
  0
ARC
  5
1A1
  8
L1
 10
119.21242212143891
 20
272.0374564413483
 30
0.0
 40
4.881314598045666
 50
357.80434810777717
 51
22.330713271137029
  0
LINE
  5
1A2
  8
L1
 10
125.71242212143881
 20
275.8768758217015
 30
0.0
 11
123.7276682856089
 21
273.89212198587148
 31
0.0
  0
POLYLINE
  5
1A3
  8
L1
 66
     1
 10
0.0
 20
0.0
 30
0.0
  0
VERTEX
  5
3F9C
  8
L1
 10
125.0816241855471
 20
268.87645370154792
 30
0.0
  0
VERTEX
  5
3F9D
  8
L1
 10
125.2352365401329
 20
268.95857277818021
 30
0.0
  0
VERTEX
  5
3F9E
  8
L1
 10
125.4085601734517
 20
268.94151050661958
 30
0.0
  0
VERTEX
  5
3F9F
  8
L1
 10
125.54318333783441
 20
268.83101703808302
 30
0.0
  0
VERTEX
  5
3FA0
  8
L1
 10
125.71242212143881
 20
268.27299393690771
 30
0.0
  0
SEQEND
  5
3FA1
  8
L1
  0
LINE
  5
1A4
  8
L1
 10
121.06708766596221
 20
276.55270260551828
 30
0.0
 11
123.051841501792
 21
278.53745644134818
 31
0.0
  0
ARC
  5
1A5
  8
L1
 10
119.21242212143891
 20
272.0374564413483
 30
0.0
 40
4.881314598045666
 50
67.669286728864066
 51
92.195651892222756
  0
POLYLINE
  5
1A6
  8
L1
 66
     1
 10
0.0
 20
0.0
 30
0.0
  0
VERTEX
  5
3FA2
  8
L1
 10
115.4479596169984
 20
278.53745644134818
 30
0.0
  0
VERTEX
  5
3FA3
  8
L1
 10
116.0059827181732
 20
278.36821765774391
 30
0.0
  0
VERTEX
  5
3FA4
  8
L1
 10
116.1164761867099
 20
278.2335944933613
 30
0.0
  0
VERTEX
  5
3FA5
  8
L1
 10
116.13353845827061
 20
278.06027086004241
 30
0.0
  0
VERTEX
  5
3FA6
  8
L1
 10
116.0514193816381
 20
277.90665850545662
 30
0.0
  0
SEQEND
  5
3FA7
  8
L1
  0
ARC
  5
1A8
  8
L1
 10
124.01942212143889
 20
276.8444564413482
 30
0.0
 40
2.7360241002247609
 50
0.0
 51
90.0
  0
LINE
  5
1C1
  8
L1
 10
357.39259399685523
 20
272.21322379858879
 30
0.0
 11
352.71641000001529
 21
276.88940779542872
 31
0.0
  0
ARC
  5
1C2
  8
L1
 10
352.54064264277491
 20
272.03745644134818
 30
0.0
 40
4.8551339946733894
 50
267.9253036357822
 51
2.074696364218489
  0
CIRCLE
  5
1C3
  8
L1
 10
352.54064264277491
 20
272.03745644134818
 30
0.0
 40
5.7974047862592784
  0
CIRCLE
  5
1C4
  8
L1
 10
352.54064264277491
 20
272.03745644134818
 30
0.0
 40
6.097393363178492
  0
POLYLINE
  5
1C6
  8
L1
 66
     1
 10
0.0
 20
0.0
 30
0.0
  0
VERTEX
  5
3FA8
  8
L1
 10
347.40754300102259
 20
274.55067061428332
 30
0.0
  0
VERTEX
  5
3FA9
  8
L1
 10
347.42343598076701
 20
274.53342239150601
 30
0.0
  0
VERTEX
  5
3FAA
  8
L1
 10
347.47061446376028
 20
274.48504384652011
 30
0.0
  0
VERTEX
  5
3FAB
  8
L1
 10
347.543300507156
 20
274.41153748847381
 30
0.0
  0
VERTEX
  5
3FAC
  8
L1
 10
347.6313404530834
 20
274.32320297575319
 30
0.0
  0
SEQEND
  5
3FAD
  8
L1
  0
POLYLINE
  5
1C7
  8
L1
 66
     1
 10
0.0
 20
0.0
 30
0.0
  0
VERTEX
  5
3FAE
  8
L1
 10
347.38911346348721
 20
274.6641632036434
 30
0.0
  0
VERTEX
  5
3FAF
  8
L1
 10
347.40754300102259
 20
274.55067061428349
 30
0.0
  0
SEQEND
  5
3FB0
  8
L1
  0
LINE
  5
1C8
  8
L1
 10
347.6313404530834
 20
274.32320297575319
 30
0.0
 11
348.0562630462328
 21
273.89828038260379
 31
0.0
  0
ARC
  5
1C9
  8
L1
 10
352.54064264277491
 20
272.03745644134818
 30
0.0
 40
4.8551339946733894
 50
157.4636600530614
 51
182.07469636421709
  0
LINE
  5
1CA
  8
L1
 10
347.68869128869471
 20
271.86168908410781
 30
0.0
 11
352.36487528553459
 21
267.1855050872681
 31
0.0
  0
POLYLINE
  5
1CD
  8
L1
 66
     1
 10
0.0
 20
0.0
 30
0.0
  0
VERTEX
  5
3FB1
  8
L1
 10
350.02742846983972
 20
277.17055608310039
 30
0.0
  0
VERTEX
  5
3FB2
  8
L1
 10
349.91393588047958
 20
277.188985620636
 30
0.0
  0
SEQEND
  5
3FB3
  8
L1
  0
POLYLINE
  5
1CE
  8
L1
 66
     1
 10
0.0
 20
0.0
 30
0.0
  0
VERTEX
  5
3FB4
  8
L1
 10
350.25489610836991
 20
276.9467586310397
 30
0.0
  0
VERTEX
  5
3FB5
  8
L1
 10
350.16656159564928
 20
277.03479857696721
 30
0.0
  0
VERTEX
  5
3FB6
  8
L1
 10
350.0930552376031
 20
277.10748462036292
 30
0.0
  0
VERTEX
  5
3FB7
  8
L1
 10
350.04467669261709
 20
277.15466310335609
 30
0.0
  0
VERTEX
  5
3FB8
  8
L1
 10
350.02742846983989
 20
277.17055608310039
 30
0.0
  0
SEQEND
  5
3FB9
  8
L1
  0
LINE
  5
1CF
  8
L1
 10
350.67981870151931
 20
276.5218360378903
 30
0.0
 11
350.25489610836991
 21
276.94675863103959
 31
0.0
  0
ARC
  5
1D0
  8
L1
 10
352.54064264277491
 20
272.03745644134818
 30
0.0
 40
4.8551339946733894
 50
87.925303635784914
 51
112.5363399469389
  0
LINE
  5
1EC
  8
L6
 10
434.29064264277503
 20
284.95395198963968
 30
0.0
 11
434.29064264277503
 21
96.79226644337237
 31
0.0
  0
LINE
  5
2567
  8
L1
 10
344.2783385118658
 20
336.20894758303399
 30
0.0
 11
345.62475657809591
 21
361.90013474359819
 31
0.0
  0
LINE
  5
2568
  8
L1
 10
344.27833851186563
 20
336.20894758303399
 30
0.0
 11
345.6247565780958
 21
361.90013474359819
 31
0.0
  0
LINE
  5
2569
  8
L2
 10
360.74064264277507
 20
335.48966755234949
 30
0.0
 11
361.37957912906307
 21
359.88966755234952
 31
0.0
  0
LINE
  5
256A
  8
L2
 10
507.84064264277498
 20
335.48966755234949
 30
0.0
 11
507.20170615648698
 21
359.88966755234952
 31
0.0
  0
LINE
  5
256B
  8
L1
 10
524.30294677368443
 20
336.20894758303399
 30
0.0
 11
522.95652870745425
 21
361.90013474359819
 31
0.0
  0
LINE
  5
256C
  8
L1
 10
524.3029467736842
 20
336.20894758303399
 30
0.0
 11
522.95652870745414
 21
361.90013474359819
 31
0.0
  0
LINE
  5
256D
  8
L6
 10
434.29064264277503
 20
310.53982600325469
 30
0.0
 11
434.29064264277503
 21
448.65427816063749
 31
0.0
  0
LINE
  5
256E
  8
L1
 10
434.29064264277503
 20
362.08966755234968
 30
0.0
 11
522.75680280050301
 21
362.08966755234968
 31
0.0
  0
ARC
  5
2578
  8
L1
 10
522.53638862718913
 20
362.2896675523495
 30
0.0
 40
0.1999999999999993
 50
183.0000000000006
 51
270.0
  0
ARC
  5
2579
  8
L1
 10
522.1380360059535
 20
361.78966755234939
 30
0.0
 40
0.3
 50
90.000000000000028
 51
93.292043853694977
  0
LINE
  5
257A
  8
L1
 10
520.7864436944775
 20
362.08900634491698
 30
0.0
 11
520.78651762038237
 21
362.08759575461892
 31
0.0
  0
ARC
  5
257B
  8
L1
 10
522.75680280050324
 20
361.88966755234941
 30
0.0
 40
0.1999999999999879
 50
2.9999999999996692
 51
90.000000000000028
  0
ARC
  5
257C
  8
L1
 10
522.75680280050301
 20
361.88966755234952
 30
0.0
 40
0.2
 50
2.9999999999996692
 51
90.000000000000028
  0
LINE
  5
257D
  8
L2
 10
506.60170615648718
 20
359.88966755234952
 30
0.0
 11
507.20170615648698
 21
359.88966755234952
 31
0.0
  0
ARC
  5
257E
  8
L1
 10
508.43043555611791
 20
362.2896675523495
 30
0.0
 40
0.2
 50
182.9999999999996
 51
270.0
  0
POLYLINE
  5
257F
  8
L1
 66
     1
 10
0.0
 20
0.0
 30
0.0
  0
VERTEX
  5
400B
  8
L1
 10
508.4022734399523
 20
362.08966755234962
 30
0.0
  0
VERTEX
  5
400C
  8
L1
 10
508.42338374072449
 20
362.08966755234962
 30
0.0
  0
VERTEX
  5
400D
  8
L1
 10
508.43043555611808
 20
362.08966755234962
 30
0.0
  0
SEQEND
  5
400E
  8
L1
  0
LINE
  5
2581
  8
L2
 10
364.68313716445198
 20
410.67854437998841
 30
0.0
 11
361.97957912906281
 21
359.88966755234952
 31
0.0
  0
LINE
  5
2582
  8
L1
 10
360.35057563638247
 20
362.279200361101
 30
0.0
 11
363.01343938620971
 21
413.08966755234951
 31
0.0
  0
LINE
  5
2583
  8
L2
 10
434.29064264277503
 20
414.59881031332219
 30
0.0
 11
364.43604100151362
 21
414.59881031332219
 31
0.0
  0
LINE
  5
2584
  8
L1
 10
348.9074863151385
 20
413.08966755234962
 30
0.0
 11
433.10045478125591
 21
413.0896675523494
 31
0.0
  0
POLYLINE
  5
2586
  8
L1
 66
     1
 10
0.0
 20
0.0
 30
0.0
  0
VERTEX
  5
400F
  8
L1
 10
365.13063409659622
 20
415.09881031334248
 30
0.0
  0
VERTEX
  5
4010
  8
L1
 10
363.0134393862096
 20
413.0896675523494
 30
0.0
  0
SEQEND
  5
4011
  8
L1
  0
LINE
  5
2588
  8
L2
 10
364.43604100151362
 20
414.59881031332219
 30
0.0
 11
364.4360410015135
 21
415.09881031332219
 31
0.0
  0
LINE
  5
2589
  8
L1
 10
434.29064264277503
 20
362.08966755234968
 30
0.0
 11
345.82448248504687
 21
362.08966755234968
 31
0.0
  0
LINE
  5
258A
  8
L2
 10
361.97957912906281
 20
359.88966755234952
 30
0.0
 11
361.37957912906307
 21
359.88966755234952
 31
0.0
  0
POLYLINE
  5
258B
  8
L1
 66
     1
 10
0.0
 20
0.0
 30
0.0
  0
VERTEX
  5
4012
  8
L1
 10
360.17901184559781
 20
362.08966755234962
 30
0.0
  0
VERTEX
  5
4013
  8
L1
 10
360.15790154482562
 20
362.08966755234962
 30
0.0
  0
VERTEX
  5
4014
  8
L1
 10
360.15084972943191
 20
362.08966755234962
 30
0.0
  0
SEQEND
  5
4015
  8
L1
  0
ARC
  5
258C
  8
L1
 10
360.15084972943208
 20
362.2896675523495
 30
0.0
 40
0.2
 50
270.0
 51
357.00000000000028
  0
LINE
  5
258D
  8
L1
 10
347.79484159107261
 20
362.08900634491698
 30
0.0
 11
347.79476766516763
 21
362.08759575461892
 31
0.0
  0
ARC
  5
258E
  8
L1
 10
346.44324927959639
 20
361.7896675523495
 30
0.0
 40
0.3
 50
86.707956146305023
 51
90.000000000000028
  0
ARC
  5
258F
  8
L1
 10
346.04489665836093
 20
362.2896675523495
 30
0.0
 40
0.1999999999999993
 50
270.0
 51
356.99999999999932
  0
ARC
  5
2590
  8
L1
 10
345.82448248504699
 20
361.88966755234952
 30
0.0
 40
0.2
 50
90.000000000000028
 51
177.00000000000031
  0
ARC
  5
2591
  8
L1
 10
345.82448248504681
 20
361.88966755234941
 30
0.0
 40
0.1999999999999879
 50
90.000000000000028
 51
177.00000000000031
  0
LINE
  5
2592
  8
L1
 10
434.29064264277503
 20
335.48966755234932
 30
0.0
 11
523.58366674299975
 21
335.48966755234949
 31
0.0
  0
LINE
  5
2594
  8
L1
 10
434.29064264277503
 20
336.20894758303388
 30
0.0
 11
524.3029467736842
 21
336.20894758303399
 31
0.0
  0
LINE
  5
2595
  8
L1
 10
523.58366674299975
 20
335.48966755234949
 30
0.0
 11
524.3029467736842
 21
336.20894758303399
 31
0.0
  0
LINE
  5
2598
  8
L1
 10
434.29064264277503
 20
336.20894758303388
 30
0.0
 11
344.2783385118658
 21
336.20894758303399
 31
0.0
  0
LINE
  5
259A
  8
L1
 10
434.29064264277503
 20
335.48966755234932
 30
0.0
 11
344.9976185425503
 21
335.48966755234949
 31
0.0
  0
LINE
  5
259D
  8
L1
 10
344.9976185425503
 20
335.48966755234949
 30
0.0
 11
344.27833851186591
 21
336.20894758303399
 31
0.0
  0
ARC
  5
25B6
  8
L1
 10
347.7689524270433
 20
276.80914665707991
 30
0.0
 40
3.4906169322830971
 50
89.924667597022207
 51
180.07533240297639
  0
ARC
  5
25B7
  8
L1
 10
349.11809955701278
 20
275.45999952711031
 30
0.0
 40
3.293617597385512
 50
89.967636602049097
 51
180.03236339794651
  0
ARC
  5
25C4
  8
L1
 10
123.9839249670779
 20
276.80895928698737
 30
0.0
 40
3.4908040609016382
 50
359.92774700826652
 51
90.072252991732995
  0
ARC
  5
25C5
  8
L1
 10
111.8395142351269
 20
278.23746133703457
 30
0.0
 40
0.299995104313688
 50
90.000041490045646
 51
230.4880853980562
  0
ARC
  5
25C6
  8
L1
 10
125.412427360829
 20
264.66454759805362
 30
0.0
 40
0.299994760610775
 50
219.5117318285526
 51
0.0001412833319936
  0
ARC
  5
25C7
  8
L1
 10
123.9839249670779
 20
103.76595359570879
 30
0.0
 40
3.4908040609016382
 50
269.92774700826698
 51
0.0722529917334964
  0
ARC
  5
25C8
  8
L1
 10
111.8395142351269
 20
102.33745154566159
 30
0.0
 40
0.299995104313688
 50
129.5119146019438
 51
269.9999585099543
  0
ARC
  5
25C9
  8
L1
 10
125.412427360829
 20
115.91036528464249
 30
0.0
 40
0.299994760610775
 50
359.99985871666797
 51
140.48826817144729
  0
ARC
  5
25CA
  8
L1
 10
-49.059080724200612
 20
276.80895928698737
 30
0.0
 40
3.4908040609016382
 50
89.927747008267019
 51
180.07225299173351
  0
ARC
  5
25CB
  8
L1
 10
-49.094577878561523
 20
276.8444564413482
 30
0.0
 40
2.7360241002247609
 50
90.0
 51
180.0
  0
ARC
  5
25CC
  8
L1
 10
-36.914669992249578
 20
278.23746133703457
 30
0.0
 40
0.299995104313688
 50
309.51191460194377
 51
89.999958509954354
  0
ARC
  5
25CD
  8
L1
 10
-50.487583117951651
 20
264.66454759805362
 30
0.0
 40
0.299994760610775
 50
179.999858716668
 51
320.48826817144737
  0
ARC
  5
25CE
  8
L1
 10
-49.059080724200612
 20
103.76595359570879
 30
0.0
 40
3.4908040609016382
 50
179.92774700826649
 51
270.07225299173291
  0
ARC
  5
25CF
  8
L1
 10
-49.094577878561523
 20
103.7304564413479
 30
0.0
 40
2.7360241002247609
 50
180.0
 51
270.0
  0
ARC
  5
25D0
  8
L1
 10
-50.487583117951651
 20
115.91036528464249
 30
0.0
 40
0.299994760610775
 50
39.51173182855262
 51
180.00014128333191
  0
ARC
  5
25D1
  8
L1
 10
-36.914669992249578
 20
102.33745154566159
 30
0.0
 40
0.299995104313688
 50
270.00004149004559
 51
50.488085398056192
  0
ARC
  5
2838
  8
L1
 10
-38.468831870361711
 20
264.22790260779448
 30
0.0
 40
0.3000026874103084
 50
49.993161045893508
 51
126.68232138085379
  0
ARC
  5
2839
  8
L1
 10
-36.47803192477862
 20
266.21871020447759
 30
0.0
 40
0.2999965047920426
 50
143.3167445753306
 51
220.0077729979113
  0
ARC
  5
283A
  8
L1
 10
111.402876167656
 20
266.21871020447759
 30
0.0
 40
0.2999965047920426
 50
319.99222700208861
 51
36.683255424669397
  0
ARC
  5
283B
  8
L1
 10
113.3936761132391
 20
264.22790260779448
 30
0.0
 40
0.3000026874103084
 50
53.317678619146207
 51
130.0068389541064
  0
ARC
  5
283C
  8
L1
 10
111.402876167656
 20
114.35620267821859
 30
0.0
 40
0.2999965047920426
 50
323.31674457533052
 51
40.00777299791136
  0
ARC
  5
283D
  8
L1
 10
113.3936761132391
 20
116.34701027490161
 30
0.0
 40
0.3000026874103084
 50
229.99316104589349
 51
306.68232138085369
  0
ARC
  5
283E
  8
L1
 10
-36.47803192477862
 20
114.35620267821859
 30
0.0
 40
0.2999965047920426
 50
139.99222700208861
 51
216.6832554246694
  0
ARC
  5
283F
  8
L1
 10
-38.468831870361711
 20
116.34701027490161
 30
0.0
 40
0.3000026874103084
 50
233.31767861914619
 51
310.0068389541064
  0
LINE
  5
2A60
  8
L1
 10
522.14565222390274
 20
334.01881740021031
 30
0.0
 11
434.29064264277503
 21
334.01881740021031
 31
0.0
  0
LINE
  5
2A61
  8
L1
 10
522.53957532510765
 20
334.34935812914341
 30
0.0
 11
522.74008015388142
 21
335.4864775193127
 31
0.0
  0
ARC
  5
2A62
  8
L1
 10
522.14565222390274
 20
334.41881740021017
 30
0.0
 40
0.4
 50
270.0
 51
349.9999999999938
  0
LINE
  5
2A63
  8
L1
 10
346.43563306164731
 20
334.01881740021031
 30
0.0
 11
434.29064264277503
 21
334.01881740021031
 31
0.0
  0
ARC
  5
2A64
  8
L1
 10
346.43563306164731
 20
334.41881740021017
 30
0.0
 40
0.4
 50
190.00000000001131
 51
270.0
  0
LINE
  5
2A65
  8
L1
 10
346.04170996044252
 20
334.34935812914341
 30
0.0
 11
345.84120513166857
 21
335.4864775193127
 31
0.0
  0
LINE
  5
384B
  8
L1
 10
434.29064264277503
 20
413.08966755234928
 30
0.0
 11
348.9074863151385
 21
413.08966755234962
 31
0.0
  0
LINE
  5
384C
  8
L1
 10
434.29064264277503
 20
415.09881031333362
 30
0.0
 11
351.02468102552513
 21
415.0988103133426
 31
0.0
  0
LINE
  5
384D
  8
L1
 10
351.02468102552513
 20
415.0988103133426
 30
0.0
 11
348.9074863151385
 21
413.08966755234962
 31
0.0
  0
LINE
  5
384E
  8
L1
 10
348.9074863151385
 20
413.08966755234962
 30
0.0
 11
346.24462256531149
 21
362.27920036110089
 31
0.0
  0
LINE
  5
384F
  8
L2
 10
434.29064264277503
 20
412.09881031332219
 30
0.0
 11
366.18101649157182
 21
412.09881031332219
 31
0.0
  0
ARC
  5
3850
  8
L2
 10
366.18101649157182
 20
410.59881031332219
 30
0.0
 40
1.5
 50
90.0
 51
176.95294690616129
  0
LINE
  5
3851
  8
L2
 10
434.29064264277503
 20
412.09881031332219
 30
0.0
 11
502.400268793978
 21
412.09881031332219
 31
0.0
  0
LINE
  5
3852
  8
L2
 10
434.29064264277491
 20
414.59881031332219
 30
0.0
 11
504.14524428403632
 21
414.59881031332219
 31
0.0
  0
LINE
  5
3853
  8
L1
 10
434.29064264277503
 20
415.09881031333362
 30
0.0
 11
517.55660426002476
 21
415.0988103133426
 31
0.0
  0
LINE
  5
3854
  8
L1
 10
434.29064264277503
 20
413.08966755234928
 30
0.0
 11
519.67379897041133
 21
413.08966755234962
 31
0.0
  0
LINE
  5
3855
  8
L1
 10
519.67379897041133
 20
413.08966755234962
 30
0.0
 11
435.48083050429392
 21
413.0896675523494
 31
0.0
  0
LINE
  5
3856
  8
L2
 10
503.8981481210979
 20
410.67854437998841
 30
0.0
 11
506.60170615648701
 21
359.88966755234952
 31
0.0
  0
LINE
  5
3857
  8
L1
 10
519.67379897041133
 20
413.08966755234962
 30
0.0
 11
522.33666272023834
 21
362.27920036110089
 31
0.0
  0
LINE
  5
3858
  8
L1
 10
508.23070964916741
 20
362.279200361101
 30
0.0
 11
505.56784589934023
 21
413.08966755234951
 31
0.0
  0
ARC
  5
3859
  8
L2
 10
502.400268793978
 20
410.59881031332219
 30
0.0
 40
1.5
 50
3.0470530938387248
 51
90.0
  0
LINE
  5
385A
  8
L2
 10
504.14524428403632
 20
414.59881031332219
 30
0.0
 11
504.14524428403632
 21
415.09881031332219
 31
0.0
  0
LINE
  5
385B
  8
L1
 10
517.55660426002476
 20
415.0988103133426
 30
0.0
 11
519.67379897041133
 21
413.08966755234962
 31
0.0
  0
POLYLINE
  5
385C
  8
L1
 66
     1
 10
0.0
 20
0.0
 30
0.0
  0
VERTEX
  5
4016
  8
L1
 10
503.45065118895371
 20
415.09881031334248
 30
0.0
  0
VERTEX
  5
4017
  8
L1
 10
505.56784589934023
 20
413.0896675523494
 30
0.0
  0
SEQEND
  5
4018
  8
L1
  0
POLYLINE
  5
3880
  8
L1
 66
     1
 10
0.0
 20
0.0
 30
0.0
  0
VERTEX
  5
4019
  8
L1
 10
604.54861290883559
 20
116.1758256441706
 30
0.0
  0
VERTEX
  5
401A
  8
L1
 10
604.54861290883559
 20
116.15471534339839
 30
0.0
  0
VERTEX
  5
401B
  8
L1
 10
604.54861290883559
 20
116.1476635280048
 30
0.0
  0
SEQEND
  5
401C
  8
L1
  0
POLYLINE
  5
3881
  8
L1
 66
     1
 10
0.0
 20
0.0
 30
0.0
  0
VERTEX
  5
401D
  8
L1
 10
604.54861290883559
 20
264.39908723852523
 30
0.0
  0
VERTEX
  5
401E
  8
L1
 10
604.54861290883559
 20
264.42019753929742
 30
0.0
  0
VERTEX
  5
401F
  8
L1
 10
604.54861290883559
 20
264.42724935469101
 30
0.0
  0
SEQEND
  5
4020
  8
L1
  0
LINE
  5
3882
  8
L6
 10
552.99877135974054
 20
190.2874564413481
 30
0.0
 11
691.11322351712352
 21
190.2874564413481
 31
0.0
  0
LINE
  5
3883
  8
L1
 10
578.66789293952002
 20
100.2751523104387
 30
0.0
 11
604.35908010008416
 21
101.6215703766689
 31
0.0
  0
LINE
  5
3884
  8
L1
 10
578.66789293952002
 20
100.2751523104385
 30
0.0
 11
604.35908010008416
 21
101.6215703766687
 31
0.0
  0
LINE
  5
3885
  8
L2
 10
577.94861290883534
 20
116.7374564413479
 30
0.0
 11
602.34861290883555
 21
117.376392927636
 31
0.0
  0
LINE
  5
3886
  8
L2
 10
577.94861290883546
 20
263.83745644134791
 30
0.0
 11
602.34861290883555
 21
263.19851995505979
 31
0.0
  0
LINE
  5
3887
  8
L1
 10
578.66789293952002
 20
280.2997605722573
 30
0.0
 11
604.35908010008416
 21
278.95334250602713
 31
0.0
  0
LINE
  5
3888
  8
L1
 10
578.66789293952002
 20
280.29976057225718
 30
0.0
 11
604.35908010008416
 21
278.95334250602701
 31
0.0
  0
LINE
  5
3889
  8
L1
 10
578.66789293951979
 20
190.2874564413481
 30
0.0
 11
578.66789293952002
 21
100.2751523104387
 31
0.0
  0
LINE
  5
388A
  8
L1
 10
577.94861290883523
 20
190.2874564413481
 30
0.0
 11
577.94861290883534
 21
100.9944323411233
 31
0.0
  0
LINE
  5
388B
  8
L1
 10
576.47776275669605
 20
102.4324468602202
 30
0.0
 11
576.47776275669605
 21
190.2874564413481
 31
0.0
  0
LINE
  5
388C
  8
L1
 10
577.94861290883523
 20
190.2874564413481
 30
0.0
 11
577.94861290883546
 21
279.58048054157263
 31
0.0
  0
LINE
  5
388D
  8
L1
 10
578.66789293951979
 20
190.2874564413481
 30
0.0
 11
578.66789293952002
 21
280.29976057225718
 31
0.0
  0
LINE
  5
388E
  8
L1
 10
576.47776275669628
 20
278.14246602247562
 30
0.0
 11
576.47776275669605
 21
190.2874564413481
 31
0.0
  0
LINE
  5
388F
  8
L1
 10
577.94861290883546
 20
279.58048054157263
 30
0.0
 11
578.66789293952002
 21
280.29976057225713
 31
0.0
  0
ARC
  5
3890
  8
L1
 10
576.87776275669626
 20
278.14246602247567
 30
0.0
 40
0.4
 50
100.0000000000113
 51
180.0
  0
LINE
  5
3891
  8
L1
 10
576.80830348562927
 20
278.53638912368052
 30
0.0
 11
577.94542287579873
 21
278.7368939524543
 31
0.0
  0
LINE
  5
3892
  8
L1
 10
577.94861290883534
 20
100.9944323411233
 30
0.0
 11
578.66789293952002
 21
100.2751523104387
 31
0.0
  0
ARC
  5
3893
  8
L1
 10
576.87776275669603
 20
102.4324468602201
 30
0.0
 40
0.4
 50
180.0
 51
259.99999999999369
  0
LINE
  5
3894
  8
L1
 10
576.80830348562915
 20
102.03852375901521
 30
0.0
 11
577.94542287579861
 21
101.8380189302416
 31
0.0
  0
LINE
  5
3895
  8
L2
 10
657.05775566980822
 20
190.2874564413481
 30
0.0
 11
657.0577556698081
 21
120.4328548000868
 31
0.0
  0
LINE
  5
3896
  8
L1
 10
655.54861290883559
 20
104.9043001137116
 30
0.0
 11
655.54861290883525
 21
189.09726857982909
 31
0.0
  0
LINE
  5
3897
  8
L1
 10
655.54861290883525
 20
190.2874564413481
 30
0.0
 11
655.54861290883559
 21
104.9043001137116
 31
0.0
  0
LINE
  5
3898
  8
L1
 10
657.55775566981947
 20
190.2874564413481
 30
0.0
 11
657.55775566982845
 21
107.0214948240981
 31
0.0
  0
LINE
  5
3899
  8
L2
 10
654.5577556698081
 20
190.2874564413481
 30
0.0
 11
654.5577556698081
 21
122.1778302901449
 31
0.0
  0
LINE
  5
389A
  8
L1
 10
604.54861290883559
 20
190.2874564413481
 30
0.0
 11
604.54861290883559
 21
101.8212962836199
 31
0.0
  0
LINE
  5
389B
  8
L2
 10
657.05775566980822
 20
190.28745644134801
 30
0.0
 11
657.05775566980822
 21
260.14205808260942
 31
0.0
  0
LINE
  5
389C
  8
L2
 10
654.5577556698081
 20
190.2874564413481
 30
0.0
 11
654.55775566980822
 21
258.39708259255121
 31
0.0
  0
LINE
  5
389D
  8
L1
 10
657.55775566981947
 20
190.2874564413481
 30
0.0
 11
657.55775566982845
 21
273.5534180585978
 31
0.0
  0
LINE
  5
389E
  8
L1
 10
655.54861290883525
 20
190.2874564413481
 30
0.0
 11
655.54861290883559
 21
275.67061276898443
 31
0.0
  0
LINE
  5
389F
  8
L1
 10
655.54861290883559
 20
275.67061276898443
 30
0.0
 11
655.54861290883525
 21
191.47764430286711
 31
0.0
  0
LINE
  5
38A0
  8
L1
 10
604.54861290883559
 20
190.2874564413481
 30
0.0
 11
604.54861290883571
 21
278.753616599076
 31
0.0
  0
LINE
  5
38A1
  8
L2
 10
653.13748973647444
 20
259.894961919671
 30
0.0
 11
602.34861290883555
 21
262.59851995506011
 31
0.0
  0
LINE
  5
38A2
  8
L1
 10
655.54861290883559
 20
275.67061276898443
 30
0.0
 11
604.73814571758692
 21
278.33347651881149
 31
0.0
  0
LINE
  5
38A3
  8
L1
 10
604.73814571758703
 20
264.22752344774051
 30
0.0
 11
655.54861290883559
 21
261.56465969791321
 31
0.0
  0
LINE
  5
38A4
  8
L2
 10
602.34861290883555
 20
262.59851995506011
 30
0.0
 11
602.34861290883555
 21
263.19851995505979
 31
0.0
  0
ARC
  5
38A5
  8
L1
 10
604.74861290883553
 20
264.42724935469067
 30
0.0
 40
0.2
 50
180.0
 51
267.00000000000028
  0
ARC
  5
38A6
  8
L1
 10
604.24861290883553
 20
278.13484980452648
 30
0.0
 40
0.3
 50
356.70795614630498
 51
0.0000000000000127
  0
LINE
  5
38A7
  8
L1
 10
604.54795170140301
 20
276.78325749305043
 30
0.0
 11
604.54654111110494
 21
276.78333141895541
 31
0.0
  0
ARC
  5
38A8
  8
L1
 10
604.34861290883543
 20
278.75361659907622
 30
0.0
 40
0.1999999999999879
 50
0.0000000000000127
 51
87.000000000000327
  0
ARC
  5
38A9
  8
L1
 10
604.34861290883555
 20
278.753616599076
 30
0.0
 40
0.2
 50
0.0000000000000127
 51
87.000000000000327
  0
ARC
  5
38AA
  8
L1
 10
604.74861290883553
 20
278.53320242576211
 30
0.0
 40
0.1999999999999993
 50
180.0
 51
266.99999999999932
  0
LINE
  5
38AB
  8
L2
 10
657.05775566980822
 20
260.14205808260942
 30
0.0
 11
657.55775566980822
 21
260.14205808260942
 31
0.0
  0
ARC
  5
38AC
  8
L2
 10
653.05775566980822
 20
258.3970825925511
 30
0.0
 40
1.5
 50
0.0
 51
86.952946906161273
  0
LINE
  5
38AD
  8
L1
 10
657.55775566982845
 20
273.5534180585978
 30
0.0
 11
655.54861290883559
 21
275.67061276898443
 31
0.0
  0
POLYLINE
  5
38AE
  8
L1
 66
     1
 10
0.0
 20
0.0
 30
0.0
  0
VERTEX
  5
4021
  8
L1
 10
657.55775566982845
 20
259.44746498752681
 30
0.0
  0
VERTEX
  5
4022
  8
L1
 10
655.54861290883548
 20
261.56465969791338
 30
0.0
  0
SEQEND
  5
4023
  8
L1
  0
LINE
  5
38AF
  8
L1
 10
604.73814571758703
 20
116.3473894349556
 30
0.0
 11
655.54861290883548
 21
119.0102531847827
 31
0.0
  0
LINE
  5
38B0
  8
L1
 10
655.54861290883559
 20
104.9043001137116
 30
0.0
 11
604.7381457175868
 21
102.2414363638846
 31
0.0
  0
LINE
  5
38B1
  8
L2
 10
653.13748973647444
 20
120.67995096302511
 30
0.0
 11
602.34861290883555
 21
117.9763929276359
 31
0.0
  0
LINE
  5
38B2
  8
L2
 10
602.34861290883555
 20
117.9763929276357
 30
0.0
 11
602.34861290883555
 21
117.376392927636
 31
0.0
  0
ARC
  5
38B3
  8
L1
 10
604.74861290883541
 20
116.1476635280051
 30
0.0
 40
0.2
 50
92.999999999999645
 51
180.0
  0
ARC
  5
38B4
  8
L1
 10
604.34861290883532
 20
101.8212962836199
 30
0.0
 40
0.2
 50
272.9999999999996
 51
0.0000000000000127
  0
ARC
  5
38B5
  8
L1
 10
604.34861290883532
 20
101.8212962836196
 30
0.0
 40
0.1999999999999879
 50
272.9999999999996
 51
0.0000000000000127
  0
LINE
  5
38B6
  8
L1
 10
604.54795170140301
 20
103.7916553896456
 30
0.0
 11
604.54654111110494
 21
103.7915814637405
 31
0.0
  0
ARC
  5
38B7
  8
L1
 10
604.24861290883541
 20
102.4400630781693
 30
0.0
 40
0.3
 50
0.0000000000000127
 51
3.2920438536949832
  0
ARC
  5
38B8
  8
L1
 10
604.74861290883541
 20
102.0417104569337
 30
0.0
 40
0.1999999999999993
 50
93.000000000000654
 51
180.0
  0
LINE
  5
38B9
  8
L2
 10
657.0577556698081
 20
120.4328548000868
 30
0.0
 11
657.5577556698081
 21
120.4328548000866
 31
0.0
  0
POLYLINE
  5
38BA
  8
L1
 66
     1
 10
0.0
 20
0.0
 30
0.0
  0
VERTEX
  5
4024
  8
L1
 10
657.55775566982834
 20
121.1274478951693
 30
0.0
  0
VERTEX
  5
4025
  8
L1
 10
655.54861290883525
 20
119.0102531847827
 30
0.0
  0
SEQEND
  5
4026
  8
L1
  0
ARC
  5
38BB
  8
L2
 10
653.0577556698081
 20
122.1778302901448
 30
0.0
 40
1.5
 50
273.0470530938386
 51
0.0
  0
LINE
  5
38BC
  8
L1
 10
657.55775566982845
 20
107.0214948240981
 30
0.0
 11
655.54861290883559
 21
104.9043001137116
 31
0.0
  0
LINE
  5
38C7
  8
L6
 10
315.58251392580922
 20
190.2874564413481
 30
0.0
 11
177.4680617684264
 21
190.2874564413481
 31
0.0
  0
LINE
  5
38C8
  8
L2
 10
211.52352961574169
 20
190.28745644134801
 30
0.0
 11
211.52352961574169
 21
260.14205808260942
 31
0.0
  0
LINE
  5
38C9
  8
L2
 10
214.02352961574181
 20
190.2874564413481
 30
0.0
 11
214.02352961574169
 21
258.39708259255121
 31
0.0
  0
LINE
  5
38CA
  8
L1
 10
211.02352961573041
 20
190.2874564413481
 30
0.0
 11
211.02352961572129
 21
273.5534180585978
 31
0.0
  0
LINE
  5
38CB
  8
L1
 10
213.03267237671449
 20
190.2874564413481
 30
0.0
 11
213.03267237671429
 21
275.67061276898443
 31
0.0
  0
LINE
  5
38CC
  8
L1
 10
213.03267237671429
 20
275.67061276898443
 30
0.0
 11
213.03267237671449
 21
191.47764430286711
 31
0.0
  0
LINE
  5
38CD
  8
L1
 10
264.03267237671429
 20
190.2874564413481
 30
0.0
 11
264.03267237671417
 21
278.753616599076
 31
0.0
  0
LINE
  5
38CE
  8
L1
 10
290.63267237671471
 20
190.2874564413481
 30
0.0
 11
290.63267237671431
 21
279.58048054157263
 31
0.0
  0
LINE
  5
38CF
  8
L1
 10
289.91339234603009
 20
190.2874564413481
 30
0.0
 11
289.91339234602992
 21
280.29976057225718
 31
0.0
  0
LINE
  5
38D0
  8
L1
 10
292.1035225288536
 20
278.14246602247562
 30
0.0
 11
292.10352252885372
 21
190.2874564413481
 31
0.0
  0
LINE
  5
38D1
  8
L1
 10
289.91339234603009
 20
190.2874564413481
 30
0.0
 11
289.91339234602992
 21
100.2751523104387
 31
0.0
  0
LINE
  5
38D2
  8
L1
 10
290.63267237671471
 20
190.2874564413481
 30
0.0
 11
290.63267237671442
 21
100.9944323411233
 31
0.0
  0
LINE
  5
38D3
  8
L1
 10
292.10352252885372
 20
102.4324468602202
 30
0.0
 11
292.10352252885372
 21
190.2874564413481
 31
0.0
  0
LINE
  5
38D4
  8
L2
 10
211.52352961574169
 20
190.2874564413481
 30
0.0
 11
211.52352961574181
 21
120.4328548000868
 31
0.0
  0
LINE
  5
38D5
  8
L1
 10
213.03267237671429
 20
104.9043001137116
 30
0.0
 11
213.03267237671449
 21
189.09726857982909
 31
0.0
  0
LINE
  5
38D6
  8
L1
 10
213.03267237671449
 20
190.2874564413481
 30
0.0
 11
213.03267237671429
 21
104.9043001137116
 31
0.0
  0
LINE
  5
38D7
  8
L1
 10
211.02352961573041
 20
190.2874564413481
 30
0.0
 11
211.02352961572129
 21
107.0214948240981
 31
0.0
  0
LINE
  5
38D8
  8
L2
 10
214.02352961574181
 20
190.2874564413481
 30
0.0
 11
214.02352961574181
 21
122.1778302901449
 31
0.0
  0
LINE
  5
38D9
  8
L1
 10
264.03267237671429
 20
190.2874564413481
 30
0.0
 11
264.03267237671429
 21
101.8212962836199
 31
0.0
  0
LINE
  5
38DA
  8
L1
 10
263.84313956796291
 20
116.3473894349556
 30
0.0
 11
213.0326723767144
 21
119.0102531847827
 31
0.0
  0
LINE
  5
38DB
  8
L1
 10
213.03267237671429
 20
104.9043001137116
 30
0.0
 11
263.84313956796308
 21
102.2414363638846
 31
0.0
  0
LINE
  5
38DC
  8
L2
 10
215.4437955490755
 20
120.67995096302511
 30
0.0
 11
266.23267237671428
 21
117.9763929276359
 31
0.0
  0
POLYLINE
  5
38DD
  8
L1
 66
     1
 10
0.0
 20
0.0
 30
0.0
  0
VERTEX
  5
4027
  8
L1
 10
264.03267237671429
 20
116.1758256441706
 30
0.0
  0
VERTEX
  5
4028
  8
L1
 10
264.03267237671429
 20
116.15471534339839
 30
0.0
  0
VERTEX
  5
4029
  8
L1
 10
264.03267237671429
 20
116.1476635280048
 30
0.0
  0
SEQEND
  5
402A
  8
L1
  0
LINE
  5
38DE
  8
L2
 10
266.23267237671428
 20
117.9763929276357
 30
0.0
 11
266.23267237671428
 21
117.376392927636
 31
0.0
  0
ARC
  5
38DF
  8
L1
 10
263.83267237671453
 20
116.1476635280051
 30
0.0
 40
0.2
 50
0.000000000000007
 51
87.000000000000355
  0
ARC
  5
38E0
  8
L1
 10
264.23267237671462
 20
101.8212962836199
 30
0.0
 40
0.2
 50
180.0
 51
267.00000000000028
  0
ARC
  5
38E1
  8
L1
 10
264.23267237671462
 20
101.8212962836196
 30
0.0
 40
0.1999999999999879
 50
180.0
 51
267.00000000000028
  0
LINE
  5
38E2
  8
L1
 10
264.03333358414687
 20
103.7916553896456
 30
0.0
 11
264.034744174445
 21
103.7915814637405
 31
0.0
  0
ARC
  5
38E3
  8
L1
 10
264.33267237671453
 20
102.4400630781693
 30
0.0
 40
0.3
 50
176.70795614630501
 51
180.0
  0
ARC
  5
38E4
  8
L1
 10
263.83267237671453
 20
102.0417104569337
 30
0.0
 40
0.1999999999999993
 50
0.000000000000007
 51
86.999999999999346
  0
LINE
  5
38E5
  8
L1
 10
290.63267237671442
 20
100.9944323411233
 30
0.0
 11
289.91339234602992
 21
100.2751523104387
 31
0.0
  0
ARC
  5
38E6
  8
L1
 10
291.70352252885391
 20
102.4324468602201
 30
0.0
 40
0.4
 50
280.00000000000608
 51
0.000000000000007
  0
LINE
  5
38E7
  8
L1
 10
291.77298179992061
 20
102.03852375901521
 30
0.0
 11
290.63586240975133
 21
101.8380189302416
 31
0.0
  0
LINE
  5
38E8
  8
L1
 10
289.91339234602992
 20
100.2751523104387
 30
0.0
 11
264.22220518546573
 21
101.6215703766689
 31
0.0
  0
LINE
  5
38E9
  8
L1
 10
289.91339234602992
 20
100.2751523104385
 30
0.0
 11
264.22220518546573
 21
101.6215703766687
 31
0.0
  0
LINE
  5
38EA
  8
L2
 10
290.63267237671442
 20
116.7374564413479
 30
0.0
 11
266.23267237671428
 21
117.376392927636
 31
0.0
  0
LINE
  5
38EB
  8
L2
 10
211.52352961574181
 20
120.4328548000868
 30
0.0
 11
211.02352961574181
 21
120.4328548000866
 31
0.0
  0
POLYLINE
  5
38EC
  8
L1
 66
     1
 10
0.0
 20
0.0
 30
0.0
  0
VERTEX
  5
402B
  8
L1
 10
211.02352961572149
 20
121.1274478951693
 30
0.0
  0
VERTEX
  5
402C
  8
L1
 10
213.03267237671449
 20
119.0102531847827
 30
0.0
  0
SEQEND
  5
402D
  8
L1
  0
ARC
  5
38ED
  8
L2
 10
215.52352961574181
 20
122.1778302901448
 30
0.0
 40
1.5
 50
180.0
 51
266.95294690616117
  0
LINE
  5
38EE
  8
L1
 10
211.02352961572129
 20
107.0214948240981
 30
0.0
 11
213.03267237671429
 21
104.9043001137116
 31
0.0
  0
LINE
  5
38EF
  8
L2
 10
215.4437955490755
 20
259.894961919671
 30
0.0
 11
266.23267237671428
 21
262.59851995506011
 31
0.0
  0
LINE
  5
38F0
  8
L1
 10
263.84313956796291
 20
264.22752344774051
 30
0.0
 11
213.03267237671429
 21
261.56465969791321
 31
0.0
  0
POLYLINE
  5
38F1
  8
L1
 66
     1
 10
0.0
 20
0.0
 30
0.0
  0
VERTEX
  5
402E
  8
L1
 10
264.03267237671429
 20
264.39908723852523
 30
0.0
  0
VERTEX
  5
402F
  8
L1
 10
264.03267237671429
 20
264.42019753929742
 30
0.0
  0
VERTEX
  5
4030
  8
L1
 10
264.03267237671429
 20
264.42724935469101
 30
0.0
  0
SEQEND
  5
4031
  8
L1
  0
LINE
  5
38F2
  8
L2
 10
266.23267237671428
 20
262.59851995506011
 30
0.0
 11
266.23267237671428
 21
263.19851995505979
 31
0.0
  0
ARC
  5
38F3
  8
L1
 10
263.83267237671441
 20
264.42724935469067
 30
0.0
 40
0.2
 50
272.9999999999996
 51
0.000000000000007
  0
LINE
  5
38F4
  8
L2
 10
290.63267237671431
 20
263.83745644134791
 30
0.0
 11
266.23267237671428
 21
263.19851995505979
 31
0.0
  0
LINE
  5
38F5
  8
L2
 10
211.52352961574169
 20
260.14205808260942
 30
0.0
 11
211.02352961574169
 21
260.14205808260942
 31
0.0
  0
ARC
  5
38F6
  8
L2
 10
215.52352961574169
 20
258.3970825925511
 30
0.0
 40
1.5
 50
93.047053093838713
 51
180.0
  0
POLYLINE
  5
38F7
  8
L1
 66
     1
 10
0.0
 20
0.0
 30
0.0
  0
VERTEX
  5
4032
  8
L1
 10
211.02352961572149
 20
259.44746498752681
 30
0.0
  0
VERTEX
  5
4033
  8
L1
 10
213.0326723767144
 20
261.56465969791338
 30
0.0
  0
SEQEND
  5
4034
  8
L1
  0
LINE
  5
38F8
  8
L1
 10
213.03267237671429
 20
275.67061276898443
 30
0.0
 11
263.84313956796302
 21
278.33347651881149
 31
0.0
  0
ARC
  5
38F9
  8
L1
 10
264.33267237671441
 20
278.13484980452648
 30
0.0
 40
0.3
 50
180.0
 51
183.29204385369499
  0
LINE
  5
38FA
  8
L1
 10
264.03333358414687
 20
276.78325749305043
 30
0.0
 11
264.034744174445
 21
276.78333141895541
 31
0.0
  0
ARC
  5
38FB
  8
L1
 10
264.2326723767145
 20
278.75361659907622
 30
0.0
 40
0.1999999999999879
 50
92.999999999999659
 51
180.0
  0
ARC
  5
38FC
  8
L1
 10
264.23267237671439
 20
278.753616599076
 30
0.0
 40
0.2
 50
92.999999999999659
 51
180.0
  0
ARC
  5
38FD
  8
L1
 10
263.83267237671441
 20
278.53320242576211
 30
0.0
 40
0.1999999999999993
 50
273.00000000000068
 51
0.000000000000007
  0
LINE
  5
38FE
  8
L1
 10
290.63267237671431
 20
279.58048054157263
 30
0.0
 11
289.91339234602992
 21
280.29976057225713
 31
0.0
  0
ARC
  5
38FF
  8
L1
 10
291.70352252885363
 20
278.14246602247567
 30
0.0
 40
0.4
 50
0.000000000000007
 51
79.999999999988646
  0
LINE
  5
3900
  8
L1
 10
291.7729817999205
 20
278.53638912368052
 30
0.0
 11
290.63586240975121
 21
278.7368939524543
 31
0.0
  0
LINE
  5
3901
  8
L1
 10
289.91339234602992
 20
280.2997605722573
 30
0.0
 11
264.22220518546573
 21
278.95334250602713
 31
0.0
  0
LINE
  5
3902
  8
L1
 10
289.91339234602992
 20
280.29976057225718
 30
0.0
 11
264.22220518546573
 21
278.95334250602701
 31
0.0
  0
LINE
  5
3903
  8
L1
 10
211.02352961572129
 20
273.5534180585978
 30
0.0
 11
213.03267237671429
 21
275.67061276898443
 31
0.0
  0
POLYLINE
  5
3904
  8
L1
 66
     1
 10
0.0
 20
0.0
 30
0.0
  0
VERTEX
  5
4035
  8
L1
 10
508.4022734399523
 20
18.485245330346618
 30
0.0
  0
VERTEX
  5
4036
  8
L1
 10
508.42338374072449
 20
18.485245330346618
 30
0.0
  0
VERTEX
  5
4037
  8
L1
 10
508.43043555611808
 20
18.485245330346618
 30
0.0
  0
SEQEND
  5
4038
  8
L1
  0
POLYLINE
  5
3905
  8
L1
 66
     1
 10
0.0
 20
0.0
 30
0.0
  0
VERTEX
  5
4039
  8
L1
 10
360.17901184559781
 20
18.485245330346618
 30
0.0
  0
VERTEX
  5
403A
  8
L1
 10
360.15790154482562
 20
18.485245330346618
 30
0.0
  0
VERTEX
  5
403B
  8
L1
 10
360.15084972943191
 20
18.485245330346618
 30
0.0
  0
SEQEND
  5
403C
  8
L1
  0
LINE
  5
3906
  8
L6
 10
434.29064264277503
 20
70.035086879441565
 30
0.0
 11
434.29064264277503
 21
-68.079365277941292
 31
0.0
  0
LINE
  5
3907
  8
L1
 10
524.3029467736842
 20
44.3659652996622
 30
0.0
 11
522.95652870745414
 21
18.674778139098059
 31
0.0
  0
LINE
  5
3908
  8
L1
 10
524.30294677368443
 20
44.3659652996622
 30
0.0
 11
522.95652870745425
 21
18.674778139098059
 31
0.0
  0
LINE
  5
3909
  8
L2
 10
507.84064264277498
 20
45.085245330346652
 30
0.0
 11
507.20170615648698
 21
20.685245330346671
 31
0.0
  0
LINE
  5
390A
  8
L2
 10
360.74064264277507
 20
45.085245330346652
 30
0.0
 11
361.37957912906307
 21
20.685245330346671
 31
0.0
  0
LINE
  5
390B
  8
L1
 10
344.27833851186563
 20
44.3659652996622
 30
0.0
 11
345.6247565780958
 21
18.674778139098059
 31
0.0
  0
LINE
  5
390C
  8
L1
 10
344.2783385118658
 20
44.3659652996622
 30
0.0
 11
345.62475657809591
 21
18.674778139098059
 31
0.0
  0
LINE
  5
390D
  8
L1
 10
434.29064264277503
 20
44.365965299662321
 30
0.0
 11
524.3029467736842
 21
44.3659652996622
 31
0.0
  0
LINE
  5
390E
  8
L1
 10
434.29064264277503
 20
45.085245330346872
 30
0.0
 11
523.58366674299975
 21
45.085245330346652
 31
0.0
  0
LINE
  5
390F
  8
L1
 10
522.14565222390274
 20
46.556095482485937
 30
0.0
 11
434.29064264277503
 21
46.556095482485937
 31
0.0
  0
LINE
  5
3910
  8
L1
 10
434.29064264277503
 20
45.085245330346872
 30
0.0
 11
344.9976185425503
 21
45.085245330346652
 31
0.0
  0
LINE
  5
3911
  8
L1
 10
434.29064264277503
 20
44.365965299662321
 30
0.0
 11
344.2783385118658
 21
44.3659652996622
 31
0.0
  0
LINE
  5
3912
  8
L1
 10
346.43563306164731
 20
46.556095482485937
 30
0.0
 11
434.29064264277503
 21
46.556095482485937
 31
0.0
  0
LINE
  5
3913
  8
L1
 10
344.9976185425503
 20
45.085245330346652
 30
0.0
 11
344.27833851186591
 21
44.3659652996622
 31
0.0
  0
ARC
  5
3914
  8
L1
 10
346.43563306164731
 20
46.156095482485959
 30
0.0
 40
0.4
 50
90.000000000000028
 51
169.9999999999886
  0
LINE
  5
3915
  8
L1
 10
346.04170996044252
 20
46.225554753552842
 30
0.0
 11
345.84120513166857
 21
45.088435363383489
 31
0.0
  0
LINE
  5
3916
  8
L1
 10
523.58366674299975
 20
45.085245330346652
 30
0.0
 11
524.3029467736842
 21
44.3659652996622
 31
0.0
  0
ARC
  5
3917
  8
L1
 10
522.14565222390274
 20
46.156095482486023
 30
0.0
 40
0.4
 50
10.00000000000621
 51
90.000000000000028
  0
LINE
  5
3918
  8
L1
 10
522.53957532510765
 20
46.225554753552842
 30
0.0
 11
522.74008015388142
 21
45.088435363383489
 31
0.0
  0
LINE
  5
3919
  8
L2
 10
434.29064264277491
 20
-34.02389743062605
 30
0.0
 11
504.14524428403632
 21
-34.023897430625993
 31
0.0
  0
LINE
  5
391A
  8
L1
 10
519.67379897041133
 20
-32.514754669653371
 30
0.0
 11
435.48083050429392
 21
-32.514754669653257
 31
0.0
  0
LINE
  5
391B
  8
L1
 10
434.29064264277503
 20
-32.514754669653144
 30
0.0
 11
519.67379897041133
 21
-32.514754669653371
 31
0.0
  0
LINE
  5
391C
  8
L1
 10
434.29064264277503
 20
-34.523897430637362
 30
0.0
 11
517.55660426002476
 21
-34.523897430646343
 31
0.0
  0
LINE
  5
391D
  8
L2
 10
434.29064264277503
 20
-31.52389743062599
 30
0.0
 11
502.400268793978
 21
-31.52389743062599
 31
0.0
  0
LINE
  5
391E
  8
L1
 10
434.29064264277503
 20
18.485245330346508
 30
0.0
 11
522.75680280050301
 21
18.485245330346508
 31
0.0
  0
LINE
  5
391F
  8
L2
 10
434.29064264277503
 20
-34.02389743062605
 30
0.0
 11
364.43604100151362
 21
-34.023897430625993
 31
0.0
  0
LINE
  5
3920
  8
L2
 10
434.29064264277503
 20
-31.52389743062599
 30
0.0
 11
366.18101649157182
 21
-31.52389743062599
 31
0.0
  0
LINE
  5
3921
  8
L1
 10
434.29064264277503
 20
-34.523897430637362
 30
0.0
 11
351.02468102552513
 21
-34.523897430646343
 31
0.0
  0
LINE
  5
3922
  8
L1
 10
434.29064264277503
 20
-32.514754669653144
 30
0.0
 11
348.9074863151385
 21
-32.514754669653371
 31
0.0
  0
LINE
  5
3923
  8
L1
 10
348.9074863151385
 20
-32.514754669653371
 30
0.0
 11
433.10045478125591
 21
-32.514754669653257
 31
0.0
  0
LINE
  5
3924
  8
L1
 10
434.29064264277503
 20
18.485245330346508
 30
0.0
 11
345.82448248504687
 21
18.485245330346508
 31
0.0
  0
LINE
  5
3925
  8
L2
 10
364.68313716445198
 20
-30.103631497292209
 30
0.0
 11
361.97957912906281
 21
20.685245330346671
 31
0.0
  0
LINE
  5
3926
  8
L1
 10
348.9074863151385
 20
-32.514754669653371
 30
0.0
 11
346.24462256531149
 21
18.295712521595298
 31
0.0
  0
LINE
  5
3927
  8
L1
 10
360.35057563638247
 20
18.295712521595188
 30
0.0
 11
363.01343938620971
 21
-32.514754669653307
 31
0.0
  0
LINE
  5
3928
  8
L2
 10
361.97957912906281
 20
20.685245330346671
 30
0.0
 11
361.37957912906307
 21
20.685245330346671
 31
0.0
  0
ARC
  5
3929
  8
L1
 10
360.15084972943208
 20
18.28524533034669
 30
0.0
 40
0.2
 50
2.999999999999674
 51
90.000000000000028
  0
ARC
  5
392A
  8
L1
 10
346.44324927959639
 20
18.78524533034669
 30
0.0
 40
0.3
 50
270.0
 51
273.29204385369491
  0
LINE
  5
392B
  8
L1
 10
347.79484159107261
 20
18.485906537779211
 30
0.0
 11
347.79476766516763
 21
18.487317128077279
 31
0.0
  0
ARC
  5
392C
  8
L1
 10
345.82448248504681
 20
18.685245330346781
 30
0.0
 40
0.1999999999999879
 50
182.9999999999996
 51
270.0
  0
ARC
  5
392D
  8
L1
 10
345.82448248504699
 20
18.685245330346671
 30
0.0
 40
0.2
 50
182.9999999999996
 51
270.0
  0
ARC
  5
392E
  8
L1
 10
346.04489665836093
 20
18.28524533034669
 30
0.0
 40
0.1999999999999993
 50
3.0000000000006919
 51
90.000000000000028
  0
LINE
  5
392F
  8
L2
 10
364.43604100151362
 20
-34.023897430625993
 30
0.0
 11
364.4360410015135
 21
-34.523897430625993
 31
0.0
  0
ARC
  5
3930
  8
L2
 10
366.18101649157182
 20
-30.02389743062599
 30
0.0
 40
1.5
 50
183.0470530938386
 51
270.0
  0
LINE
  5
3931
  8
L1
 10
351.02468102552513
 20
-34.523897430646343
 30
0.0
 11
348.9074863151385
 21
-32.514754669653371
 31
0.0
  0
POLYLINE
  5
3932
  8
L1
 66
     1
 10
0.0
 20
0.0
 30
0.0
  0
VERTEX
  5
403D
  8
L1
 10
365.13063409659622
 20
-34.52389743064623
 30
0.0
  0
VERTEX
  5
403E
  8
L1
 10
363.0134393862096
 20
-32.514754669653257
 30
0.0
  0
SEQEND
  5
403F
  8
L1
  0
LINE
  5
3933
  8
L1
 10
508.23070964916741
 20
18.295712521595188
 30
0.0
 11
505.56784589934023
 21
-32.514754669653307
 31
0.0
  0
LINE
  5
3934
  8
L1
 10
519.67379897041133
 20
-32.514754669653371
 30
0.0
 11
522.33666272023834
 21
18.295712521595298
 31
0.0
  0
LINE
  5
3935
  8
L2
 10
503.8981481210979
 20
-30.103631497292209
 30
0.0
 11
506.60170615648701
 21
20.685245330346671
 31
0.0
  0
LINE
  5
3936
  8
L2
 10
506.60170615648718
 20
20.685245330346671
 30
0.0
 11
507.20170615648698
 21
20.685245330346671
 31
0.0
  0
ARC
  5
3937
  8
L1
 10
508.43043555611791
 20
18.285245330346751
 30
0.0
 40
0.2
 50
90.000000000000028
 51
177.00000000000031
  0
ARC
  5
3938
  8
L1
 10
522.75680280050301
 20
18.685245330346731
 30
0.0
 40
0.2
 50
270.0
 51
357.00000000000028
  0
ARC
  5
3939
  8
L1
 10
522.75680280050324
 20
18.685245330346842
 30
0.0
 40
0.1999999999999879
 50
270.0
 51
357.00000000000028
  0
LINE
  5
393A
  8
L1
 10
520.7864436944775
 20
18.485906537779211
 30
0.0
 11
520.78651762038237
 21
18.487317128077279
 31
0.0
  0
ARC
  5
393B
  8
L1
 10
522.1380360059535
 20
18.785245330346751
 30
0.0
 40
0.3
 50
266.70795614630498
 51
270.0
  0
ARC
  5
393C
  8
L1
 10
522.53638862718913
 20
18.285245330346751
 30
0.0
 40
0.1999999999999993
 50
90.000000000000028
 51
176.99999999999929
  0
LINE
  5
393D
  8
L2
 10
504.14524428403632
 20
-34.023897430625993
 30
0.0
 11
504.14524428403632
 21
-34.523897430625993
 31
0.0
  0
POLYLINE
  5
393E
  8
L1
 66
     1
 10
0.0
 20
0.0
 30
0.0
  0
VERTEX
  5
4040
  8
L1
 10
503.45065118895371
 20
-34.52389743064623
 30
0.0
  0
VERTEX
  5
4041
  8
L1
 10
505.56784589934023
 20
-32.514754669653257
 30
0.0
  0
SEQEND
  5
4042
  8
L1
  0
ARC
  5
393F
  8
L2
 10
502.400268793978
 20
-30.02389743062599
 30
0.0
 40
1.5
 50
270.0
 51
356.95294690616117
  0
LINE
  5
3940
  8
L1
 10
517.55660426002476
 20
-34.523897430646343
 30
0.0
 11
519.67379897041133
 21
-32.514754669653371
 31
0.0
  0
LINE
  5
3941
  8
L1
 10
434.29064264277503
 20
273.55341805859791
 30
0.0
 11
366.3743365808109
 21
273.55341805859803
 31
0.0
  0
ARC
  5
3942
  8
L1
 10
366.40173669689852
 20
272.28115968271851
 30
0.0
 40
1.2725533943049521
 50
91.233765393838894
 51
177.26382564480119
  0
LINE
  5
3943
  8
L1
 10
365.13063409659622
 20
272.34190769389232
 30
0.0
 11
365.13063409659622
 21
261.44746498752693
 31
0.0
  0
ARC
  5
3944
  8
L1
 10
363.13063409659622
 20
261.44746498752693
 30
0.0
 40
2.0
 50
270.0
 51
0.0
  0
LINE
  5
3945
  8
L1
 10
363.13063409659622
 20
259.44746498752693
 30
0.0
 11
352.23619139023072
 21
259.44746498752693
 31
0.0
  0
ARC
  5
3946
  8
L1
 10
352.23619139023072
 20
258.23595462282123
 30
0.0
 40
1.2115103647056451
 50
90.0
 51
180.0
  0
LINE
  5
3947
  8
L1
 10
351.02468102552513
 20
258.23595462282123
 30
0.0
 11
351.02468102552513
 21
190.2874564413481
 31
0.0
  0
LINE
  5
394E
  8
L1
 10
434.29064264277503
 20
275.67061276898448
 30
0.0
 11
365.01343938620971
 21
275.6706127689846
 31
0.0
  0
ARC
  5
394F
  8
L1
 10
365.01343938620971
 20
273.6706127689846
 30
0.0
 40
2.0
 50
90.0
 51
180.00000000000159
  0
LINE
  5
3950
  8
L1
 10
363.01343938620971
 20
273.67061276898448
 30
0.0
 11
363.01343938620971
 21
269.0646596979135
 31
0.0
  0
ARC
  5
3951
  8
L1
 10
355.51343938620971
 20
269.0646596979135
 30
0.0
 40
7.5
 50
270.0
 51
0.0
  0
LINE
  5
3952
  8
L1
 10
355.51343938620971
 20
261.56465969791338
 30
0.0
 11
350.90748631513861
 21
261.56465969791338
 31
0.0
  0
ARC
  5
3953
  8
L1
 10
350.90748631513861
 20
259.56465969791338
 30
0.0
 40
2.000000000000056
 50
90.000000000001606
 51
180.0
  0
LINE
  5
3954
  8
L1
 10
348.90748631513861
 20
259.56465969791338
 30
0.0
 11
348.9074863151385
 21
190.2874564413481
 31
0.0
  0
LINE
  5
395B
  8
L1
 10
434.29064264277503
 20
278.53320242576223
 30
0.0
 11
362.35084972943201
 21
278.53320242576228
 31
0.0
  0
ARC
  5
395C
  8
L1
 10
362.35084972943201
 20
276.33320242576229
 30
0.0
 40
2.1999999999999882
 50
89.999999999998522
 51
180.0
  0
LINE
  5
395D
  8
L1
 10
360.15084972943203
 20
276.33320242576229
 30
0.0
 11
360.15084972943203
 21
272.02724935469121
 31
0.0
  0
ARC
  5
395E
  8
L1
 10
352.75815025752257
 20
271.81994882660052
 30
0.0
 40
7.395605383666445
 50
268.39377567843991
 51
1.6062243215591421
  0
LINE
  5
395F
  8
L1
 10
352.55084972943177
 20
264.42724935469118
 30
0.0
 11
348.24489665836091
 21
264.42724935469118
 31
0.0
  0
ARC
  5
3960
  8
L1
 10
348.24489665836091
 20
262.2272493546912
 30
0.0
 40
2.1999999999999882
 50
90.0
 51
180.0
  0
LINE
  5
3961
  8
L1
 10
346.04489665836093
 20
262.2272493546912
 30
0.0
 11
346.04489665836081
 21
190.2874564413481
 31
0.0
  0
LINE
  5
3968
  8
L1
 10
522.75680280050301
 20
275.45813913438627
 30
0.0
 11
522.75680280050324
 21
190.2874564413481
 31
0.0
  0
LINE
  5
3969
  8
L1
 10
524.30294677368408
 20
190.2874564413481
 30
0.0
 11
524.30294677368408
 21
276.80455720061639
 31
0.0
  0
LINE
  5
396A
  8
L1
 10
505.56784589934023
 20
273.67061276898448
 30
0.0
 11
505.56784589934023
 21
269.0646596979135
 31
0.0
  0
LINE
  5
396B
  8
L1
 10
503.45065118895371
 20
272.34190769389232
 30
0.0
 11
503.45065118895371
 21
261.44746498752693
 31
0.0
  0
ARC
  5
396C
  8
L1
 10
515.82313502802731
 20
271.81994882660052
 30
0.0
 40
7.395605383666445
 50
178.39377567844079
 51
271.60622432155998
  0
ARC
  5
396D
  8
L1
 10
516.04064264277497
 20
272.03745644134818
 30
0.0
 40
4.8551339946733894
 50
177.92530363578149
 51
272.0746963642178
  0
CIRCLE
  5
396E
  8
L1
 10
516.04064264277497
 20
272.03745644134818
 30
0.0
 40
6.097393363178492
  0
CIRCLE
  5
396F
  8
L1
 10
516.04064264277497
 20
272.03745644134818
 30
0.0
 40
5.7974047862592784
  0
LINE
  5
3970
  8
L1
 10
520.89259399685523
 20
271.86168908410781
 30
0.0
 11
516.21641000001534
 21
267.1855050872681
 31
0.0
  0
LINE
  5
3971
  8
L1
 10
502.14524428403632
 20
260.14205808260942
 30
0.0
 11
434.29064264277503
 21
260.14205808260942
 31
0.0
  0
LINE
  5
3972
  8
L1
 10
522.53638862718901
 20
262.2272493546912
 30
0.0
 11
522.53638862718913
 21
190.2874564413481
 31
0.0
  0
LINE
  5
3973
  8
L1
 10
517.55660426002476
 20
258.23595462282123
 30
0.0
 11
517.55660426002476
 21
190.2874564413481
 31
0.0
  0
LINE
  5
3974
  8
L1
 10
519.67379897041133
 20
259.56465969791338
 30
0.0
 11
519.67379897041133
 21
190.2874564413481
 31
0.0
  0
LINE
  5
3975
  8
L1
 10
504.14524428403632
 20
258.14205808260942
 30
0.0
 11
504.14524428403632
 21
190.2874564413481
 31
0.0
  0
ARC
  5
3976
  8
L1
 10
513.06784589934023
 20
269.0646596979135
 30
0.0
 40
7.5
 50
180.0
 51
270.0
  0
LINE
  5
3977
  8
L1
 10
505.4506511889536
 20
259.44746498752693
 30
0.0
 11
516.34509389531922
 21
259.44746498752693
 31
0.0
  0
ARC
  5
3978
  8
L1
 10
517.67379897041133
 20
259.56465969791338
 30
0.0
 40
2.000000000000056
 50
0.000000000000007
 51
89.999999999998394
  0
ARC
  5
3979
  8
L1
 10
516.34509389531922
 20
258.23595462282123
 30
0.0
 40
1.2115103647056451
 50
0.000000000000007
 51
90.0
  0
ARC
  5
397A
  8
L1
 10
520.33638862718897
 20
262.2272493546912
 30
0.0
 40
2.1999999999999882
 50
0.000000000000007
 51
90.0
  0
LINE
  5
397B
  8
L1
 10
513.06784589934023
 20
261.56465969791338
 30
0.0
 11
517.67379897041133
 21
261.56465969791338
 31
0.0
  0
LINE
  5
397C
  8
L1
 10
516.03043555611805
 20
264.42724935469118
 30
0.0
 11
520.33638862718897
 21
264.42724935469118
 31
0.0
  0
ARC
  5
397D
  8
L1
 10
505.4506511889536
 20
261.44746498752693
 30
0.0
 40
2.0
 50
180.0
 51
270.0
  0
ARC
  5
397E
  8
L1
 10
502.14524428403632
 20
258.14205808260942
 30
0.0
 40
2.0
 50
0.000000000000007
 51
90.0
  0
LINE
  5
397F
  8
L1
 10
434.29064264277503
 20
275.67061276898448
 30
0.0
 11
503.56784589934023
 21
275.6706127689846
 31
0.0
  0
LINE
  5
3980
  8
L1
 10
434.29064264277503
 20
280.29976057225753
 30
0.0
 11
520.807743402043
 21
280.29976057225741
 31
0.0
  0
LINE
  5
3981
  8
L1
 10
519.46132533581283
 20
278.75361659907639
 30
0.0
 11
434.29064264277503
 21
278.75361659907639
 31
0.0
  0
LINE
  5
3982
  8
L1
 10
434.29064264277503
 20
273.55341805859791
 30
0.0
 11
502.20694870473898
 21
273.55341805859803
 31
0.0
  0
LINE
  5
3983
  8
L1
 10
434.29064264277503
 20
278.53320242576223
 30
0.0
 11
506.23043555611781
 21
278.53320242576228
 31
0.0
  0
LINE
  5
3984
  8
L1
 10
511.18869128869471
 20
272.21322379858879
 30
0.0
 11
515.86487528553459
 21
276.88940779542872
 31
0.0
  0
ARC
  5
3985
  8
L1
 10
519.46318572853704
 20
275.45999952711031
 30
0.0
 40
3.293617597385512
 50
359.96763660205352
 51
90.032363397950903
  0
ARC
  5
3986
  8
L1
 10
520.81233285850658
 20
276.80914665707991
 30
0.0
 40
3.4906169322830971
 50
359.92466759702347
 51
90.075332402977807
  0
ARC
  5
3987
  8
L1
 10
516.04064264277497
 20
272.03745644134818
 30
0.0
 40
4.8551339946733894
 50
67.463660053061062
 51
92.0746963642151
  0
LINE
  5
3988
  8
L1
 10
517.90146658403057
 20
276.5218360378903
 30
0.0
 11
518.32638917717986
 21
276.94675863103959
 31
0.0
  0
LINE
  5
3989
  8
L1
 10
520.94994483246637
 20
274.32320297575319
 30
0.0
 11
520.52502223931697
 21
273.89828038260379
 31
0.0
  0
ARC
  5
398A
  8
L1
 10
516.04064264277497
 20
272.03745644134818
 30
0.0
 40
4.8551339946733894
 50
357.92530363578283
 51
22.536339946938579
  0
POLYLINE
  5
398B
  8
L1
 66
     1
 10
0.0
 20
0.0
 30
0.0
  0
VERTEX
  5
4043
  8
L1
 10
521.17374228452718
 20
274.55067061428332
 30
0.0
  0
VERTEX
  5
4044
  8
L1
 10
521.15784930478276
 20
274.53342239150601
 30
0.0
  0
VERTEX
  5
4045
  8
L1
 10
521.11067082178954
 20
274.48504384652011
 30
0.0
  0
VERTEX
  5
4046
  8
L1
 10
521.03798477839393
 20
274.41153748847381
 30
0.0
  0
VERTEX
  5
4047
  8
L1
 10
520.94994483246637
 20
274.32320297575319
 30
0.0
  0
SEQEND
  5
4048
  8
L1
  0
POLYLINE
  5
398C
  8
L1
 66
     1
 10
0.0
 20
0.0
 30
0.0
  0
VERTEX
  5
4049
  8
L1
 10
521.19217182206273
 20
274.6641632036434
 30
0.0
  0
VERTEX
  5
404A
  8
L1
 10
521.17374228452718
 20
274.55067061428349
 30
0.0
  0
SEQEND
  5
404B
  8
L1
  0
POLYLINE
  5
398D
  8
L1
 66
     1
 10
0.0
 20
0.0
 30
0.0
  0
VERTEX
  5
404C
  8
L1
 10
518.55385681571022
 20
277.17055608310039
 30
0.0
  0
VERTEX
  5
404D
  8
L1
 10
518.66734940507024
 20
277.188985620636
 30
0.0
  0
SEQEND
  5
404E
  8
L1
  0
POLYLINE
  5
398E
  8
L1
 66
     1
 10
0.0
 20
0.0
 30
0.0
  0
VERTEX
  5
404F
  8
L1
 10
518.32638917717986
 20
276.9467586310397
 30
0.0
  0
VERTEX
  5
4050
  8
L1
 10
518.4147236899006
 20
277.03479857696721
 30
0.0
  0
VERTEX
  5
4051
  8
L1
 10
518.48823004794667
 20
277.10748462036292
 30
0.0
  0
VERTEX
  5
4052
  8
L1
 10
518.53660859293268
 20
277.15466310335609
 30
0.0
  0
VERTEX
  5
4053
  8
L1
 10
518.55385681570999
 20
277.17055608310039
 30
0.0
  0
SEQEND
  5
4054
  8
L1
  0
ARC
  5
398F
  8
L1
 10
503.56784589934023
 20
273.6706127689846
 30
0.0
 40
2.0
 50
359.99999999999829
 51
90.0
  0
ARC
  5
3990
  8
L1
 10
502.1795485886513
 20
272.28115968271851
 30
0.0
 40
1.2725533943049521
 50
2.7361743551986981
 51
88.766234606161092
  0
LINE
  5
3991
  8
L1
 10
508.43043555611791
 20
276.33320242576229
 30
0.0
 11
508.43043555611791
 21
272.02724935469121
 31
0.0
  0
ARC
  5
3992
  8
L1
 10
506.23043555611792
 20
276.33320242576229
 30
0.0
 40
2.1999999999999882
 50
0.000000000000007
 51
90.000000000001464
  0
LINE
  5
3993
  8
L1
 10
434.29064264277503
 20
102.0417104569339
 30
0.0
 11
506.23043555611781
 21
102.0417104569339
 31
0.0
  0
LINE
  5
3994
  8
L1
 10
434.29064264277503
 20
107.0214948240982
 30
0.0
 11
502.20694870473898
 21
107.0214948240982
 31
0.0
  0
LINE
  5
3995
  8
L1
 10
519.46132533581283
 20
101.8212962836198
 30
0.0
 11
434.29064264277503
 21
101.8212962836198
 31
0.0
  0
LINE
  5
3996
  8
L1
 10
434.29064264277503
 20
100.2751523104387
 30
0.0
 11
520.807743402043
 21
100.2751523104387
 31
0.0
  0
LINE
  5
3997
  8
L1
 10
434.29064264277503
 20
104.9043001137117
 30
0.0
 11
503.56784589934023
 21
104.9043001137116
 31
0.0
  0
LINE
  5
3998
  8
L1
 10
502.14524428403632
 20
120.4328548000867
 30
0.0
 11
434.29064264277503
 21
120.4328548000867
 31
0.0
  0
LINE
  5
3999
  8
L1
 10
345.82448248504681
 20
105.1167737483099
 30
0.0
 11
345.8244824850467
 21
190.2874564413481
 31
0.0
  0
LINE
  5
399A
  8
L1
 10
344.2783385118658
 20
190.2874564413481
 30
0.0
 11
344.2783385118658
 21
103.7703556820797
 31
0.0
  0
LINE
  5
399B
  8
L1
 10
363.01343938620971
 20
106.9043001137117
 30
0.0
 11
363.01343938620971
 21
111.5102531847827
 31
0.0
  0
LINE
  5
399C
  8
L1
 10
365.13063409659622
 20
108.2330051888038
 30
0.0
 11
365.13063409659622
 21
119.1274478951693
 31
0.0
  0
ARC
  5
399D
  8
L1
 10
352.75815025752257
 20
108.7549640560956
 30
0.0
 40
7.395605383666445
 50
358.39377567844082
 51
91.606224321560006
  0
ARC
  5
399E
  8
L1
 10
352.54064264277491
 20
108.537456441348
 30
0.0
 40
4.8551339946733894
 50
357.9253036357814
 51
92.0746963642178
  0
CIRCLE
  5
399F
  8
L1
 10
352.54064264277491
 20
108.537456441348
 30
0.0
 40
6.097393363178492
  0
CIRCLE
  5
39A0
  8
L1
 10
352.54064264277491
 20
108.537456441348
 30
0.0
 40
5.7974047862592784
  0
LINE
  5
39A1
  8
L1
 10
347.68869128869471
 20
108.7132237985883
 30
0.0
 11
352.36487528553459
 21
113.3894077954281
 31
0.0
  0
LINE
  5
39A2
  8
L1
 10
366.43604100151362
 20
120.4328548000867
 30
0.0
 11
434.29064264277503
 21
120.4328548000867
 31
0.0
  0
LINE
  5
39A3
  8
L1
 10
346.04489665836093
 20
118.347663528005
 30
0.0
 11
346.04489665836081
 21
190.2874564413481
 31
0.0
  0
LINE
  5
39A4
  8
L1
 10
351.02468102552513
 20
122.3389582598749
 30
0.0
 11
351.02468102552513
 21
190.2874564413481
 31
0.0
  0
LINE
  5
39A5
  8
L1
 10
348.90748631513861
 20
121.0102531847828
 30
0.0
 11
348.9074863151385
 21
190.2874564413481
 31
0.0
  0
LINE
  5
39A6
  8
L1
 10
364.43604100151362
 20
122.4328548000867
 30
0.0
 11
364.43604100151362
 21
190.2874564413481
 31
0.0
  0
ARC
  5
39A7
  8
L1
 10
355.51343938620971
 20
111.5102531847827
 30
0.0
 40
7.5
 50
0.0
 51
90.000000000000028
  0
LINE
  5
39A8
  8
L1
 10
363.13063409659622
 20
121.1274478951693
 30
0.0
 11
352.23619139023072
 21
121.1274478951693
 31
0.0
  0
ARC
  5
39A9
  8
L1
 10
350.90748631513861
 20
121.0102531847828
 30
0.0
 40
2.000000000000056
 50
180.0
 51
269.99999999999829
  0
ARC
  5
39AA
  8
L1
 10
352.23619139023072
 20
122.3389582598749
 30
0.0
 40
1.2115103647056451
 50
180.0
 51
270.0
  0
ARC
  5
39AB
  8
L1
 10
348.24489665836091
 20
118.347663528005
 30
0.0
 40
2.1999999999999882
 50
180.0
 51
270.0
  0
LINE
  5
39AC
  8
L1
 10
355.51343938620971
 20
119.0102531847827
 30
0.0
 11
350.90748631513861
 21
119.0102531847828
 31
0.0
  0
LINE
  5
39AD
  8
L1
 10
352.55084972943177
 20
116.147663528005
 30
0.0
 11
348.24489665836091
 21
116.147663528005
 31
0.0
  0
ARC
  5
39AE
  8
L1
 10
363.13063409659622
 20
119.1274478951693
 30
0.0
 40
2.0
 50
0.0
 51
90.000000000000028
  0
ARC
  5
39AF
  8
L1
 10
366.43604100151362
 20
122.4328548000867
 30
0.0
 40
2.0
 50
180.0
 51
270.0
  0
LINE
  5
39B0
  8
L1
 10
434.29064264277503
 20
104.9043001137117
 30
0.0
 11
365.01343938620971
 21
104.9043001137116
 31
0.0
  0
LINE
  5
39B1
  8
L1
 10
434.29064264277503
 20
100.2751523104387
 30
0.0
 11
347.77354188350688
 21
100.2751523104387
 31
0.0
  0
LINE
  5
39B2
  8
L1
 10
349.11995994973711
 20
101.8212962836198
 30
0.0
 11
434.29064264277503
 21
101.8212962836198
 31
0.0
  0
LINE
  5
39B3
  8
L1
 10
434.29064264277503
 20
107.0214948240982
 30
0.0
 11
366.3743365808109
 21
107.0214948240982
 31
0.0
  0
LINE
  5
39B4
  8
L1
 10
434.29064264277503
 20
102.0417104569339
 30
0.0
 11
362.35084972943201
 21
102.0417104569339
 31
0.0
  0
LINE
  5
39B5
  8
L1
 10
357.39259399685523
 20
108.3616890841074
 30
0.0
 11
352.71641000001529
 21
103.6855050872675
 31
0.0
  0
ARC
  5
39B6
  8
L1
 10
349.11809955701278
 20
105.1149133555859
 30
0.0
 40
3.293617597385512
 50
179.9676366020534
 51
270.03236339795092
  0
ARC
  5
39B7
  8
L1
 10
347.7689524270433
 20
103.7657662256162
 30
0.0
 40
3.4906169322830971
 50
179.9246675970235
 51
270.07533240297772
  0
ARC
  5
39B8
  8
L1
 10
352.54064264277491
 20
108.537456441348
 30
0.0
 40
4.8551339946733894
 50
247.46366005306101
 51
272.07469636421507
  0
LINE
  5
39B9
  8
L1
 10
350.67981870151931
 20
104.0530768448058
 30
0.0
 11
350.25489610836991
 21
103.6281542516566
 31
0.0
  0
LINE
  5
39BA
  8
L1
 10
347.6313404530834
 20
106.25170990694301
 30
0.0
 11
348.0562630462328
 21
106.6766325000924
 31
0.0
  0
ARC
  5
39BB
  8
L1
 10
352.54064264277491
 20
108.537456441348
 30
0.0
 40
4.8551339946733894
 50
177.9253036357828
 51
202.53633994693851
  0
POLYLINE
  5
39BC
  8
L1
 66
     1
 10
0.0
 20
0.0
 30
0.0
  0
VERTEX
  5
4055
  8
L1
 10
347.40754300102259
 20
106.02424226841281
 30
0.0
  0
VERTEX
  5
4056
  8
L1
 10
347.42343598076701
 20
106.0414904911901
 30
0.0
  0
VERTEX
  5
4057
  8
L1
 10
347.47061446376028
 20
106.089869036176
 30
0.0
  0
VERTEX
  5
4058
  8
L1
 10
347.543300507156
 20
106.1633753942223
 30
0.0
  0
VERTEX
  5
4059
  8
L1
 10
347.6313404530834
 20
106.25170990694301
 30
0.0
  0
SEQEND
  5
405A
  8
L1
  0
POLYLINE
  5
39BD
  8
L1
 66
     1
 10
0.0
 20
0.0
 30
0.0
  0
VERTEX
  5
405B
  8
L1
 10
347.38911346348721
 20
105.9107496790528
 30
0.0
  0
VERTEX
  5
405C
  8
L1
 10
347.40754300102259
 20
106.02424226841271
 30
0.0
  0
SEQEND
  5
405D
  8
L1
  0
POLYLINE
  5
39BE
  8
L1
 66
     1
 10
0.0
 20
0.0
 30
0.0
  0
VERTEX
  5
405E
  8
L1
 10
350.02742846983972
 20
103.4043567995958
 30
0.0
  0
VERTEX
  5
405F
  8
L1
 10
349.91393588047958
 20
103.38592726206021
 30
0.0
  0
SEQEND
  5
4060
  8
L1
  0
POLYLINE
  5
39BF
  8
L1
 66
     1
 10
0.0
 20
0.0
 30
0.0
  0
VERTEX
  5
4061
  8
L1
 10
350.25489610836991
 20
103.6281542516565
 30
0.0
  0
VERTEX
  5
4062
  8
L1
 10
350.16656159564928
 20
103.54011430572901
 30
0.0
  0
VERTEX
  5
4063
  8
L1
 10
350.0930552376031
 20
103.4674282623333
 30
0.0
  0
VERTEX
  5
4064
  8
L1
 10
350.04467669261709
 20
103.4202497793401
 30
0.0
  0
VERTEX
  5
4065
  8
L1
 10
350.02742846983989
 20
103.4043567995958
 30
0.0
  0
SEQEND
  5
4066
  8
L1
  0
ARC
  5
39C0
  8
L1
 10
365.01343938620971
 20
106.9043001137116
 30
0.0
 40
2.0
 50
179.99999999999829
 51
270.0
  0
ARC
  5
39C1
  8
L1
 10
366.40173669689852
 20
108.2937531999776
 30
0.0
 40
1.2725533943049521
 50
182.7361743551987
 51
268.76623460616099
  0
LINE
  5
39C2
  8
L1
 10
360.15084972943203
 20
104.2417104569339
 30
0.0
 11
360.15084972943203
 21
108.547663528005
 31
0.0
  0
ARC
  5
39C3
  8
L1
 10
362.35084972943201
 20
104.2417104569339
 30
0.0
 40
2.1999999999999882
 50
180.0
 51
270.00000000000142
  0
LINE
  5
39C4
  8
L1
 10
520.89259399685523
 20
108.7132237985883
 30
0.0
 11
516.21641000001534
 21
113.3894077954281
 31
0.0
  0
CIRCLE
  5
39C5
  8
L1
 10
516.04064264277497
 20
108.537456441348
 30
0.0
 40
5.7974047862592784
  0
CIRCLE
  5
39C6
  8
L1
 10
516.04064264277497
 20
108.537456441348
 30
0.0
 40
6.097393363178492
  0
ARC
  5
39C7
  8
L1
 10
516.04064264277497
 20
108.537456441348
 30
0.0
 40
4.8551339946733894
 50
87.925303635782214
 51
182.0746963642184
  0
ARC
  5
39C8
  8
L1
 10
515.82313502802731
 20
108.7549640560956
 30
0.0
 40
7.395605383666445
 50
88.393775678439994
 51
181.6062243215591
  0
LINE
  5
39C9
  8
L1
 10
503.45065118895371
 20
108.2330051888038
 30
0.0
 11
503.45065118895371
 21
119.1274478951693
 31
0.0
  0
LINE
  5
39CA
  8
L1
 10
505.56784589934023
 20
106.9043001137117
 30
0.0
 11
505.56784589934023
 21
111.5102531847827
 31
0.0
  0
LINE
  5
39CB
  8
L1
 10
524.30294677368408
 20
190.2874564413481
 30
0.0
 11
524.30294677368408
 21
103.7703556820797
 31
0.0
  0
LINE
  5
39CC
  8
L1
 10
522.75680280050301
 20
105.1167737483099
 30
0.0
 11
522.75680280050324
 21
190.2874564413481
 31
0.0
  0
LINE
  5
39CD
  8
L1
 10
504.14524428403632
 20
122.4328548000867
 30
0.0
 11
504.14524428403632
 21
190.2874564413481
 31
0.0
  0
LINE
  5
39CE
  8
L1
 10
519.67379897041133
 20
121.0102531847828
 30
0.0
 11
519.67379897041133
 21
190.2874564413481
 31
0.0
  0
LINE
  5
39CF
  8
L1
 10
517.55660426002476
 20
122.3389582598749
 30
0.0
 11
517.55660426002476
 21
190.2874564413481
 31
0.0
  0
LINE
  5
39D0
  8
L1
 10
522.53638862718901
 20
118.347663528005
 30
0.0
 11
522.53638862718913
 21
190.2874564413481
 31
0.0
  0
LINE
  5
39D1
  8
L1
 10
516.03043555611805
 20
116.147663528005
 30
0.0
 11
520.33638862718897
 21
116.147663528005
 31
0.0
  0
LINE
  5
39D2
  8
L1
 10
513.06784589934023
 20
119.0102531847827
 30
0.0
 11
517.67379897041133
 21
119.0102531847828
 31
0.0
  0
ARC
  5
39D3
  8
L1
 10
516.34509389531922
 20
122.3389582598749
 30
0.0
 40
1.2115103647056451
 50
270.0
 51
0.0
  0
ARC
  5
39D4
  8
L1
 10
505.4506511889536
 20
119.1274478951693
 30
0.0
 40
2.0
 50
90.000000000000028
 51
180.0
  0
ARC
  5
39D5
  8
L1
 10
513.06784589934023
 20
111.5102531847827
 30
0.0
 40
7.5
 50
90.000000000000028
 51
180.0
  0
LINE
  5
39D6
  8
L1
 10
505.4506511889536
 20
121.1274478951693
 30
0.0
 11
516.34509389531922
 21
121.1274478951693
 31
0.0
  0
ARC
  5
39D7
  8
L1
 10
502.14524428403632
 20
122.4328548000867
 30
0.0
 40
2.0
 50
270.0
 51
0.0
  0
ARC
  5
39D8
  8
L1
 10
517.67379897041133
 20
121.0102531847828
 30
0.0
 40
2.000000000000056
 50
270.00000000000159
 51
0.0
  0
ARC
  5
39D9
  8
L1
 10
520.33638862718897
 20
118.347663528005
 30
0.0
 40
2.1999999999999882
 50
270.0
 51
0.0
  0
ARC
  5
39DA
  8
L1
 10
516.04064264277497
 20
108.537456441348
 30
0.0
 40
4.8551339946733894
 50
267.92530363578481
 51
292.53633994693888
  0
ARC
  5
39DB
  8
L1
 10
506.23043555611792
 20
104.2417104569339
 30
0.0
 40
2.1999999999999882
 50
269.99999999999852
 51
0.0
  0
ARC
  5
39DC
  8
L1
 10
502.1795485886513
 20
108.2937531999776
 30
0.0
 40
1.2725533943049521
 50
271.23376539383878
 51
357.26382564480122
  0
ARC
  5
39DD
  8
L1
 10
503.56784589934023
 20
106.9043001137116
 30
0.0
 40
2.0
 50
270.0
 51
0.0000000000016425
  0
LINE
  5
39DE
  8
L1
 10
508.43043555611791
 20
104.2417104569339
 30
0.0
 11
508.43043555611791
 21
108.547663528005
 31
0.0
  0
LINE
  5
39DF
  8
L1
 10
511.18869128869471
 20
108.3616890841074
 30
0.0
 11
515.86487528553459
 21
103.6855050872675
 31
0.0
  0
POLYLINE
  5
39E0
  8
L1
 66
     1
 10
0.0
 20
0.0
 30
0.0
  0
VERTEX
  5
4067
  8
L1
 10
518.32638917717986
 20
103.6281542516565
 30
0.0
  0
VERTEX
  5
4068
  8
L1
 10
518.4147236899006
 20
103.54011430572901
 30
0.0
  0
VERTEX
  5
4069
  8
L1
 10
518.48823004794667
 20
103.4674282623333
 30
0.0
  0
VERTEX
  5
406A
  8
L1
 10
518.53660859293268
 20
103.4202497793401
 30
0.0
  0
VERTEX
  5
406B
  8
L1
 10
518.55385681570999
 20
103.4043567995958
 30
0.0
  0
SEQEND
  5
406C
  8
L1
  0
POLYLINE
  5
39E1
  8
L1
 66
     1
 10
0.0
 20
0.0
 30
0.0
  0
VERTEX
  5
406D
  8
L1
 10
518.55385681571022
 20
103.4043567995958
 30
0.0
  0
VERTEX
  5
406E
  8
L1
 10
518.66734940507024
 20
103.38592726206021
 30
0.0
  0
SEQEND
  5
406F
  8
L1
  0
POLYLINE
  5
39E2
  8
L1
 66
     1
 10
0.0
 20
0.0
 30
0.0
  0
VERTEX
  5
4070
  8
L1
 10
521.19217182206273
 20
105.9107496790528
 30
0.0
  0
VERTEX
  5
4071
  8
L1
 10
521.17374228452718
 20
106.02424226841271
 30
0.0
  0
SEQEND
  5
4072
  8
L1
  0
POLYLINE
  5
39E3
  8
L1
 66
     1
 10
0.0
 20
0.0
 30
0.0
  0
VERTEX
  5
4073
  8
L1
 10
521.17374228452718
 20
106.02424226841281
 30
0.0
  0
VERTEX
  5
4074
  8
L1
 10
521.15784930478276
 20
106.0414904911901
 30
0.0
  0
VERTEX
  5
4075
  8
L1
 10
521.11067082178954
 20
106.089869036176
 30
0.0
  0
VERTEX
  5
4076
  8
L1
 10
521.03798477839393
 20
106.1633753942223
 30
0.0
  0
VERTEX
  5
4077
  8
L1
 10
520.94994483246637
 20
106.25170990694301
 30
0.0
  0
SEQEND
  5
4078
  8
L1
  0
ARC
  5
39E4
  8
L1
 10
516.04064264277497
 20
108.537456441348
 30
0.0
 40
4.8551339946733894
 50
337.4636600530614
 51
2.0746963642171541
  0
LINE
  5
39E5
  8
L1
 10
520.94994483246637
 20
106.25170990694301
 30
0.0
 11
520.52502223931697
 21
106.6766325000924
 31
0.0
  0
LINE
  5
39E6
  8
L1
 10
517.90146658403057
 20
104.0530768448058
 30
0.0
 11
518.32638917717986
 21
103.6281542516566
 31
0.0
  0
ARC
  5
39E7
  8
L1
 10
520.81233285850658
 20
103.7657662256162
 30
0.0
 40
3.4906169322830971
 50
269.92466759702222
 51
0.0753324029764552
  0
ARC
  5
39E8
  8
L1
 10
519.46318572853704
 20
105.1149133555859
 30
0.0
 40
3.293617597385512
 50
269.96763660204908
 51
0.03236339794649
  0
ENDSEC
  0
EOF
