  0
SECTION
  2
HEADER
  9
$ACADVER
  1
AC1009
  9
$INSBASE
 10
0.0
 20
0.0
 30
0.0
  9
$EXTMIN
 10
-57.635888035637429
 20
-41.305955369747487
 30
-0.0000000000112498
  9
$EXTMAX
 10
692.67084538763652
 20
421.88087472328641
 30
0.0000000000002956
  9
$LIMMIN
 10
0.0
 20
0.0
  9
$LIMMAX
 10
657.43951684768581
 20
384.2962048123012
  9
$ORTHOMODE
 70
     1
  9
$REGENMODE
 70
     1
  9
$FILLMODE
 70
     1
  9
$QTEXTMODE
 70
     0
  9
$MIRRTEXT
 70
     1
  9
$DRAGMODE
 70
     2
  9
$LTSCALE
 40
15.0
  9
$OSMODE
 70
     5
  9
$ATTMODE
 70
     1
  9
$TEXTSIZE
 40
2.5
  9
$TRACEWID
 40
1.0
  9
$TEXTSTYLE
  7
SIMPLEX
  9
$CLAYER
  8
L1
  9
$CELTYPE
  6
BYLAYER
  9
$CECOLOR
 62
   256
  9
$DIMSCALE
 40
1.0
  9
$DIMASZ
 40
3.5
  9
$DIMEXO
 40
0.1
  9
$DIMDLI
 40
0.38
  9
$DIMRND
 40
0.0
  9
$DIMDLE
 40
0.0
  9
$DIMEXE
 40
0.18
  9
$DIMTP
 40
0.0
  9
$DIMTM
 40
0.0
  9
$DIMTXT
 40
3.5
  9
$DIMCEN
 40
1.0
  9
$DIMTSZ
 40
0.0
  9
$DIMTOL
 70
     0
  9
$DIMLIM
 70
     0
  9
$DIMTIH
 70
     0
  9
$DIMTOH
 70
     0
  9
$DIMSE1
 70
     0
  9
$DIMSE2
 70
     0
  9
$DIMTAD
 70
     1
  9
$DIMZIN
 70
     8
  9
$DIMBLK
  1

  9
$DIMASO
 70
     1
  9
$DIMSHO
 70
     1
  9
$DIMPOST
  1

  9
$DIMAPOST
  1

  9
$DIMALT
 70
     0
  9
$DIMALTD
 70
     2
  9
$DIMALTF
 40
25.399999999999999
  9
$DIMLFAC
 40
1.0
  9
$DIMTOFL
 70
     1
  9
$DIMTVP
 40
0.0
  9
$DIMTIX
 70
     0
  9
$DIMSOXD
 70
     0
  9
$DIMSAH
 70
     0
  9
$DIMBLK1
  1

  9
$DIMBLK2
  1

  9
$DIMSTYLE
  2
FIBOX
  9
$DIMCLRD
 70
     1
  9
$DIMCLRE
 70
     1
  9
$DIMCLRT
 70
     3
  9
$DIMTFAC
 40
1.0
  9
$DIMGAP
 40
1.0
  9
$LUNITS
 70
     2
  9
$LUPREC
 70
     4
  9
$SKETCHINC
 40
1.0
  9
$FILLETRAD
 40
0.4
  9
$AUNITS
 70
     0
  9
$AUPREC
 70
     0
  9
$MENU
  1
.
  9
$ELEVATION
 40
0.0
  9
$PELEVATION
 40
0.0
  9
$THICKNESS
 40
0.0
  9
$LIMCHECK
 70
     0
  9
$BLIPMODE
 70
     0
  9
$CHAMFERA
 40
10.0
  9
$CHAMFERB
 40
10.0
  9
$SKPOLY
 70
     0
  9
$TDCREATE
 40
2450519.5748858559
  9
$TDUPDATE
 40
2453053.473092176
  9
$TDINDWG
 40
0.6292482292
  9
$TDUSRTIMER
 40
0.6292482292
  9
$USRTIMER
 70
     1
  9
$ANGBASE
 50
0.0
  9
$ANGDIR
 70
     0
  9
$PDMODE
 70
     0
  9
$PDSIZE
 40
0.0
  9
$PLINEWID
 40
0.0
  9
$COORDS
 70
     2
  9
$SPLFRAME
 70
     0
  9
$SPLINETYPE
 70
     6
  9
$SPLINESEGS
 70
     8
  9
$ATTDIA
 70
     0
  9
$ATTREQ
 70
     1
  9
$HANDLING
 70
 22529
  9
$HANDSEED
  5
33E2
  9
$SURFTAB1
 70
     6
  9
$SURFTAB2
 70
     6
  9
$SURFTYPE
 70
     6
  9
$SURFU
 70
     6
  9
$SURFV
 70
     6
  9
$UCSNAME
  2

  9
$UCSORG
 10
0.0
 20
0.0
 30
0.0
  9
$UCSXDIR
 10
1.0
 20
0.0
 30
0.0
  9
$UCSYDIR
 10
0.0
 20
1.0
 30
0.0
  9
$PUCSNAME
  2

  9
$PUCSORG
 10
0.0
 20
0.0
 30
0.0
  9
$PUCSXDIR
 10
1.0
 20
0.0
 30
0.0
  9
$PUCSYDIR
 10
0.0
 20
1.0
 30
0.0
  9
$USERI1
 70
     0
  9
$USERI2
 70
     0
  9
$USERI3
 70
     0
  9
$USERI4
 70
     0
  9
$USERI5
 70
     0
  9
$USERR1
 40
0.0
  9
$USERR2
 40
0.0
  9
$USERR3
 40
0.0
  9
$USERR4
 40
0.0
  9
$USERR5
 40
0.0
  9
$WORLDVIEW
 70
     1
  9
$SHADEDGE
 70
     3
  9
$SHADEDIF
 70
    70
  9
$TILEMODE
 70
     1
  9
$MAXACTVP
 70
    16
  9
$PLIMCHECK
 70
     0
  9
$PEXTMIN
 10
-638.68910708808346
 20
51.186559005740087
 30
0.0
  9
$PEXTMAX
 10
201.3108929119164
 20
645.18655900574004
 30
0.0
  9
$PLIMMIN
 10
0.0
 20
0.0
  9
$PLIMMAX
 10
420.0
 20
297.0
  9
$UNITMODE
 70
     0
  9
$VISRETAIN
 70
     0
  9
$PLINEGEN
 70
     0
  9
$PSLTSCALE
 70
     1
  0
ENDSEC
  0
SECTION
  2
TABLES
  0
TABLE
  2
VPORT
 70
     2
  0
VPORT
  2
*ACTIVE
 70
     0
 10
0.0
 20
0.0
 11
1.0
 21
1.0
 12
608.59223934815191
 22
-115.3878920451439
 13
0.0
 23
0.0
 14
10.0
 24
10.0
 15
10.0
 25
10.0
 16
0.0
 26
0.0
 36
1.0
 17
-291.07476067215242
 27
305.67535172191339
 37
115.40421985312589
 40
514.71447758370471
 41
1.4650306748466251
 42
50.0
 43
0.0
 44
0.0
 50
0.0
 51
0.0
 71
     0
 72
   500
 73
     1
 74
     0
 75
     0
 76
     0
 77
     0
 78
     0
  0
ENDTAB
  0
TABLE
  2
LTYPE
 70
     3
  0
LTYPE
  2
CONTINUOUS
 70
     0
  3
Solid line
 72
    65
 73
     0
 40
0.0
  0
LTYPE
  2
HIDDEN
 70
     0
  3
__ __ __ __ __ __ __ __ __ __ __ __ __ __ __ __
 72
    65
 73
     2
 40
0.375
 49
0.25
 49
-0.125
  0
LTYPE
  2
CENTER
 70
     0
  3
____ _ ____ _ ____ _ ____ _ ____ _ ____ _ ____ 
 72
    65
 73
     4
 40
2.0
 49
1.25
 49
-0.25
 49
0.25
 49
-0.25
  0
ENDTAB
  0
TABLE
  2
LAYER
 70
     5
  0
LAYER
  2
0
 70
     0
 62
     7
  6
CONTINUOUS
  0
LAYER
  2
L2
 70
     0
 62
     1
  6
HIDDEN
  0
LAYER
  2
L1
 70
     0
 62
     7
  6
CONTINUOUS
  0
LAYER
  2
L6
 70
     0
 62
     1
  6
CENTER
  0
LAYER
  2
DEFPOINTS
 70
     0
 62
     7
  6
CONTINUOUS
  0
ENDTAB
  0
TABLE
  2
STYLE
 70
     2
  0
STYLE
  2
STANDARD
 70
     0
 40
0.0
 41
1.0
 50
0.0
 71
     0
 42
2.5
  3
ISOCP
  4

  0
STYLE
  2
SIMPLEX
 70
     0
 40
0.0
 41
0.8
 50
0.0
 71
     0
 42
2.5
  3
SIMPLEX.SHX
  4

  0
ENDTAB
  0
TABLE
  2
VIEW
 70
     0
  0
ENDTAB
  0
TABLE
  2
UCS
 70
     0
  0
ENDTAB
  0
TABLE
  2
APPID
 70
     2
  0
APPID
  2
ACAD
 70
     0
  0
APPID
  2
DCO15
 70
     0
  0
ENDTAB
  0
TABLE
  2
DIMSTYLE
 70
     2
  0
DIMSTYLE
  2
FIBOX
 70
     0
  3

  4

  5

  6

  7

 40
1.0
 41
3.5
 42
0.1
 43
0.38
 44
0.18
 45
0.0
 46
0.0
 47
0.0
 48
0.0
140
3.5
141
1.0
142
0.0
143
25.399999999999999
144
1.0
145
0.0
146
1.0
147
1.0
 71
     0
 72
     0
 73
     0
 74
     0
 75
     0
 76
     0
 77
     1
 78
     8
170
     0
171
     2
172
     1
173
     0
174
     0
175
     0
176
     1
177
     1
178
     3
  0
DIMSTYLE
  2
STANDARD
 70
     0
  3

  4

  5

  6

  7

 40
1.0
 41
0.18
 42
0.0625
 43
0.38
 44
0.18
 45
0.0
 46
0.0
 47
0.0
 48
0.0
140
0.18
141
0.09
142
0.0
143
25.399999999999999
144
1.0
145
0.0
146
1.0
147
0.09
 71
     0
 72
     0
 73
     1
 74
     1
 75
     0
 76
     0
 77
     0
 78
     0
170
     0
171
     2
172
     0
173
     0
174
     0
175
     0
176
     0
177
     0
178
     0
  0
ENDTAB
  0
ENDSEC
  0
SECTION
  2
BLOCKS
  0
BLOCK
  8
0
  2
$MODEL_SPACE
 70
     0
 10
0.0
 20
0.0
 30
0.0
  3
$MODEL_SPACE
  1

  0
ENDBLK
  5
6
  8
0
  0
BLOCK
 67
     1
  8
0
  2
$PAPER_SPACE
 70
     0
 10
0.0
 20
0.0
 30
0.0
  3
$PAPER_SPACE
  1

  0
ENDBLK
  5
9
 67
     1
  8
0
  0
ENDSEC
  0
SECTION
  2
ENTITIES
  0
LINE
  5
1F
  8
L6
 10
340.1226317750793
 20
190.2874564413481
 30
0.0
 11
526.98672556189524
 21
190.2874564413481
 31
0.0
  0
LINE
  5
28
  8
L1
 10
349.11995994973711
 20
126.8212962836199
 30
0.0
 11
519.46132533581294
 21
126.8212962836199
 31
0.0
  0
LINE
  5
2A
  8
L1
 10
367.67622886303297
 20
146.67304266160571
 30
0.0
 11
500.9050564225173
 21
146.67304266160571
 31
0.0
  0
LINE
  5
2C
  8
L1
 10
520.80774340204323
 20
125.2751523104388
 30
0.0
 11
347.77354188350688
 21
125.2751523104388
 31
0.0
  0
LINE
  5
32
  8
L1
 10
520.80774340204323
 20
255.29976057225721
 30
0.0
 11
347.77354188350688
 21
255.29976057225721
 31
0.0
  0
LINE
  5
35
  8
L1
 10
367.67622886303297
 20
233.90187022109029
 30
0.0
 11
500.9050564225173
 21
233.90187022109029
 31
0.0
  0
LINE
  5
37
  8
L1
 10
349.11995994973711
 20
253.75361659907611
 30
0.0
 11
519.46132533581294
 21
253.75361659907611
 31
0.0
  0
LINE
  5
3A
  8
L6
 10
37.462422121438692
 20
260.36018723035812
 30
0.0
 11
37.462422121438692
 21
122.1985004965602
 31
0.0
  0
LINE
  5
43
  8
L1
 10
345.82448248504681
 20
250.4581391343861
 30
0.0
 11
345.82448248504681
 21
130.1167737483099
 31
0.0
  0
LINE
  5
44
  8
L1
 10
344.2783385118658
 20
128.77035568207981
 30
0.0
 11
344.2783385118658
 21
251.80455720061619
 31
0.0
  0
LINE
  5
45
  8
L1
 10
-51.830601978785978
 20
128.730456441348
 30
0.0
 11
-51.830601978785978
 21
251.844456441348
 31
0.0
  0
LINE
  5
46
  8
L1
 10
-52.549882009470309
 20
251.8045572006163
 30
0.0
 11
-52.549882009470309
 21
128.7703556820799
 31
0.0
  0
ARC
  5
48
  8
L1
 10
-40.2486413922731
 20
242.99851995505989
 30
0.0
 40
5.3999999999999986
 50
270.0
 51
0.0
  0
LINE
  5
49
  8
L1
 10
-50.787577878561187
 20
250.9374564413481
 30
0.0
 11
-50.787577878561187
 21
239.66454833779829
 31
0.0
  0
ARC
  5
4A
  8
L1
 10
-44.287577878561301
 20
247.03745644134821
 30
0.0
 40
6.3999999999999941
 50
269.99999999999892
 51
0.0
  0
LINE
  5
4B
  8
L1
 10
-50.156779942669509
 20
243.87645370154769
 30
0.0
 11
-47.429906639488131
 21
241.1495803983664
 31
0.0
  0
ARC
  5
4C
  8
L1
 10
-44.287577878561187
 20
247.0374564413481
 30
0.0
 40
4.881314598045666
 50
267.80434810777592
 51
2.1956518922220689
  0
ARC
  5
4D
  8
L1
 10
-44.287577878561301
 20
247.0374564413479
 30
0.0
 40
9.4389364862881635
 50
323.31070994755771
 51
0.0
  0
ARC
  5
4E
  8
L1
 10
-44.287577878561301
 20
247.03745644134821
 30
0.0
 40
7.3999999999999604
 50
270.0
 51
0.0
  0
ARC
  5
4F
  8
L1
 10
119.212422121439
 20
247.03745644134821
 30
0.0
 40
7.3999999999999604
 50
180.0
 51
270.0
  0
ARC
  5
50
  8
L1
 10
119.212422121439
 20
247.0374564413479
 30
0.0
 40
9.4389364862881635
 50
180.0
 51
216.6892900524422
  0
ARC
  5
52
  8
L1
 10
115.1734856351508
 20
242.99851995505989
 30
0.0
 40
5.3999999999999986
 50
180.0
 51
270.0
  0
LINE
  5
53
  8
L1
 10
127.47472625234801
 20
251.8045572006163
 30
0.0
 11
127.47472625234801
 21
128.7703556820799
 31
0.0
  0
LINE
  5
54
  8
L1
 10
126.7554462216636
 20
128.730456441348
 30
0.0
 11
126.7554462216636
 21
251.844456441348
 31
0.0
  0
ARC
  5
55
  8
L1
 10
119.21242212143891
 20
247.0374564413481
 30
0.0
 40
4.881314598045666
 50
177.80434810777791
 51
272.19565189222402
  0
LINE
  5
56
  8
L1
 10
125.0816241855471
 20
243.87645370154769
 30
0.0
 11
122.35475088236581
 21
241.1495803983664
 31
0.0
  0
ARC
  5
57
  8
L1
 10
119.212422121439
 20
247.03745644134821
 30
0.0
 40
6.3999999999999941
 50
180.0
 51
270.00000000000102
  0
LINE
  5
58
  8
L1
 10
125.71242212143881
 20
250.9374564413481
 30
0.0
 11
125.71242212143881
 21
239.66454833779829
 31
0.0
  0
LINE
  5
59
  8
L6
 10
-57.634676850981812
 20
190.2874564413481
 30
0.0
 11
132.8419052251833
 21
190.2874564413481
 31
0.0
  0
LINE
  5
5A
  8
L1
 10
-34.687577878561051
 20
126.837456441348
 30
0.0
 11
109.612422121439
 21
126.837456441348
 31
0.0
  0
LINE
  5
5B
  8
L1
 10
124.01942212143889
 20
125.9944323411234
 30
0.0
 11
-49.09457787856109
 21
125.9944323411234
 31
0.0
  0
LINE
  5
5C
  8
L1
 10
-49.054678637829227
 20
125.275152310439
 30
0.0
 11
123.97952288070709
 21
125.275152310439
 31
0.0
  0
LINE
  5
5D
  8
L1
 10
108.2739996476874
 20
128.6763929276363
 30
0.0
 11
-33.349155404809551
 21
128.6763929276363
 31
0.0
  0
LINE
  5
5E
  8
L1
 10
109.612422121439
 20
127.837456441348
 30
0.0
 11
-34.687577878561051
 21
127.837456441348
 31
0.0
  0
ARC
  5
5F
  8
L1
 10
-34.687577878561278
 20
130.03745644134801
 30
0.0
 40
3.200000000000057
 50
180.0
 51
230.48205331592339
  0
LINE
  5
60
  8
L1
 10
-36.914669775011411
 20
127.0374564413482
 30
0.0
 11
-48.187577878561278
 21
127.0374564413482
 31
0.0
  0
ARC
  5
61
  8
L1
 10
-34.687577878561278
 20
130.03745644134801
 30
0.0
 40
2.200000000000033
 50
180.0
 51
270.0
  0
ARC
  5
62
  8
L1
 10
-37.29409970317402
 20
141.54947972414669
 30
0.0
 40
0.3
 50
45.000000000001577
 51
130.00000000000199
  0
ARC
  5
63
  8
L1
 10
-40.2486413922731
 20
137.57639292763631
 30
0.0
 40
5.3999999999999986
 50
0.0
 51
90.0
  0
ARC
  5
64
  8
L1
 10
-44.287577878561301
 20
133.53745644134801
 30
0.0
 40
7.3999999999999604
 50
0.0
 51
90.0
  0
ARC
  5
65
  8
L1
 10
-44.287577878561301
 20
133.53745644134801
 30
0.0
 40
6.3999999999999941
 50
0.0
 51
90.000000000001023
  0
ARC
  5
66
  8
L1
 10
-37.29409970317402
 20
239.0254331585495
 30
0.0
 40
0.3
 50
229.99999999999801
 51
314.99999999999841
  0
LINE
  5
67
  8
L1
 10
-50.987577878561467
 20
237.4374564413481
 30
0.0
 11
-50.987577878561467
 21
143.13745644134809
 31
0.0
  0
LINE
  5
68
  8
L1
 10
-49.148641392273191
 20
144.47587891509971
 30
0.0
 11
-49.148641392273191
 21
236.0990339675966
 31
0.0
  0
LINE
  5
69
  8
L1
 10
-49.987577878561353
 20
143.13745644134809
 30
0.0
 11
-49.987577878561353
 21
237.4374564413481
 31
0.0
  0
ARC
  5
6C
  8
L1
 10
-44.287577878561187
 20
133.5374564413481
 30
0.0
 40
4.881314598045666
 50
357.80434810777791
 51
92.195651892224134
  0
LINE
  5
6D
  8
L1
 10
-44.474590686858789
 20
138.4151873087317
 30
0.0
 11
-49.165308745944849
 21
133.72446924964561
 31
0.0
  0
LINE
  5
6E
  8
L1
 10
-50.787577878561187
 20
129.63745644134809
 30
0.0
 11
-50.787577878561187
 21
140.9103645448979
 31
0.0
  0
ARC
  5
6F
  8
L1
 10
-44.287577878561187
 20
133.5374564413481
 30
0.0
 40
4.881314598045666
 50
247.66928672886399
 51
272.19565189222271
  0
LINE
  5
70
  8
L1
 10
-46.142243423084601
 20
129.02221027717809
 30
0.0
 11
-48.126997258914287
 21
127.0374564413482
 31
0.0
  0
ARC
  5
71
  8
L1
 10
-44.287577878561187
 20
133.5374564413481
 30
0.0
 40
5.7825462644184809
 50
206.0136049375553
 51
243.9863950624225
  0
LINE
  5
72
  8
L1
 10
-50.787577878561187
 20
129.69803706099489
 30
0.0
 11
-48.802824042731281
 21
131.68279089682491
 31
0.0
  0
ARC
  5
73
  8
L1
 10
-48.187577878561278
 20
129.63745644134809
 30
0.0
 40
2.6000000000000001
 50
180.0
 51
270.0
  0
ARC
  5
74
  8
L1
 10
-44.287577878561187
 20
133.5374564413481
 30
0.0
 40
4.881314598045666
 50
177.8043481077772
 51
202.3307132711364
  0
POLYLINE
  5
75
  8
L1
 66
     1
 10
0.0
 20
0.0
 30
0.0
  0
VERTEX
  5
3246
  8
L1
 10
-40.523115374120771
 20
127.0374564413482
 30
0.0
  0
VERTEX
  5
3247
  8
L1
 10
-41.081138475295511
 20
127.2066952249526
 30
0.0
  0
VERTEX
  5
3248
  8
L1
 10
-41.191631943832299
 20
127.3413183893351
 30
0.0
  0
VERTEX
  5
3249
  8
L1
 10
-41.208694215392882
 20
127.514642022654
 30
0.0
  0
VERTEX
  5
324A
  8
L1
 10
-41.126575138760408
 20
127.6682543772398
 30
0.0
  0
SEQEND
  5
324B
  8
L1
  0
LINE
  5
76
  8
L1
 10
-37.887577878561331
 20
130.03745644134801
 30
0.0
 11
-37.887577878561331
 21
131.33745644134791
 31
0.0
  0
LINE
  5
77
  8
L1
 10
-44.100565070263819
 20
128.65972557396461
 30
0.0
 11
-39.409847011177639
 21
133.3504436330507
 31
0.0
  0
LINE
  5
78
  8
L1
 10
-37.887577878561331
 20
131.33745644134791
 30
0.0
 11
-37.887577878561331
 21
133.53745644134801
 31
0.0
  0
POLYLINE
  5
79
  8
L1
 66
     1
 10
0.0
 20
0.0
 30
0.0
  0
VERTEX
  5
324C
  8
L1
 10
-38.399701835579371
 20
130.3951276804209
 30
0.0
  0
VERTEX
  5
324D
  8
L1
 10
-38.246096572610149
 20
130.47723107653769
 30
0.0
  0
VERTEX
  5
324E
  8
L1
 10
-38.072767572197733
 20
130.46015419480551
 30
0.0
  0
VERTEX
  5
324F
  8
L1
 10
-37.9381354083311
 20
130.34965280160179
 30
0.0
  0
VERTEX
  5
3250
  8
L1
 10
-37.887577878561331
 20
130.18297141343629
 30
0.0
  0
SEQEND
  5
3251
  8
L1
  0
LINE
  5
7A
  8
L1
 10
-38.399701835579371
 20
130.3951276804209
 30
0.0
 11
-41.126575138760529
 21
127.6682543772398
 31
0.0
  0
LINE
  5
7B
  8
L1
 10
-47.787577878561187
 20
140.93745644134799
 30
0.0
 11
-44.287577878561301
 21
140.93745644134799
 31
0.0
  0
LINE
  5
7C
  8
L1
 10
-47.649155404809733
 20
142.9763929276364
 30
0.0
 11
-44.287577878561422
 21
142.9763929276364
 31
0.0
  0
LINE
  5
7D
  8
L1
 10
-44.287577878561301
 20
139.93745644134799
 30
0.0
 11
-46.487577878561353
 21
139.93745644134799
 31
0.0
  0
LINE
  5
7E
  8
L1
 10
-46.487577878561353
 20
139.93745644134799
 30
0.0
 11
-47.787577878561187
 21
139.93745644134799
 31
0.0
  0
ARC
  5
7F
  8
L1
 10
-47.787577878561187
 20
143.13745644134809
 30
0.0
 40
2.2000000000001192
 50
180.0
 51
270.0
  0
ARC
  5
80
  8
L1
 10
-47.787577878561187
 20
143.13745644134809
 30
0.0
 40
3.200000000000141
 50
219.5179466840784
 51
270.0
  0
POLYLINE
  5
81
  8
L1
 66
     1
 10
0.0
 20
0.0
 30
0.0
  0
VERTEX
  5
3252
  8
L1
 10
-47.650695508862263
 20
142.97639450891529
 30
0.0
  0
VERTEX
  5
3253
  8
L1
 10
-48.03796246180621
 20
143.0280894504105
 30
0.0
  0
VERTEX
  5
3254
  8
L1
 10
-48.398859563496501
 20
143.17807211284489
 30
0.0
  0
VERTEX
  5
3255
  8
L1
 10
-48.708877482578089
 20
143.4161568373315
 30
0.0
  0
VERTEX
  5
3256
  8
L1
 10
-48.946962207064587
 20
143.726174756413
 30
0.0
  0
VERTEX
  5
3257
  8
L1
 10
-49.096944869499062
 20
144.08707185810329
 30
0.0
  0
VERTEX
  5
3258
  8
L1
 10
-49.148639810994212
 20
144.4743388110472
 30
0.0
  0
SEQEND
  5
3259
  8
L1
  0
ARC
  5
82
  8
L1
 10
-47.787577878561187
 20
143.13745644134809
 30
0.0
 40
3.200000000000141
 50
180.0
 51
219.5179466840784
  0
POLYLINE
  5
84
  8
L1
 66
     1
 10
0.0
 20
0.0
 30
0.0
  0
VERTEX
  5
325A
  8
L1
 10
-47.642062906472738
 20
139.93745644134799
 30
0.0
  0
VERTEX
  5
325B
  8
L1
 10
-47.475381518307302
 20
139.88689891157821
 30
0.0
  0
VERTEX
  5
325C
  8
L1
 10
-47.364880125103518
 20
139.7522667477115
 30
0.0
  0
VERTEX
  5
325D
  8
L1
 10
-47.347803243371509
 20
139.57893774729911
 30
0.0
  0
VERTEX
  5
325E
  8
L1
 10
-47.429906639488131
 20
139.4253324843298
 30
0.0
  0
SEQEND
  5
325F
  8
L1
  0
POLYLINE
  5
85
  8
L1
 66
     1
 10
0.0
 20
0.0
 30
0.0
  0
VERTEX
  5
3260
  8
L1
 10
-50.156779942669509
 20
136.69845918114859
 30
0.0
  0
VERTEX
  5
3261
  8
L1
 10
-50.310392297255191
 20
136.61634010451621
 30
0.0
  0
VERTEX
  5
3262
  8
L1
 10
-50.483715930574078
 20
136.63340237607679
 30
0.0
  0
VERTEX
  5
3263
  8
L1
 10
-50.618339094956752
 20
136.74389584461341
 30
0.0
  0
VERTEX
  5
3264
  8
L1
 10
-50.787577878561187
 20
137.3019189457888
 30
0.0
  0
SEQEND
  5
3265
  8
L1
  0
LINE
  5
86
  8
L1
 10
-50.156779942669509
 20
136.69845918114859
 30
0.0
 11
-47.429906639488131
 21
139.4253324843298
 31
0.0
  0
LINE
  5
87
  8
L1
 10
-38.275966430109463
 20
141.11721790250951
 30
0.0
 11
-37.48693598608002
 21
141.77929305708241
 31
0.0
  0
ARC
  5
88
  8
L1
 10
-44.287577878561301
 20
133.5374564413483
 30
0.0
 40
9.4389364862881635
 50
53.310709947555161
 51
90.000000000000725
  0
LINE
  5
8A
  8
L1
 10
-40.2486413922731
 20
142.9763929276364
 30
0.0
 11
-44.287577878561422
 21
142.9763929276364
 31
0.0
  0
LINE
  5
8B
  8
L1
 10
-44.287577878561301
 20
240.63745644134829
 30
0.0
 11
-46.487577878561353
 21
240.63745644134829
 31
0.0
  0
LINE
  5
8C
  8
L1
 10
-47.649155404809733
 20
237.5985199550598
 30
0.0
 11
-44.287577878561422
 21
237.5985199550598
 31
0.0
  0
LINE
  5
8D
  8
L1
 10
-47.787577878561187
 20
239.63745644134821
 30
0.0
 11
-44.287577878561301
 21
239.63745644134821
 31
0.0
  0
POLYLINE
  5
8E
  8
L1
 66
     1
 10
0.0
 20
0.0
 30
0.0
  0
VERTEX
  5
3266
  8
L1
 10
-47.642062906472738
 20
240.63745644134829
 30
0.0
  0
VERTEX
  5
3267
  8
L1
 10
-47.475381518307302
 20
240.68801397111801
 30
0.0
  0
VERTEX
  5
3268
  8
L1
 10
-47.364880125103518
 20
240.82264613498481
 30
0.0
  0
VERTEX
  5
3269
  8
L1
 10
-47.347803243371509
 20
240.99597513539709
 30
0.0
  0
VERTEX
  5
326A
  8
L1
 10
-47.429906639488131
 20
241.1495803983664
 30
0.0
  0
SEQEND
  5
326B
  8
L1
  0
ARC
  5
90
  8
L1
 10
-47.787577878561187
 20
237.4374564413481
 30
0.0
 40
3.200000000000141
 50
140.48205331592149
 51
180.0
  0
POLYLINE
  5
91
  8
L1
 66
     1
 10
0.0
 20
0.0
 30
0.0
  0
VERTEX
  5
326C
  8
L1
 10
-47.650695508862263
 20
237.59851837378091
 30
0.0
  0
VERTEX
  5
326D
  8
L1
 10
-48.03796246180621
 20
237.54682343228569
 30
0.0
  0
VERTEX
  5
326E
  8
L1
 10
-48.398859563496501
 20
237.39684076985131
 30
0.0
  0
VERTEX
  5
326F
  8
L1
 10
-48.708877482578089
 20
237.1587560453647
 30
0.0
  0
VERTEX
  5
3270
  8
L1
 10
-48.946962207064587
 20
236.84873812628319
 30
0.0
  0
VERTEX
  5
3271
  8
L1
 10
-49.096944869499062
 20
236.487841024593
 30
0.0
  0
VERTEX
  5
3272
  8
L1
 10
-49.148639810994212
 20
236.10057407164899
 30
0.0
  0
SEQEND
  5
3273
  8
L1
  0
ARC
  5
92
  8
L1
 10
-47.787577878561187
 20
237.4374564413481
 30
0.0
 40
3.200000000000141
 50
90.0
 51
140.48205331592149
  0
ARC
  5
93
  8
L1
 10
-47.787577878561187
 20
237.4374564413481
 30
0.0
 40
2.2000000000001192
 50
90.0
 51
180.0
  0
LINE
  5
94
  8
L1
 10
-46.487577878561353
 20
240.63745644134829
 30
0.0
 11
-47.787577878561187
 21
240.63745644134829
 31
0.0
  0
LINE
  5
95
  8
L1
 10
-40.2486413922731
 20
237.5985199550598
 30
0.0
 11
-44.287577878561422
 21
237.5985199550598
 31
0.0
  0
ARC
  5
97
  8
L1
 10
-44.287577878561301
 20
247.0374564413479
 30
0.0
 40
9.4389364862881635
 50
269.9999999999992
 51
306.68929005244479
  0
LINE
  5
98
  8
L1
 10
-38.275966430109463
 20
239.45769498018669
 30
0.0
 11
-37.48693598608002
 21
238.79561982561381
 31
0.0
  0
ARC
  5
99
  8
L1
 10
-44.287577878561301
 20
133.5374564413483
 30
0.0
 40
9.4389364862881635
 50
0.0
 51
36.689290052442303
  0
LINE
  5
9A
  8
L1
 10
-34.84864139227323
 20
133.5374564413483
 30
0.0
 11
-34.84864139227323
 21
137.57639292763631
 31
0.0
  0
POLYLINE
  5
9B
  8
L1
 66
     1
 10
0.0
 20
0.0
 30
0.0
  0
VERTEX
  5
3274
  8
L1
 10
-34.848641392273009
 20
130.17587891509979
 30
0.0
  0
VERTEX
  5
3275
  8
L1
 10
-34.848640996953179
 20
130.17510866531211
 30
0.0
  0
VERTEX
  5
3276
  8
L1
 10
-34.848639810994143
 20
130.17433881104711
 30
0.0
  0
SEQEND
  5
3277
  8
L1
  0
LINE
  5
9C
  8
L1
 10
-34.848641392273009
 20
133.5374564413483
 30
0.0
 11
-34.848641392273009
 21
130.1758789150997
 31
0.0
  0
POLYLINE
  5
9D
  8
L1
 66
     1
 10
0.0
 20
0.0
 30
0.0
  0
VERTEX
  5
3278
  8
L1
 10
-33.35069550886243
 20
128.67639450891519
 30
0.0
  0
VERTEX
  5
3279
  8
L1
 10
-33.737962461806369
 20
128.72808945041041
 30
0.0
  0
VERTEX
  5
327A
  8
L1
 10
-34.09885956349666
 20
128.87807211284479
 30
0.0
  0
VERTEX
  5
327B
  8
L1
 10
-34.408877482578021
 20
129.11615683733149
 30
0.0
  0
VERTEX
  5
327C
  8
L1
 10
-34.646962207064632
 20
129.42617475641299
 30
0.0
  0
VERTEX
  5
327D
  8
L1
 10
-34.7969448694991
 20
129.78707185810319
 30
0.0
  0
VERTEX
  5
327E
  8
L1
 10
-34.848639810994143
 20
130.17433881104711
 30
0.0
  0
SEQEND
  5
327F
  8
L1
  0
LINE
  5
9E
  8
L1
 10
-36.887577878561331
 20
133.53745644134801
 30
0.0
 11
-36.887577878561331
 21
130.03745644134801
 31
0.0
  0
ARC
  5
A0
  8
L1
 10
-34.687577878561278
 20
130.03745644134801
 30
0.0
 40
3.200000000000057
 50
230.48205331592339
 51
270.0
  0
LINE
  5
A1
  8
L1
 10
-37.081967668818088
 20
141.7616117585026
 30
0.0
 11
-36.063422561406867
 21
140.7430666510914
 31
0.0
  0
ARC
  5
A2
  8
L1
 10
-36.275554595762799
 20
140.53093461673549
 30
0.0
 40
0.3
 50
319.99999999999841
 51
45.0
  0
LINE
  5
A3
  8
L1
 10
-36.0457412628271
 20
140.33809833382949
 30
0.0
 11
-36.70781641739989
 21
139.54906788979989
 31
0.0
  0
LINE
  5
A5
  8
L1
 10
-36.0457412628271
 20
240.2368145488667
 30
0.0
 11
-36.70781641739989
 21
241.02584499289631
 31
0.0
  0
ARC
  5
A6
  8
L1
 10
-36.275554595762799
 20
240.0439782659607
 30
0.0
 40
0.3
 50
315.0
 51
40.000000000001577
  0
LINE
  5
A7
  8
L1
 10
-37.081967668818088
 20
238.8133011241936
 30
0.0
 11
-36.063422561406867
 21
239.8318462316048
 31
0.0
  0
LINE
  5
C7
  8
L1
 10
124.91242212143899
 20
143.13745644134809
 30
0.0
 11
124.91242212143899
 21
237.4374564413481
 31
0.0
  0
LINE
  5
C8
  8
L1
 10
124.0734856351508
 20
144.47587891509971
 30
0.0
 11
124.0734856351508
 21
236.0990339675966
 31
0.0
  0
LINE
  5
C9
  8
L1
 10
125.91242212143911
 20
237.4374564413481
 30
0.0
 11
125.91242212143911
 21
143.13745644134809
 31
0.0
  0
ARC
  5
CC
  8
L1
 10
124.01942212143889
 20
128.7304564413482
 30
0.0
 40
2.7360241002247609
 50
270.0
 51
0.0
  0
LINE
  5
CE
  8
L1
 10
113.3245460784571
 20
130.3951276804209
 30
0.0
 11
116.0514193816382
 21
127.6682543772398
 31
0.0
  0
LINE
  5
CF
  8
L1
 10
111.8395140178891
 20
127.0374564413482
 30
0.0
 11
123.1124221214389
 21
127.0374564413482
 31
0.0
  0
ARC
  5
D0
  8
L1
 10
119.212422121439
 20
133.5374564413483
 30
0.0
 40
9.4389364862881635
 50
89.999999999999275
 51
126.6892900524448
  0
ARC
  5
D1
  8
L1
 10
115.1734856351508
 20
137.57639292763631
 30
0.0
 40
5.3999999999999986
 50
90.0
 51
180.0
  0
ARC
  5
D2
  8
L1
 10
119.212422121439
 20
133.53745644134801
 30
0.0
 40
6.3999999999999941
 50
89.999999999998977
 51
180.0
  0
ARC
  5
D3
  8
L1
 10
119.21242212143891
 20
133.5374564413481
 30
0.0
 40
4.881314598045666
 50
87.804348107775894
 51
182.195651892222
  0
ARC
  5
D4
  8
L1
 10
119.212422121439
 20
133.53745644134801
 30
0.0
 40
7.3999999999999604
 50
90.0
 51
180.0
  0
LINE
  5
D5
  8
L1
 10
109.77348563515081
 20
133.5374564413483
 30
0.0
 11
109.77348563515081
 21
137.57639292763631
 31
0.0
  0
ARC
  5
D6
  8
L1
 10
119.212422121439
 20
133.5374564413483
 30
0.0
 40
9.4389364862881635
 50
143.3107099475576
 51
180.0
  0
POLYLINE
  5
D7
  8
L1
 66
     1
 10
0.0
 20
0.0
 30
0.0
  0
VERTEX
  5
3280
  8
L1
 10
113.3245460784571
 20
130.3951276804209
 30
0.0
  0
VERTEX
  5
3281
  8
L1
 10
113.1709408154878
 20
130.47723107653769
 30
0.0
  0
VERTEX
  5
3282
  8
L1
 10
112.9976118150754
 20
130.46015419480551
 30
0.0
  0
VERTEX
  5
3283
  8
L1
 10
112.8629796512088
 20
130.34965280160179
 30
0.0
  0
VERTEX
  5
3284
  8
L1
 10
112.8124221214389
 20
130.18297141343629
 30
0.0
  0
SEQEND
  5
3285
  8
L1
  0
LINE
  5
D8
  8
L1
 10
112.812422121439
 20
131.33745644134791
 30
0.0
 11
112.812422121439
 21
133.53745644134801
 31
0.0
  0
LINE
  5
D9
  8
L1
 10
112.812422121439
 20
130.03745644134801
 30
0.0
 11
112.812422121439
 21
131.33745644134791
 31
0.0
  0
ARC
  5
DB
  8
L1
 10
109.612422121439
 20
130.03745644134801
 30
0.0
 40
3.200000000000057
 50
270.0
 51
309.51794668407649
  0
POLYLINE
  5
DC
  8
L1
 66
     1
 10
0.0
 20
0.0
 30
0.0
  0
VERTEX
  5
3286
  8
L1
 10
108.2755397517401
 20
128.67639450891519
 30
0.0
  0
VERTEX
  5
3287
  8
L1
 10
108.6628067046841
 20
128.72808945041041
 30
0.0
  0
VERTEX
  5
3288
  8
L1
 10
109.0237038063742
 20
128.87807211284479
 30
0.0
  0
VERTEX
  5
3289
  8
L1
 10
109.3337217254557
 20
129.11615683733149
 30
0.0
  0
VERTEX
  5
328A
  8
L1
 10
109.5718064499423
 20
129.42617475641299
 30
0.0
  0
VERTEX
  5
328B
  8
L1
 10
109.7217891123767
 20
129.78707185810319
 30
0.0
  0
VERTEX
  5
328C
  8
L1
 10
109.7734840538718
 20
130.17433881104711
 30
0.0
  0
SEQEND
  5
328D
  8
L1
  0
LINE
  5
DD
  8
L1
 10
109.77348563515071
 20
133.5374564413483
 30
0.0
 11
109.77348563515071
 21
130.1758789150997
 31
0.0
  0
POLYLINE
  5
DE
  8
L1
 66
     1
 10
0.0
 20
0.0
 30
0.0
  0
VERTEX
  5
328E
  8
L1
 10
109.77348563515061
 20
130.17587891509979
 30
0.0
  0
VERTEX
  5
328F
  8
L1
 10
109.7734852398309
 20
130.17510866531211
 30
0.0
  0
VERTEX
  5
3290
  8
L1
 10
109.7734840538718
 20
130.17433881104711
 30
0.0
  0
SEQEND
  5
3291
  8
L1
  0
LINE
  5
DF
  8
L1
 10
111.812422121439
 20
133.53745644134801
 30
0.0
 11
111.812422121439
 21
130.03745644134801
 31
0.0
  0
ARC
  5
E0
  8
L1
 10
109.612422121439
 20
130.03745644134801
 30
0.0
 40
3.200000000000057
 50
309.51794668407649
 51
0.0
  0
ARC
  5
E1
  8
L1
 10
109.612422121439
 20
130.03745644134801
 30
0.0
 40
2.200000000000033
 50
270.0
 51
0.0
  0
LINE
  5
E3
  8
L1
 10
113.2008106729871
 20
141.11721790250951
 30
0.0
 11
112.4117802289577
 21
141.77929305708241
 31
0.0
  0
LINE
  5
E5
  8
L1
 10
110.9705855057048
 20
140.33809833382949
 30
0.0
 11
111.63266066027759
 21
139.54906788979989
 31
0.0
  0
ARC
  5
E6
  8
L1
 10
111.2003988386405
 20
140.53093461673549
 30
0.0
 40
0.3
 50
135.0
 51
220.00000000000159
  0
LINE
  5
E7
  8
L1
 10
112.00681191169581
 20
141.7616117585026
 30
0.0
 11
110.98826680428451
 21
140.7430666510914
 31
0.0
  0
ARC
  5
E8
  8
L1
 10
112.2189439460517
 20
141.54947972414669
 30
0.0
 40
0.3
 50
49.99999999999801
 51
134.99999999999841
  0
LINE
  5
E9
  8
L1
 10
125.71242212143881
 20
129.63745644134809
 30
0.0
 11
125.71242212143881
 21
140.9103645448979
 31
0.0
  0
LINE
  5
EA
  8
L1
 10
119.3994349297364
 20
138.4151873087317
 30
0.0
 11
124.0901529888224
 21
133.72446924964561
 31
0.0
  0
ARC
  5
EB
  8
L1
 10
119.21242212143891
 20
133.5374564413481
 30
0.0
 40
5.7825462644184809
 50
296.01360493757738
 51
333.986395062437
  0
LINE
  5
EC
  8
L1
 10
121.06708766596221
 20
129.02221027717809
 30
0.0
 11
123.051841501792
 21
127.0374564413482
 31
0.0
  0
LINE
  5
ED
  8
L1
 10
119.02540931314149
 20
128.65972557396461
 30
0.0
 11
114.3346912540553
 21
133.3504436330507
 31
0.0
  0
ARC
  5
EE
  8
L1
 10
119.21242212143891
 20
133.5374564413481
 30
0.0
 40
4.881314598045666
 50
267.80434810777717
 51
292.33071327113589
  0
POLYLINE
  5
EF
  8
L1
 66
     1
 10
0.0
 20
0.0
 30
0.0
  0
VERTEX
  5
3292
  8
L1
 10
115.4479596169984
 20
127.0374564413482
 30
0.0
  0
VERTEX
  5
3293
  8
L1
 10
116.0059827181732
 20
127.2066952249526
 30
0.0
  0
VERTEX
  5
3294
  8
L1
 10
116.1164761867099
 20
127.3413183893351
 30
0.0
  0
VERTEX
  5
3295
  8
L1
 10
116.13353845827061
 20
127.514642022654
 30
0.0
  0
VERTEX
  5
3296
  8
L1
 10
116.0514193816381
 20
127.6682543772398
 30
0.0
  0
SEQEND
  5
3297
  8
L1
  0
ARC
  5
F0
  8
L1
 10
119.21242212143891
 20
133.5374564413481
 30
0.0
 40
4.881314598045666
 50
337.6692867288632
 51
2.1956518922227302
  0
ARC
  5
F1
  8
L1
 10
123.1124221214389
 20
129.63745644134809
 30
0.0
 40
2.6000000000000001
 50
270.0
 51
0.0
  0
LINE
  5
F2
  8
L1
 10
125.71242212143881
 20
129.69803706099489
 30
0.0
 11
123.7276682856089
 21
131.68279089682491
 31
0.0
  0
POLYLINE
  5
F3
  8
L1
 66
     1
 10
0.0
 20
0.0
 30
0.0
  0
VERTEX
  5
3298
  8
L1
 10
122.57553975174
 20
142.97639450891529
 30
0.0
  0
VERTEX
  5
3299
  8
L1
 10
122.9628067046839
 20
143.0280894504105
 30
0.0
  0
VERTEX
  5
329A
  8
L1
 10
123.3237038063742
 20
143.17807211284489
 30
0.0
  0
VERTEX
  5
329B
  8
L1
 10
123.6337217254557
 20
143.4161568373315
 30
0.0
  0
VERTEX
  5
329C
  8
L1
 10
123.8718064499423
 20
143.726174756413
 30
0.0
  0
VERTEX
  5
329D
  8
L1
 10
124.02178911237669
 20
144.08707185810329
 30
0.0
  0
VERTEX
  5
329E
  8
L1
 10
124.07348405387189
 20
144.4743388110472
 30
0.0
  0
SEQEND
  5
329F
  8
L1
  0
LINE
  5
F4
  8
L1
 10
121.41242212143899
 20
139.93745644134799
 30
0.0
 11
122.71242212143891
 21
139.93745644134799
 31
0.0
  0
LINE
  5
F5
  8
L1
 10
122.71242212143891
 20
140.93745644134799
 30
0.0
 11
119.212422121439
 21
140.93745644134799
 31
0.0
  0
LINE
  5
F6
  8
L1
 10
125.0816241855471
 20
136.69845918114859
 30
0.0
 11
122.35475088236581
 21
139.4253324843298
 31
0.0
  0
POLYLINE
  5
F7
  8
L1
 66
     1
 10
0.0
 20
0.0
 30
0.0
  0
VERTEX
  5
32A0
  8
L1
 10
122.5669071493505
 20
139.93745644134799
 30
0.0
  0
VERTEX
  5
32A1
  8
L1
 10
122.4002257611849
 20
139.88689891157821
 30
0.0
  0
VERTEX
  5
32A2
  8
L1
 10
122.28972436798109
 20
139.7522667477115
 30
0.0
  0
VERTEX
  5
32A3
  8
L1
 10
122.2726474862491
 20
139.57893774729911
 30
0.0
  0
VERTEX
  5
32A4
  8
L1
 10
122.35475088236581
 20
139.4253324843298
 30
0.0
  0
SEQEND
  5
32A5
  8
L1
  0
LINE
  5
F8
  8
L1
 10
119.212422121439
 20
139.93745644134799
 30
0.0
 11
121.41242212143899
 21
139.93745644134799
 31
0.0
  0
LINE
  5
F9
  8
L1
 10
115.1734856351508
 20
142.9763929276364
 30
0.0
 11
119.2124221214391
 21
142.9763929276364
 31
0.0
  0
LINE
  5
FA
  8
L1
 10
122.5739996476874
 20
142.9763929276364
 30
0.0
 11
119.2124221214391
 21
142.9763929276364
 31
0.0
  0
ARC
  5
FC
  8
L1
 10
122.71242212143891
 20
143.13745644134809
 30
0.0
 40
3.200000000000141
 50
320.48205331592152
 51
0.0
  0
ARC
  5
FD
  8
L1
 10
122.71242212143891
 20
143.13745644134809
 30
0.0
 40
3.200000000000141
 50
270.0
 51
320.48205331592152
  0
ARC
  5
FE
  8
L1
 10
122.71242212143891
 20
143.13745644134809
 30
0.0
 40
2.2000000000001192
 50
270.0
 51
0.0
  0
POLYLINE
  5
FF
  8
L1
 66
     1
 10
0.0
 20
0.0
 30
0.0
  0
VERTEX
  5
32A6
  8
L1
 10
125.0816241855471
 20
136.69845918114859
 30
0.0
  0
VERTEX
  5
32A7
  8
L1
 10
125.2352365401329
 20
136.61634010451621
 30
0.0
  0
VERTEX
  5
32A8
  8
L1
 10
125.4085601734517
 20
136.63340237607679
 30
0.0
  0
VERTEX
  5
32A9
  8
L1
 10
125.54318333783441
 20
136.74389584461341
 30
0.0
  0
VERTEX
  5
32AA
  8
L1
 10
125.71242212143881
 20
137.3019189457888
 30
0.0
  0
SEQEND
  5
32AB
  8
L1
  0
ARC
  5
11F
  8
L1
 10
119.212422121439
 20
247.0374564413479
 30
0.0
 40
9.4389364862881635
 50
233.3107099475551
 51
270.00000000000068
  0
ARC
  5
120
  8
L1
 10
112.2189439460517
 20
239.0254331585495
 30
0.0
 40
0.3
 50
225.00000000000151
 51
310.00000000000199
  0
ARC
  5
121
  8
L1
 10
111.2003988386405
 20
240.0439782659607
 30
0.0
 40
0.3
 50
139.99999999999841
 51
225.0
  0
LINE
  5
122
  8
L1
 10
110.9705855057048
 20
240.2368145488667
 30
0.0
 11
111.63266066027759
 21
241.02584499289631
 31
0.0
  0
LINE
  5
124
  8
L1
 10
113.2008106729871
 20
239.45769498018669
 30
0.0
 11
112.4117802289577
 21
238.79561982561381
 31
0.0
  0
LINE
  5
125
  8
L1
 10
112.00681191169581
 20
238.8133011241936
 30
0.0
 11
110.98826680428451
 21
239.8318462316048
 31
0.0
  0
LINE
  5
126
  8
L1
 10
122.71242212143891
 20
239.63745644134821
 30
0.0
 11
119.212422121439
 21
239.63745644134821
 31
0.0
  0
POLYLINE
  5
127
  8
L1
 66
     1
 10
0.0
 20
0.0
 30
0.0
  0
VERTEX
  5
32AC
  8
L1
 10
122.57553975174
 20
237.59851837378091
 30
0.0
  0
VERTEX
  5
32AD
  8
L1
 10
122.9628067046839
 20
237.54682343228569
 30
0.0
  0
VERTEX
  5
32AE
  8
L1
 10
123.3237038063742
 20
237.39684076985131
 30
0.0
  0
VERTEX
  5
32AF
  8
L1
 10
123.6337217254557
 20
237.1587560453647
 30
0.0
  0
VERTEX
  5
32B0
  8
L1
 10
123.8718064499423
 20
236.84873812628319
 30
0.0
  0
VERTEX
  5
32B1
  8
L1
 10
124.02178911237669
 20
236.487841024593
 30
0.0
  0
VERTEX
  5
32B2
  8
L1
 10
124.07348405387189
 20
236.10057407164899
 30
0.0
  0
SEQEND
  5
32B3
  8
L1
  0
LINE
  5
128
  8
L1
 10
121.41242212143899
 20
240.63745644134829
 30
0.0
 11
122.71242212143891
 21
240.63745644134829
 31
0.0
  0
LINE
  5
129
  8
L1
 10
115.1734856351508
 20
237.5985199550598
 30
0.0
 11
119.2124221214391
 21
237.5985199550598
 31
0.0
  0
LINE
  5
12A
  8
L1
 10
122.5739996476874
 20
237.5985199550598
 30
0.0
 11
119.2124221214391
 21
237.5985199550598
 31
0.0
  0
LINE
  5
12B
  8
L1
 10
119.212422121439
 20
240.63745644134829
 30
0.0
 11
121.41242212143899
 21
240.63745644134829
 31
0.0
  0
POLYLINE
  5
12C
  8
L1
 66
     1
 10
0.0
 20
0.0
 30
0.0
  0
VERTEX
  5
32B4
  8
L1
 10
122.5669071493505
 20
240.63745644134829
 30
0.0
  0
VERTEX
  5
32B5
  8
L1
 10
122.4002257611849
 20
240.68801397111801
 30
0.0
  0
VERTEX
  5
32B6
  8
L1
 10
122.28972436798109
 20
240.82264613498481
 30
0.0
  0
VERTEX
  5
32B7
  8
L1
 10
122.2726474862491
 20
240.99597513539709
 30
0.0
  0
VERTEX
  5
32B8
  8
L1
 10
122.35475088236581
 20
241.1495803983664
 30
0.0
  0
SEQEND
  5
32B9
  8
L1
  0
ARC
  5
12D
  8
L1
 10
122.71242212143891
 20
237.4374564413481
 30
0.0
 40
2.2000000000001192
 50
0.0
 51
90.0
  0
ARC
  5
12E
  8
L1
 10
122.71242212143891
 20
237.4374564413481
 30
0.0
 40
3.200000000000141
 50
39.517946684078488
 51
90.0
  0
ARC
  5
12F
  8
L1
 10
122.71242212143891
 20
237.4374564413481
 30
0.0
 40
3.200000000000141
 50
0.0
 51
39.517946684078488
  0
LINE
  5
136
  8
L1
 10
365.67622886303297
 20
231.90187022109029
 30
0.0
 11
365.67622886303297
 21
148.67304266160571
 31
0.0
  0
LINE
  5
13B
  8
L1
 10
357.39259399685523
 20
133.3616890841075
 30
0.0
 11
352.71641000001529
 21
128.68550508726759
 31
0.0
  0
CIRCLE
  5
13C
  8
L1
 10
352.54064264277491
 20
133.5374564413481
 30
0.0
 40
6.097393363178492
  0
CIRCLE
  5
13D
  8
L1
 10
352.54064264277491
 20
133.5374564413481
 30
0.0
 40
5.7974047862592784
  0
ARC
  5
13F
  8
L1
 10
352.54064264277491
 20
133.5374564413481
 30
0.0
 40
4.8551339946733894
 50
357.9253036357814
 51
92.0746963642178
  0
LINE
  5
14A
  8
L1
 10
347.68869128869471
 20
133.71322379858839
 30
0.0
 11
352.36487528553459
 21
138.38940779542821
 31
0.0
  0
POLYLINE
  5
14D
  8
L1
 66
     1
 10
0.0
 20
0.0
 30
0.0
  0
VERTEX
  5
32BA
  8
L1
 10
347.38911346348721
 20
130.91074967905291
 30
0.0
  0
VERTEX
  5
32BB
  8
L1
 10
347.40754300102259
 20
131.02424226841291
 30
0.0
  0
SEQEND
  5
32BC
  8
L1
  0
POLYLINE
  5
150
  8
L1
 66
     1
 10
0.0
 20
0.0
 30
0.0
  0
VERTEX
  5
32BD
  8
L1
 10
350.02742846983972
 20
128.4043567995958
 30
0.0
  0
VERTEX
  5
32BE
  8
L1
 10
349.91393588047958
 20
128.38592726206031
 30
0.0
  0
SEQEND
  5
32BF
  8
L1
  0
ARC
  5
151
  8
L1
 10
352.54064264277491
 20
133.5374564413481
 30
0.0
 40
4.8551339946733894
 50
177.9253036357828
 51
202.5363399469382
  0
ARC
  5
153
  8
L1
 10
352.54064264277491
 20
133.5374564413481
 30
0.0
 40
4.8551339946733894
 50
247.46366005306101
 51
272.07469636421507
  0
ARC
  5
161
  8
L1
 10
367.67622886303297
 20
148.67304266160571
 30
0.0
 40
2.0
 50
180.0
 51
270.0
  0
ARC
  5
16D
  8
L1
 10
367.67622886303297
 20
231.90187022109029
 30
0.0
 40
2.0
 50
90.0
 51
180.0
  0
LINE
  5
16E
  8
L1
 10
109.612422121439
 20
252.73745644134829
 30
0.0
 11
-34.687577878561051
 21
252.73745644134829
 31
0.0
  0
LINE
  5
16F
  8
L1
 10
108.2739996476874
 20
251.8985199550599
 30
0.0
 11
-33.349155404809551
 21
251.8985199550599
 31
0.0
  0
LINE
  5
170
  8
L1
 10
-49.054678637829227
 20
255.29976057225721
 30
0.0
 11
123.97952288070709
 21
255.29976057225721
 31
0.0
  0
LINE
  5
171
  8
L1
 10
124.01942212143889
 20
254.5804805415728
 30
0.0
 11
-49.09457787856109
 21
254.5804805415728
 31
0.0
  0
LINE
  5
172
  8
L1
 10
-34.687577878561051
 20
253.73745644134829
 30
0.0
 11
109.612422121439
 21
253.73745644134829
 31
0.0
  0
ARC
  5
173
  8
L1
 10
-34.687577878561278
 20
250.53745644134821
 30
0.0
 40
3.200000000000057
 50
129.51794668407649
 51
180.0
  0
ARC
  5
174
  8
L1
 10
-34.687577878561278
 20
250.53745644134821
 30
0.0
 40
2.200000000000033
 50
90.0
 51
180.0
  0
LINE
  5
175
  8
L1
 10
-36.914669775011411
 20
253.53745644134801
 30
0.0
 11
-48.187577878561278
 21
253.53745644134801
 31
0.0
  0
ARC
  5
176
  8
L1
 10
-48.187577878561278
 20
250.9374564413481
 30
0.0
 40
2.6000000000000001
 50
90.0
 51
180.0
  0
LINE
  5
177
  8
L1
 10
-38.399701835579371
 20
250.1797852022753
 30
0.0
 11
-41.126575138760529
 21
252.90665850545639
 31
0.0
  0
LINE
  5
178
  8
L1
 10
-44.100565070263819
 20
251.9151873087317
 30
0.0
 11
-39.409847011177639
 21
247.22446924964549
 31
0.0
  0
ARC
  5
179
  8
L1
 10
-44.287577878561187
 20
247.0374564413481
 30
0.0
 40
5.7825462644184809
 50
116.0136049375774
 51
153.986395062437
  0
LINE
  5
17A
  8
L1
 10
-44.474590686858789
 20
242.15972557396461
 30
0.0
 11
-49.165308745944849
 21
246.85044363305059
 31
0.0
  0
ARC
  5
17B
  8
L1
 10
-44.287577878561187
 20
247.0374564413481
 30
0.0
 40
4.881314598045666
 50
157.6692867288632
 51
182.19565189222271
  0
LINE
  5
17C
  8
L1
 10
-50.787577878561187
 20
250.8768758217013
 30
0.0
 11
-48.802824042731281
 21
248.89212198587131
 31
0.0
  0
POLYLINE
  5
17D
  8
L1
 66
     1
 10
0.0
 20
0.0
 30
0.0
  0
VERTEX
  5
32C0
  8
L1
 10
-50.156779942669509
 20
243.87645370154769
 30
0.0
  0
VERTEX
  5
32C1
  8
L1
 10
-50.310392297255191
 20
243.95857277818001
 30
0.0
  0
VERTEX
  5
32C2
  8
L1
 10
-50.483715930574078
 20
243.94151050661949
 30
0.0
  0
VERTEX
  5
32C3
  8
L1
 10
-50.618339094956752
 20
243.83101703808279
 30
0.0
  0
VERTEX
  5
32C4
  8
L1
 10
-50.787577878561187
 20
243.27299393690751
 30
0.0
  0
SEQEND
  5
32C5
  8
L1
  0
POLYLINE
  5
17E
  8
L1
 66
     1
 10
0.0
 20
0.0
 30
0.0
  0
VERTEX
  5
32C6
  8
L1
 10
-38.399701835579371
 20
250.1797852022753
 30
0.0
  0
VERTEX
  5
32C7
  8
L1
 10
-38.246096572610149
 20
250.09768180615859
 30
0.0
  0
VERTEX
  5
32C8
  8
L1
 10
-38.072767572197733
 20
250.11475868789071
 30
0.0
  0
VERTEX
  5
32C9
  8
L1
 10
-37.9381354083311
 20
250.2252600810944
 30
0.0
  0
VERTEX
  5
32CA
  8
L1
 10
-37.887577878561331
 20
250.3919414692599
 30
0.0
  0
SEQEND
  5
32CB
  8
L1
  0
LINE
  5
17F
  8
L1
 10
-37.887577878561331
 20
249.23745644134829
 30
0.0
 11
-37.887577878561331
 21
247.03745644134821
 31
0.0
  0
LINE
  5
180
  8
L1
 10
-37.887577878561331
 20
250.53745644134821
 30
0.0
 11
-37.887577878561331
 21
249.23745644134829
 31
0.0
  0
ARC
  5
181
  8
L1
 10
-44.287577878561187
 20
247.0374564413481
 30
0.0
 40
4.881314598045666
 50
87.804348107777244
 51
112.33071327113591
  0
LINE
  5
184
  8
L1
 10
-46.142243423084601
 20
251.55270260551811
 30
0.0
 11
-48.126997258914287
 21
253.53745644134801
 31
0.0
  0
POLYLINE
  5
185
  8
L1
 66
     1
 10
0.0
 20
0.0
 30
0.0
  0
VERTEX
  5
32CC
  8
L1
 10
-40.523115374120771
 20
253.53745644134801
 30
0.0
  0
VERTEX
  5
32CD
  8
L1
 10
-41.081138475295511
 20
253.36821765774371
 30
0.0
  0
VERTEX
  5
32CE
  8
L1
 10
-41.191631943832299
 20
253.2335944933611
 30
0.0
  0
VERTEX
  5
32CF
  8
L1
 10
-41.208694215392882
 20
253.06027086004221
 30
0.0
  0
VERTEX
  5
32D0
  8
L1
 10
-41.126575138760408
 20
252.90665850545639
 30
0.0
  0
SEQEND
  5
32D1
  8
L1
  0
POLYLINE
  5
186
  8
L1
 66
     1
 10
0.0
 20
0.0
 30
0.0
  0
VERTEX
  5
32D2
  8
L1
 10
-33.35069550886243
 20
251.898518373781
 30
0.0
  0
VERTEX
  5
32D3
  8
L1
 10
-33.737962461806369
 20
251.8468234322859
 30
0.0
  0
VERTEX
  5
32D4
  8
L1
 10
-34.09885956349666
 20
251.69684076985141
 30
0.0
  0
VERTEX
  5
32D5
  8
L1
 10
-34.408877482578021
 20
251.45875604536471
 30
0.0
  0
VERTEX
  5
32D6
  8
L1
 10
-34.646962207064632
 20
251.14873812628321
 30
0.0
  0
VERTEX
  5
32D7
  8
L1
 10
-34.7969448694991
 20
250.78784102459301
 30
0.0
  0
VERTEX
  5
32D8
  8
L1
 10
-34.848639810994143
 20
250.40057407164909
 30
0.0
  0
SEQEND
  5
32D9
  8
L1
  0
LINE
  5
187
  8
L1
 10
-34.848641392273009
 20
247.0374564413479
 30
0.0
 11
-34.848641392273009
 21
250.39903396759649
 31
0.0
  0
POLYLINE
  5
188
  8
L1
 66
     1
 10
0.0
 20
0.0
 30
0.0
  0
VERTEX
  5
32DA
  8
L1
 10
-34.848641392273009
 20
250.39903396759641
 30
0.0
  0
VERTEX
  5
32DB
  8
L1
 10
-34.848640996953179
 20
250.39980421738409
 30
0.0
  0
VERTEX
  5
32DC
  8
L1
 10
-34.848639810994143
 20
250.40057407164909
 30
0.0
  0
SEQEND
  5
32DD
  8
L1
  0
LINE
  5
189
  8
L1
 10
-36.887577878561331
 20
247.03745644134821
 30
0.0
 11
-36.887577878561331
 21
250.53745644134821
 31
0.0
  0
LINE
  5
18A
  8
L1
 10
-34.84864139227323
 20
247.0374564413479
 30
0.0
 11
-34.84864139227323
 21
242.99851995505989
 31
0.0
  0
ARC
  5
18C
  8
L1
 10
-34.687577878561278
 20
250.53745644134821
 30
0.0
 40
3.200000000000057
 50
90.0
 51
129.51794668407649
  0
LINE
  5
18F
  8
L1
 10
111.8395140178891
 20
253.53745644134801
 30
0.0
 11
123.1124221214389
 21
253.53745644134801
 31
0.0
  0
LINE
  5
190
  8
L1
 10
113.3245460784571
 20
250.1797852022753
 30
0.0
 11
116.0514193816382
 21
252.90665850545639
 31
0.0
  0
ARC
  5
191
  8
L1
 10
109.612422121439
 20
250.53745644134821
 30
0.0
 40
2.200000000000033
 50
0.0
 51
90.0
  0
POLYLINE
  5
192
  8
L1
 66
     1
 10
0.0
 20
0.0
 30
0.0
  0
VERTEX
  5
32DE
  8
L1
 10
108.2755397517401
 20
251.898518373781
 30
0.0
  0
VERTEX
  5
32DF
  8
L1
 10
108.6628067046841
 20
251.8468234322859
 30
0.0
  0
VERTEX
  5
32E0
  8
L1
 10
109.0237038063742
 20
251.69684076985141
 30
0.0
  0
VERTEX
  5
32E1
  8
L1
 10
109.3337217254557
 20
251.45875604536471
 30
0.0
  0
VERTEX
  5
32E2
  8
L1
 10
109.5718064499423
 20
251.14873812628321
 30
0.0
  0
VERTEX
  5
32E3
  8
L1
 10
109.7217891123767
 20
250.78784102459301
 30
0.0
  0
VERTEX
  5
32E4
  8
L1
 10
109.7734840538718
 20
250.40057407164909
 30
0.0
  0
SEQEND
  5
32E5
  8
L1
  0
ARC
  5
193
  8
L1
 10
109.612422121439
 20
250.53745644134821
 30
0.0
 40
3.200000000000057
 50
0.0
 51
50.482053315923501
  0
LINE
  5
194
  8
L1
 10
111.812422121439
 20
247.03745644134821
 30
0.0
 11
111.812422121439
 21
250.53745644134821
 31
0.0
  0
POLYLINE
  5
195
  8
L1
 66
     1
 10
0.0
 20
0.0
 30
0.0
  0
VERTEX
  5
32E6
  8
L1
 10
109.77348563515061
 20
250.39903396759641
 30
0.0
  0
VERTEX
  5
32E7
  8
L1
 10
109.7734852398309
 20
250.39980421738409
 30
0.0
  0
VERTEX
  5
32E8
  8
L1
 10
109.7734840538718
 20
250.40057407164909
 30
0.0
  0
SEQEND
  5
32E9
  8
L1
  0
LINE
  5
196
  8
L1
 10
109.77348563515071
 20
247.0374564413479
 30
0.0
 11
109.77348563515071
 21
250.39903396759649
 31
0.0
  0
LINE
  5
197
  8
L1
 10
109.77348563515081
 20
247.0374564413479
 30
0.0
 11
109.77348563515081
 21
242.99851995505989
 31
0.0
  0
LINE
  5
198
  8
L1
 10
112.812422121439
 20
250.53745644134821
 30
0.0
 11
112.812422121439
 21
249.23745644134829
 31
0.0
  0
LINE
  5
199
  8
L1
 10
112.812422121439
 20
249.23745644134829
 30
0.0
 11
112.812422121439
 21
247.03745644134821
 31
0.0
  0
POLYLINE
  5
19A
  8
L1
 66
     1
 10
0.0
 20
0.0
 30
0.0
  0
VERTEX
  5
32EA
  8
L1
 10
113.3245460784571
 20
250.1797852022753
 30
0.0
  0
VERTEX
  5
32EB
  8
L1
 10
113.1709408154878
 20
250.09768180615859
 30
0.0
  0
VERTEX
  5
32EC
  8
L1
 10
112.9976118150754
 20
250.11475868789071
 30
0.0
  0
VERTEX
  5
32ED
  8
L1
 10
112.8629796512088
 20
250.2252600810944
 30
0.0
  0
VERTEX
  5
32EE
  8
L1
 10
112.8124221214389
 20
250.3919414692599
 30
0.0
  0
SEQEND
  5
32EF
  8
L1
  0
ARC
  5
19B
  8
L1
 10
109.612422121439
 20
250.53745644134821
 30
0.0
 40
3.200000000000057
 50
50.482053315923501
 51
90.0
  0
ARC
  5
19D
  8
L1
 10
123.1124221214389
 20
250.9374564413481
 30
0.0
 40
2.6000000000000001
 50
0.0
 51
90.0
  0
ARC
  5
19E
  8
L1
 10
119.21242212143891
 20
247.0374564413481
 30
0.0
 40
5.7825462644184809
 50
26.013604937570602
 51
63.986395062422609
  0
LINE
  5
19F
  8
L1
 10
119.02540931314149
 20
251.9151873087317
 30
0.0
 11
114.3346912540553
 21
247.22446924964549
 31
0.0
  0
LINE
  5
1A0
  8
L1
 10
119.3994349297364
 20
242.15972557396461
 30
0.0
 11
124.0901529888224
 21
246.85044363305059
 31
0.0
  0
ARC
  5
1A1
  8
L1
 10
119.21242212143891
 20
247.0374564413481
 30
0.0
 40
4.881314598045666
 50
357.80434810777717
 51
22.330713271137029
  0
LINE
  5
1A2
  8
L1
 10
125.71242212143881
 20
250.8768758217013
 30
0.0
 11
123.7276682856089
 21
248.89212198587131
 31
0.0
  0
POLYLINE
  5
1A3
  8
L1
 66
     1
 10
0.0
 20
0.0
 30
0.0
  0
VERTEX
  5
32F0
  8
L1
 10
125.0816241855471
 20
243.87645370154769
 30
0.0
  0
VERTEX
  5
32F1
  8
L1
 10
125.2352365401329
 20
243.95857277818001
 30
0.0
  0
VERTEX
  5
32F2
  8
L1
 10
125.4085601734517
 20
243.94151050661949
 30
0.0
  0
VERTEX
  5
32F3
  8
L1
 10
125.54318333783441
 20
243.83101703808279
 30
0.0
  0
VERTEX
  5
32F4
  8
L1
 10
125.71242212143881
 20
243.27299393690751
 30
0.0
  0
SEQEND
  5
32F5
  8
L1
  0
LINE
  5
1A4
  8
L1
 10
121.06708766596221
 20
251.55270260551811
 30
0.0
 11
123.051841501792
 21
253.53745644134801
 31
0.0
  0
ARC
  5
1A5
  8
L1
 10
119.21242212143891
 20
247.0374564413481
 30
0.0
 40
4.881314598045666
 50
67.669286728864066
 51
92.195651892222756
  0
POLYLINE
  5
1A6
  8
L1
 66
     1
 10
0.0
 20
0.0
 30
0.0
  0
VERTEX
  5
32F6
  8
L1
 10
115.4479596169984
 20
253.53745644134801
 30
0.0
  0
VERTEX
  5
32F7
  8
L1
 10
116.0059827181732
 20
253.36821765774371
 30
0.0
  0
VERTEX
  5
32F8
  8
L1
 10
116.1164761867099
 20
253.2335944933611
 30
0.0
  0
VERTEX
  5
32F9
  8
L1
 10
116.13353845827061
 20
253.06027086004221
 30
0.0
  0
VERTEX
  5
32FA
  8
L1
 10
116.0514193816381
 20
252.90665850545639
 30
0.0
  0
SEQEND
  5
32FB
  8
L1
  0
ARC
  5
1A8
  8
L1
 10
124.01942212143889
 20
251.844456441348
 30
0.0
 40
2.7360241002247609
 50
0.0
 51
90.0
  0
LINE
  5
1C1
  8
L1
 10
357.39259399685523
 20
247.21322379858859
 30
0.0
 11
352.71641000001529
 21
251.8894077954285
 31
0.0
  0
ARC
  5
1C2
  8
L1
 10
352.54064264277491
 20
247.03745644134801
 30
0.0
 40
4.8551339946733894
 50
267.9253036357822
 51
2.074696364218489
  0
CIRCLE
  5
1C3
  8
L1
 10
352.54064264277491
 20
247.03745644134801
 30
0.0
 40
5.7974047862592784
  0
CIRCLE
  5
1C4
  8
L1
 10
352.54064264277491
 20
247.03745644134801
 30
0.0
 40
6.097393363178492
  0
POLYLINE
  5
1C6
  8
L1
 66
     1
 10
0.0
 20
0.0
 30
0.0
  0
VERTEX
  5
32FC
  8
L1
 10
347.40754300102259
 20
249.55067061428309
 30
0.0
  0
VERTEX
  5
32FD
  8
L1
 10
347.42343598076701
 20
249.53342239150581
 30
0.0
  0
VERTEX
  5
32FE
  8
L1
 10
347.47061446376028
 20
249.48504384651989
 30
0.0
  0
VERTEX
  5
32FF
  8
L1
 10
347.543300507156
 20
249.41153748847361
 30
0.0
  0
VERTEX
  5
3300
  8
L1
 10
347.6313404530834
 20
249.32320297575299
 30
0.0
  0
SEQEND
  5
3301
  8
L1
  0
POLYLINE
  5
1C7
  8
L1
 66
     1
 10
0.0
 20
0.0
 30
0.0
  0
VERTEX
  5
3302
  8
L1
 10
347.38911346348721
 20
249.66416320364311
 30
0.0
  0
VERTEX
  5
3303
  8
L1
 10
347.40754300102259
 20
249.55067061428321
 30
0.0
  0
SEQEND
  5
3304
  8
L1
  0
LINE
  5
1C8
  8
L1
 10
347.6313404530834
 20
249.32320297575299
 30
0.0
 11
348.0562630462328
 21
248.89828038260359
 31
0.0
  0
ARC
  5
1C9
  8
L1
 10
352.54064264277491
 20
247.03745644134801
 30
0.0
 40
4.8551339946733894
 50
157.4636600530614
 51
182.07469636421709
  0
LINE
  5
1CA
  8
L1
 10
347.68869128869471
 20
246.86168908410761
 30
0.0
 11
352.36487528553459
 21
242.18550508726781
 31
0.0
  0
POLYLINE
  5
1CD
  8
L1
 66
     1
 10
0.0
 20
0.0
 30
0.0
  0
VERTEX
  5
3305
  8
L1
 10
350.02742846983972
 20
252.17055608310019
 30
0.0
  0
VERTEX
  5
3306
  8
L1
 10
349.91393588047958
 20
252.1889856206358
 30
0.0
  0
SEQEND
  5
3307
  8
L1
  0
POLYLINE
  5
1CE
  8
L1
 66
     1
 10
0.0
 20
0.0
 30
0.0
  0
VERTEX
  5
3308
  8
L1
 10
350.25489610836991
 20
251.9467586310395
 30
0.0
  0
VERTEX
  5
3309
  8
L1
 10
350.16656159564928
 20
252.03479857696689
 30
0.0
  0
VERTEX
  5
330A
  8
L1
 10
350.0930552376031
 20
252.1074846203627
 30
0.0
  0
VERTEX
  5
330B
  8
L1
 10
350.04467669261709
 20
252.15466310335589
 30
0.0
  0
VERTEX
  5
330C
  8
L1
 10
350.02742846983989
 20
252.17055608310019
 30
0.0
  0
SEQEND
  5
330D
  8
L1
  0
LINE
  5
1CF
  8
L1
 10
350.67981870151931
 20
251.5218360378901
 30
0.0
 11
350.25489610836991
 21
251.94675863103939
 31
0.0
  0
ARC
  5
1D0
  8
L1
 10
352.54064264277491
 20
247.03745644134801
 30
0.0
 40
4.8551339946733894
 50
87.925303635784914
 51
112.5363399469389
  0
LINE
  5
1EC
  8
L6
 10
434.29064264277503
 20
259.95395198963951
 30
0.0
 11
434.29064264277503
 21
121.7922664433724
 31
0.0
  0
LINE
  5
1F0
  8
L1
 10
524.3029467736842
 20
128.77035568207981
 30
0.0
 11
524.3029467736842
 21
251.80455720061619
 31
0.0
  0
LINE
  5
1F4
  8
L1
 10
522.75680280050301
 20
250.4581391343861
 30
0.0
 11
522.75680280050301
 21
130.1167737483099
 31
0.0
  0
LINE
  5
20D
  8
L1
 10
502.9050564225173
 20
231.90187022109029
 30
0.0
 11
502.9050564225173
 21
148.67304266160571
 31
0.0
  0
ARC
  5
219
  8
L1
 10
516.04064264277508
 20
133.5374564413481
 30
0.0
 40
4.8551339946733894
 50
87.925303635782214
 51
182.0746963642184
  0
LINE
  5
21B
  8
L1
 10
520.89259399685545
 20
133.71322379858839
 30
0.0
 11
516.21641000001546
 21
138.38940779542821
 31
0.0
  0
CIRCLE
  5
21C
  8
L1
 10
516.04064264277508
 20
133.5374564413481
 30
0.0
 40
5.7974047862592784
  0
CIRCLE
  5
21D
  8
L1
 10
516.04064264277508
 20
133.5374564413481
 30
0.0
 40
6.097393363178492
  0
LINE
  5
21E
  8
L1
 10
511.18869128869488
 20
133.3616890841075
 30
0.0
 11
515.86487528553482
 21
128.68550508726759
 31
0.0
  0
POLYLINE
  5
220
  8
L1
 66
     1
 10
0.0
 20
0.0
 30
0.0
  0
VERTEX
  5
330E
  8
L1
 10
521.19217182206285
 20
130.91074967905291
 30
0.0
  0
VERTEX
  5
330F
  8
L1
 10
521.17374228452718
 20
131.02424226841291
 30
0.0
  0
SEQEND
  5
3310
  8
L1
  0
ARC
  5
223
  8
L1
 10
516.04064264277508
 20
133.5374564413481
 30
0.0
 40
4.8551339946733894
 50
337.4636600530614
 51
2.0746963642171399
  0
POLYLINE
  5
224
  8
L1
 66
     1
 10
0.0
 20
0.0
 30
0.0
  0
VERTEX
  5
3311
  8
L1
 10
518.55385681571045
 20
128.4043567995958
 30
0.0
  0
VERTEX
  5
3312
  8
L1
 10
518.66734940507024
 20
128.38592726206031
 30
0.0
  0
SEQEND
  5
3313
  8
L1
  0
ARC
  5
227
  8
L1
 10
516.04064264277508
 20
133.5374564413481
 30
0.0
 40
4.8551339946733894
 50
267.92530363578481
 51
292.53633994693888
  0
ARC
  5
22D
  8
L1
 10
500.9050564225173
 20
148.67304266160571
 30
0.0
 40
2.0
 50
270.0
 51
0.0
  0
ARC
  5
230
  8
L1
 10
500.9050564225173
 20
231.90187022109029
 30
0.0
 40
2.0
 50
0.0
 51
90.0
  0
CIRCLE
  5
255
  8
L1
 10
516.04064264277508
 20
247.03745644134801
 30
0.0
 40
6.097393363178492
  0
CIRCLE
  5
256
  8
L1
 10
516.04064264277508
 20
247.03745644134801
 30
0.0
 40
5.7974047862592784
  0
LINE
  5
257
  8
L1
 10
511.18869128869488
 20
247.21322379858859
 30
0.0
 11
515.86487528553482
 21
251.8894077954285
 31
0.0
  0
ARC
  5
258
  8
L1
 10
516.04064264277508
 20
247.03745644134801
 30
0.0
 40
4.8551339946733894
 50
177.92530363578149
 51
272.0746963642178
  0
LINE
  5
259
  8
L1
 10
520.89259399685545
 20
246.86168908410761
 30
0.0
 11
516.21641000001546
 21
242.18550508726781
 31
0.0
  0
ARC
  5
25A
  8
L1
 10
516.04064264277508
 20
247.03745644134801
 30
0.0
 40
4.8551339946733894
 50
357.92530363578283
 51
22.536339946938931
  0
POLYLINE
  5
25D
  8
L1
 66
     1
 10
0.0
 20
0.0
 30
0.0
  0
VERTEX
  5
3314
  8
L1
 10
521.19217182206285
 20
249.66416320364311
 30
0.0
  0
VERTEX
  5
3315
  8
L1
 10
521.17374228452718
 20
249.55067061428321
 30
0.0
  0
SEQEND
  5
3316
  8
L1
  0
ARC
  5
25F
  8
L1
 10
516.04064264277508
 20
247.03745644134801
 30
0.0
 40
4.8551339946733894
 50
67.463660053061034
 51
92.0746963642151
  0
POLYLINE
  5
262
  8
L1
 66
     1
 10
0.0
 20
0.0
 30
0.0
  0
VERTEX
  5
3317
  8
L1
 10
518.55385681571045
 20
252.17055608310019
 30
0.0
  0
VERTEX
  5
3318
  8
L1
 10
518.66734940507024
 20
252.1889856206358
 30
0.0
  0
SEQEND
  5
3319
  8
L1
  0
LINE
  5
FED
  8
L2
 10
434.29064264277503
 20
410.5284751812834
 30
0.0
 11
365.67622886303292
 21
410.5284751812834
 31
0.0
  0
LINE
  5
FEF
  8
L2
 10
434.29064264277503
 20
408.02847518128328
 30
0.0
 11
367.37130529445437
 21
408.0284751812834
 31
0.0
  0
LINE
  5
FF0
  8
L1
 10
345.82448248504659
 20
335.30919515059281
 30
0.0
 11
522.7568028005029
 21
335.30919515059281
 31
0.0
  0
LINE
  5
FF1
  8
L1
 10
344.27833851186568
 20
309.4284751812765
 30
0.0
 11
524.30294677368408
 21
309.42847518127712
 31
0.0
  0
LINE
  5
FF4
  8
L1
 10
344.99761854255058
 20
308.70919515059211
 30
0.0
 11
523.58366674299953
 21
308.70919515059262
 31
0.0
  0
LINE
  5
FF5
  8
L2
 10
365.87336099232272
 20
406.6069791156479
 30
0.0
 11
361.9795791290631
 21
333.1091951505926
 31
0.0
  0
LINE
  5
FF7
  8
L1
 10
360.35057563638281
 20
335.49872795934408
 30
0.0
 11
364.20362724772878
 21
409.0193324203106
 31
0.0
  0
LINE
  5
FF8
  8
L6
 10
434.29064264277508
 20
302.0403229145536
 30
0.0
 11
434.29064264277508
 21
421.87380575888062
 31
0.0
  0
POLYLINE
  5
FF9
  8
L1
 66
     1
 10
0.0
 20
0.0
 30
0.0
  0
VERTEX
  5
331A
  8
L1
 10
434.29064264277508
 20
411.02847518129101
 30
0.0
  0
VERTEX
  5
331B
  8
L1
 10
352.21486888704442
 20
411.02847518130358
 30
0.0
  0
VERTEX
  5
331C
  8
L1
 10
350.09767417665779
 20
409.01933242031072
 30
0.0
  0
VERTEX
  5
331D
  8
L1
 10
346.24462256531177
 20
335.49872795934402
 30
0.0
  0
SEQEND
  5
331E
  8
L1
  0
LINE
  5
FFA
  8
L1
 10
350.09767417665779
 20
409.01933242031072
 30
0.0
 11
434.29064264277503
 21
409.0193324203106
 31
0.0
  0
ARC
  5
FFB
  8
L2
 10
367.37130529445449
 20
406.52847518128351
 30
0.0
 40
1.5
 50
89.999999999999986
 51
176.9999999999998
  0
POLYLINE
  5
FFD
  8
L1
 66
     1
 10
0.0
 20
0.0
 30
0.0
  0
VERTEX
  5
331F
  8
L1
 10
366.32082195811552
 20
411.02847518130358
 30
0.0
  0
VERTEX
  5
3320
  8
L1
 10
364.20362724772878
 20
409.0193324203106
 30
0.0
  0
SEQEND
  5
3321
  8
L1
  0
LINE
  5
FFF
  8
L2
 10
365.67622886303292
 20
410.5284751812834
 30
0.0
 11
365.6762288630328
 21
411.0284751812834
 31
0.0
  0
LINE
  5
1001
  8
L1
 10
345.62475657809591
 20
335.11966234184121
 30
0.0
 11
344.27833851186568
 21
309.42847518127712
 31
0.0
  0
LINE
  5
1002
  8
L1
 10
344.27833851186568
 20
309.42847518127712
 30
0.0
 11
345.62475657809591
 21
335.11966234184121
 31
0.0
  0
ARC
  5
1003
  8
L1
 10
345.82448248504681
 20
335.10919515059271
 30
0.0
 40
0.2
 50
89.999999999999986
 51
177.00000000000031
  0
LINE
  5
1004
  8
L1
 10
344.27855420500072
 20
309.42825948814198
 30
0.0
 11
344.99761854255019
 21
308.70919515059251
 31
0.0
  0
POLYLINE
  5
1005
  8
L1
 66
     1
 10
0.0
 20
0.0
 30
0.0
  0
VERTEX
  5
3322
  8
L1
 10
344.27833851186568
 20
309.42847518127712
 30
0.0
  0
VERTEX
  5
3323
  8
L1
 10
344.278392435586
 20
309.42842125755681
 30
0.0
  0
VERTEX
  5
3324
  8
L1
 10
344.27855420500077
 20
309.42825948814198
 30
0.0
  0
SEQEND
  5
3325
  8
L1
  0
LINE
  5
1007
  8
L1
 10
347.7336426427749
 20
308.70919515059251
 30
0.0
 11
344.99761854255007
 21
308.70919515059251
 31
0.0
  0
LINE
  5
1009
  8
L1
 10
344.99761854255007
 20
308.70919515059262
 30
0.0
 11
344.27833851186568
 21
309.42847518127712
 31
0.0
  0
LINE
  5
100A
  8
L2
 10
360.7406426427749
 20
308.70919515059262
 30
0.0
 11
361.37957912906302
 21
333.1091951505926
 31
0.0
  0
POLYLINE
  5
100B
  8
L1
 66
     1
 10
0.0
 20
0.0
 30
0.0
  0
VERTEX
  5
3326
  8
L1
 10
360.17901184559759
 20
335.30919515059259
 30
0.0
  0
VERTEX
  5
3327
  8
L1
 10
360.15790154482551
 20
335.30919515059259
 30
0.0
  0
VERTEX
  5
3328
  8
L1
 10
360.1508497294318
 20
335.30919515059259
 30
0.0
  0
SEQEND
  5
3329
  8
L1
  0
ARC
  5
100C
  8
L1
 10
360.1508497294318
 20
335.50919515059269
 30
0.0
 40
0.2
 50
270.0
 51
357.00000000000028
  0
LINE
  5
1016
  8
L2
 10
507.84064264277481
 20
308.70919515059262
 30
0.0
 11
507.20170615648658
 21
333.1091951505926
 31
0.0
  0
ARC
  5
1017
  8
L1
 10
508.43043555611769
 20
335.50919515059257
 30
0.0
 40
0.2
 50
182.9999999999996
 51
270.0
  0
POLYLINE
  5
1018
  8
L1
 66
     1
 10
0.0
 20
0.0
 30
0.0
  0
VERTEX
  5
332A
  8
L1
 10
508.40227343995201
 20
335.30919515059259
 30
0.0
  0
VERTEX
  5
332B
  8
L1
 10
508.4233837407242
 20
335.30919515059259
 30
0.0
  0
VERTEX
  5
332C
  8
L1
 10
508.43043555611791
 20
335.30919515059259
 30
0.0
  0
SEQEND
  5
332D
  8
L1
  0
LINE
  5
1019
  8
L1
 10
524.3029467736842
 20
309.42847518127712
 30
0.0
 11
522.95652870745403
 21
335.11966234184121
 31
0.0
  0
LINE
  5
101A
  8
L1
 10
524.30294677368408
 20
309.42847518127712
 30
0.0
 11
522.95652870745391
 21
335.11966234184121
 31
0.0
  0
LINE
  5
101B
  8
L1
 10
520.78644369447716
 20
335.30853394316011
 30
0.0
 11
520.78651762038226
 21
335.30712335286199
 31
0.0
  0
ARC
  5
101C
  8
L1
 10
522.13803600595338
 20
335.00919515059257
 30
0.0
 40
0.3
 50
89.999999999999986
 51
93.292043853694977
  0
ARC
  5
101D
  8
L1
 10
522.5363886271889
 20
335.50919515059257
 30
0.0
 40
0.1999999999999993
 50
183.0000000000006
 51
270.0
  0
ARC
  5
101E
  8
L1
 10
522.75680280050301
 20
335.10919515059248
 30
0.0
 40
0.1999999999999879
 50
2.9999999999996598
 51
89.999999999999986
  0
ARC
  5
101F
  8
L1
 10
522.75680280050278
 20
335.1091951505926
 30
0.0
 40
0.2
 50
2.9999999999996598
 51
89.999999999999986
  0
LINE
  5
1022
  8
L1
 10
523.58366674299953
 20
308.70919515059262
 30
0.0
 11
524.30294677368386
 21
309.42847518127712
 31
0.0
  0
POLYLINE
  5
1E83
  8
L1
 66
     1
 10
0.0
 20
0.0
 30
0.0
  0
VERTEX
  5
332E
  8
L1
 10
434.29064264277508
 20
411.02847518129101
 30
0.0
  0
VERTEX
  5
332F
  8
L1
 10
516.36641639850575
 20
411.02847518130358
 30
0.0
  0
VERTEX
  5
3330
  8
L1
 10
518.48361110889232
 20
409.01933242031072
 30
0.0
  0
VERTEX
  5
3331
  8
L1
 10
522.33666272023834
 20
335.49872795934402
 30
0.0
  0
SEQEND
  5
3332
  8
L1
  0
LINE
  5
1E84
  8
L2
 10
502.70792429322739
 20
406.6069791156479
 30
0.0
 11
506.60170615648701
 21
333.1091951505926
 31
0.0
  0
LINE
  5
1E85
  8
L1
 10
508.2307096491673
 20
335.49872795934408
 30
0.0
 11
504.37765803782128
 21
409.0193324203106
 31
0.0
  0
LINE
  5
1E86
  8
L2
 10
434.29064264277508
 20
410.5284751812834
 30
0.0
 11
502.90505642251719
 21
410.5284751812834
 31
0.0
  0
LINE
  5
1E87
  8
L1
 10
518.48361110889232
 20
409.01933242031072
 30
0.0
 11
434.29064264277508
 21
409.0193324203106
 31
0.0
  0
LINE
  5
1E88
  8
L2
 10
434.29064264277508
 20
408.02847518128328
 30
0.0
 11
501.20997999109568
 21
408.0284751812834
 31
0.0
  0
POLYLINE
  5
1E89
  8
L1
 66
     1
 10
0.0
 20
0.0
 30
0.0
  0
VERTEX
  5
3333
  8
L1
 10
502.26046332743471
 20
411.02847518130358
 30
0.0
  0
VERTEX
  5
3334
  8
L1
 10
504.37765803782128
 20
409.0193324203106
 30
0.0
  0
SEQEND
  5
3335
  8
L1
  0
ARC
  5
1E8A
  8
L2
 10
501.20997999109551
 20
406.52847518128351
 30
0.0
 40
1.5
 50
3.0000000000001759
 51
90.000000000000028
  0
LINE
  5
1E8B
  8
L2
 10
502.90505642251719
 20
410.5284751812834
 30
0.0
 11
502.9050564225173
 21
411.0284751812834
 31
0.0
  0
LINE
  5
1E8C
  8
L2
 10
506.60170615648701
 20
333.1091951505926
 30
0.0
 11
507.20170615648658
 21
333.1091951505926
 31
0.0
  0
LINE
  5
1E8D
  8
L2
 10
361.37957912906302
 20
333.1091951505926
 30
0.0
 11
361.9795791290631
 21
333.1091951505926
 31
0.0
  0
POLYLINE
  5
24EA
  8
L1
 66
     1
 10
0.0
 20
0.0
 30
0.0
  0
VERTEX
  5
3336
  8
L1
 10
262.48843153177341
 20
239.3990872385252
 30
0.0
  0
VERTEX
  5
3337
  8
L1
 10
262.48843153177341
 20
239.42019753929739
 30
0.0
  0
VERTEX
  5
3338
  8
L1
 10
262.48843153177341
 20
239.4272493546911
 30
0.0
  0
SEQEND
  5
3339
  8
L1
  0
POLYLINE
  5
24EB
  8
L1
 66
     1
 10
0.0
 20
0.0
 30
0.0
  0
VERTEX
  5
333A
  8
L1
 10
186.76915150107121
 20
190.2874564413481
 30
0.0
  0
VERTEX
  5
333B
  8
L1
 10
186.7691515010624
 20
247.36323019707891
 30
0.0
  0
VERTEX
  5
333C
  8
L1
 10
188.77829426205531
 20
249.4804249074655
 30
0.0
  0
VERTEX
  5
333D
  8
L1
 10
262.29889872302209
 20
253.33347651881149
 30
0.0
  0
SEQEND
  5
333E
  8
L1
  0
POLYLINE
  5
24EC
  8
L1
 66
     1
 10
0.0
 20
0.0
 30
0.0
  0
VERTEX
  5
333F
  8
L1
 10
186.76915150106251
 20
233.25727712600781
 30
0.0
  0
VERTEX
  5
3340
  8
L1
 10
188.77829426205551
 20
235.37447183639441
 30
0.0
  0
SEQEND
  5
3341
  8
L1
  0
LINE
  5
24ED
  8
L2
 10
187.26915150108269
 20
190.2874564413481
 30
0.0
 11
187.26915150108269
 21
233.90187022109029
 31
0.0
  0
LINE
  5
24EE
  8
L2
 10
189.7691515010828
 20
190.2874564413481
 30
0.0
 11
189.76915150108269
 21
232.20679378966881
 31
0.0
  0
LINE
  5
24EF
  8
L1
 10
188.77829426205531
 20
249.4804249074655
 30
0.0
 11
188.77829426205551
 21
190.2874564413481
 31
0.0
  0
LINE
  5
24F0
  8
L1
 10
262.4884315317733
 20
190.2874564413481
 30
0.0
 11
262.4884315317733
 21
253.75361659907611
 31
0.0
  0
LINE
  5
24F1
  8
L1
 10
289.08843153177372
 20
190.2874564413481
 30
0.0
 11
289.08843153177338
 21
254.58048054157271
 31
0.0
  0
LINE
  5
24F2
  8
L1
 10
290.55928168391267
 20
253.14246602247559
 30
0.0
 11
290.55928168391267
 21
190.2874564413481
 31
0.0
  0
LINE
  5
24F3
  8
L1
 10
288.36915150108922
 20
190.2874564413481
 30
0.0
 11
288.36915150108899
 21
255.29976057225721
 31
0.0
  0
LINE
  5
24F5
  8
L6
 10
295.75730376781252
 20
190.2874564413481
 30
0.0
 11
175.92382092348549
 21
190.2874564413481
 31
0.0
  0
LINE
  5
2507
  8
L2
 10
289.08843153177338
 20
238.837456441348
 30
0.0
 11
264.68843153177352
 21
238.19851995505979
 31
0.0
  0
LINE
  5
2508
  8
L1
 10
288.36915150108899
 20
255.29976057225721
 30
0.0
 11
262.67796434052491
 21
253.9533425060271
 31
0.0
  0
LINE
  5
2509
  8
L1
 10
288.36915150108899
 20
255.29976057225741
 30
0.0
 11
262.67796434052491
 21
253.95334250602721
 31
0.0
  0
LINE
  5
250A
  8
L1
 10
289.08843153177338
 20
254.58048054157271
 30
0.0
 11
288.36915150108899
 21
255.29976057225721
 31
0.0
  0
LINE
  5
250B
  8
L1
 10
290.22874095497968
 20
253.53638912368049
 30
0.0
 11
289.09162156481028
 21
253.73689395245441
 31
0.0
  0
LINE
  5
250D
  8
L2
 10
191.19064756671821
 20
233.70473809180061
 30
0.0
 11
264.68843153177352
 21
237.5985199550602
 31
0.0
  0
LINE
  5
250E
  8
L1
 10
262.29889872302198
 20
239.22752344774051
 30
0.0
 11
188.77829426205551
 21
235.37447183639441
 31
0.0
  0
LINE
  5
250F
  8
L2
 10
264.68843153177352
 20
237.5985199550602
 30
0.0
 11
264.68843153177352
 21
238.19851995505979
 31
0.0
  0
ARC
  5
2510
  8
L1
 10
262.28843153177348
 20
239.4272493546909
 30
0.0
 40
0.2
 50
272.9999999999996
 51
0.0
  0
ARC
  5
2511
  8
L1
 10
262.68843153177352
 20
253.753616599076
 30
0.0
 40
0.2
 50
92.999999999999659
 51
180.0
  0
ARC
  5
2512
  8
L1
 10
262.68843153177357
 20
253.7536165990762
 30
0.0
 40
0.1999999999999879
 50
92.999999999999659
 51
180.0
  0
ARC
  5
2513
  8
L1
 10
262.28843153177348
 20
253.53320242576211
 30
0.0
 40
0.1999999999999993
 50
273.00000000000068
 51
0.0
  0
ARC
  5
2514
  8
L1
 10
262.78843153177348
 20
253.13484980452651
 30
0.0
 40
0.3
 50
180.0
 51
183.29204385369499
  0
LINE
  5
2515
  8
L1
 10
262.489092739206
 20
251.7832574930504
 30
0.0
 11
262.49050332950412
 21
251.78333141895541
 31
0.0
  0
LINE
  5
2516
  8
L2
 10
187.26915150108269
 20
233.90187022109029
 30
0.0
 11
186.76915150108269
 21
233.90187022109049
 31
0.0
  0
ARC
  5
2517
  8
L2
 10
191.26915150108269
 20
232.20679378966869
 30
0.0
 40
1.5
 50
93.000000000000199
 51
180.0
  0
LINE
  5
2519
  8
L1
 10
289.08843153177372
 20
190.2874564413481
 30
0.0
 11
289.08843153177338
 21
125.9944323411235
 31
0.0
  0
LINE
  5
251A
  8
L1
 10
290.55928168391267
 20
127.43244686022049
 30
0.0
 11
290.55928168391267
 21
190.2874564413481
 31
0.0
  0
LINE
  5
251B
  8
L1
 10
288.36915150108922
 20
190.2874564413481
 30
0.0
 11
288.36915150108899
 21
125.275152310439
 31
0.0
  0
LINE
  5
251C
  8
L1
 10
262.4884315317733
 20
190.2874564413481
 30
0.0
 11
262.4884315317733
 21
126.8212962836201
 31
0.0
  0
POLYLINE
  5
251D
  8
L1
 66
     1
 10
0.0
 20
0.0
 30
0.0
  0
VERTEX
  5
3342
  8
L1
 10
186.76915150107121
 20
190.2874564413481
 30
0.0
  0
VERTEX
  5
3343
  8
L1
 10
186.7691515010624
 20
133.21168268561729
 30
0.0
  0
VERTEX
  5
3344
  8
L1
 10
188.77829426205531
 20
131.09448797523069
 30
0.0
  0
VERTEX
  5
3345
  8
L1
 10
262.29889872302209
 20
127.2414363638847
 30
0.0
  0
SEQEND
  5
3346
  8
L1
  0
LINE
  5
251E
  8
L2
 10
189.7691515010828
 20
190.2874564413481
 30
0.0
 11
189.76915150108269
 21
148.36811909302739
 31
0.0
  0
LINE
  5
251F
  8
L1
 10
188.77829426205531
 20
131.09448797523069
 30
0.0
 11
188.77829426205551
 21
190.2874564413481
 31
0.0
  0
LINE
  5
2520
  8
L2
 10
187.26915150108269
 20
190.2874564413481
 30
0.0
 11
187.26915150108269
 21
146.6730426616059
 31
0.0
  0
LINE
  5
2521
  8
L1
 10
262.29889872302198
 20
141.34738943495569
 30
0.0
 11
188.77829426205551
 21
145.20044104630179
 31
0.0
  0
LINE
  5
2522
  8
L2
 10
191.19064756671821
 20
146.8701747908957
 30
0.0
 11
264.68843153177352
 21
142.976392927636
 31
0.0
  0
ARC
  5
2524
  8
L2
 10
191.26915150108269
 20
148.3681190930275
 30
0.0
 40
1.5
 50
179.99999999999989
 51
266.99999999999972
  0
POLYLINE
  5
2525
  8
L1
 66
     1
 10
0.0
 20
0.0
 30
0.0
  0
VERTEX
  5
3347
  8
L1
 10
186.76915150106251
 20
147.31763575668839
 30
0.0
  0
VERTEX
  5
3348
  8
L1
 10
188.77829426205551
 20
145.20044104630179
 30
0.0
  0
SEQEND
  5
3349
  8
L1
  0
LINE
  5
2526
  8
L2
 10
187.26915150108269
 20
146.6730426616059
 30
0.0
 11
186.76915150108269
 21
146.67304266160571
 31
0.0
  0
LINE
  5
2527
  8
L1
 10
288.36915150108899
 20
125.2751523104389
 30
0.0
 11
262.67796434052491
 21
126.621570376669
 31
0.0
  0
LINE
  5
2528
  8
L1
 10
288.36915150108899
 20
125.275152310439
 30
0.0
 11
262.67796434052491
 21
126.6215703766691
 31
0.0
  0
LINE
  5
2529
  8
L2
 10
289.08843153177338
 20
141.7374564413482
 30
0.0
 11
264.68843153177352
 21
142.37639292763629
 31
0.0
  0
ARC
  5
252A
  8
L1
 10
262.28843153177348
 20
141.14766352800541
 30
0.0
 40
0.2
 50
0.0
 51
87.000000000000355
  0
POLYLINE
  5
252B
  8
L1
 66
     1
 10
0.0
 20
0.0
 30
0.0
  0
VERTEX
  5
334A
  8
L1
 10
262.48843153177341
 20
141.175825644171
 30
0.0
  0
VERTEX
  5
334B
  8
L1
 10
262.48843153177341
 20
141.15471534339881
 30
0.0
  0
VERTEX
  5
334C
  8
L1
 10
262.48843153177341
 20
141.1476635280051
 30
0.0
  0
SEQEND
  5
334D
  8
L1
  0
LINE
  5
252C
  8
L2
 10
264.68843153177352
 20
142.976392927636
 30
0.0
 11
264.68843153177352
 21
142.37639292763629
 31
0.0
  0
ARC
  5
252D
  8
L1
 10
262.28843153177348
 20
127.0417104569341
 30
0.0
 40
0.1999999999999993
 50
0.0
 51
86.999999999999332
  0
ARC
  5
252E
  8
L1
 10
262.68843153177357
 20
126.82129628362
 30
0.0
 40
0.1999999999999879
 50
180.0
 51
267.00000000000028
  0
ARC
  5
252F
  8
L1
 10
262.68843153177352
 20
126.8212962836203
 30
0.0
 40
0.2
 50
180.0
 51
267.00000000000028
  0
ARC
  5
2530
  8
L1
 10
262.78843153177348
 20
127.4400630781697
 30
0.0
 40
0.3
 50
176.70795614630501
 51
180.0
  0
LINE
  5
2531
  8
L1
 10
262.489092739206
 20
128.7916553896458
 30
0.0
 11
262.49050332950412
 21
128.79158146374081
 31
0.0
  0
LINE
  5
2532
  8
L1
 10
289.08843153177338
 20
125.9944323411235
 30
0.0
 11
288.36915150108899
 21
125.2751523104391
 31
0.0
  0
LINE
  5
2534
  8
L1
 10
290.22874095497963
 20
127.0385237590156
 30
0.0
 11
289.09162156481028
 21
126.8380189302419
 31
0.0
  0
LINE
  5
2535
  8
L1
 10
518.48361110889232
 20
-28.444419537614461
 30
0.0
 11
434.29064264277508
 21
-28.444419537614412
 31
0.0
  0
LINE
  5
2536
  8
L1
 10
345.82448248504659
 20
45.26571773210344
 30
0.0
 11
522.7568028005029
 21
45.26571773210344
 31
0.0
  0
LINE
  5
2537
  8
L1
 10
344.99761854255058
 20
71.865717732104144
 30
0.0
 11
523.58366674299953
 21
71.865717732103576
 31
0.0
  0
LINE
  5
2538
  8
L1
 10
522.14565222390252
 20
73.336567884242896
 30
0.0
 11
346.43563306164708
 21
73.336567884242896
 31
0.0
  0
LINE
  5
2539
  8
L1
 10
344.27833851186568
 20
71.1464377014197
 30
0.0
 11
524.30294677368408
 21
71.146437701419131
 31
0.0
  0
POLYLINE
  5
253A
  8
L1
 66
     1
 10
0.0
 20
0.0
 30
0.0
  0
VERTEX
  5
334E
  8
L1
 10
434.29064264277508
 20
-30.453562298594761
 30
0.0
  0
VERTEX
  5
334F
  8
L1
 10
516.36641639850575
 20
-30.45356229860743
 30
0.0
  0
VERTEX
  5
3350
  8
L1
 10
518.48361110889232
 20
-28.444419537614461
 30
0.0
  0
VERTEX
  5
3351
  8
L1
 10
522.33666272023834
 20
45.07618492335223
 30
0.0
  0
SEQEND
  5
3352
  8
L1
  0
LINE
  5
253B
  8
L2
 10
434.29064264277503
 20
-29.953562298587141
 30
0.0
 11
365.67622886303292
 21
-29.953562298587141
 31
0.0
  0
LINE
  5
253C
  8
L2
 10
434.29064264277503
 20
-27.453562298587091
 30
0.0
 11
367.37130529445437
 21
-27.453562298587141
 31
0.0
  0
LINE
  5
253D
  8
L1
 10
350.09767417665779
 20
-28.444419537614461
 30
0.0
 11
434.29064264277503
 21
-28.444419537614412
 31
0.0
  0
POLYLINE
  5
253E
  8
L1
 66
     1
 10
0.0
 20
0.0
 30
0.0
  0
VERTEX
  5
3353
  8
L1
 10
434.29064264277508
 20
-30.453562298594761
 30
0.0
  0
VERTEX
  5
3354
  8
L1
 10
352.21486888704442
 20
-30.45356229860743
 30
0.0
  0
VERTEX
  5
3355
  8
L1
 10
350.09767417665779
 20
-28.444419537614461
 30
0.0
  0
VERTEX
  5
3356
  8
L1
 10
346.24462256531177
 20
45.07618492335223
 30
0.0
  0
SEQEND
  5
3357
  8
L1
  0
LINE
  5
253F
  8
L2
 10
365.87336099232272
 20
-26.032066232951699
 30
0.0
 11
361.9795791290631
 21
47.465717732103599
 31
0.0
  0
LINE
  5
2540
  8
L1
 10
360.35057563638281
 20
45.076184923352109
 30
0.0
 11
364.20362724772878
 21
-28.444419537614412
 31
0.0
  0
LINE
  5
2541
  8
L1
 10
344.27833851186568
 20
71.146437701419131
 30
0.0
 11
345.62475657809591
 21
45.455250540854991
 31
0.0
  0
LINE
  5
2542
  8
L1
 10
345.62475657809591
 20
45.455250540854991
 30
0.0
 11
344.27833851186568
 21
71.146437701419131
 31
0.0
  0
LINE
  5
2543
  8
L1
 10
344.99761854255007
 20
71.865717732103576
 30
0.0
 11
344.27833851186568
 21
71.146437701419131
 31
0.0
  0
LINE
  5
2544
  8
L1
 10
344.27855420500072
 20
71.146653394554164
 30
0.0
 11
344.99761854255019
 21
71.86571773210369
 31
0.0
  0
POLYLINE
  5
2545
  8
L1
 66
     1
 10
0.0
 20
0.0
 30
0.0
  0
VERTEX
  5
3358
  8
L1
 10
344.27833851186568
 20
71.146437701419131
 30
0.0
  0
VERTEX
  5
3359
  8
L1
 10
344.278392435586
 20
71.146491625139447
 30
0.0
  0
VERTEX
  5
335A
  8
L1
 10
344.27855420500077
 20
71.146653394554164
 30
0.0
  0
SEQEND
  5
335B
  8
L1
  0
LINE
  5
2546
  8
L1
 10
346.04170996044218
 20
73.006027155309653
 30
0.0
 11
345.84120498722251
 21
71.868906945945469
 31
0.0
  0
LINE
  5
2547
  8
L1
 10
347.7336426427749
 20
71.86571773210369
 30
0.0
 11
344.99761854255007
 21
71.86571773210369
 31
0.0
  0
ARC
  5
2549
  8
L1
 10
345.82448248504681
 20
45.465717732103478
 30
0.0
 40
0.2
 50
182.9999999999996
 51
270.0
  0
LINE
  5
254A
  8
L2
 10
360.7406426427749
 20
71.865717732103576
 30
0.0
 11
361.37957912906302
 21
47.465717732103599
 31
0.0
  0
LINE
  5
254B
  8
L2
 10
361.37957912906302
 20
47.465717732103599
 30
0.0
 11
361.9795791290631
 21
47.465717732103599
 31
0.0
  0
ARC
  5
254C
  8
L1
 10
360.1508497294318
 20
45.065717732103501
 30
0.0
 40
0.2
 50
2.999999999999674
 51
90.000000000000028
  0
POLYLINE
  5
254D
  8
L1
 66
     1
 10
0.0
 20
0.0
 30
0.0
  0
VERTEX
  5
335C
  8
L1
 10
360.17901184559759
 20
45.265717732103553
 30
0.0
  0
VERTEX
  5
335D
  8
L1
 10
360.15790154482551
 20
45.265717732103553
 30
0.0
  0
VERTEX
  5
335E
  8
L1
 10
360.1508497294318
 20
45.265717732103553
 30
0.0
  0
SEQEND
  5
335F
  8
L1
  0
POLYLINE
  5
254E
  8
L1
 66
     1
 10
0.0
 20
0.0
 30
0.0
  0
VERTEX
  5
3360
  8
L1
 10
366.32082195811552
 20
-30.45356229860738
 30
0.0
  0
VERTEX
  5
3361
  8
L1
 10
364.20362724772878
 20
-28.444419537614412
 30
0.0
  0
SEQEND
  5
3362
  8
L1
  0
ARC
  5
254F
  8
L2
 10
367.37130529445449
 20
-25.953562298587261
 30
0.0
 40
1.5
 50
183.00000000000011
 51
270.0
  0
LINE
  5
2550
  8
L2
 10
365.67622886303292
 20
-29.953562298587141
 30
0.0
 11
365.6762288630328
 21
-30.453562298587141
 31
0.0
  0
LINE
  5
2551
  8
L2
 10
502.70792429322739
 20
-26.032066232951699
 30
0.0
 11
506.60170615648701
 21
47.465717732103599
 31
0.0
  0
LINE
  5
2552
  8
L1
 10
508.2307096491673
 20
45.076184923352109
 30
0.0
 11
504.37765803782128
 21
-28.444419537614412
 31
0.0
  0
LINE
  5
2553
  8
L6
 10
434.29064264277508
 20
78.534589968142654
 30
0.0
 11
434.29064264277508
 21
-41.298892876184361
 31
0.0
  0
LINE
  5
2554
  8
L2
 10
507.84064264277481
 20
71.865717732103576
 30
0.0
 11
507.20170615648658
 21
47.465717732103599
 31
0.0
  0
LINE
  5
2555
  8
L2
 10
506.60170615648701
 20
47.465717732103599
 30
0.0
 11
507.20170615648658
 21
47.465717732103599
 31
0.0
  0
ARC
  5
2556
  8
L1
 10
508.43043555611769
 20
45.065717732103622
 30
0.0
 40
0.2
 50
90.000000000000028
 51
177.00000000000031
  0
POLYLINE
  5
2557
  8
L1
 66
     1
 10
0.0
 20
0.0
 30
0.0
  0
VERTEX
  5
3363
  8
L1
 10
508.40227343995201
 20
45.265717732103553
 30
0.0
  0
VERTEX
  5
3364
  8
L1
 10
508.4233837407242
 20
45.265717732103553
 30
0.0
  0
VERTEX
  5
3365
  8
L1
 10
508.43043555611791
 20
45.265717732103553
 30
0.0
  0
SEQEND
  5
3366
  8
L1
  0
LINE
  5
2558
  8
L2
 10
434.29064264277508
 20
-29.953562298587141
 30
0.0
 11
502.90505642251719
 21
-29.953562298587141
 31
0.0
  0
LINE
  5
2559
  8
L2
 10
434.29064264277508
 20
-27.453562298587091
 30
0.0
 11
501.20997999109568
 21
-27.453562298587141
 31
0.0
  0
POLYLINE
  5
255A
  8
L1
 66
     1
 10
0.0
 20
0.0
 30
0.0
  0
VERTEX
  5
3367
  8
L1
 10
502.26046332743471
 20
-30.45356229860738
 30
0.0
  0
VERTEX
  5
3368
  8
L1
 10
504.37765803782128
 20
-28.444419537614412
 30
0.0
  0
SEQEND
  5
3369
  8
L1
  0
ARC
  5
255B
  8
L2
 10
501.20997999109551
 20
-25.953562298587261
 30
0.0
 40
1.5
 50
270.0
 51
356.99999999999977
  0
LINE
  5
255C
  8
L2
 10
502.90505642251719
 20
-29.953562298587141
 30
0.0
 11
502.9050564225173
 21
-30.453562298587141
 31
0.0
  0
LINE
  5
255D
  8
L1
 10
524.30294677368408
 20
71.146437701419131
 30
0.0
 11
522.95652870745391
 21
45.455250540854991
 31
0.0
  0
LINE
  5
255E
  8
L1
 10
524.3029467736842
 20
71.146437701419131
 30
0.0
 11
522.95652870745403
 21
45.455250540854991
 31
0.0
  0
LINE
  5
255F
  8
L1
 10
523.58366674299953
 20
71.865717732103576
 30
0.0
 11
524.30294677368386
 21
71.146437701419131
 31
0.0
  0
LINE
  5
2560
  8
L1
 10
522.53957532510742
 20
73.006027155309695
 30
0.0
 11
522.74008015388119
 21
71.86890776514042
 31
0.0
  0
ARC
  5
2562
  8
L1
 10
522.75680280050278
 20
45.465717732103592
 30
0.0
 40
0.2
 50
270.0
 51
357.00000000000028
  0
ARC
  5
2563
  8
L1
 10
522.75680280050301
 20
45.465717732103712
 30
0.0
 40
0.1999999999999879
 50
270.0
 51
357.00000000000028
  0
ARC
  5
2564
  8
L1
 10
522.5363886271889
 20
45.065717732103622
 30
0.0
 40
0.1999999999999993
 50
90.000000000000028
 51
176.99999999999929
  0
ARC
  5
2565
  8
L1
 10
522.13803600595338
 20
45.565717732103622
 30
0.0
 40
0.3
 50
266.70795614630498
 51
270.0
  0
LINE
  5
2566
  8
L1
 10
520.78644369447716
 20
45.266378939536139
 30
0.0
 11
520.78651762038226
 21
45.267789529834197
 31
0.0
  0
LINE
  5
2569
  8
L2
 10
579.49285375377644
 20
238.837456441348
 30
0.0
 11
603.89285375377631
 21
238.19851995505979
 31
0.0
  0
LINE
  5
256A
  8
L2
 10
579.49285375377644
 20
141.7374564413482
 30
0.0
 11
603.89285375377631
 21
142.37639292763629
 31
0.0
  0
LINE
  5
256B
  8
L1
 10
580.21213378446078
 20
125.2751523104389
 30
0.0
 11
605.90332094502503
 21
126.621570376669
 31
0.0
  0
LINE
  5
256C
  8
L1
 10
580.21213378446078
 20
125.275152310439
 30
0.0
 11
605.90332094502503
 21
126.6215703766691
 31
0.0
  0
LINE
  5
256D
  8
L6
 10
572.82398151773725
 20
190.2874564413481
 30
0.0
 11
692.65746436206439
 21
190.2874564413481
 31
0.0
  0
LINE
  5
256E
  8
L1
 10
606.09285375377647
 20
190.2874564413481
 30
0.0
 11
606.09285375377647
 21
126.8212962836201
 31
0.0
  0
LINE
  5
256F
  8
L1
 10
679.80299102349454
 20
131.09448797523069
 30
0.0
 11
679.80299102349443
 21
190.2874564413481
 31
0.0
  0
LINE
  5
2570
  8
L2
 10
678.81213378446705
 20
190.2874564413481
 30
0.0
 11
678.81213378446705
 21
148.36811909302739
 31
0.0
  0
LINE
  5
2571
  8
L2
 10
681.31213378446705
 20
190.2874564413481
 30
0.0
 11
681.31213378446705
 21
146.6730426616059
 31
0.0
  0
POLYLINE
  5
2572
  8
L1
 66
     1
 10
0.0
 20
0.0
 30
0.0
  0
VERTEX
  5
336A
  8
L1
 10
681.81213378447865
 20
190.2874564413481
 30
0.0
  0
VERTEX
  5
336B
  8
L1
 10
681.81213378448751
 20
133.21168268561729
 30
0.0
  0
VERTEX
  5
336C
  8
L1
 10
679.80299102349454
 20
131.09448797523069
 30
0.0
  0
VERTEX
  5
336D
  8
L1
 10
606.28238656252768
 20
127.2414363638847
 30
0.0
  0
SEQEND
  5
336E
  8
L1
  0
LINE
  5
2573
  8
L1
 10
606.28238656252779
 20
141.34738943495569
 30
0.0
 11
679.80299102349443
 21
145.20044104630179
 31
0.0
  0
LINE
  5
2574
  8
L2
 10
677.39063771883173
 20
146.8701747908957
 30
0.0
 11
603.89285375377631
 21
142.976392927636
 31
0.0
  0
ARC
  5
2575
  8
L2
 10
677.31213378446716
 20
148.3681190930275
 30
0.0
 40
1.5
 50
273.00000000000023
 51
0.0000000000000579
  0
POLYLINE
  5
2576
  8
L1
 66
     1
 10
0.0
 20
0.0
 30
0.0
  0
VERTEX
  5
336F
  8
L1
 10
681.8121337844874
 20
147.31763575668839
 30
0.0
  0
VERTEX
  5
3370
  8
L1
 10
679.80299102349443
 20
145.20044104630179
 30
0.0
  0
SEQEND
  5
3371
  8
L1
  0
LINE
  5
2577
  8
L2
 10
681.31213378446705
 20
146.6730426616059
 30
0.0
 11
681.81213378446705
 21
146.67304266160571
 31
0.0
  0
ARC
  5
2578
  8
L1
 10
606.29285375377628
 20
127.0417104569341
 30
0.0
 40
0.1999999999999993
 50
93.000000000000654
 51
180.0
  0
ARC
  5
2579
  8
L1
 10
605.7928537537764
 20
127.4400630781697
 30
0.0
 40
0.3
 50
0.000000000000007
 51
3.292043853694989
  0
LINE
  5
257A
  8
L1
 10
606.09219254634377
 20
128.7916553896458
 30
0.0
 11
606.0907819560457
 21
128.79158146374081
 31
0.0
  0
ARC
  5
257B
  8
L1
 10
605.89285375377631
 20
126.82129628362
 30
0.0
 40
0.1999999999999879
 50
272.9999999999996
 51
0.000000000000007
  0
ARC
  5
257C
  8
L1
 10
605.89285375377642
 20
126.8212962836203
 30
0.0
 40
0.2
 50
272.9999999999996
 51
0.000000000000007
  0
LINE
  5
257D
  8
L2
 10
603.89285375377631
 20
142.976392927636
 30
0.0
 11
603.89285375377631
 21
142.37639292763629
 31
0.0
  0
ARC
  5
257E
  8
L1
 10
606.29285375377628
 20
141.14766352800541
 30
0.0
 40
0.2
 50
92.999999999999645
 51
180.0
  0
POLYLINE
  5
257F
  8
L1
 66
     1
 10
0.0
 20
0.0
 30
0.0
  0
VERTEX
  5
3372
  8
L1
 10
606.09285375377647
 20
141.175825644171
 30
0.0
  0
VERTEX
  5
3373
  8
L1
 10
606.09285375377647
 20
141.15471534339881
 30
0.0
  0
VERTEX
  5
3374
  8
L1
 10
606.09285375377647
 20
141.1476635280051
 30
0.0
  0
SEQEND
  5
3375
  8
L1
  0
POLYLINE
  5
2580
  8
L1
 66
     1
 10
0.0
 20
0.0
 30
0.0
  0
VERTEX
  5
3376
  8
L1
 10
681.81213378447865
 20
190.2874564413481
 30
0.0
  0
VERTEX
  5
3377
  8
L1
 10
681.81213378448751
 20
247.36323019707891
 30
0.0
  0
VERTEX
  5
3378
  8
L1
 10
679.80299102349454
 20
249.4804249074655
 30
0.0
  0
VERTEX
  5
3379
  8
L1
 10
606.28238656252768
 20
253.33347651881149
 30
0.0
  0
SEQEND
  5
337A
  8
L1
  0
LINE
  5
2581
  8
L2
 10
677.39063771883173
 20
233.70473809180061
 30
0.0
 11
603.89285375377631
 21
237.5985199550602
 31
0.0
  0
LINE
  5
2582
  8
L1
 10
606.28238656252779
 20
239.22752344774051
 30
0.0
 11
679.80299102349443
 21
235.37447183639441
 31
0.0
  0
LINE
  5
2583
  8
L2
 10
681.31213378446705
 20
190.2874564413481
 30
0.0
 11
681.31213378446705
 21
233.90187022109029
 31
0.0
  0
LINE
  5
2584
  8
L1
 10
679.80299102349454
 20
249.4804249074655
 30
0.0
 11
679.80299102349443
 21
190.2874564413481
 31
0.0
  0
LINE
  5
2585
  8
L2
 10
678.81213378446705
 20
190.2874564413481
 30
0.0
 11
678.81213378446705
 21
232.20679378966881
 31
0.0
  0
POLYLINE
  5
2586
  8
L1
 66
     1
 10
0.0
 20
0.0
 30
0.0
  0
VERTEX
  5
337B
  8
L1
 10
681.8121337844874
 20
233.25727712600781
 30
0.0
  0
VERTEX
  5
337C
  8
L1
 10
679.80299102349443
 20
235.37447183639441
 30
0.0
  0
SEQEND
  5
337D
  8
L1
  0
ARC
  5
2587
  8
L2
 10
677.31213378446716
 20
232.20679378966869
 30
0.0
 40
1.5
 50
359.99999999999989
 51
86.999999999999815
  0
LINE
  5
2588
  8
L2
 10
681.31213378446705
 20
233.90187022109029
 30
0.0
 11
681.81213378446705
 21
233.90187022109049
 31
0.0
  0
LINE
  5
2589
  8
L1
 10
606.09285375377647
 20
190.2874564413481
 30
0.0
 11
606.09285375377647
 21
253.75361659907611
 31
0.0
  0
LINE
  5
258A
  8
L2
 10
603.89285375377631
 20
237.5985199550602
 30
0.0
 11
603.89285375377631
 21
238.19851995505979
 31
0.0
  0
POLYLINE
  5
258B
  8
L1
 66
     1
 10
0.0
 20
0.0
 30
0.0
  0
VERTEX
  5
337E
  8
L1
 10
606.09285375377647
 20
239.3990872385252
 30
0.0
  0
VERTEX
  5
337F
  8
L1
 10
606.09285375377647
 20
239.42019753929739
 30
0.0
  0
VERTEX
  5
3380
  8
L1
 10
606.09285375377647
 20
239.4272493546911
 30
0.0
  0
SEQEND
  5
3381
  8
L1
  0
ARC
  5
258C
  8
L1
 10
606.29285375377628
 20
239.4272493546909
 30
0.0
 40
0.2
 50
180.0
 51
267.00000000000028
  0
LINE
  5
258D
  8
L1
 10
606.09219254634377
 20
251.7832574930504
 30
0.0
 11
606.0907819560457
 21
251.78333141895541
 31
0.0
  0
ARC
  5
258E
  8
L1
 10
605.7928537537764
 20
253.13484980452651
 30
0.0
 40
0.3
 50
356.70795614630498
 51
0.000000000000007
  0
ARC
  5
258F
  8
L1
 10
606.29285375377628
 20
253.53320242576211
 30
0.0
 40
0.1999999999999993
 50
180.0
 51
266.99999999999932
  0
ARC
  5
2590
  8
L1
 10
605.89285375377642
 20
253.753616599076
 30
0.0
 40
0.2
 50
0.000000000000007
 51
87.000000000000341
  0
ARC
  5
2591
  8
L1
 10
605.89285375377631
 20
253.7536165990762
 30
0.0
 40
0.1999999999999879
 50
0.000000000000007
 51
87.000000000000341
  0
LINE
  5
2592
  8
L1
 10
579.49285375377622
 20
190.2874564413481
 30
0.0
 11
579.49285375377644
 21
125.9944323411235
 31
0.0
  0
LINE
  5
2594
  8
L1
 10
580.21213378446066
 20
190.2874564413481
 30
0.0
 11
580.21213378446078
 21
125.275152310439
 31
0.0
  0
LINE
  5
2595
  8
L1
 10
579.49285375377644
 20
125.9944323411235
 30
0.0
 11
580.21213378446078
 21
125.2751523104391
 31
0.0
  0
POLYLINE
  5
25AF
  8
L1
 66
     1
 10
0.0
 20
0.0
 30
0.0
  0
VERTEX
  5
3382
  8
L1
 10
434.29064264277503
 20
253.533202425762
 30
0.0
  0
VERTEX
  5
3383
  8
L1
 10
362.35084972943201
 20
253.53320242576211
 30
0.0
 42
0.4142135623730977
  0
VERTEX
  5
3384
  8
L1
 10
360.15084972943203
 20
251.33320242576201
 30
0.0
  0
VERTEX
  5
3385
  8
L1
 10
360.15084972943203
 20
247.02724935469101
 30
0.0
 42
-0.4307324331212912
  0
VERTEX
  5
3386
  8
L1
 10
352.55084972943177
 20
239.42724935469101
 30
0.0
  0
VERTEX
  5
3387
  8
L1
 10
348.24489665836091
 20
239.42724935469101
 30
0.0
 42
0.4142135623730951
  0
VERTEX
  5
3388
  8
L1
 10
346.04489665836093
 20
237.227249354691
 30
0.0
  0
VERTEX
  5
3389
  8
L1
 10
346.04489665836093
 20
143.34766352800511
 30
0.0
 42
0.4142135623730951
  0
VERTEX
  5
338A
  8
L1
 10
348.24489665836091
 20
141.1476635280051
 30
0.0
  0
VERTEX
  5
338B
  8
L1
 10
352.55084972943177
 20
141.1476635280051
 30
0.0
 42
-0.4142135623730964
  0
VERTEX
  5
338C
  8
L1
 10
360.1508497294318
 20
133.54766352800499
 30
0.0
  0
VERTEX
  5
338D
  8
L1
 10
360.1508497294318
 20
129.24171045693399
 30
0.0
 42
0.4142135623730951
  0
VERTEX
  5
338E
  8
L1
 10
362.35084972943201
 20
127.041710456934
 30
0.0
  0
VERTEX
  5
338F
  8
L1
 10
434.29064264277503
 20
127.041710456934
 30
0.0
  0
SEQEND
  5
3390
  8
L1
  0
POLYLINE
  5
25B0
  8
L1
 66
     1
 10
0.0
 20
0.0
 30
0.0
  0
VERTEX
  5
3391
  8
L1
 10
434.29064264277503
 20
249.4804249074655
 30
0.0
  0
VERTEX
  5
3392
  8
L1
 10
366.2036272477286
 20
249.4804249074655
 30
0.0
 42
0.4142135623730975
  0
VERTEX
  5
3393
  8
L1
 10
364.2036272477286
 20
247.4804249074655
 30
0.0
  0
VERTEX
  5
3394
  8
L1
 10
364.2036272477286
 20
242.87447183639441
 30
0.0
 42
-0.4142135623730951
  0
VERTEX
  5
3395
  8
L1
 10
356.70362724772849
 20
235.37447183639441
 30
0.0
  0
VERTEX
  5
3396
  8
L1
 10
352.09767417665739
 20
235.37447183639441
 30
0.0
 42
0.4142135623730948
  0
VERTEX
  5
3397
  8
L1
 10
350.09767417665739
 20
233.37447183639441
 30
0.0
  0
VERTEX
  5
3398
  8
L1
 10
350.09767417665739
 20
147.20044104630159
 30
0.0
 42
0.4142135623730951
  0
VERTEX
  5
3399
  8
L1
 10
352.09767417665739
 20
145.20044104630159
 30
0.0
  0
VERTEX
  5
339A
  8
L1
 10
356.70362724772832
 20
145.20044104630159
 30
0.0
 42
-0.4142135623730951
  0
VERTEX
  5
339B
  8
L1
 10
364.20362724772832
 20
137.70044104630151
 30
0.0
  0
VERTEX
  5
339C
  8
L1
 10
364.2036272477286
 20
133.09448797523061
 30
0.0
 42
0.4142135623730926
  0
VERTEX
  5
339D
  8
L1
 10
366.2036272477286
 20
131.09448797523061
 30
0.0
  0
VERTEX
  5
339E
  8
L1
 10
434.29064264277503
 20
131.09448797523061
 30
0.0
  0
SEQEND
  5
339F
  8
L1
  0
POLYLINE
  5
25B1
  8
L1
 66
     1
 10
0.0
 20
0.0
 30
0.0
  0
VERTEX
  5
33A0
  8
L1
 10
434.29064264277503
 20
247.36323019707839
 30
0.0
  0
VERTEX
  5
33A1
  8
L1
 10
367.56452444233042
 20
247.36323019707839
 30
0.0
 42
0.3940619979364563
  0
VERTEX
  5
33A2
  8
L1
 10
366.32082195811569
 20
246.15171983237281
 30
0.0
  0
VERTEX
  5
33A3
  8
L1
 10
366.32082195811569
 20
235.2572771260073
 30
0.0
 42
-0.4142135623730951
  0
VERTEX
  5
33A4
  8
L1
 10
364.32082195811569
 20
233.2572771260073
 30
0.0
  0
VERTEX
  5
33A5
  8
L1
 10
353.42637925175018
 20
233.2572771260073
 30
0.0
 42
0.4142135623730948
  0
VERTEX
  5
33A6
  8
L1
 10
352.21486888704459
 20
232.04576676130171
 30
0.0
  0
VERTEX
  5
33A7
  8
L1
 10
352.21486888704459
 20
148.5291461213944
 30
0.0
 42
0.4142135623730953
  0
VERTEX
  5
33A8
  8
L1
 10
353.42637925175018
 20
147.3176357566887
 30
0.0
  0
VERTEX
  5
33A9
  8
L1
 10
364.32082195811569
 20
147.3176357566887
 30
0.0
 42
-0.4142135623730956
  0
VERTEX
  5
33AA
  8
L1
 10
366.32082195811569
 20
145.3176357566887
 30
0.0
  0
VERTEX
  5
33AB
  8
L1
 10
366.32082195811569
 20
134.42319305032339
 30
0.0
 42
0.4142135623730951
  0
VERTEX
  5
33AC
  8
L1
 10
367.53233232282139
 20
133.21168268561769
 30
0.0
  0
VERTEX
  5
33AD
  8
L1
 10
434.29064264277503
 20
133.21168268561769
 30
0.0
  0
SEQEND
  5
33AE
  8
L1
  0
POLYLINE
  5
25B3
  8
L1
 66
     1
 10
0.0
 20
0.0
 30
0.0
  0
VERTEX
  5
33AF
  8
L1
 10
434.29064264277503
 20
247.36323019707839
 30
0.0
  0
VERTEX
  5
33B0
  8
L1
 10
501.01676084321969
 20
247.36323019707839
 30
0.0
 42
-0.3940619979364563
  0
VERTEX
  5
33B1
  8
L1
 10
502.26046332743471
 20
246.15171983237281
 30
0.0
  0
VERTEX
  5
33B2
  8
L1
 10
502.26046332743471
 20
235.2572771260073
 30
0.0
 42
0.4142135623730951
  0
VERTEX
  5
33B3
  8
L1
 10
504.26046332743459
 20
233.2572771260073
 30
0.0
  0
VERTEX
  5
33B4
  8
L1
 10
515.15490603379976
 20
233.2572771260073
 30
0.0
 42
-0.4142135623730948
  0
VERTEX
  5
33B5
  8
L1
 10
516.36641639850552
 20
232.04576676130171
 30
0.0
  0
VERTEX
  5
33B6
  8
L1
 10
516.36641639850552
 20
148.5291461213944
 30
0.0
 42
-0.4142135623730953
  0
VERTEX
  5
33B7
  8
L1
 10
515.15490603379976
 20
147.3176357566887
 30
0.0
  0
VERTEX
  5
33B8
  8
L1
 10
504.26046332743459
 20
147.3176357566887
 30
0.0
 42
0.4142135623730956
  0
VERTEX
  5
33B9
  8
L1
 10
502.26046332743471
 20
145.3176357566887
 30
0.0
  0
VERTEX
  5
33BA
  8
L1
 10
502.26046332743471
 20
134.42319305032339
 30
0.0
 42
-0.4142135623730951
  0
VERTEX
  5
33BB
  8
L1
 10
501.048952962729
 20
133.21168268561769
 30
0.0
  0
VERTEX
  5
33BC
  8
L1
 10
434.29064264277503
 20
133.21168268561769
 30
0.0
  0
SEQEND
  5
33BD
  8
L1
  0
POLYLINE
  5
25B4
  8
L1
 66
     1
 10
0.0
 20
0.0
 30
0.0
  0
VERTEX
  5
33BE
  8
L1
 10
434.29064264277503
 20
249.4804249074655
 30
0.0
  0
VERTEX
  5
33BF
  8
L1
 10
502.37765803782179
 20
249.4804249074655
 30
0.0
 42
-0.4142135623730975
  0
VERTEX
  5
33C0
  8
L1
 10
504.37765803782167
 20
247.4804249074655
 30
0.0
  0
VERTEX
  5
33C1
  8
L1
 10
504.3776580378215
 20
242.87447183639441
 30
0.0
 42
0.4142135623730951
  0
VERTEX
  5
33C2
  8
L1
 10
511.87765803782162
 20
235.37447183639441
 30
0.0
  0
VERTEX
  5
33C3
  8
L1
 10
516.48361110889255
 20
235.37447183639441
 30
0.0
 42
-0.4142135623730948
  0
VERTEX
  5
33C4
  8
L1
 10
518.48361110889255
 20
233.37447183639441
 30
0.0
  0
VERTEX
  5
33C5
  8
L1
 10
518.48361110889255
 20
147.20044104630159
 30
0.0
 42
-0.4142135623730951
  0
VERTEX
  5
33C6
  8
L1
 10
516.48361110889255
 20
145.20044104630159
 30
0.0
  0
VERTEX
  5
33C7
  8
L1
 10
511.87765803782167
 20
145.20044104630159
 30
0.0
 42
0.4142135623730951
  0
VERTEX
  5
33C8
  8
L1
 10
504.37765803782167
 20
137.70044104630151
 30
0.0
  0
VERTEX
  5
33C9
  8
L1
 10
504.37765803782167
 20
133.09448797523061
 30
0.0
 42
-0.4142135623730926
  0
VERTEX
  5
33CA
  8
L1
 10
502.3776580378215
 20
131.09448797523061
 30
0.0
  0
VERTEX
  5
33CB
  8
L1
 10
434.29064264277503
 20
131.09448797523061
 30
0.0
  0
SEQEND
  5
33CC
  8
L1
  0
POLYLINE
  5
25B5
  8
L1
 66
     1
 10
0.0
 20
0.0
 30
0.0
  0
VERTEX
  5
33CD
  8
L1
 10
434.29064264277503
 20
253.533202425762
 30
0.0
  0
VERTEX
  5
33CE
  8
L1
 10
506.23043555611798
 20
253.53320242576211
 30
0.0
 42
-0.4142135623730977
  0
VERTEX
  5
33CF
  8
L1
 10
508.43043555611808
 20
251.33320242576201
 30
0.0
  0
VERTEX
  5
33D0
  8
L1
 10
508.43043555611808
 20
247.02724935469101
 30
0.0
 42
0.4307324331212912
  0
VERTEX
  5
33D1
  8
L1
 10
516.03043555611805
 20
239.42724935469101
 30
0.0
  0
VERTEX
  5
33D2
  8
L1
 10
520.33638862718908
 20
239.42724935469101
 30
0.0
 42
-0.4142135623730951
  0
VERTEX
  5
33D3
  8
L1
 10
522.53638862718924
 20
237.227249354691
 30
0.0
  0
VERTEX
  5
33D4
  8
L1
 10
522.53638862718924
 20
143.34766352800511
 30
0.0
 42
-0.4142135623730951
  0
VERTEX
  5
33D5
  8
L1
 10
520.33638862718908
 20
141.1476635280051
 30
0.0
  0
VERTEX
  5
33D6
  8
L1
 10
516.03043555611828
 20
141.1476635280051
 30
0.0
 42
0.4142135623730964
  0
VERTEX
  5
33D7
  8
L1
 10
508.43043555611808
 20
133.54766352800499
 30
0.0
  0
VERTEX
  5
33D8
  8
L1
 10
508.43043555611808
 20
129.24171045693399
 30
0.0
 42
-0.4142135623730951
  0
VERTEX
  5
33D9
  8
L1
 10
506.23043555611832
 20
127.041710456934
 30
0.0
  0
VERTEX
  5
33DA
  8
L1
 10
434.29064264277503
 20
127.041710456934
 30
0.0
  0
SEQEND
  5
33DB
  8
L1
  0
ARC
  5
25B6
  8
L1
 10
347.7689524270433
 20
251.80914665707971
 30
0.0
 40
3.4906169322830971
 50
89.924667597022207
 51
180.07533240297639
  0
ARC
  5
25B7
  8
L1
 10
349.11809955701278
 20
250.45999952711
 30
0.0
 40
3.293617597385512
 50
89.967636602049097
 51
180.03236339794651
  0
LINE
  5
25B8
  8
L1
 10
517.90146658403069
 20
251.5218360378901
 30
0.0
 11
518.55385681571022
 21
252.17055608310019
 31
0.0
  0
LINE
  5
25B9
  8
L1
 10
521.17374228452718
 20
249.55067061428321
 30
0.0
 11
520.52502223931731
 21
248.89828038260359
 31
0.0
  0
LINE
  5
25BA
  8
L1
 10
520.52502223931731
 20
131.6766325000925
 30
0.0
 11
521.17374228452718
 21
131.02424226841291
 31
0.0
  0
LINE
  5
25BB
  8
L1
 10
517.90146658403069
 20
129.05307684480599
 30
0.0
 11
518.55385681571045
 21
128.4043567995958
 31
0.0
  0
POLYLINE
  5
25BC
  8
L1
 66
     1
 10
0.0
 20
0.0
 30
0.0
  0
VERTEX
  5
33DC
  8
L1
 10
347.40754300102259
 20
131.02424226841291
 30
0.0
  0
VERTEX
  5
33DD
  8
L1
 10
348.0562630462328
 20
131.6766325000925
 30
0.0
  0
SEQEND
  5
33DE
  8
L1
  0
POLYLINE
  5
25BD
  8
L1
 66
     1
 10
0.0
 20
0.0
 30
0.0
  0
VERTEX
  5
33DF
  8
L1
 10
350.02742846983972
 20
128.4043567995958
 30
0.0
  0
VERTEX
  5
33E0
  8
L1
 10
350.67981870151931
 20
129.05307684480599
 30
0.0
  0
SEQEND
  5
33E1
  8
L1
  0
ARC
  5
25BE
  8
L1
 10
349.11809955701278
 20
130.1149133555862
 30
0.0
 40
3.293617597385512
 50
179.9676366020534
 51
270.03236339795092
  0
ARC
  5
25BF
  8
L1
 10
347.7689524270433
 20
128.7657662256164
 30
0.0
 40
3.4906169322830971
 50
179.9246675970235
 51
270.07533240297772
  0
ARC
  5
25C0
  8
L1
 10
519.46318572853704
 20
250.45999952711
 30
0.0
 40
3.293617597385512
 50
359.96763660205352
 51
90.032363397950903
  0
ARC
  5
25C1
  8
L1
 10
520.81233285850658
 20
251.80914665707971
 30
0.0
 40
3.4906169322830971
 50
359.92466759702347
 51
90.075332402977807
  0
ARC
  5
25C2
  8
L1
 10
519.46318572853704
 20
130.1149133555862
 30
0.0
 40
3.293617597385512
 50
269.96763660204908
 51
0.0323633979465085
  0
ARC
  5
25C3
  8
L1
 10
520.81233285850658
 20
128.7657662256164
 30
0.0
 40
3.4906169322830971
 50
269.92466759702222
 51
0.0753324029764482
  0
ARC
  5
25C4
  8
L1
 10
123.9839249670779
 20
251.8089592869872
 30
0.0
 40
3.4908040609016382
 50
359.92774700826652
 51
90.072252991732995
  0
ARC
  5
25C5
  8
L1
 10
111.8395142351269
 20
253.2374613370344
 30
0.0
 40
0.299995104313688
 50
90.000041490045646
 51
230.4880853980562
  0
ARC
  5
25C6
  8
L1
 10
125.412427360829
 20
239.66454759805339
 30
0.0
 40
0.299994760610775
 50
219.5117318285526
 51
0.0001412833319936
  0
ARC
  5
25C7
  8
L1
 10
123.9839249670779
 20
128.76595359570899
 30
0.0
 40
3.4908040609016382
 50
269.92774700826698
 51
0.0722529917334964
  0
ARC
  5
25C8
  8
L1
 10
111.8395142351269
 20
127.33745154566181
 30
0.0
 40
0.299995104313688
 50
129.5119146019438
 51
269.9999585099543
  0
ARC
  5
25C9
  8
L1
 10
125.412427360829
 20
140.91036528464281
 30
0.0
 40
0.299994760610775
 50
359.99985871666797
 51
140.48826817144729
  0
ARC
  5
25CA
  8
L1
 10
-49.059080724200612
 20
251.8089592869872
 30
0.0
 40
3.4908040609016382
 50
89.927747008267019
 51
180.07225299173351
  0
ARC
  5
25CB
  8
L1
 10
-49.094577878561523
 20
251.844456441348
 30
0.0
 40
2.7360241002247609
 50
90.0
 51
180.0
  0
ARC
  5
25CC
  8
L1
 10
-36.914669992249578
 20
253.2374613370344
 30
0.0
 40
0.299995104313688
 50
309.51191460194377
 51
89.999958509954354
  0
ARC
  5
25CD
  8
L1
 10
-50.487583117951651
 20
239.66454759805339
 30
0.0
 40
0.299994760610775
 50
179.999858716668
 51
320.48826817144737
  0
ARC
  5
25CE
  8
L1
 10
-49.059080724200612
 20
128.76595359570899
 30
0.0
 40
3.4908040609016382
 50
179.92774700826649
 51
270.07225299173291
  0
ARC
  5
25CF
  8
L1
 10
-49.094577878561523
 20
128.7304564413482
 30
0.0
 40
2.7360241002247609
 50
180.0
 51
270.0
  0
ARC
  5
25D0
  8
L1
 10
-50.487583117951651
 20
140.91036528464281
 30
0.0
 40
0.299994760610775
 50
39.51173182855262
 51
180.00014128333191
  0
ARC
  5
25D1
  8
L1
 10
-36.914669992249578
 20
127.33745154566181
 30
0.0
 40
0.299995104313688
 50
270.00004149004559
 51
50.488085398056192
  0
ARC
  5
2838
  8
L1
 10
-38.468831870361711
 20
239.22790260779439
 30
0.0
 40
0.3000026874103084
 50
49.993161045893508
 51
126.68232138085379
  0
ARC
  5
2839
  8
L1
 10
-36.47803192477862
 20
241.2187102044773
 30
0.0
 40
0.2999965047920426
 50
143.3167445753306
 51
220.0077729979113
  0
ARC
  5
283A
  8
L1
 10
111.402876167656
 20
241.2187102044773
 30
0.0
 40
0.2999965047920426
 50
319.99222700208861
 51
36.683255424669397
  0
ARC
  5
283B
  8
L1
 10
113.3936761132391
 20
239.22790260779439
 30
0.0
 40
0.3000026874103084
 50
53.317678619146207
 51
130.0068389541064
  0
ARC
  5
283C
  8
L1
 10
111.402876167656
 20
139.35620267821889
 30
0.0
 40
0.2999965047920426
 50
323.31674457533052
 51
40.00777299791136
  0
ARC
  5
283D
  8
L1
 10
113.3936761132391
 20
141.34701027490189
 30
0.0
 40
0.3000026874103084
 50
229.99316104589349
 51
306.68232138085369
  0
ARC
  5
283E
  8
L1
 10
-36.47803192477862
 20
139.35620267821889
 30
0.0
 40
0.2999965047920426
 50
139.99222700208861
 51
216.6832554246694
  0
ARC
  5
283F
  8
L1
 10
-38.468831870361711
 20
141.34701027490189
 30
0.0
 40
0.3000026874103084
 50
233.31767861914619
 51
310.0068389541064
  0
ARC
  5
2A5E
  8
L1
 10
290.15928168391281
 20
253.14246602247559
 30
0.0
 40
0.4
 50
0.0
 51
79.99999999998866
  0
ARC
  5
2A5F
  8
L1
 10
290.15928168391281
 20
127.43244686022049
 30
0.0
 40
0.4
 50
280.00000000000608
 51
0.0
  0
LINE
  5
2A60
  8
L1
 10
578.02200360163715
 20
127.43244686022049
 30
0.0
 11
578.02200360163715
 21
190.2874564413481
 31
0.0
  0
LINE
  5
2A61
  8
L1
 10
578.35254433057025
 20
127.0385237590156
 30
0.0
 11
579.48966372073949
 21
126.8380189302419
 31
0.0
  0
ARC
  5
2A62
  8
L1
 10
578.42200360163713
 20
127.43244686022049
 30
0.0
 40
0.4
 50
180.0
 51
259.99999999999369
  0
LINE
  5
2A63
  8
L1
 10
346.43563306164731
 20
307.23834499845327
 30
0.0
 11
434.29064264277508
 21
307.23834499845327
 31
0.0
  0
ARC
  5
2A64
  8
L1
 10
346.43563306164731
 20
307.63834499845331
 30
0.0
 40
0.4
 50
190.00000000001131
 51
270.0
  0
LINE
  5
2A65
  8
L1
 10
346.04170996044229
 20
307.56888572738637
 30
0.0
 11
345.84120513166857
 21
308.70600511755578
 31
0.0
  0
ARC
  5
2A66
  8
L1
 10
346.43563306164708
 20
72.936567884242891
 30
0.0
 40
0.4
 50
90.0
 51
170.00000000000179
  0
ARC
  5
2A67
  8
L1
 10
522.14565222390252
 20
72.936567884242891
 30
0.0
 40
0.4
 50
10.000000000006191
 51
90.0
  0
LINE
  5
2E9D
  8
L1
 10
522.14565222390274
 20
307.23834499845327
 30
0.0
 11
434.29064264277508
 21
307.23834499845327
 31
0.0
  0
LINE
  5
2E9E
  8
L1
 10
522.53957532510765
 20
307.56888572738637
 30
0.0
 11
522.74008015388154
 21
308.70600511755578
 31
0.0
  0
ARC
  5
2E9F
  8
L1
 10
522.14565222390274
 20
307.63834499845331
 30
0.0
 40
0.4
 50
270.0
 51
349.99999999998857
  0
LINE
  5
2EA0
  8
L1
 10
522.14565222390274
 20
73.336567884242868
 30
0.0
 11
434.29064264277508
 21
73.336567884242868
 31
0.0
  0
LINE
  5
2EA1
  8
L1
 10
522.53957532510765
 20
73.006027155309766
 30
0.0
 11
522.74008015388154
 21
71.86890776514042
 31
0.0
  0
ARC
  5
2EA2
  8
L1
 10
522.14565222390274
 20
72.936567884242891
 30
0.0
 40
0.4
 50
10.000000000011349
 51
90.000000000000028
  0
LINE
  5
2EA3
  8
L1
 10
346.43563306164731
 20
73.336567884242868
 30
0.0
 11
434.29064264277508
 21
73.336567884242868
 31
0.0
  0
LINE
  5
2EA4
  8
L1
 10
346.04170996044229
 20
73.006027155309766
 30
0.0
 11
345.84120513166857
 21
71.86890776514042
 31
0.0
  0
ARC
  5
2EA5
  8
L1
 10
346.43563306164731
 20
72.936567884242891
 30
0.0
 40
0.4
 50
90.000000000000028
 51
169.9999999999886
  0
LINE
  5
2EA6
  8
L1
 10
580.21213378446066
 20
190.2874564413481
 30
0.0
 11
580.21213378446078
 21
255.29976057225721
 31
0.0
  0
LINE
  5
2EA7
  8
L1
 10
578.02200360163715
 20
253.14246602247559
 30
0.0
 11
578.02200360163715
 21
190.2874564413481
 31
0.0
  0
LINE
  5
2EA8
  8
L1
 10
579.49285375377622
 20
190.2874564413481
 30
0.0
 11
579.49285375377644
 21
254.58048054157271
 31
0.0
  0
LINE
  5
2EA9
  8
L1
 10
580.21213378446078
 20
255.29976057225741
 30
0.0
 11
605.90332094502503
 21
253.95334250602721
 31
0.0
  0
LINE
  5
2EAA
  8
L1
 10
580.21213378446078
 20
255.29976057225721
 30
0.0
 11
605.90332094502503
 21
253.9533425060271
 31
0.0
  0
LINE
  5
2EAB
  8
L1
 10
578.35254433057025
 20
253.53638912368049
 30
0.0
 11
579.48966372073949
 21
253.73689395245441
 31
0.0
  0
ARC
  5
2EAC
  8
L1
 10
578.42200360163713
 20
253.14246602247559
 30
0.0
 40
0.4
 50
100.0000000000113
 51
180.0
  0
LINE
  5
2EAD
  8
L1
 10
579.49285375377644
 20
254.58048054157271
 30
0.0
 11
580.21213378446078
 21
255.29976057225721
 31
0.0
  0
ENDSEC
  0
EOF
