  0
SECTION
  2
HEADER
  9
$ACADVER
  1
AC1009
  9
$INSBASE
 10
0.0
 20
0.0
 30
0.0
  9
$EXTMIN
 10
0.2557992084161356
 20
10.218622588465671
 30
0.0
  9
$EXTMAX
 10
493.43683775584998
 20
328.78416971836617
 30
0.0
  9
$LIMMIN
 10
0.0
 20
0.0
  9
$LIMMAX
 10
501.81480720825152
 20
338.82136762723781
  9
$ORTHOMODE
 70
     1
  9
$REGENMODE
 70
     1
  9
$FILLMODE
 70
     1
  9
$QTEXTMODE
 70
     0
  9
$MIRRTEXT
 70
     1
  9
$DRAGMODE
 70
     2
  9
$LTSCALE
 40
10.0
  9
$OSMODE
 70
     5
  9
$ATTMODE
 70
     1
  9
$TEXTSIZE
 40
2.5
  9
$TRACEWID
 40
1.0
  9
$TEXTSTYLE
  7
SIMPLEX
  9
$CLAYER
  8
L1
  9
$CELTYPE
  6
BYLAYER
  9
$CECOLOR
 62
   256
  9
$DIMSCALE
 40
1.0
  9
$DIMASZ
 40
3.5
  9
$DIMEXO
 40
0.1
  9
$DIMDLI
 40
0.38
  9
$DIMRND
 40
0.0
  9
$DIMDLE
 40
0.0
  9
$DIMEXE
 40
0.18
  9
$DIMTP
 40
0.0
  9
$DIMTM
 40
0.0
  9
$DIMTXT
 40
3.5
  9
$DIMCEN
 40
1.0
  9
$DIMTSZ
 40
0.0
  9
$DIMTOL
 70
     0
  9
$DIMLIM
 70
     0
  9
$DIMTIH
 70
     0
  9
$DIMTOH
 70
     0
  9
$DIMSE1
 70
     0
  9
$DIMSE2
 70
     0
  9
$DIMTAD
 70
     1
  9
$DIMZIN
 70
     8
  9
$DIMBLK
  1

  9
$DIMASO
 70
     1
  9
$DIMSHO
 70
     1
  9
$DIMPOST
  1

  9
$DIMAPOST
  1

  9
$DIMALT
 70
     0
  9
$DIMALTD
 70
     2
  9
$DIMALTF
 40
25.399999999999999
  9
$DIMLFAC
 40
1.0
  9
$DIMTOFL
 70
     1
  9
$DIMTVP
 40
0.0
  9
$DIMTIX
 70
     0
  9
$DIMSOXD
 70
     0
  9
$DIMSAH
 70
     0
  9
$DIMBLK1
  1

  9
$DIMBLK2
  1

  9
$DIMSTYLE
  2
FIBOX
  9
$DIMCLRD
 70
     1
  9
$DIMCLRE
 70
     1
  9
$DIMCLRT
 70
     3
  9
$DIMTFAC
 40
1.0
  9
$DIMGAP
 40
1.0
  9
$LUNITS
 70
     2
  9
$LUPREC
 70
     4
  9
$SKETCHINC
 40
1.0
  9
$FILLETRAD
 40
1.5
  9
$AUNITS
 70
     0
  9
$AUPREC
 70
     0
  9
$MENU
  1
.
  9
$ELEVATION
 40
0.0
  9
$PELEVATION
 40
0.0
  9
$THICKNESS
 40
0.0
  9
$LIMCHECK
 70
     0
  9
$BLIPMODE
 70
     0
  9
$CHAMFERA
 40
10.0
  9
$CHAMFERB
 40
10.0
  9
$SKPOLY
 70
     0
  9
$TDCREATE
 40
2450519.5748858559
  9
$TDUPDATE
 40
2452502.528737315
  9
$TDINDWG
 40
0.6767334028000001
  9
$TDUSRTIMER
 40
0.6767334028000001
  9
$USRTIMER
 70
     1
  9
$ANGBASE
 50
0.0
  9
$ANGDIR
 70
     0
  9
$PDMODE
 70
     0
  9
$PDSIZE
 40
0.0
  9
$PLINEWID
 40
0.0
  9
$COORDS
 70
     2
  9
$SPLFRAME
 70
     0
  9
$SPLINETYPE
 70
     6
  9
$SPLINESEGS
 70
     8
  9
$ATTDIA
 70
     0
  9
$ATTREQ
 70
     1
  9
$HANDLING
 70
 22529
  9
$HANDSEED
  5
3FFB
  9
$SURFTAB1
 70
     6
  9
$SURFTAB2
 70
     6
  9
$SURFTYPE
 70
     6
  9
$SURFU
 70
     6
  9
$SURFV
 70
     6
  9
$UCSNAME
  2

  9
$UCSORG
 10
0.0
 20
0.0
 30
0.0
  9
$UCSXDIR
 10
1.0
 20
0.0
 30
0.0
  9
$UCSYDIR
 10
0.0
 20
1.0
 30
0.0
  9
$PUCSNAME
  2

  9
$PUCSORG
 10
0.0
 20
0.0
 30
0.0
  9
$PUCSXDIR
 10
1.0
 20
0.0
 30
0.0
  9
$PUCSYDIR
 10
0.0
 20
1.0
 30
0.0
  9
$USERI1
 70
     0
  9
$USERI2
 70
     0
  9
$USERI3
 70
     0
  9
$USERI4
 70
     0
  9
$USERI5
 70
     0
  9
$USERR1
 40
0.0
  9
$USERR2
 40
0.0
  9
$USERR3
 40
0.0
  9
$USERR4
 40
0.0
  9
$USERR5
 40
0.0
  9
$WORLDVIEW
 70
     1
  9
$SHADEDGE
 70
     3
  9
$SHADEDIF
 70
    70
  9
$TILEMODE
 70
     1
  9
$MAXACTVP
 70
    16
  9
$PLIMCHECK
 70
     0
  9
$PEXTMIN
 10
-654.13216052409575
 20
-8.3302140657851851
 30
0.0
  9
$PEXTMAX
 10
185.86783947590419
 20
585.66978593421481
 30
0.0
  9
$PLIMMIN
 10
0.0
 20
0.0
  9
$PLIMMAX
 10
420.0
 20
297.0
  9
$UNITMODE
 70
     0
  9
$VISRETAIN
 70
     0
  9
$PLINEGEN
 70
     0
  9
$PSLTSCALE
 70
     1
  0
ENDSEC
  0
SECTION
  2
TABLES
  0
TABLE
  2
VPORT
 70
     2
  0
VPORT
  2
*ACTIVE
 70
     0
 10
0.0
 20
0.0
 11
1.0
 21
1.0
 12
74.138759244301994
 22
85.358379364217754
 13
0.0
 23
0.0
 14
10.0
 24
10.0
 15
10.0
 25
10.0
 16
0.0
 26
0.0
 36
1.0
 17
172.71038978891389
 27
84.142780304510055
 37
149.4463956108581
 40
325.94399124325457
 41
1.5205479452054791
 42
50.0
 43
0.0
 44
0.0
 50
0.0
 51
0.0
 71
     0
 72
   500
 73
     1
 74
     0
 75
     0
 76
     0
 77
     0
 78
     0
  0
ENDTAB
  0
TABLE
  2
LTYPE
 70
     3
  0
LTYPE
  2
CONTINUOUS
 70
     0
  3
Solid line
 72
    65
 73
     0
 40
0.0
  0
LTYPE
  2
HIDDEN
 70
     0
  3
__ __ __ __ __ __ __ __ __ __ __ __ __ __ __ __
 72
    65
 73
     2
 40
0.375
 49
0.25
 49
-0.125
  0
LTYPE
  2
CENTER
 70
     0
  3
____ _ ____ _ ____ _ ____ _ ____ _ ____ _ ____ 
 72
    65
 73
     4
 40
2.0
 49
1.25
 49
-0.25
 49
0.25
 49
-0.25
  0
ENDTAB
  0
TABLE
  2
LAYER
 70
     4
  0
LAYER
  2
0
 70
     0
 62
     7
  6
CONTINUOUS
  0
LAYER
  2
L2
 70
     0
 62
     1
  6
HIDDEN
  0
LAYER
  2
L1
 70
     0
 62
     7
  6
CONTINUOUS
  0
LAYER
  2
L6
 70
     0
 62
     1
  6
CENTER
  0
ENDTAB
  0
TABLE
  2
STYLE
 70
     2
  0
STYLE
  2
STANDARD
 70
     0
 40
0.0
 41
1.0
 50
0.0
 71
     0
 42
2.5
  3
ISOCP
  4

  0
STYLE
  2
SIMPLEX
 70
     0
 40
0.0
 41
0.8
 50
0.0
 71
     0
 42
2.5
  3
SIMPLEX.SHX
  4

  0
ENDTAB
  0
TABLE
  2
VIEW
 70
     0
  0
ENDTAB
  0
TABLE
  2
UCS
 70
     0
  0
ENDTAB
  0
TABLE
  2
APPID
 70
     6
  0
APPID
  2
ACAD
 70
     0
  0
APPID
  2
MCAD_NO_VIS
 70
     0
  0
APPID
  2
AD_DRAW
 70
     0
  0
APPID
  2
DESIGNERASSEMBLIES
 70
     0
  0
APPID
  2
ASURF_PCURVE_APPNAME
 70
     0
  0
APPID
  2
CONTENTBLOCKICON
 70
     0
  0
ENDTAB
  0
TABLE
  2
DIMSTYLE
 70
     1
  0
DIMSTYLE
  2
FIBOX
 70
     0
  3

  4

  5

  6

  7

 40
1.0
 41
3.5
 42
0.1
 43
0.38
 44
0.18
 45
0.0
 46
0.0
 47
0.0
 48
0.0
140
3.5
141
1.0
142
0.0
143
25.399999999999999
144
1.0
145
0.0
146
1.0
147
1.0
 71
     0
 72
     0
 73
     0
 74
     0
 75
     0
 76
     0
 77
     1
 78
     8
170
     0
171
     2
172
     1
173
     0
174
     0
175
     0
176
     1
177
     1
178
     3
  0
ENDTAB
  0
ENDSEC
  0
SECTION
  2
BLOCKS
  0
BLOCK
  8
0
  2
$MODEL_SPACE
 70
     0
 10
0.0
 20
0.0
 30
0.0
  3
$MODEL_SPACE
  1

  0
ENDBLK
  5
7
  8
0
  0
BLOCK
 67
     1
  8
0
  2
$PAPER_SPACE
 70
     0
 10
0.0
 20
0.0
 30
0.0
  3
$PAPER_SPACE
  1

  0
ENDBLK
  5
A
 67
     1
  8
0
  0
BLOCK
  8
0
  2
B
 70
     0
 10
0.0
 20
0.0
 30
0.0
  3
B
  1

  0
ARC
  5
2B71
  8
L1
 10
56.75
 20
56.749999999999893
 30
0.0
 40
5.7825462644184809
 50
26.013604937570889
 51
63.98639506242364
  0
LINE
  5
2B72
  8
L1
 10
63.25
 20
60.589419380353263
 30
0.0
 11
61.34174324585377
 21
58.681162626207197
 31
0.0
  0
ARC
  5
2B73
  8
L1
 10
56.75
 20
56.749999999999893
 30
0.0
 40
4.981314598045679
 50
357.35159765871202
 51
22.810301179719492
  0
ARC
  5
2B74
  8
L1
 10
60.649999999999871
 20
60.64999999999997
 30
0.0
 40
2.6000000000000001
 50
0.0
 51
90.0
  0
POLYLINE
  5
2B75
  8
L1
 66
     1
 10
0.0
 20
0.0
 30
0.0
  0
VERTEX
  5
373A
  8
L1
 10
61.556999999999789
 20
65.012088437773969
 30
0.0
  0
VERTEX
  5
373B
  8
L1
 10
62.218787602445211
 20
64.941714390114271
 30
0.0
  0
VERTEX
  5
373C
  8
L1
 10
62.873772386240937
 20
64.739585002002386
 30
0.0
  0
VERTEX
  5
373D
  8
L1
 10
63.476619230896063
 20
64.413440750186055
 30
0.0
  0
VERTEX
  5
373E
  8
L1
 10
63.989929119073622
 20
63.989929119073508
 30
0.0
  0
VERTEX
  5
373F
  8
L1
 10
64.413440750186055
 20
63.476619230895949
 30
0.0
  0
VERTEX
  5
3740
  8
L1
 10
64.739585002002386
 20
62.87377238624083
 30
0.0
  0
VERTEX
  5
3741
  8
L1
 10
64.941714390114271
 20
62.218787602445211
 30
0.0
  0
VERTEX
  5
3742
  8
L1
 10
65.012088437773969
 20
61.557000000000023
 30
0.0
  0
SEQEND
  5
3743
  8
L1
  0
ARC
  5
2B76
  8
L1
 10
61.556999999999903
 20
61.556999999999903
 30
0.0
 40
2.7360241002247609
 50
0.0000000000016284
 51
90.00000000000081
  0
ARC
  5
2B77
  8
L1
 10
60.249999999999879
 20
47.149999999999977
 30
0.0
 40
3.200000000000113
 50
39.517946684075028
 51
90.0
  0
ARC
  5
2B78
  8
L1
 10
60.249999999999879
 20
47.149999999999977
 30
0.0
 40
2.2000000000000899
 50
0.0
 51
90.0
  0
LINE
  5
2B79
  8
L1
 10
62.619202064108201
 20
53.447575903961933
 30
0.0
 11
59.863042131491852
 21
50.691415971345457
 31
0.0
  0
LINE
  5
2B7A
  8
L6
 10
-71.391648896809613
 20
0.0
 30
0.0
 11
71.3916488968095
 21
0.0
 31
0.0
  0
ARC
  5
2B7B
  8
L1
 10
60.249999999999879
 20
-47.149999999999977
 30
0.0
 40
3.200000000000113
 50
270.0
 51
320.48205331592487
  0
ARC
  5
2B7C
  8
L1
 10
60.249999999999879
 20
-47.149999999999977
 30
0.0
 40
2.2000000000000899
 50
270.0
 51
0.0
  0
LINE
  5
2B7D
  8
L1
 10
62.619202064108201
 20
-53.447575903961933
 30
0.0
 11
59.863042131491852
 21
-50.691415971345457
 31
0.0
  0
ARC
  5
2B7E
  8
L1
 10
56.75
 20
-56.749999999999893
 30
0.0
 40
4.981314598045679
 50
337.18969882028051
 51
2.6484023412880182
  0
ARC
  5
2B7F
  8
L1
 10
60.649999999999871
 20
-60.64999999999997
 30
0.0
 40
2.6000000000000001
 50
270.0
 51
0.0
  0
ARC
  5
2B80
  8
L1
 10
56.75
 20
-56.749999999999893
 30
0.0
 40
5.7825462644184809
 50
296.0136049375763
 51
333.98639506243632
  0
LINE
  5
2B81
  8
L1
 10
63.25
 20
-60.589419380353263
 30
0.0
 11
61.34174324585377
 21
-58.681162626207197
 31
0.0
  0
POLYLINE
  5
2B82
  8
L1
 66
     1
 10
0.0
 20
0.0
 30
0.0
  0
VERTEX
  5
3744
  8
L1
 10
61.556999999999789
 20
-65.012088437773969
 30
0.0
  0
VERTEX
  5
3745
  8
L1
 10
62.218787602445211
 20
-64.941714390114271
 30
0.0
  0
VERTEX
  5
3746
  8
L1
 10
62.873772386240937
 20
-64.739585002002386
 30
0.0
  0
VERTEX
  5
3747
  8
L1
 10
63.476619230896063
 20
-64.413440750186055
 30
0.0
  0
VERTEX
  5
3748
  8
L1
 10
63.989929119073622
 20
-63.989929119073508
 30
0.0
  0
VERTEX
  5
3749
  8
L1
 10
64.413440750186055
 20
-63.476619230895949
 30
0.0
  0
VERTEX
  5
374A
  8
L1
 10
64.739585002002386
 20
-62.87377238624083
 30
0.0
  0
VERTEX
  5
374B
  8
L1
 10
64.941714390114271
 20
-62.218787602445211
 30
0.0
  0
VERTEX
  5
374C
  8
L1
 10
65.012088437773969
 20
-61.557000000000023
 30
0.0
  0
SEQEND
  5
374D
  8
L1
  0
ARC
  5
2B83
  8
L1
 10
61.556999999999903
 20
-61.556999999999903
 30
0.0
 40
2.7360241002247609
 50
269.99999999999829
 51
359.99999999999829
  0
LINE
  5
2B84
  8
L1
 10
50.349999999999909
 20
59.550000000000068
 30
0.0
 11
50.349999999999909
 21
56.750000000000107
 31
0.0
  0
LINE
  5
2B85
  8
L1
 10
47.311063513711808
 20
56.749999999999773
 30
0.0
 11
47.311063513711808
 21
61.311166316219101
 31
0.0
  0
LINE
  5
2B86
  8
L1
 10
49.349999999999909
 20
56.750000000000107
 30
0.0
 11
49.349999999999909
 21
60.250000000000107
 31
0.0
  0
LINE
  5
2B87
  8
L1
 10
56.51982898206586
 20
61.725994013984177
 30
0.0
 11
51.774005986015709
 21
56.980171017934033
 31
0.0
  0
LINE
  5
2B88
  8
L1
 10
-50.350000000000144
 20
59.550000000000068
 30
0.0
 11
-50.350000000000144
 21
56.750000000000107
 31
0.0
  0
LINE
  5
2B89
  8
L1
 10
-47.311063513712043
 20
56.749999999999773
 30
0.0
 11
-47.311063513712043
 21
61.311166316219101
 31
0.0
  0
LINE
  5
2B8A
  8
L1
 10
-49.350000000000129
 20
56.750000000000107
 30
0.0
 11
-49.350000000000129
 21
60.250000000000107
 31
0.0
  0
LINE
  5
2B8B
  8
L1
 10
-63.250000000000227
 20
60.589419380353263
 30
0.0
 11
-61.341743245853991
 21
58.681162626207197
 31
0.0
  0
LINE
  5
2B8C
  8
L1
 10
-63.250000000000107
 20
60.64999999999997
 30
0.0
 11
-63.250000000000107
 21
49.377091896450047
 31
0.0
  0
LINE
  5
2B8D
  8
L1
 10
-56.51982898206608
 20
61.725994013984177
 30
0.0
 11
-51.774005986015929
 21
56.980171017934033
 31
0.0
  0
LINE
  5
2B8E
  8
L6
 10
0.0
 20
71.3916488968095
 30
0.0
 11
0.0
 21
-71.391648896809599
 31
0.0
  0
LINE
  5
2B8F
  8
L1
 10
-65.012304130909342
 20
61.517100759268139
 30
0.0
 11
-65.012304130909342
 21
-61.517100759268139
 31
0.0
  0
LINE
  5
2B90
  8
L1
 10
-64.293024100224784
 20
-61.556999999999903
 30
0.0
 11
-64.293024100224898
 21
61.557000000000023
 31
0.0
  0
LINE
  5
2B91
  8
L1
 10
47.149999999999856
 20
-62.450000000000159
 30
0.0
 11
-47.150000000000091
 21
-62.450000000000159
 31
0.0
  0
LINE
  5
2B92
  8
L1
 10
-47.150000000000091
 20
-63.450000000000159
 30
0.0
 11
47.149999999999856
 21
-63.450000000000159
 31
0.0
  0
LINE
  5
2B93
  8
L1
 10
61.556999999999789
 20
-64.29302410022467
 30
0.0
 11
-61.557000000000023
 21
-64.29302410022467
 31
0.0
  0
LINE
  5
2B94
  8
L1
 10
-61.51710075926826
 20
-65.012304130909115
 30
0.0
 11
61.517100759268139
 21
-65.012304130909115
 31
0.0
  0
LINE
  5
2B95
  8
L1
 10
47.011166316219139
 20
-61.61106351371177
 30
0.0
 11
-47.01116631621926
 21
-61.61106351371177
 31
0.0
  0
LINE
  5
2B96
  8
L1
 10
-61.611063513711883
 20
-47.01116631621926
 30
0.0
 11
-61.61106351371199
 21
47.011166316219089
 31
0.0
  0
LINE
  5
2B97
  8
L1
 10
-62.450000000000273
 20
-47.150000000000027
 30
0.0
 11
-62.450000000000273
 21
47.149999999999977
 31
0.0
  0
LINE
  5
2B98
  8
L1
 10
-63.450000000000273
 20
47.149999999999977
 30
0.0
 11
-63.450000000000273
 21
-47.150000000000027
 31
0.0
  0
POLYLINE
  5
2B99
  8
L1
 66
     1
 10
0.0
 20
0.0
 30
0.0
  0
VERTEX
  5
374E
  8
L1
 10
-53.535452416031369
 20
-62.833921234867148
 30
0.0
  0
VERTEX
  5
374F
  8
L1
 10
-53.448519035107431
 20
-63.045125652203858
 30
0.0
  0
VERTEX
  5
3750
  8
L1
 10
-52.97131272779108
 20
-63.249999999999879
 30
0.0
  0
SEQEND
  5
3751
  8
L1
  0
LINE
  5
2B9A
  8
L1
 10
-50.691415971345457
 20
-59.863042131491511
 30
0.0
 11
-53.447575903962161
 21
-62.619202064108201
 31
0.0
  0
ARC
  5
2B9B
  8
L1
 10
-56.750000000000107
 20
-56.750000000000107
 30
0.0
 40
7.4000000000000181
 50
0.0
 51
90.0
  0
ARC
  5
2B9C
  8
L1
 10
-56.750000000000107
 20
-56.750000000000107
 30
0.0
 40
6.3999999999999941
 50
0.0
 51
90.0
  0
ARC
  5
2B9D
  8
L1
 10
-56.75000000000022
 20
-56.749999999999893
 30
0.0
 40
4.981314598045679
 50
357.35159765871032
 51
92.648402341288019
  0
ARC
  5
2B9E
  8
L1
 10
-56.750000000000107
 20
-56.749999999999773
 30
0.0
 40
9.4389364862881635
 50
53.310709947554741
 51
90.0
  0
LINE
  5
2B9F
  8
L1
 10
-52.711063513712013
 20
-47.311063513711758
 30
0.0
 11
-56.75000000000022
 21
-47.311063513711758
 31
0.0
  0
LINE
  5
2BA0
  8
L1
 10
-49.377091896450331
 20
-63.249999999999879
 30
0.0
 11
-60.650000000000091
 21
-63.249999999999879
 31
0.0
  0
LINE
  5
2BA1
  8
L1
 10
-56.51982898206608
 20
-61.725994013984177
 30
0.0
 11
-51.774005986015929
 21
-56.980171017934033
 31
0.0
  0
ARC
  5
2BA2
  8
L1
 10
-56.75000000000022
 20
-56.749999999999893
 30
0.0
 40
5.7825462644184809
 50
206.01360493755629
 51
243.98639506242361
  0
LINE
  5
2BA3
  8
L1
 10
-63.250000000000227
 20
-60.589419380353263
 30
0.0
 11
-61.341743245853991
 21
-58.681162626207197
 31
0.0
  0
LINE
  5
2BA4
  8
L1
 10
-63.250000000000107
 20
-60.64999999999997
 30
0.0
 11
-63.250000000000107
 21
-49.377091896450047
 31
0.0
  0
POLYLINE
  5
2BA5
  8
L1
 66
     1
 10
0.0
 20
0.0
 30
0.0
  0
VERTEX
  5
3752
  8
L1
 10
-53.535452416031369
 20
-62.833921234867148
 30
0.0
  0
VERTEX
  5
3753
  8
L1
 10
-53.513110116762959
 20
-62.717729786776431
 30
0.0
  0
VERTEX
  5
3754
  8
L1
 10
-53.447575903962161
 20
-62.619202064108322
 30
0.0
  0
SEQEND
  5
3755
  8
L1
  0
LINE
  5
2BA6
  8
L1
 10
-58.681162626207197
 20
-61.34174324585377
 30
0.0
 11
-60.589419380353213
 21
-63.249999999999851
 31
0.0
  0
ARC
  5
2BA7
  8
L1
 10
-56.75000000000022
 20
-56.749999999999893
 30
0.0
 40
4.981314598045679
 50
247.1896988202833
 51
272.64840234128877
  0
POLYLINE
  5
2BA8
  8
L1
 66
     1
 10
0.0
 20
0.0
 30
0.0
  0
VERTEX
  5
3756
  8
L1
 10
-61.51710075926826
 20
-65.012304130909115
 30
0.0
  0
VERTEX
  5
3757
  8
L1
 10
-61.537048032038342
 20
-65.012250207188799
 30
0.0
  0
VERTEX
  5
3758
  8
L1
 10
-61.557000000000023
 20
-65.012088437773969
 30
0.0
  0
SEQEND
  5
3759
  8
L1
  0
POLYLINE
  5
2BA9
  8
L1
 66
     1
 10
0.0
 20
0.0
 30
0.0
  0
VERTEX
  5
375A
  8
L1
 10
-65.012088437774196
 20
-61.557000000000023
 30
0.0
  0
VERTEX
  5
375B
  8
L1
 10
-65.012250207188913
 20
-61.537048032038221
 30
0.0
  0
VERTEX
  5
375C
  8
L1
 10
-65.012304130909342
 20
-61.517100759268139
 30
0.0
  0
SEQEND
  5
375D
  8
L1
  0
ARC
  5
2BAA
  8
L1
 10
-61.55700000000013
 20
-61.556999999999903
 30
0.0
 40
2.7360241002247609
 50
180.00000000000159
 51
270.0000000000008
  0
POLYLINE
  5
2BAB
  8
L1
 66
     1
 10
0.0
 20
0.0
 30
0.0
  0
VERTEX
  5
375E
  8
L1
 10
-61.557000000000023
 20
-65.012088437773969
 30
0.0
  0
VERTEX
  5
375F
  8
L1
 10
-62.218787602445438
 20
-64.941714390114271
 30
0.0
  0
VERTEX
  5
3760
  8
L1
 10
-62.873772386241171
 20
-64.739585002002386
 30
0.0
  0
VERTEX
  5
3761
  8
L1
 10
-63.47661923089629
 20
-64.413440750186055
 30
0.0
  0
VERTEX
  5
3762
  8
L1
 10
-63.989929119073842
 20
-63.989929119073508
 30
0.0
  0
VERTEX
  5
3763
  8
L1
 10
-64.413440750186282
 20
-63.476619230895949
 30
0.0
  0
VERTEX
  5
3764
  8
L1
 10
-64.739585002002627
 20
-62.87377238624083
 30
0.0
  0
VERTEX
  5
3765
  8
L1
 10
-64.941714390114484
 20
-62.218787602445211
 30
0.0
  0
VERTEX
  5
3766
  8
L1
 10
-65.012088437774196
 20
-61.557000000000023
 30
0.0
  0
SEQEND
  5
3767
  8
L1
  0
ARC
  5
2BAC
  8
L1
 10
-60.650000000000091
 20
-60.64999999999997
 30
0.0
 40
2.6000000000000001
 50
180.0
 51
270.0
  0
LINE
  5
2BAD
  8
L1
 10
-60.250000000000107
 20
-49.350000000000129
 30
0.0
 11
-56.750000000000107
 21
-49.350000000000129
 31
0.0
  0
LINE
  5
2BAE
  8
L1
 10
-59.550000000000182
 20
-50.35000000000008
 30
0.0
 11
-60.250000000000107
 21
-50.35000000000008
 31
0.0
  0
LINE
  5
2BAF
  8
L1
 10
-56.750000000000107
 20
-50.35000000000008
 30
0.0
 11
-59.550000000000182
 21
-50.35000000000008
 31
0.0
  0
POLYLINE
  5
2BB0
  8
L1
 66
     1
 10
0.0
 20
0.0
 30
0.0
  0
VERTEX
  5
3768
  8
L1
 10
-60.004479642815227
 20
-50.350000000000144
 30
0.0
  0
VERTEX
  5
3769
  8
L1
 10
-59.893358717371477
 20
-50.383705019846673
 30
0.0
  0
VERTEX
  5
376A
  8
L1
 10
-59.819691121902338
 20
-50.473459795757769
 30
0.0
  0
VERTEX
  5
376B
  8
L1
 10
-59.808306534080998
 20
-50.589012462699323
 30
0.0
  0
VERTEX
  5
376C
  8
L1
 10
-59.86304213149208
 20
-50.691415971345521
 30
0.0
  0
SEQEND
  5
376D
  8
L1
  0
POLYLINE
  5
2BB1
  8
L1
 66
     1
 10
0.0
 20
0.0
 30
0.0
  0
VERTEX
  5
376E
  8
L1
 10
-61.611063513711883
 20
-47.011166316219089
 30
0.0
  0
VERTEX
  5
376F
  8
L1
 10
-61.611063434648031
 20
-47.011320366176619
 30
0.0
  0
VERTEX
  5
3770
  8
L1
 10
-61.611063197456133
 20
-47.01147433702954
 30
0.0
  0
SEQEND
  5
3771
  8
L1
  0
POLYLINE
  5
2BB2
  8
L1
 66
     1
 10
0.0
 20
0.0
 30
0.0
  0
VERTEX
  5
3772
  8
L1
 10
-61.611063197456133
 20
-47.01147433702954
 30
0.0
  0
VERTEX
  5
3773
  8
L1
 10
-61.523110731772931
 20
-47.223110731772692
 30
0.0
  0
VERTEX
  5
3774
  8
L1
 10
-61.311474337029722
 20
-47.311063197455937
 30
0.0
  0
SEQEND
  5
3775
  8
L1
  0
POLYLINE
  5
2BB3
  8
L1
 66
     1
 10
0.0
 20
0.0
 30
0.0
  0
VERTEX
  5
3776
  8
L1
 10
-61.311474337029843
 20
-47.311063197456058
 30
0.0
  0
VERTEX
  5
3777
  8
L1
 10
-61.311320366176801
 20
-47.311063434647849
 30
0.0
  0
VERTEX
  5
3778
  8
L1
 10
-61.311166316219207
 20
-47.311063513711808
 30
0.0
  0
SEQEND
  5
3779
  8
L1
  0
ARC
  5
2BB4
  8
L1
 10
-60.250000000000107
 20
-47.149999999999977
 30
0.0
 40
3.200000000000113
 50
180.0
 51
219.51794668407501
  0
POLYLINE
  5
2BB5
  8
L1
 66
     1
 10
0.0
 20
0.0
 30
0.0
  0
VERTEX
  5
377A
  8
L1
 10
-63.250000000000107
 20
-49.377091896449997
 30
0.0
  0
VERTEX
  5
377B
  8
L1
 10
-63.24966585389074
 20
-49.362935981079261
 30
0.0
  0
VERTEX
  5
377C
  8
L1
 10
-63.220498558824602
 20
-49.247357170977011
 30
0.0
  0
VERTEX
  5
377D
  8
L1
 10
-63.150500120322128
 20
-49.15393353044135
 30
0.0
  0
VERTEX
  5
377E
  8
L1
 10
-63.050145711961811
 20
-49.094306063786171
 30
0.0
  0
VERTEX
  5
377F
  8
L1
 10
-62.934625847031157
 20
-49.077497830101493
 30
0.0
  0
VERTEX
  5
3780
  8
L1
 10
-62.819158861112321
 20
-49.107144549515233
 30
0.0
  0
VERTEX
  5
3781
  8
L1
 10
-62.726831995303087
 20
-49.176617298745207
 30
0.0
  0
VERTEX
  5
3782
  8
L1
 10
-62.718560984214371
 20
-49.18622362897986
 30
0.0
  0
SEQEND
  5
3783
  8
L1
  0
LINE
  5
2BB6
  8
L1
 10
-62.619202064108428
 20
-53.447575903961933
 30
0.0
 11
-59.86304213149208
 21
-50.691415971345457
 31
0.0
  0
ARC
  5
2BB7
  8
L1
 10
-60.250000000000107
 20
-47.149999999999977
 30
0.0
 40
2.2000000000000899
 50
180.0
 51
270.0
  0
ARC
  5
2BB8
  8
L1
 10
-60.250000000000107
 20
-47.149999999999977
 30
0.0
 40
3.200000000000113
 50
219.51794668407501
 51
270.0
  0
LINE
  5
2BB9
  8
L1
 10
-61.311166316219207
 20
-47.311063513711808
 30
0.0
 11
-56.75000000000022
 21
-47.311063513711808
 31
0.0
  0
ARC
  5
2BBA
  8
L1
 10
-56.75000000000022
 20
-56.749999999999893
 30
0.0
 40
4.981314598045679
 50
177.35159765871191
 51
202.8103011797194
  0
POLYLINE
  5
2BBB
  8
L1
 66
     1
 10
0.0
 20
0.0
 30
0.0
  0
VERTEX
  5
3784
  8
L1
 10
-62.619202064108428
 20
-53.44757590396199
 30
0.0
  0
VERTEX
  5
3785
  8
L1
 10
-62.717729786776538
 20
-53.513110116762732
 30
0.0
  0
VERTEX
  5
3786
  8
L1
 10
-62.833921234867383
 20
-53.535452416031212
 30
0.0
  0
SEQEND
  5
3787
  8
L1
  0
POLYLINE
  5
2BBC
  8
L1
 66
     1
 10
0.0
 20
0.0
 30
0.0
  0
VERTEX
  5
3788
  8
L1
 10
-63.25
 20
-52.971312727791108
 30
0.0
  0
VERTEX
  5
3789
  8
L1
 10
-63.045125652204092
 20
-53.44851903510726
 30
0.0
  0
VERTEX
  5
378A
  8
L1
 10
-62.833921234867383
 20
-53.535452416031212
 30
0.0
  0
SEQEND
  5
378B
  8
L1
  0
LINE
  5
2BBD
  8
L1
 10
-56.98017101793414
 20
-51.774005986015652
 30
0.0
 11
-61.725994013984518
 21
-56.519828982065967
 31
0.0
  0
POLYLINE
  5
2BBE
  8
L1
 66
     1
 10
0.0
 20
0.0
 30
0.0
  0
VERTEX
  5
378C
  8
L1
 10
-50.691415971345457
 20
-59.863042131491511
 30
0.0
  0
VERTEX
  5
378D
  8
L1
 10
-50.589012462699323
 20
-59.80830653408043
 30
0.0
  0
VERTEX
  5
378E
  8
L1
 10
-50.473459795757769
 20
-59.819691121901769
 30
0.0
  0
VERTEX
  5
378F
  8
L1
 10
-50.383705019846722
 20
-59.893358717371029
 30
0.0
  0
VERTEX
  5
3790
  8
L1
 10
-50.350000000000144
 20
-60.004479642814658
 30
0.0
  0
SEQEND
  5
3791
  8
L1
  0
LINE
  5
2BBF
  8
L1
 10
-49.350000000000129
 20
-56.750000000000107
 30
0.0
 11
-49.350000000000129
 21
-60.250000000000107
 31
0.0
  0
LINE
  5
2BC0
  8
L1
 10
-47.311063513712043
 20
-56.749999999999773
 30
0.0
 11
-47.311063513712043
 21
-61.311166316219101
 31
0.0
  0
LINE
  5
2BC1
  8
L1
 10
-50.350000000000144
 20
-60.250000000000107
 30
0.0
 11
-50.350000000000144
 21
-59.550000000000068
 31
0.0
  0
ARC
  5
2BC2
  8
L1
 10
-47.150000000000091
 20
-60.250000000000107
 30
0.0
 40
3.2000000000000282
 50
230.48205331592331
 51
270.0
  0
ARC
  5
2BC3
  8
L1
 10
-47.150000000000091
 20
-60.250000000000107
 30
0.0
 40
2.2000000000000051
 50
180.0
 51
270.0
  0
POLYLINE
  5
2BC4
  8
L1
 66
     1
 10
0.0
 20
0.0
 30
0.0
  0
VERTEX
  5
3792
  8
L1
 10
-47.311063513712043
 20
-61.311166316219207
 30
0.0
  0
VERTEX
  5
3793
  8
L1
 10
-47.311063434648183
 20
-61.311320366176567
 30
0.0
  0
VERTEX
  5
3794
  8
L1
 10
-47.311063197456292
 20
-61.311474337029487
 30
0.0
  0
SEQEND
  5
3795
  8
L1
  0
POLYLINE
  5
2BC5
  8
L1
 66
     1
 10
0.0
 20
0.0
 30
0.0
  0
VERTEX
  5
3796
  8
L1
 10
-47.311063197456058
 20
-61.311474337029381
 30
0.0
  0
VERTEX
  5
3797
  8
L1
 10
-47.223110731772863
 20
-61.52311073177259
 30
0.0
  0
VERTEX
  5
3798
  8
L1
 10
-47.011474337029767
 20
-61.611063197455913
 30
0.0
  0
SEQEND
  5
3799
  8
L1
  0
POLYLINE
  5
2BC6
  8
L1
 66
     1
 10
0.0
 20
0.0
 30
0.0
  0
VERTEX
  5
379A
  8
L1
 10
-47.011474337029988
 20
-61.611063197456019
 30
0.0
  0
VERTEX
  5
379B
  8
L1
 10
-47.011320366177067
 20
-61.61106343464791
 30
0.0
  0
VERTEX
  5
379C
  8
L1
 10
-47.011166316219366
 20
-61.611063513711883
 30
0.0
  0
SEQEND
  5
379D
  8
L1
  0
POLYLINE
  5
2BC7
  8
L1
 66
     1
 10
0.0
 20
0.0
 30
0.0
  0
VERTEX
  5
379E
  8
L1
 10
-49.186223628980088
 20
-62.71856098421415
 30
0.0
  0
VERTEX
  5
379F
  8
L1
 10
-49.17384351766713
 20
-62.72935565190312
 30
0.0
  0
VERTEX
  5
37A0
  8
L1
 10
-49.103958609463689
 20
-62.825946878271111
 30
0.0
  0
VERTEX
  5
37A1
  8
L1
 10
-49.077206794027923
 20
-62.942117898779202
 30
0.0
  0
VERTEX
  5
37A2
  8
L1
 10
-49.097803731254537
 20
-63.059523694656711
 30
0.0
  0
VERTEX
  5
37A3
  8
L1
 10
-49.162490882410559
 20
-63.159634290681311
 30
0.0
  0
VERTEX
  5
37A4
  8
L1
 10
-49.261058549746402
 20
-63.22665280987848
 30
0.0
  0
VERTEX
  5
37A5
  8
L1
 10
-49.369197628795398
 20
-63.249896123664477
 30
0.0
  0
VERTEX
  5
37A6
  8
L1
 10
-49.377091896450331
 20
-63.249999999999879
 30
0.0
  0
SEQEND
  5
37A7
  8
L1
  0
ARC
  5
2BC8
  8
L1
 10
-47.150000000000091
 20
-60.250000000000107
 30
0.0
 40
3.2000000000000282
 50
180.0
 51
230.48205331592331
  0
ARC
  5
2BC9
  8
L1
 10
-49.756521824612953
 20
-48.737976717201633
 30
0.0
 40
0.3
 50
45.000000000001151
 51
129.99999999999841
  0
LINE
  5
2BCA
  8
L1
 10
-50.738388551548269
 20
-49.170238538838703
 30
0.0
 11
-49.949358107518833
 21
-48.508163384265941
 31
0.0
  0
LINE
  5
2BCB
  8
L1
 10
-49.544389790256901
 20
-48.525844682845673
 30
0.0
 11
-48.525844682845673
 21
-49.544389790256901
 31
0.0
  0
ARC
  5
2BCC
  8
L1
 10
-48.737976717201597
 20
-49.756521824612861
 30
0.0
 40
0.3
 50
320.00000000000449
 51
45.0
  0
LINE
  5
2BCD
  8
L1
 10
-48.508163384265913
 20
-49.949358107518798
 30
0.0
 11
-49.170238538838703
 21
-50.738388551548319
 31
0.0
  0
POLYLINE
  5
2BCE
  8
L1
 66
     1
 10
0.0
 20
0.0
 30
0.0
  0
VERTEX
  5
37A8
  8
L1
 10
-49.170238538838703
 20
-50.738388551548319
 30
0.0
  0
VERTEX
  5
37A9
  8
L1
 10
-49.211718979547982
 20
-50.803151677826691
 30
0.0
  0
VERTEX
  5
37AA
  8
L1
 10
-49.240082371968583
 20
-50.916394018509493
 30
0.0
  0
VERTEX
  5
37AB
  8
L1
 10
-49.222229015544137
 20
-51.034228079221798
 30
0.0
  0
VERTEX
  5
37AC
  8
L1
 10
-49.181036322656041
 20
-51.110468916369818
 30
0.0
  0
SEQEND
  5
37AD
  8
L1
  0
POLYLINE
  5
2BCF
  8
L1
 66
     1
 10
0.0
 20
0.0
 30
0.0
  0
VERTEX
  5
37AE
  8
L1
 10
-51.110468916369769
 20
-49.181036322656041
 30
0.0
  0
VERTEX
  5
37AF
  8
L1
 10
-51.038951926870823
 20
-49.220457469659038
 30
0.0
  0
VERTEX
  5
37B0
  8
L1
 10
-50.923924853793999
 20
-49.240361597357833
 30
0.0
  0
VERTEX
  5
37B1
  8
L1
 10
-50.809966513259951
 20
-49.214833717261172
 30
0.0
  0
VERTEX
  5
37B2
  8
L1
 10
-50.738388551548269
 20
-49.170238538838703
 30
0.0
  0
SEQEND
  5
37B3
  8
L1
  0
ARC
  5
2BD0
  8
L1
 10
-52.711063513712013
 20
-52.711063513711728
 30
0.0
 40
5.3999999999999986
 50
0.0
 51
90.0
  0
LINE
  5
2BD1
  8
L1
 10
-50.350000000000144
 20
-59.550000000000068
 30
0.0
 11
-50.350000000000144
 21
-56.750000000000107
 31
0.0
  0
ARC
  5
2BD2
  8
L1
 10
-56.750000000000107
 20
-56.749999999999773
 30
0.0
 40
9.4389364862881635
 50
0.0
 51
36.689290052441841
  0
LINE
  5
2BD3
  8
L1
 10
-47.311063513711929
 20
-56.749999999999773
 30
0.0
 11
-47.311063513711929
 21
-52.711063513711728
 31
0.0
  0
LINE
  5
2BD4
  8
L1
 10
-52.711063513712013
 20
47.311063513711758
 30
0.0
 11
-56.75000000000022
 21
47.311063513711758
 31
0.0
  0
ARC
  5
2BD5
  8
L1
 10
-56.750000000000107
 20
56.749999999999773
 30
0.0
 40
9.4389364862881635
 50
270.0
 51
306.68929005244519
  0
ARC
  5
2BD6
  8
L1
 10
-56.75000000000022
 20
56.749999999999893
 30
0.0
 40
4.981314598045679
 50
267.35159765871202
 51
2.648402341289644
  0
ARC
  5
2BD7
  8
L1
 10
-56.750000000000107
 20
56.750000000000107
 30
0.0
 40
6.3999999999999941
 50
270.0
 51
0.0
  0
ARC
  5
2BD8
  8
L1
 10
-56.750000000000107
 20
56.750000000000107
 30
0.0
 40
7.4000000000000181
 50
270.0
 51
0.0
  0
ARC
  5
2BD9
  8
L1
 10
-56.75000000000022
 20
56.749999999999893
 30
0.0
 40
4.981314598045679
 50
157.18969882028051
 51
182.648402341288
  0
POLYLINE
  5
2BDA
  8
L1
 66
     1
 10
0.0
 20
0.0
 30
0.0
  0
VERTEX
  5
37B4
  8
L1
 10
-62.619202064108428
 20
53.44757590396199
 30
0.0
  0
VERTEX
  5
37B5
  8
L1
 10
-62.717729786776538
 20
53.513110116762732
 30
0.0
  0
VERTEX
  5
37B6
  8
L1
 10
-62.833921234867383
 20
53.535452416031212
 30
0.0
  0
SEQEND
  5
37B7
  8
L1
  0
POLYLINE
  5
2BDB
  8
L1
 66
     1
 10
0.0
 20
0.0
 30
0.0
  0
VERTEX
  5
37B8
  8
L1
 10
-63.25
 20
52.971312727791108
 30
0.0
  0
VERTEX
  5
37B9
  8
L1
 10
-63.045125652204092
 20
53.44851903510726
 30
0.0
  0
VERTEX
  5
37BA
  8
L1
 10
-62.833921234867383
 20
53.535452416031212
 30
0.0
  0
SEQEND
  5
37BB
  8
L1
  0
POLYLINE
  5
2BDC
  8
L1
 66
     1
 10
0.0
 20
0.0
 30
0.0
  0
VERTEX
  5
37BC
  8
L1
 10
-60.004479642815227
 20
50.350000000000144
 30
0.0
  0
VERTEX
  5
37BD
  8
L1
 10
-59.893358717371477
 20
50.383705019846673
 30
0.0
  0
VERTEX
  5
37BE
  8
L1
 10
-59.819691121902338
 20
50.473459795757769
 30
0.0
  0
VERTEX
  5
37BF
  8
L1
 10
-59.808306534080998
 20
50.589012462699323
 30
0.0
  0
VERTEX
  5
37C0
  8
L1
 10
-59.86304213149208
 20
50.691415971345521
 30
0.0
  0
SEQEND
  5
37C1
  8
L1
  0
LINE
  5
2BDD
  8
L1
 10
-56.750000000000107
 20
50.35000000000008
 30
0.0
 11
-59.550000000000182
 21
50.35000000000008
 31
0.0
  0
LINE
  5
2BDE
  8
L1
 10
-59.550000000000182
 20
50.35000000000008
 30
0.0
 11
-60.250000000000107
 21
50.35000000000008
 31
0.0
  0
LINE
  5
2BDF
  8
L1
 10
-60.250000000000107
 20
49.350000000000129
 30
0.0
 11
-56.750000000000107
 21
49.350000000000129
 31
0.0
  0
POLYLINE
  5
2BE0
  8
L1
 66
     1
 10
0.0
 20
0.0
 30
0.0
  0
VERTEX
  5
37C2
  8
L1
 10
-63.250000000000107
 20
49.377091896449997
 30
0.0
  0
VERTEX
  5
37C3
  8
L1
 10
-63.24966585389074
 20
49.362935981079261
 30
0.0
  0
VERTEX
  5
37C4
  8
L1
 10
-63.220498558824602
 20
49.247357170977011
 30
0.0
  0
VERTEX
  5
37C5
  8
L1
 10
-63.150500120322128
 20
49.15393353044135
 30
0.0
  0
VERTEX
  5
37C6
  8
L1
 10
-63.050145711961811
 20
49.094306063786171
 30
0.0
  0
VERTEX
  5
37C7
  8
L1
 10
-62.934625847031157
 20
49.077497830101493
 30
0.0
  0
VERTEX
  5
37C8
  8
L1
 10
-62.819158861112321
 20
49.107144549515233
 30
0.0
  0
VERTEX
  5
37C9
  8
L1
 10
-62.726831995303087
 20
49.176617298745207
 30
0.0
  0
VERTEX
  5
37CA
  8
L1
 10
-62.718560984214371
 20
49.18622362897986
 30
0.0
  0
SEQEND
  5
37CB
  8
L1
  0
POLYLINE
  5
2BE1
  8
L1
 66
     1
 10
0.0
 20
0.0
 30
0.0
  0
VERTEX
  5
37CC
  8
L1
 10
-61.311474337029843
 20
47.311063197456058
 30
0.0
  0
VERTEX
  5
37CD
  8
L1
 10
-61.311320366176801
 20
47.311063434647849
 30
0.0
  0
VERTEX
  5
37CE
  8
L1
 10
-61.311166316219207
 20
47.311063513711808
 30
0.0
  0
SEQEND
  5
37CF
  8
L1
  0
POLYLINE
  5
2BE2
  8
L1
 66
     1
 10
0.0
 20
0.0
 30
0.0
  0
VERTEX
  5
37D0
  8
L1
 10
-61.611063197456133
 20
47.01147433702954
 30
0.0
  0
VERTEX
  5
37D1
  8
L1
 10
-61.523110731772931
 20
47.223110731772692
 30
0.0
  0
VERTEX
  5
37D2
  8
L1
 10
-61.311474337029722
 20
47.311063197455937
 30
0.0
  0
SEQEND
  5
37D3
  8
L1
  0
POLYLINE
  5
2BE3
  8
L1
 66
     1
 10
0.0
 20
0.0
 30
0.0
  0
VERTEX
  5
37D4
  8
L1
 10
-61.611063513711883
 20
47.011166316219089
 30
0.0
  0
VERTEX
  5
37D5
  8
L1
 10
-61.611063434648031
 20
47.011320366176619
 30
0.0
  0
VERTEX
  5
37D6
  8
L1
 10
-61.611063197456133
 20
47.01147433702954
 30
0.0
  0
SEQEND
  5
37D7
  8
L1
  0
ARC
  5
2BE4
  8
L1
 10
-60.250000000000107
 20
47.149999999999977
 30
0.0
 40
3.200000000000113
 50
140.4820533159249
 51
180.0
  0
LINE
  5
2BE5
  8
L1
 10
-61.311166316219207
 20
47.311063513711808
 30
0.0
 11
-56.75000000000022
 21
47.311063513711808
 31
0.0
  0
ARC
  5
2BE6
  8
L1
 10
-60.250000000000107
 20
47.149999999999977
 30
0.0
 40
3.200000000000113
 50
90.0
 51
140.4820533159249
  0
ARC
  5
2BE7
  8
L1
 10
-60.250000000000107
 20
47.149999999999977
 30
0.0
 40
2.2000000000000899
 50
90.0
 51
180.0
  0
LINE
  5
2BE8
  8
L1
 10
-62.619202064108428
 20
53.447575903961933
 30
0.0
 11
-59.86304213149208
 21
50.691415971345457
 31
0.0
  0
LINE
  5
2BE9
  8
L1
 10
-56.98017101793414
 20
51.774005986015652
 30
0.0
 11
-61.725994013984518
 21
56.519828982065967
 31
0.0
  0
LINE
  5
2BEA
  8
L1
 10
-47.311063513711929
 20
56.749999999999773
 30
0.0
 11
-47.311063513711929
 21
52.711063513711728
 31
0.0
  0
POLYLINE
  5
2BEB
  8
L1
 66
     1
 10
0.0
 20
0.0
 30
0.0
  0
VERTEX
  5
37D8
  8
L1
 10
-49.170238538838703
 20
50.738388551548319
 30
0.0
  0
VERTEX
  5
37D9
  8
L1
 10
-49.211718979547982
 20
50.803151677826691
 30
0.0
  0
VERTEX
  5
37DA
  8
L1
 10
-49.240082371968583
 20
50.916394018509493
 30
0.0
  0
VERTEX
  5
37DB
  8
L1
 10
-49.222229015544137
 20
51.034228079221798
 30
0.0
  0
VERTEX
  5
37DC
  8
L1
 10
-49.181036322656041
 20
51.110468916369818
 30
0.0
  0
SEQEND
  5
37DD
  8
L1
  0
LINE
  5
2BEC
  8
L1
 10
-48.508163384265913
 20
49.949358107518798
 30
0.0
 11
-49.170238538838703
 21
50.738388551548319
 31
0.0
  0
ARC
  5
2BED
  8
L1
 10
-48.737976717201597
 20
49.756521824612861
 30
0.0
 40
0.3
 50
315.0
 51
39.999999999995502
  0
LINE
  5
2BEE
  8
L1
 10
-49.544389790256901
 20
48.525844682845673
 30
0.0
 11
-48.525844682845673
 21
49.544389790256901
 31
0.0
  0
LINE
  5
2BEF
  8
L1
 10
-50.738388551548269
 20
49.170238538838703
 30
0.0
 11
-49.949358107518833
 21
48.508163384265941
 31
0.0
  0
ARC
  5
2BF0
  8
L1
 10
-49.756521824612953
 20
48.737976717201633
 30
0.0
 40
0.3
 50
230.00000000000151
 51
314.99999999999869
  0
POLYLINE
  5
2BF1
  8
L1
 66
     1
 10
0.0
 20
0.0
 30
0.0
  0
VERTEX
  5
37DE
  8
L1
 10
-51.110468916369769
 20
49.181036322656041
 30
0.0
  0
VERTEX
  5
37DF
  8
L1
 10
-51.038951926870823
 20
49.220457469659038
 30
0.0
  0
VERTEX
  5
37E0
  8
L1
 10
-50.923924853793999
 20
49.240361597357833
 30
0.0
  0
VERTEX
  5
37E1
  8
L1
 10
-50.809966513259951
 20
49.214833717261172
 30
0.0
  0
VERTEX
  5
37E2
  8
L1
 10
-50.738388551548269
 20
49.170238538838703
 30
0.0
  0
SEQEND
  5
37E3
  8
L1
  0
ARC
  5
2BF2
  8
L1
 10
-52.711063513712013
 20
52.711063513711728
 30
0.0
 40
5.3999999999999986
 50
270.0
 51
0.0
  0
ARC
  5
2BF3
  8
L1
 10
-56.750000000000107
 20
56.749999999999773
 30
0.0
 40
9.4389364862881635
 50
323.31070994755811
 51
0.0
  0
LINE
  5
2BF4
  8
L1
 10
61.611063513711663
 20
-47.01116631621926
 30
0.0
 11
61.61106351371177
 21
47.011166316219089
 31
0.0
  0
POLYLINE
  5
2BF5
  8
L1
 66
     1
 10
0.0
 20
0.0
 30
0.0
  0
VERTEX
  5
37E4
  8
L1
 10
50.691415971345243
 20
-59.863042131491511
 30
0.0
  0
VERTEX
  5
37E5
  8
L1
 10
50.589012462699088
 20
-59.80830653408043
 30
0.0
  0
VERTEX
  5
37E6
  8
L1
 10
50.473459795757549
 20
-59.819691121901769
 30
0.0
  0
VERTEX
  5
37E7
  8
L1
 10
50.383705019846502
 20
-59.893358717371029
 30
0.0
  0
VERTEX
  5
37E8
  8
L1
 10
50.349999999999909
 20
-60.004479642814658
 30
0.0
  0
SEQEND
  5
37E9
  8
L1
  0
LINE
  5
2BF6
  8
L1
 10
50.349999999999909
 20
-60.250000000000107
 30
0.0
 11
50.349999999999909
 21
-59.550000000000068
 31
0.0
  0
LINE
  5
2BF7
  8
L1
 10
47.311063513711808
 20
-56.749999999999773
 30
0.0
 11
47.311063513711808
 21
-61.311166316219101
 31
0.0
  0
LINE
  5
2BF8
  8
L1
 10
49.349999999999909
 20
-56.750000000000107
 30
0.0
 11
49.349999999999909
 21
-60.250000000000107
 31
0.0
  0
LINE
  5
2BF9
  8
L1
 10
50.691415971345243
 20
-59.863042131491511
 30
0.0
 11
53.447575903961933
 21
-62.619202064108201
 31
0.0
  0
LINE
  5
2BFA
  8
L1
 10
56.51982898206586
 20
-61.725994013984177
 30
0.0
 11
51.774005986015709
 21
-56.980171017934033
 31
0.0
  0
POLYLINE
  5
2BFB
  8
L1
 66
     1
 10
0.0
 20
0.0
 30
0.0
  0
VERTEX
  5
37EA
  8
L1
 10
61.517100759268033
 20
-65.012304130909115
 30
0.0
  0
VERTEX
  5
37EB
  8
L1
 10
61.537048032038122
 20
-65.012250207188799
 30
0.0
  0
VERTEX
  5
37EC
  8
L1
 10
61.556999999999789
 20
-65.012088437773969
 30
0.0
  0
SEQEND
  5
37ED
  8
L1
  0
LINE
  5
2BFC
  8
L1
 10
58.681162626206969
 20
-61.34174324585377
 30
0.0
 11
60.589419380352979
 21
-63.249999999999851
 31
0.0
  0
POLYLINE
  5
2BFD
  8
L1
 66
     1
 10
0.0
 20
0.0
 30
0.0
  0
VERTEX
  5
37EE
  8
L1
 10
53.535452416031141
 20
-62.833921234867148
 30
0.0
  0
VERTEX
  5
37EF
  8
L1
 10
53.513110116762732
 20
-62.717729786776431
 30
0.0
  0
VERTEX
  5
37F0
  8
L1
 10
53.447575903961933
 20
-62.619202064108322
 30
0.0
  0
SEQEND
  5
37F1
  8
L1
  0
POLYLINE
  5
2BFE
  8
L1
 66
     1
 10
0.0
 20
0.0
 30
0.0
  0
VERTEX
  5
37F2
  8
L1
 10
53.535452416031141
 20
-62.833921234867148
 30
0.0
  0
VERTEX
  5
37F3
  8
L1
 10
53.448519035107211
 20
-63.045125652203858
 30
0.0
  0
VERTEX
  5
37F4
  8
L1
 10
52.97131272779086
 20
-63.249999999999879
 30
0.0
  0
SEQEND
  5
37F5
  8
L1
  0
ARC
  5
2BFF
  8
L1
 10
56.75
 20
-56.749999999999893
 30
0.0
 40
4.981314598045679
 50
267.35159765871111
 51
292.81030117971659
  0
ARC
  5
2C00
  8
L1
 10
47.149999999999856
 20
-60.250000000000107
 30
0.0
 40
3.2000000000000282
 50
309.51794668407672
 51
0.0
  0
POLYLINE
  5
2C01
  8
L1
 66
     1
 10
0.0
 20
0.0
 30
0.0
  0
VERTEX
  5
37F6
  8
L1
 10
49.18622362897986
 20
-62.71856098421415
 30
0.0
  0
VERTEX
  5
37F7
  8
L1
 10
49.17384351766691
 20
-62.72935565190312
 30
0.0
  0
VERTEX
  5
37F8
  8
L1
 10
49.103958609463461
 20
-62.825946878271111
 30
0.0
  0
VERTEX
  5
37F9
  8
L1
 10
49.077206794027688
 20
-62.942117898779202
 30
0.0
  0
VERTEX
  5
37FA
  8
L1
 10
49.097803731254317
 20
-63.059523694656711
 30
0.0
  0
VERTEX
  5
37FB
  8
L1
 10
49.162490882410339
 20
-63.159634290681311
 30
0.0
  0
VERTEX
  5
37FC
  8
L1
 10
49.261058549746167
 20
-63.22665280987848
 30
0.0
  0
VERTEX
  5
37FD
  8
L1
 10
49.369197628795177
 20
-63.249896123664477
 30
0.0
  0
VERTEX
  5
37FE
  8
L1
 10
49.377091896450111
 20
-63.249999999999879
 30
0.0
  0
SEQEND
  5
37FF
  8
L1
  0
POLYLINE
  5
2C02
  8
L1
 66
     1
 10
0.0
 20
0.0
 30
0.0
  0
VERTEX
  5
3800
  8
L1
 10
47.311063513711808
 20
-61.311166316219207
 30
0.0
  0
VERTEX
  5
3801
  8
L1
 10
47.311063434647963
 20
-61.311320366176567
 30
0.0
  0
VERTEX
  5
3802
  8
L1
 10
47.311063197456058
 20
-61.311474337029487
 30
0.0
  0
SEQEND
  5
3803
  8
L1
  0
ARC
  5
2C03
  8
L1
 10
47.149999999999856
 20
-60.250000000000107
 30
0.0
 40
2.2000000000000051
 50
270.0
 51
0.0
  0
ARC
  5
2C04
  8
L1
 10
47.149999999999856
 20
-60.250000000000107
 30
0.0
 40
3.2000000000000282
 50
270.0
 51
309.51794668407672
  0
POLYLINE
  5
2C05
  8
L1
 66
     1
 10
0.0
 20
0.0
 30
0.0
  0
VERTEX
  5
3804
  8
L1
 10
47.011474337029767
 20
-61.611063197456019
 30
0.0
  0
VERTEX
  5
3805
  8
L1
 10
47.011320366176847
 20
-61.61106343464791
 30
0.0
  0
VERTEX
  5
3806
  8
L1
 10
47.011166316219139
 20
-61.611063513711883
 30
0.0
  0
SEQEND
  5
3807
  8
L1
  0
POLYLINE
  5
2C06
  8
L1
 66
     1
 10
0.0
 20
0.0
 30
0.0
  0
VERTEX
  5
3808
  8
L1
 10
47.311063197455837
 20
-61.311474337029381
 30
0.0
  0
VERTEX
  5
3809
  8
L1
 10
47.223110731772628
 20
-61.52311073177259
 30
0.0
  0
VERTEX
  5
380A
  8
L1
 10
47.01147433702954
 20
-61.611063197455913
 30
0.0
  0
SEQEND
  5
380B
  8
L1
  0
LINE
  5
2C07
  8
L1
 10
49.377091896450111
 20
-63.249999999999879
 30
0.0
 11
60.649999999999871
 21
-63.249999999999879
 31
0.0
  0
POLYLINE
  5
2C08
  8
L1
 66
     1
 10
0.0
 20
0.0
 30
0.0
  0
VERTEX
  5
380C
  8
L1
 10
60.004479642814999
 20
-50.350000000000144
 30
0.0
  0
VERTEX
  5
380D
  8
L1
 10
59.89335871737125
 20
-50.383705019846673
 30
0.0
  0
VERTEX
  5
380E
  8
L1
 10
59.81969112190211
 20
-50.473459795757769
 30
0.0
  0
VERTEX
  5
380F
  8
L1
 10
59.808306534080771
 20
-50.589012462699323
 30
0.0
  0
VERTEX
  5
3810
  8
L1
 10
59.863042131491852
 20
-50.691415971345521
 30
0.0
  0
SEQEND
  5
3811
  8
L1
  0
LINE
  5
2C09
  8
L1
 10
59.549999999999947
 20
-50.35000000000008
 30
0.0
 11
60.249999999999879
 21
-50.35000000000008
 31
0.0
  0
POLYLINE
  5
2C0A
  8
L1
 66
     1
 10
0.0
 20
0.0
 30
0.0
  0
VERTEX
  5
3812
  8
L1
 10
61.311474337029608
 20
-47.311063197456058
 30
0.0
  0
VERTEX
  5
3813
  8
L1
 10
61.311320366176567
 20
-47.311063434647849
 30
0.0
  0
VERTEX
  5
3814
  8
L1
 10
61.311166316218987
 20
-47.311063513711808
 30
0.0
  0
SEQEND
  5
3815
  8
L1
  0
POLYLINE
  5
2C0B
  8
L1
 66
     1
 10
0.0
 20
0.0
 30
0.0
  0
VERTEX
  5
3816
  8
L1
 10
61.611063197455913
 20
-47.01147433702954
 30
0.0
  0
VERTEX
  5
3817
  8
L1
 10
61.523110731772697
 20
-47.223110731772692
 30
0.0
  0
VERTEX
  5
3818
  8
L1
 10
61.311474337029487
 20
-47.311063197455937
 30
0.0
  0
SEQEND
  5
3819
  8
L1
  0
POLYLINE
  5
2C0C
  8
L1
 66
     1
 10
0.0
 20
0.0
 30
0.0
  0
VERTEX
  5
381A
  8
L1
 10
61.611063513711663
 20
-47.011166316219089
 30
0.0
  0
VERTEX
  5
381B
  8
L1
 10
61.611063434647797
 20
-47.011320366176619
 30
0.0
  0
VERTEX
  5
381C
  8
L1
 10
61.611063197455913
 20
-47.01147433702954
 30
0.0
  0
SEQEND
  5
381D
  8
L1
  0
LINE
  5
2C0D
  8
L1
 10
52.711063513711792
 20
-47.311063513711758
 30
0.0
 11
56.75
 21
-47.311063513711758
 31
0.0
  0
LINE
  5
2C0E
  8
L1
 10
56.749999999999893
 20
-50.35000000000008
 30
0.0
 11
59.549999999999947
 21
-50.35000000000008
 31
0.0
  0
LINE
  5
2C0F
  8
L1
 10
61.311166316218987
 20
-47.311063513711808
 30
0.0
 11
56.75
 21
-47.311063513711808
 31
0.0
  0
LINE
  5
2C10
  8
L1
 10
60.249999999999879
 20
-49.350000000000129
 30
0.0
 11
56.749999999999893
 21
-49.350000000000129
 31
0.0
  0
POLYLINE
  5
2C11
  8
L1
 66
     1
 10
0.0
 20
0.0
 30
0.0
  0
VERTEX
  5
381E
  8
L1
 10
51.110468916369541
 20
-49.181036322656041
 30
0.0
  0
VERTEX
  5
381F
  8
L1
 10
51.038951926870588
 20
-49.220457469659038
 30
0.0
  0
VERTEX
  5
3820
  8
L1
 10
50.923924853793771
 20
-49.240361597357833
 30
0.0
  0
VERTEX
  5
3821
  8
L1
 10
50.809966513259717
 20
-49.214833717261172
 30
0.0
  0
VERTEX
  5
3822
  8
L1
 10
50.738388551548042
 20
-49.170238538838703
 30
0.0
  0
SEQEND
  5
3823
  8
L1
  0
POLYLINE
  5
2C12
  8
L1
 66
     1
 10
0.0
 20
0.0
 30
0.0
  0
VERTEX
  5
3824
  8
L1
 10
49.170238538838468
 20
-50.738388551548319
 30
0.0
  0
VERTEX
  5
3825
  8
L1
 10
49.211718979547747
 20
-50.803151677826691
 30
0.0
  0
VERTEX
  5
3826
  8
L1
 10
49.240082371968363
 20
-50.916394018509493
 30
0.0
  0
VERTEX
  5
3827
  8
L1
 10
49.22222901554391
 20
-51.034228079221798
 30
0.0
  0
VERTEX
  5
3828
  8
L1
 10
49.181036322655807
 20
-51.110468916369818
 30
0.0
  0
SEQEND
  5
3829
  8
L1
  0
LINE
  5
2C13
  8
L1
 10
48.508163384265679
 20
-49.949358107518798
 30
0.0
 11
49.170238538838468
 21
-50.738388551548319
 31
0.0
  0
ARC
  5
2C14
  8
L1
 10
48.73797671720137
 20
-49.756521824612861
 30
0.0
 40
0.3
 50
135.0
 51
219.99999999999551
  0
LINE
  5
2C15
  8
L1
 10
49.544389790256673
 20
-48.525844682845673
 30
0.0
 11
48.525844682845438
 21
-49.544389790256901
 31
0.0
  0
LINE
  5
2C16
  8
L1
 10
50.738388551548042
 20
-49.170238538838703
 30
0.0
 11
49.949358107518613
 21
-48.508163384265941
 31
0.0
  0
ARC
  5
2C17
  8
L1
 10
49.756521824612719
 20
-48.737976717201633
 30
0.0
 40
0.3
 50
50.000000000001577
 51
134.99999999999881
  0
ARC
  5
2C18
  8
L1
 10
52.711063513711792
 20
-52.711063513711728
 30
0.0
 40
5.3999999999999986
 50
90.0
 51
180.0
  0
ARC
  5
2C19
  8
L1
 10
56.749999999999893
 20
-56.749999999999773
 30
0.0
 40
9.4389364862881635
 50
90.0
 51
126.6892900524452
  0
LINE
  5
2C1A
  8
L1
 10
50.349999999999909
 20
-59.550000000000068
 30
0.0
 11
50.349999999999909
 21
-56.750000000000107
 31
0.0
  0
ARC
  5
2C1B
  8
L1
 10
56.75
 20
-56.749999999999893
 30
0.0
 40
4.981314598045679
 50
87.351597658711981
 51
182.6484023412896
  0
ARC
  5
2C1C
  8
L1
 10
56.749999999999893
 20
-56.750000000000107
 30
0.0
 40
6.3999999999999941
 50
90.0
 51
180.0
  0
ARC
  5
2C1D
  8
L1
 10
56.749999999999893
 20
-56.750000000000107
 30
0.0
 40
7.4000000000000181
 50
90.0
 51
180.0
  0
LINE
  5
2C1E
  8
L1
 10
47.311063513711687
 20
-56.749999999999773
 30
0.0
 11
47.311063513711687
 21
-52.711063513711728
 31
0.0
  0
ARC
  5
2C1F
  8
L1
 10
56.749999999999893
 20
-56.749999999999773
 30
0.0
 40
9.4389364862881635
 50
143.31070994755811
 51
180.0
  0
LINE
  5
2C20
  8
L1
 10
56.980171017933912
 20
-51.774005986015652
 30
0.0
 11
61.725994013984291
 21
-56.519828982065967
 31
0.0
  0
LINE
  5
2C21
  8
L1
 10
47.311063513711687
 20
56.749999999999773
 30
0.0
 11
47.311063513711687
 21
52.711063513711728
 31
0.0
  0
POLYLINE
  5
2C22
  8
L1
 66
     1
 10
0.0
 20
0.0
 30
0.0
  0
VERTEX
  5
382A
  8
L1
 10
60.004479642814999
 20
50.350000000000144
 30
0.0
  0
VERTEX
  5
382B
  8
L1
 10
59.89335871737125
 20
50.383705019846673
 30
0.0
  0
VERTEX
  5
382C
  8
L1
 10
59.81969112190211
 20
50.473459795757769
 30
0.0
  0
VERTEX
  5
382D
  8
L1
 10
59.808306534080771
 20
50.589012462699323
 30
0.0
  0
VERTEX
  5
382E
  8
L1
 10
59.863042131491852
 20
50.691415971345521
 30
0.0
  0
SEQEND
  5
382F
  8
L1
  0
LINE
  5
2C23
  8
L1
 10
59.549999999999947
 20
50.35000000000008
 30
0.0
 11
60.249999999999879
 21
50.35000000000008
 31
0.0
  0
POLYLINE
  5
2C24
  8
L1
 66
     1
 10
0.0
 20
0.0
 30
0.0
  0
VERTEX
  5
3830
  8
L1
 10
61.311474337029608
 20
47.311063197456058
 30
0.0
  0
VERTEX
  5
3831
  8
L1
 10
61.311320366176567
 20
47.311063434647849
 30
0.0
  0
VERTEX
  5
3832
  8
L1
 10
61.311166316218987
 20
47.311063513711808
 30
0.0
  0
SEQEND
  5
3833
  8
L1
  0
POLYLINE
  5
2C25
  8
L1
 66
     1
 10
0.0
 20
0.0
 30
0.0
  0
VERTEX
  5
3834
  8
L1
 10
61.611063197455913
 20
47.01147433702954
 30
0.0
  0
VERTEX
  5
3835
  8
L1
 10
61.523110731772697
 20
47.223110731772692
 30
0.0
  0
VERTEX
  5
3836
  8
L1
 10
61.311474337029487
 20
47.311063197455937
 30
0.0
  0
SEQEND
  5
3837
  8
L1
  0
POLYLINE
  5
2C26
  8
L1
 66
     1
 10
0.0
 20
0.0
 30
0.0
  0
VERTEX
  5
3838
  8
L1
 10
61.611063513711663
 20
47.011166316219089
 30
0.0
  0
VERTEX
  5
3839
  8
L1
 10
61.611063434647797
 20
47.011320366176619
 30
0.0
  0
VERTEX
  5
383A
  8
L1
 10
61.611063197455913
 20
47.01147433702954
 30
0.0
  0
SEQEND
  5
383B
  8
L1
  0
LINE
  5
2C27
  8
L1
 10
52.711063513711792
 20
47.311063513711758
 30
0.0
 11
56.75
 21
47.311063513711758
 31
0.0
  0
LINE
  5
2C28
  8
L1
 10
56.749999999999893
 20
50.35000000000008
 30
0.0
 11
59.549999999999947
 21
50.35000000000008
 31
0.0
  0
LINE
  5
2C29
  8
L1
 10
61.311166316218987
 20
47.311063513711808
 30
0.0
 11
56.75
 21
47.311063513711808
 31
0.0
  0
LINE
  5
2C2A
  8
L1
 10
60.249999999999879
 20
49.350000000000129
 30
0.0
 11
56.749999999999893
 21
49.350000000000129
 31
0.0
  0
ARC
  5
2C2B
  8
L1
 10
49.756521824612719
 20
48.737976717201633
 30
0.0
 40
0.3
 50
225.00000000000111
 51
309.99999999999841
  0
ARC
  5
2C2C
  8
L1
 10
48.73797671720137
 20
49.756521824612861
 30
0.0
 40
0.3
 50
140.00000000000441
 51
225.0
  0
LINE
  5
2C2D
  8
L1
 10
49.544389790256673
 20
48.525844682845673
 30
0.0
 11
48.525844682845438
 21
49.544389790256901
 31
0.0
  0
LINE
  5
2C2E
  8
L1
 10
50.738388551548042
 20
49.170238538838703
 30
0.0
 11
49.949358107518613
 21
48.508163384265941
 31
0.0
  0
POLYLINE
  5
2C2F
  8
L1
 66
     1
 10
0.0
 20
0.0
 30
0.0
  0
VERTEX
  5
383C
  8
L1
 10
51.110468916369541
 20
49.181036322656041
 30
0.0
  0
VERTEX
  5
383D
  8
L1
 10
51.038951926870588
 20
49.220457469659038
 30
0.0
  0
VERTEX
  5
383E
  8
L1
 10
50.923924853793771
 20
49.240361597357833
 30
0.0
  0
VERTEX
  5
383F
  8
L1
 10
50.809966513259717
 20
49.214833717261172
 30
0.0
  0
VERTEX
  5
3840
  8
L1
 10
50.738388551548042
 20
49.170238538838703
 30
0.0
  0
SEQEND
  5
3841
  8
L1
  0
POLYLINE
  5
2C30
  8
L1
 66
     1
 10
0.0
 20
0.0
 30
0.0
  0
VERTEX
  5
3842
  8
L1
 10
49.170238538838468
 20
50.738388551548319
 30
0.0
  0
VERTEX
  5
3843
  8
L1
 10
49.211718979547747
 20
50.803151677826691
 30
0.0
  0
VERTEX
  5
3844
  8
L1
 10
49.240082371968363
 20
50.916394018509493
 30
0.0
  0
VERTEX
  5
3845
  8
L1
 10
49.22222901554391
 20
51.034228079221798
 30
0.0
  0
VERTEX
  5
3846
  8
L1
 10
49.181036322655807
 20
51.110468916369818
 30
0.0
  0
SEQEND
  5
3847
  8
L1
  0
LINE
  5
2C31
  8
L1
 10
48.508163384265679
 20
49.949358107518798
 30
0.0
 11
49.170238538838468
 21
50.738388551548319
 31
0.0
  0
ARC
  5
2C32
  8
L1
 10
56.749999999999893
 20
56.749999999999773
 30
0.0
 40
9.4389364862881635
 50
233.3107099475547
 51
270.0
  0
LINE
  5
2C33
  8
L1
 10
56.980171017933912
 20
51.774005986015652
 30
0.0
 11
61.725994013984291
 21
56.519828982065967
 31
0.0
  0
ARC
  5
2C34
  8
L1
 10
56.75
 20
56.749999999999893
 30
0.0
 40
4.981314598045679
 50
177.35159765871029
 51
272.64840234128792
  0
ARC
  5
2C35
  8
L1
 10
56.749999999999893
 20
56.750000000000107
 30
0.0
 40
6.3999999999999941
 50
180.0
 51
270.0
  0
ARC
  5
2C36
  8
L1
 10
52.711063513711792
 20
52.711063513711728
 30
0.0
 40
5.3999999999999986
 50
180.0
 51
270.0
  0
ARC
  5
2C37
  8
L1
 10
56.749999999999893
 20
56.749999999999773
 30
0.0
 40
9.4389364862881635
 50
180.0
 51
216.68929005244181
  0
ARC
  5
2C38
  8
L1
 10
56.749999999999893
 20
56.750000000000107
 30
0.0
 40
7.4000000000000181
 50
180.0
 51
270.0
  0
LINE
  5
2C39
  8
L1
 10
47.011166316219139
 20
61.61106351371177
 30
0.0
 11
-47.01116631621926
 21
61.61106351371177
 31
0.0
  0
LINE
  5
2C3A
  8
L1
 10
-61.51710075926826
 20
65.012304130909115
 30
0.0
 11
61.517100759268139
 21
65.012304130909115
 31
0.0
  0
LINE
  5
2C3B
  8
L1
 10
61.556999999999789
 20
64.29302410022467
 30
0.0
 11
-61.557000000000023
 21
64.29302410022467
 31
0.0
  0
LINE
  5
2C3C
  8
L1
 10
-47.150000000000091
 20
63.450000000000159
 30
0.0
 11
47.149999999999856
 21
63.450000000000159
 31
0.0
  0
LINE
  5
2C3D
  8
L1
 10
47.149999999999856
 20
62.450000000000159
 30
0.0
 11
-47.150000000000091
 21
62.450000000000159
 31
0.0
  0
POLYLINE
  5
2C3E
  8
L1
 66
     1
 10
0.0
 20
0.0
 30
0.0
  0
VERTEX
  5
3848
  8
L1
 10
-53.535452416031369
 20
62.833921234867148
 30
0.0
  0
VERTEX
  5
3849
  8
L1
 10
-53.448519035107431
 20
63.045125652203858
 30
0.0
  0
VERTEX
  5
384A
  8
L1
 10
-52.97131272779108
 20
63.249999999999879
 30
0.0
  0
SEQEND
  5
384B
  8
L1
  0
LINE
  5
2C3F
  8
L1
 10
-50.691415971345457
 20
59.863042131491511
 30
0.0
 11
-53.447575903962161
 21
62.619202064108201
 31
0.0
  0
LINE
  5
2C40
  8
L1
 10
-49.377091896450331
 20
63.249999999999879
 30
0.0
 11
-60.650000000000091
 21
63.249999999999879
 31
0.0
  0
POLYLINE
  5
2C41
  8
L1
 66
     1
 10
0.0
 20
0.0
 30
0.0
  0
VERTEX
  5
384C
  8
L1
 10
-53.535452416031369
 20
62.833921234867148
 30
0.0
  0
VERTEX
  5
384D
  8
L1
 10
-53.513110116762959
 20
62.717729786776431
 30
0.0
  0
VERTEX
  5
384E
  8
L1
 10
-53.447575903962161
 20
62.619202064108322
 30
0.0
  0
SEQEND
  5
384F
  8
L1
  0
ARC
  5
2C42
  8
L1
 10
-56.75000000000022
 20
56.749999999999893
 30
0.0
 40
4.981314598045679
 50
87.351597658711171
 51
112.8103011797165
  0
LINE
  5
2C43
  8
L1
 10
-58.681162626207197
 20
61.34174324585377
 30
0.0
 11
-60.589419380353213
 21
63.249999999999851
 31
0.0
  0
POLYLINE
  5
2C44
  8
L1
 66
     1
 10
0.0
 20
0.0
 30
0.0
  0
VERTEX
  5
3850
  8
L1
 10
-65.012088437774196
 20
61.557000000000023
 30
0.0
  0
VERTEX
  5
3851
  8
L1
 10
-65.012250207188913
 20
61.537048032038221
 30
0.0
  0
VERTEX
  5
3852
  8
L1
 10
-65.012304130909342
 20
61.517100759268139
 30
0.0
  0
SEQEND
  5
3853
  8
L1
  0
POLYLINE
  5
2C45
  8
L1
 66
     1
 10
0.0
 20
0.0
 30
0.0
  0
VERTEX
  5
3854
  8
L1
 10
-61.51710075926826
 20
65.012304130909115
 30
0.0
  0
VERTEX
  5
3855
  8
L1
 10
-61.537048032038342
 20
65.012250207188799
 30
0.0
  0
VERTEX
  5
3856
  8
L1
 10
-61.557000000000023
 20
65.012088437773969
 30
0.0
  0
SEQEND
  5
3857
  8
L1
  0
POLYLINE
  5
2C46
  8
L1
 66
     1
 10
0.0
 20
0.0
 30
0.0
  0
VERTEX
  5
3858
  8
L1
 10
-61.557000000000023
 20
65.012088437773969
 30
0.0
  0
VERTEX
  5
3859
  8
L1
 10
-62.218787602445438
 20
64.941714390114271
 30
0.0
  0
VERTEX
  5
385A
  8
L1
 10
-62.873772386241171
 20
64.739585002002386
 30
0.0
  0
VERTEX
  5
385B
  8
L1
 10
-63.47661923089629
 20
64.413440750186055
 30
0.0
  0
VERTEX
  5
385C
  8
L1
 10
-63.989929119073842
 20
63.989929119073508
 30
0.0
  0
VERTEX
  5
385D
  8
L1
 10
-64.413440750186282
 20
63.476619230895949
 30
0.0
  0
VERTEX
  5
385E
  8
L1
 10
-64.739585002002627
 20
62.87377238624083
 30
0.0
  0
VERTEX
  5
385F
  8
L1
 10
-64.941714390114484
 20
62.218787602445211
 30
0.0
  0
VERTEX
  5
3860
  8
L1
 10
-65.012088437774196
 20
61.557000000000023
 30
0.0
  0
SEQEND
  5
3861
  8
L1
  0
ARC
  5
2C47
  8
L1
 10
-61.55700000000013
 20
61.556999999999903
 30
0.0
 40
2.7360241002247609
 50
89.999999999999204
 51
179.99999999999829
  0
ARC
  5
2C48
  8
L1
 10
-60.650000000000091
 20
60.64999999999997
 30
0.0
 40
2.6000000000000001
 50
90.0
 51
180.0
  0
ARC
  5
2C49
  8
L1
 10
-56.75000000000022
 20
56.749999999999893
 30
0.0
 40
5.7825462644184809
 50
116.0136049375763
 51
153.98639506243629
  0
POLYLINE
  5
2C4A
  8
L1
 66
     1
 10
0.0
 20
0.0
 30
0.0
  0
VERTEX
  5
3862
  8
L1
 10
-50.691415971345457
 20
59.863042131491511
 30
0.0
  0
VERTEX
  5
3863
  8
L1
 10
-50.589012462699323
 20
59.80830653408043
 30
0.0
  0
VERTEX
  5
3864
  8
L1
 10
-50.473459795757769
 20
59.819691121901769
 30
0.0
  0
VERTEX
  5
3865
  8
L1
 10
-50.383705019846722
 20
59.893358717371029
 30
0.0
  0
VERTEX
  5
3866
  8
L1
 10
-50.350000000000144
 20
60.004479642814658
 30
0.0
  0
SEQEND
  5
3867
  8
L1
  0
LINE
  5
2C4B
  8
L1
 10
-50.350000000000144
 20
60.250000000000107
 30
0.0
 11
-50.350000000000144
 21
59.550000000000068
 31
0.0
  0
ARC
  5
2C4C
  8
L1
 10
-47.150000000000091
 20
60.250000000000107
 30
0.0
 40
3.2000000000000282
 50
129.51794668407669
 51
180.0
  0
POLYLINE
  5
2C4D
  8
L1
 66
     1
 10
0.0
 20
0.0
 30
0.0
  0
VERTEX
  5
3868
  8
L1
 10
-49.186223628980088
 20
62.71856098421415
 30
0.0
  0
VERTEX
  5
3869
  8
L1
 10
-49.17384351766713
 20
62.72935565190312
 30
0.0
  0
VERTEX
  5
386A
  8
L1
 10
-49.103958609463689
 20
62.825946878271111
 30
0.0
  0
VERTEX
  5
386B
  8
L1
 10
-49.077206794027923
 20
62.942117898779202
 30
0.0
  0
VERTEX
  5
386C
  8
L1
 10
-49.097803731254537
 20
63.059523694656711
 30
0.0
  0
VERTEX
  5
386D
  8
L1
 10
-49.162490882410559
 20
63.159634290681311
 30
0.0
  0
VERTEX
  5
386E
  8
L1
 10
-49.261058549746402
 20
63.22665280987848
 30
0.0
  0
VERTEX
  5
386F
  8
L1
 10
-49.369197628795398
 20
63.249896123664477
 30
0.0
  0
VERTEX
  5
3870
  8
L1
 10
-49.377091896450331
 20
63.249999999999879
 30
0.0
  0
SEQEND
  5
3871
  8
L1
  0
POLYLINE
  5
2C4E
  8
L1
 66
     1
 10
0.0
 20
0.0
 30
0.0
  0
VERTEX
  5
3872
  8
L1
 10
-47.011474337029988
 20
61.611063197456019
 30
0.0
  0
VERTEX
  5
3873
  8
L1
 10
-47.011320366177067
 20
61.61106343464791
 30
0.0
  0
VERTEX
  5
3874
  8
L1
 10
-47.011166316219366
 20
61.611063513711883
 30
0.0
  0
SEQEND
  5
3875
  8
L1
  0
POLYLINE
  5
2C4F
  8
L1
 66
     1
 10
0.0
 20
0.0
 30
0.0
  0
VERTEX
  5
3876
  8
L1
 10
-47.311063197456058
 20
61.311474337029381
 30
0.0
  0
VERTEX
  5
3877
  8
L1
 10
-47.223110731772863
 20
61.52311073177259
 30
0.0
  0
VERTEX
  5
3878
  8
L1
 10
-47.011474337029767
 20
61.611063197455913
 30
0.0
  0
SEQEND
  5
3879
  8
L1
  0
POLYLINE
  5
2C50
  8
L1
 66
     1
 10
0.0
 20
0.0
 30
0.0
  0
VERTEX
  5
387A
  8
L1
 10
-47.311063513712043
 20
61.311166316219207
 30
0.0
  0
VERTEX
  5
387B
  8
L1
 10
-47.311063434648183
 20
61.311320366176567
 30
0.0
  0
VERTEX
  5
387C
  8
L1
 10
-47.311063197456292
 20
61.311474337029487
 30
0.0
  0
SEQEND
  5
387D
  8
L1
  0
ARC
  5
2C51
  8
L1
 10
-47.150000000000091
 20
60.250000000000107
 30
0.0
 40
2.2000000000000051
 50
90.0
 51
180.0
  0
ARC
  5
2C52
  8
L1
 10
-47.150000000000091
 20
60.250000000000107
 30
0.0
 40
3.2000000000000282
 50
90.0
 51
129.51794668407669
  0
LINE
  5
2C53
  8
L1
 10
58.681162626206969
 20
61.34174324585377
 30
0.0
 11
60.589419380352979
 21
63.249999999999851
 31
0.0
  0
POLYLINE
  5
2C54
  8
L1
 66
     1
 10
0.0
 20
0.0
 30
0.0
  0
VERTEX
  5
387E
  8
L1
 10
61.517100759268033
 20
65.012304130909115
 30
0.0
  0
VERTEX
  5
387F
  8
L1
 10
61.537048032038122
 20
65.012250207188799
 30
0.0
  0
VERTEX
  5
3880
  8
L1
 10
61.556999999999789
 20
65.012088437773969
 30
0.0
  0
SEQEND
  5
3881
  8
L1
  0
POLYLINE
  5
2C55
  8
L1
 66
     1
 10
0.0
 20
0.0
 30
0.0
  0
VERTEX
  5
3882
  8
L1
 10
53.535452416031141
 20
62.833921234867148
 30
0.0
  0
VERTEX
  5
3883
  8
L1
 10
53.448519035107211
 20
63.045125652203858
 30
0.0
  0
VERTEX
  5
3884
  8
L1
 10
52.97131272779086
 20
63.249999999999879
 30
0.0
  0
SEQEND
  5
3885
  8
L1
  0
POLYLINE
  5
2C56
  8
L1
 66
     1
 10
0.0
 20
0.0
 30
0.0
  0
VERTEX
  5
3886
  8
L1
 10
53.535452416031141
 20
62.833921234867148
 30
0.0
  0
VERTEX
  5
3887
  8
L1
 10
53.513110116762732
 20
62.717729786776431
 30
0.0
  0
VERTEX
  5
3888
  8
L1
 10
53.447575903961933
 20
62.619202064108322
 30
0.0
  0
SEQEND
  5
3889
  8
L1
  0
ARC
  5
2C57
  8
L1
 10
56.75
 20
56.749999999999893
 30
0.0
 40
4.981314598045679
 50
67.189698820283397
 51
92.648402341288815
  0
POLYLINE
  5
2C58
  8
L1
 66
     1
 10
0.0
 20
0.0
 30
0.0
  0
VERTEX
  5
388A
  8
L1
 10
50.691415971345243
 20
59.863042131491511
 30
0.0
  0
VERTEX
  5
388B
  8
L1
 10
50.589012462699088
 20
59.80830653408043
 30
0.0
  0
VERTEX
  5
388C
  8
L1
 10
50.473459795757549
 20
59.819691121901769
 30
0.0
  0
VERTEX
  5
388D
  8
L1
 10
50.383705019846502
 20
59.893358717371029
 30
0.0
  0
VERTEX
  5
388E
  8
L1
 10
50.349999999999909
 20
60.004479642814658
 30
0.0
  0
SEQEND
  5
388F
  8
L1
  0
LINE
  5
2C59
  8
L1
 10
50.349999999999909
 20
60.250000000000107
 30
0.0
 11
50.349999999999909
 21
59.550000000000068
 31
0.0
  0
ARC
  5
2C5A
  8
L1
 10
47.149999999999856
 20
60.250000000000107
 30
0.0
 40
3.2000000000000282
 50
0.0
 51
50.482053315923309
  0
POLYLINE
  5
2C5B
  8
L1
 66
     1
 10
0.0
 20
0.0
 30
0.0
  0
VERTEX
  5
3890
  8
L1
 10
49.18622362897986
 20
62.71856098421415
 30
0.0
  0
VERTEX
  5
3891
  8
L1
 10
49.17384351766691
 20
62.72935565190312
 30
0.0
  0
VERTEX
  5
3892
  8
L1
 10
49.103958609463461
 20
62.825946878271111
 30
0.0
  0
VERTEX
  5
3893
  8
L1
 10
49.077206794027688
 20
62.942117898779202
 30
0.0
  0
VERTEX
  5
3894
  8
L1
 10
49.097803731254317
 20
63.059523694656711
 30
0.0
  0
VERTEX
  5
3895
  8
L1
 10
49.162490882410339
 20
63.159634290681311
 30
0.0
  0
VERTEX
  5
3896
  8
L1
 10
49.261058549746167
 20
63.22665280987848
 30
0.0
  0
VERTEX
  5
3897
  8
L1
 10
49.369197628795177
 20
63.249896123664477
 30
0.0
  0
VERTEX
  5
3898
  8
L1
 10
49.377091896450111
 20
63.249999999999879
 30
0.0
  0
SEQEND
  5
3899
  8
L1
  0
POLYLINE
  5
2C5C
  8
L1
 66
     1
 10
0.0
 20
0.0
 30
0.0
  0
VERTEX
  5
389A
  8
L1
 10
47.311063513711808
 20
61.311166316219207
 30
0.0
  0
VERTEX
  5
389B
  8
L1
 10
47.311063434647963
 20
61.311320366176567
 30
0.0
  0
VERTEX
  5
389C
  8
L1
 10
47.311063197456058
 20
61.311474337029487
 30
0.0
  0
SEQEND
  5
389D
  8
L1
  0
ARC
  5
2C5D
  8
L1
 10
47.149999999999856
 20
60.250000000000107
 30
0.0
 40
2.2000000000000051
 50
0.0
 51
90.0
  0
ARC
  5
2C5E
  8
L1
 10
47.149999999999856
 20
60.250000000000107
 30
0.0
 40
3.2000000000000282
 50
50.482053315923309
 51
90.0
  0
POLYLINE
  5
2C5F
  8
L1
 66
     1
 10
0.0
 20
0.0
 30
0.0
  0
VERTEX
  5
389E
  8
L1
 10
47.011474337029767
 20
61.611063197456019
 30
0.0
  0
VERTEX
  5
389F
  8
L1
 10
47.011320366176847
 20
61.61106343464791
 30
0.0
  0
VERTEX
  5
38A0
  8
L1
 10
47.011166316219139
 20
61.611063513711883
 30
0.0
  0
SEQEND
  5
38A1
  8
L1
  0
POLYLINE
  5
2C60
  8
L1
 66
     1
 10
0.0
 20
0.0
 30
0.0
  0
VERTEX
  5
38A2
  8
L1
 10
47.311063197455837
 20
61.311474337029381
 30
0.0
  0
VERTEX
  5
38A3
  8
L1
 10
47.223110731772628
 20
61.52311073177259
 30
0.0
  0
VERTEX
  5
38A4
  8
L1
 10
47.01147433702954
 20
61.611063197455913
 30
0.0
  0
SEQEND
  5
38A5
  8
L1
  0
LINE
  5
2C61
  8
L1
 10
50.691415971345243
 20
59.863042131491511
 30
0.0
 11
53.447575903961933
 21
62.619202064108201
 31
0.0
  0
LINE
  5
2C62
  8
L1
 10
49.377091896450111
 20
63.249999999999879
 30
0.0
 11
60.649999999999871
 21
63.249999999999879
 31
0.0
  0
LINE
  5
2C63
  8
L1
 10
63.249999999999879
 20
60.64999999999997
 30
0.0
 11
63.249999999999879
 21
49.377091896450047
 31
0.0
  0
LINE
  5
2C64
  8
L1
 10
65.012304130909115
 20
61.517100759268139
 30
0.0
 11
65.012304130909115
 21
-61.517100759268139
 31
0.0
  0
LINE
  5
2C65
  8
L1
 10
64.293024100224557
 20
-61.556999999999903
 30
0.0
 11
64.29302410022467
 21
61.557000000000023
 31
0.0
  0
LINE
  5
2C66
  8
L1
 10
62.450000000000038
 20
-47.150000000000027
 30
0.0
 11
62.450000000000038
 21
47.149999999999977
 31
0.0
  0
LINE
  5
2C67
  8
L1
 10
63.450000000000053
 20
47.149999999999977
 30
0.0
 11
63.450000000000053
 21
-47.150000000000027
 31
0.0
  0
LINE
  5
2C68
  8
L1
 10
63.249999999999879
 20
-60.64999999999997
 30
0.0
 11
63.249999999999879
 21
-49.377091896450047
 31
0.0
  0
POLYLINE
  5
2C69
  8
L1
 66
     1
 10
0.0
 20
0.0
 30
0.0
  0
VERTEX
  5
38A6
  8
L1
 10
65.012088437773969
 20
-61.557000000000023
 30
0.0
  0
VERTEX
  5
38A7
  8
L1
 10
65.012250207188686
 20
-61.537048032038221
 30
0.0
  0
VERTEX
  5
38A8
  8
L1
 10
65.012304130909115
 20
-61.517100759268139
 30
0.0
  0
SEQEND
  5
38A9
  8
L1
  0
POLYLINE
  5
2C6A
  8
L1
 66
     1
 10
0.0
 20
0.0
 30
0.0
  0
VERTEX
  5
38AA
  8
L1
 10
63.249999999999879
 20
-49.377091896449997
 30
0.0
  0
VERTEX
  5
38AB
  8
L1
 10
63.249665853890519
 20
-49.362935981079261
 30
0.0
  0
VERTEX
  5
38AC
  8
L1
 10
63.220498558824367
 20
-49.247357170977011
 30
0.0
  0
VERTEX
  5
38AD
  8
L1
 10
63.150500120321908
 20
-49.15393353044135
 30
0.0
  0
VERTEX
  5
38AE
  8
L1
 10
63.050145711961591
 20
-49.094306063786171
 30
0.0
  0
VERTEX
  5
38AF
  8
L1
 10
62.934625847030922
 20
-49.077497830101493
 30
0.0
  0
VERTEX
  5
38B0
  8
L1
 10
62.819158861112101
 20
-49.107144549515233
 30
0.0
  0
VERTEX
  5
38B1
  8
L1
 10
62.726831995302859
 20
-49.176617298745207
 30
0.0
  0
VERTEX
  5
38B2
  8
L1
 10
62.71856098421415
 20
-49.18622362897986
 30
0.0
  0
SEQEND
  5
38B3
  8
L1
  0
ARC
  5
2C6B
  8
L1
 10
60.249999999999879
 20
-47.149999999999977
 30
0.0
 40
3.200000000000113
 50
320.48205331592487
 51
0.0
  0
POLYLINE
  5
2C6C
  8
L1
 66
     1
 10
0.0
 20
0.0
 30
0.0
  0
VERTEX
  5
38B4
  8
L1
 10
62.619202064108201
 20
-53.44757590396199
 30
0.0
  0
VERTEX
  5
38B5
  8
L1
 10
62.71772978677631
 20
-53.513110116762732
 30
0.0
  0
VERTEX
  5
38B6
  8
L1
 10
62.833921234867148
 20
-53.535452416031212
 30
0.0
  0
SEQEND
  5
38B7
  8
L1
  0
POLYLINE
  5
2C6D
  8
L1
 66
     1
 10
0.0
 20
0.0
 30
0.0
  0
VERTEX
  5
38B8
  8
L1
 10
63.249999999999773
 20
-52.971312727791108
 30
0.0
  0
VERTEX
  5
38B9
  8
L1
 10
63.045125652203858
 20
-53.44851903510726
 30
0.0
  0
VERTEX
  5
38BA
  8
L1
 10
62.833921234867148
 20
-53.535452416031212
 30
0.0
  0
SEQEND
  5
38BB
  8
L1
  0
POLYLINE
  5
2C6E
  8
L1
 66
     1
 10
0.0
 20
0.0
 30
0.0
  0
VERTEX
  5
38BC
  8
L1
 10
62.619202064108201
 20
53.44757590396199
 30
0.0
  0
VERTEX
  5
38BD
  8
L1
 10
62.71772978677631
 20
53.513110116762732
 30
0.0
  0
VERTEX
  5
38BE
  8
L1
 10
62.833921234867148
 20
53.535452416031212
 30
0.0
  0
SEQEND
  5
38BF
  8
L1
  0
POLYLINE
  5
2C6F
  8
L1
 66
     1
 10
0.0
 20
0.0
 30
0.0
  0
VERTEX
  5
38C0
  8
L1
 10
63.249999999999773
 20
52.971312727791108
 30
0.0
  0
VERTEX
  5
38C1
  8
L1
 10
63.045125652203858
 20
53.44851903510726
 30
0.0
  0
VERTEX
  5
38C2
  8
L1
 10
62.833921234867148
 20
53.535452416031212
 30
0.0
  0
SEQEND
  5
38C3
  8
L1
  0
POLYLINE
  5
2C70
  8
L1
 66
     1
 10
0.0
 20
0.0
 30
0.0
  0
VERTEX
  5
38C4
  8
L1
 10
63.249999999999879
 20
49.377091896449997
 30
0.0
  0
VERTEX
  5
38C5
  8
L1
 10
63.249665853890519
 20
49.362935981079261
 30
0.0
  0
VERTEX
  5
38C6
  8
L1
 10
63.220498558824367
 20
49.247357170977011
 30
0.0
  0
VERTEX
  5
38C7
  8
L1
 10
63.150500120321908
 20
49.15393353044135
 30
0.0
  0
VERTEX
  5
38C8
  8
L1
 10
63.050145711961591
 20
49.094306063786171
 30
0.0
  0
VERTEX
  5
38C9
  8
L1
 10
62.934625847030922
 20
49.077497830101493
 30
0.0
  0
VERTEX
  5
38CA
  8
L1
 10
62.819158861112101
 20
49.107144549515233
 30
0.0
  0
VERTEX
  5
38CB
  8
L1
 10
62.726831995302859
 20
49.176617298745207
 30
0.0
  0
VERTEX
  5
38CC
  8
L1
 10
62.71856098421415
 20
49.18622362897986
 30
0.0
  0
SEQEND
  5
38CD
  8
L1
  0
ARC
  5
2C71
  8
L1
 10
60.249999999999879
 20
47.149999999999977
 30
0.0
 40
3.200000000000113
 50
0.0
 51
39.517946684075028
  0
POLYLINE
  5
2C72
  8
L1
 66
     1
 10
0.0
 20
0.0
 30
0.0
  0
VERTEX
  5
38CE
  8
L1
 10
65.012088437773969
 20
61.557000000000023
 30
0.0
  0
VERTEX
  5
38CF
  8
L1
 10
65.012250207188686
 20
61.537048032038221
 30
0.0
  0
VERTEX
  5
38D0
  8
L1
 10
65.012304130909115
 20
61.517100759268139
 30
0.0
  0
SEQEND
  5
38D1
  8
L1
  0
ENDBLK
  5
2B70
  8
0
  0
BLOCK
  8
0
  2
T
 70
     0
 10
0.0
 20
0.0
 30
0.0
  3
T
  1

  0
POLYLINE
  5
2C77
  8
L1
 66
     1
 10
0.0
 20
0.0
 30
0.0
  0
VERTEX
  5
38D3
  8
L1
 10
-47.694575012660493
 20
60.209448876169567
 30
0.0
  0
VERTEX
  5
38D4
  8
L1
 10
-47.626007965892477
 20
60.464535195819387
 30
0.0
  0
VERTEX
  5
38D5
  8
L1
 10
-47.485917548022648
 20
60.784367596849329
 30
0.0
  0
VERTEX
  5
38D6
  8
L1
 10
-47.293394107578131
 20
61.076768389670747
 30
0.0
  0
VERTEX
  5
38D7
  8
L1
 10
-47.049744330121598
 20
61.33717089796113
 30
0.0
  0
VERTEX
  5
38D8
  8
L1
 10
-46.770281178530013
 20
61.549061621128942
 30
0.0
  0
VERTEX
  5
38D9
  8
L1
 10
-46.491390218655958
 20
61.697004589372057
 30
0.0
  0
SEQEND
  5
38DA
  8
L1
  0
POLYLINE
  5
2C78
  8
L1
 66
     1
 10
0.0
 20
0.0
 30
0.0
  0
VERTEX
  5
38DB
  8
L1
 10
-46.942807936883071
 20
63.046020077463197
 30
0.0
  0
VERTEX
  5
38DC
  8
L1
 10
-47.138793878666092
 20
63.036460786463287
 30
0.0
  0
VERTEX
  5
38DD
  8
L1
 10
-47.332841029957592
 20
63.007767597682403
 30
0.0
  0
VERTEX
  5
38DE
  8
L1
 10
-47.523087117041086
 20
62.96021588012718
 30
0.0
  0
VERTEX
  5
38DF
  8
L1
 10
-47.707706345075962
 20
62.894261988416588
 30
0.0
  0
VERTEX
  5
38E0
  8
L1
 10
-47.884926920280968
 20
62.810538883138911
 30
0.0
  0
VERTEX
  5
38E1
  8
L1
 10
-48.053048053868281
 20
62.709850056318537
 30
0.0
  0
VERTEX
  5
38E2
  8
L1
 10
-48.210456284541522
 20
62.593161820289822
 30
0.0
  0
VERTEX
  5
38E3
  8
L1
 10
-48.35564096291062
 20
62.461594033981612
 30
0.0
  0
VERTEX
  5
38E4
  8
L1
 10
-48.487208749218837
 20
62.316409355612507
 30
0.0
  0
VERTEX
  5
38E5
  8
L1
 10
-48.603896985247552
 20
62.159001124939259
 30
0.0
  0
VERTEX
  5
38E6
  8
L1
 10
-48.704585812067933
 20
61.99087999135196
 30
0.0
  0
VERTEX
  5
38E7
  8
L1
 10
-48.788308917345653
 20
61.813659416146891
 30
0.0
  0
VERTEX
  5
38E8
  8
L1
 10
-48.854262809056188
 20
61.629040188111958
 30
0.0
  0
VERTEX
  5
38E9
  8
L1
 10
-48.901814526611417
 20
61.438794101028464
 30
0.0
  0
VERTEX
  5
38EA
  8
L1
 10
-48.930507715392359
 20
61.244746949737021
 30
0.0
  0
VERTEX
  5
38EB
  8
L1
 10
-48.940067006392269
 20
61.048761007953999
 30
0.0
  0
SEQEND
  5
38EC
  8
L1
  0
POLYLINE
  5
2C79
  8
L1
 66
     1
 10
0.0
 20
0.0
 30
0.0
  0
VERTEX
  5
38ED
  8
L1
 10
-45.753531830061434
 20
58.410487068577311
 30
0.0
  0
VERTEX
  5
38EE
  8
L1
 10
-45.753386952883943
 20
56.424044178209158
 30
0.0
  0
VERTEX
  5
38EF
  8
L1
 10
-45.753308807014207
 20
55.487013311033131
 30
0.0
  0
VERTEX
  5
38F0
  8
L1
 10
-45.753270396568432
 20
55.047205250548068
 30
0.0
  0
VERTEX
  5
38F1
  8
L1
 10
-45.753233223709117
 20
54.632120097312573
 30
0.0
  0
VERTEX
  5
38F2
  8
L1
 10
-45.753197885382178
 20
54.245946345212928
 30
0.0
  0
VERTEX
  5
38F3
  8
L1
 10
-45.753164978532709
 20
53.892872488134913
 30
0.0
  0
VERTEX
  5
38F4
  8
L1
 10
-45.753135100106647
 20
53.577087019964488
 30
0.0
  0
VERTEX
  5
38F5
  8
L1
 10
-45.75310884704902
 20
53.302778434587538
 30
0.0
  0
VERTEX
  5
38F6
  8
L1
 10
-45.753086816305647
 20
53.074135225890082
 30
0.0
  0
VERTEX
  5
38F7
  8
L1
 10
-45.753069604821967
 20
52.895345887758083
 30
0.0
  0
VERTEX
  5
38F8
  8
L1
 10
-45.753057809543179
 20
52.770598914077198
 30
0.0
  0
VERTEX
  5
38F9
  8
L1
 10
-45.753052027415322
 20
52.70408279873368
 30
0.0
  0
VERTEX
  5
38FA
  8
L1
 10
-45.753177495457912
 20
52.078441932290161
 30
0.0
  0
VERTEX
  5
38FB
  8
L1
 10
-45.753970694560728
 20
51.410841712885031
 30
0.0
  0
VERTEX
  5
38FC
  8
L1
 10
-45.755930900025582
 20
50.755722706520828
 30
0.0
  0
VERTEX
  5
38FD
  8
L1
 10
-45.757504653675539
 20
50.449856335104698
 30
0.0
  0
VERTEX
  5
38FE
  8
L1
 10
-45.759557387154068
 20
50.16752547919981
 30
0.0
  0
VERTEX
  5
38FF
  8
L1
 10
-45.761354794898352
 20
49.983564951782789
 30
0.0
  0
VERTEX
  5
3900
  8
L1
 10
-45.763332052487378
 20
49.820371722467883
 30
0.0
  0
VERTEX
  5
3901
  8
L1
 10
-45.767557312440204
 20
49.542925355462273
 30
0.0
  0
VERTEX
  5
3902
  8
L1
 10
-45.775209178122573
 20
49.090260369176058
 30
0.0
  0
VERTEX
  5
3903
  8
L1
 10
-45.777423035071926
 20
48.902124195728042
 30
0.0
  0
VERTEX
  5
3904
  8
L1
 10
-45.778661992835559
 20
48.742204118335231
 30
0.0
  0
VERTEX
  5
3905
  8
L1
 10
-45.77957052045258
 20
48.486914580232572
 30
0.0
  0
VERTEX
  5
3906
  8
L1
 10
-45.7845971915741
 20
48.093854270388249
 30
0.0
  0
VERTEX
  5
3907
  8
L1
 10
-45.800003366940359
 20
47.807914022364741
 30
0.0
  0
VERTEX
  5
3908
  8
L1
 10
-45.828914853896201
 20
47.557492392563461
 30
0.0
  0
VERTEX
  5
3909
  8
L1
 10
-45.874688493096812
 20
47.333464485976663
 30
0.0
  0
VERTEX
  5
390A
  8
L1
 10
-45.940681125197329
 20
47.126705407596091
 30
0.0
  0
VERTEX
  5
390B
  8
L1
 10
-46.11777948236886
 20
46.775584834541569
 30
0.0
  0
VERTEX
  5
390C
  8
L1
 10
-46.343988616445408
 20
46.479007602452207
 30
0.0
  0
VERTEX
  5
390D
  8
L1
 10
-46.511696085540393
 20
46.315139309370181
 30
0.0
  0
VERTEX
  5
390E
  8
L1
 10
-46.677128723978228
 20
46.185193105712408
 30
0.0
  0
VERTEX
  5
390F
  8
L1
 10
-46.832707005165673
 20
46.08541004052006
 30
0.0
  0
VERTEX
  5
3910
  8
L1
 10
-46.970851402509417
 20
46.012031162834212
 30
0.0
  0
VERTEX
  5
3911
  8
L1
 10
-47.307335435830339
 20
45.886681489540528
 30
0.0
  0
VERTEX
  5
3912
  8
L1
 10
-47.674842112126377
 20
45.818957548941448
 30
0.0
  0
VERTEX
  5
3913
  8
L1
 10
-48.26381588076287
 20
45.785612236198681
 30
0.0
  0
VERTEX
  5
3914
  8
L1
 10
-48.43366008529528
 20
45.784139765980797
 30
0.0
  0
VERTEX
  5
3915
  8
L1
 10
-48.625486371482218
 20
45.783302126209492
 30
0.0
  0
VERTEX
  5
3916
  8
L1
 10
-48.84576562767603
 20
45.782043960514038
 30
0.0
  0
VERTEX
  5
3917
  8
L1
 10
-49.100968742229327
 20
45.779309912524411
 30
0.0
  0
VERTEX
  5
3918
  8
L1
 10
-49.62253616490954
 20
45.769918280977492
 30
0.0
  0
VERTEX
  5
3919
  8
L1
 10
-49.948703579785622
 20
45.764616808163673
 30
0.0
  0
VERTEX
  5
391A
  8
L1
 10
-50.143710039649591
 20
45.762153585896087
 30
0.0
  0
VERTEX
  5
391B
  8
L1
 10
-50.365932363622733
 20
45.759944488635597
 30
0.0
  0
VERTEX
  5
391C
  8
L1
 10
-50.785761146631209
 20
45.756888727032617
 30
0.0
  0
VERTEX
  5
391D
  8
L1
 10
-51.252831452857102
 20
45.754802571812199
 30
0.0
  0
VERTEX
  5
391E
  8
L1
 10
-51.52284907529377
 20
45.754071989326512
 30
0.0
  0
VERTEX
  5
391F
  8
L1
 10
-51.827197356275633
 20
45.753522479713872
 30
0.0
  0
VERTEX
  5
3920
  8
L1
 10
-52.173383055049499
 20
45.753133600066633
 30
0.0
  0
VERTEX
  5
3921
  8
L1
 10
-52.568912930862261
 20
45.752884907477089
 30
0.0
  0
VERTEX
  5
3922
  8
L1
 10
-53.02129374296095
 20
45.752755959037977
 30
0.0
  0
VERTEX
  5
3923
  8
L1
 10
-53.538032250592209
 20
45.752726311841514
 30
0.0
  0
VERTEX
  5
3924
  8
L1
 10
-54.126635213003283
 20
45.752775522980237
 30
0.0
  0
VERTEX
  5
3925
  8
L1
 10
-54.450231727015932
 20
45.752823312016787
 30
0.0
  0
VERTEX
  5
3926
  8
L1
 10
-54.794609389441
 20
45.752883149546683
 30
0.0
  0
VERTEX
  5
3927
  8
L1
 10
-55.160706545184333
 20
45.752952480206538
 30
0.0
  0
VERTEX
  5
3928
  8
L1
 10
-55.549461539152162
 20
45.753028748633078
 30
0.0
  0
VERTEX
  5
3929
  8
L1
 10
-55.961812716249938
 20
45.753109399462737
 30
0.0
  0
VERTEX
  5
392A
  8
L1
 10
-56.398698421383749
 20
45.753191877332078
 30
0.0
  0
VERTEX
  5
392B
  8
L1
 10
-56.861056999459322
 20
45.753273626877672
 30
0.0
  0
VERTEX
  5
392C
  8
L1
 10
-57.349826795382619
 20
45.753352092735888
 30
0.0
  0
VERTEX
  5
392D
  8
L1
 10
-57.865946154059593
 20
45.753424719543709
 30
0.0
  0
VERTEX
  5
392E
  8
L1
 10
-58.410353420395893
 20
45.753488951937292
 30
0.0
  0
SEQEND
  5
392F
  8
L1
  0
LINE
  5
2C7A
  8
L6
 10
-71.391648896809556
 20
0.0
 30
0.0
 11
71.391648896809556
 21
0.0
 31
0.0
  0
LINE
  5
2C7B
  8
L1
 10
60.170682693037911
 20
63.665886064679057
 30
0.0
 11
-60.170682693037982
 21
63.665886064679
 31
0.0
  0
LINE
  5
2C7C
  8
L1
 10
61.517100759268089
 20
65.012304130909172
 30
0.0
 11
-61.517100759268139
 21
65.012304130909172
 31
0.0
  0
POLYLINE
  5
2C7D
  8
L1
 66
     1
 10
0.0
 20
0.0
 30
0.0
  0
VERTEX
  5
3930
  8
L1
 10
-47.694575012660493
 20
-60.209448876169631
 30
0.0
  0
VERTEX
  5
3931
  8
L1
 10
-47.626007965892477
 20
-60.464535195819451
 30
0.0
  0
VERTEX
  5
3932
  8
L1
 10
-47.485917548022648
 20
-60.784367596849393
 30
0.0
  0
VERTEX
  5
3933
  8
L1
 10
-47.293394107578131
 20
-61.076768389670796
 30
0.0
  0
VERTEX
  5
3934
  8
L1
 10
-47.049744330121598
 20
-61.33717089796118
 30
0.0
  0
VERTEX
  5
3935
  8
L1
 10
-46.770281178530013
 20
-61.549061621128999
 30
0.0
  0
VERTEX
  5
3936
  8
L1
 10
-46.491390218655958
 20
-61.697004589372114
 30
0.0
  0
SEQEND
  5
3937
  8
L1
  0
POLYLINE
  5
2C7E
  8
L1
 66
     1
 10
0.0
 20
0.0
 30
0.0
  0
VERTEX
  5
3938
  8
L1
 10
-46.942807936883071
 20
-63.046020077463247
 30
0.0
  0
VERTEX
  5
3939
  8
L1
 10
-47.138793878666092
 20
-63.036460786463351
 30
0.0
  0
VERTEX
  5
393A
  8
L1
 10
-47.332841029957592
 20
-63.007767597682459
 30
0.0
  0
VERTEX
  5
393B
  8
L1
 10
-47.523087117041086
 20
-62.960215880127237
 30
0.0
  0
VERTEX
  5
393C
  8
L1
 10
-47.707706345075962
 20
-62.894261988416638
 30
0.0
  0
VERTEX
  5
393D
  8
L1
 10
-47.884926920280968
 20
-62.810538883138967
 30
0.0
  0
VERTEX
  5
393E
  8
L1
 10
-48.053048053868281
 20
-62.709850056318601
 30
0.0
  0
VERTEX
  5
393F
  8
L1
 10
-48.210456284541522
 20
-62.593161820289879
 30
0.0
  0
VERTEX
  5
3940
  8
L1
 10
-48.35564096291062
 20
-62.461594033981662
 30
0.0
  0
VERTEX
  5
3941
  8
L1
 10
-48.487208749218837
 20
-62.316409355612556
 30
0.0
  0
VERTEX
  5
3942
  8
L1
 10
-48.603896985247552
 20
-62.159001124939323
 30
0.0
  0
VERTEX
  5
3943
  8
L1
 10
-48.704585812067933
 20
-61.99087999135201
 30
0.0
  0
VERTEX
  5
3944
  8
L1
 10
-48.788308917345653
 20
-61.813659416146947
 30
0.0
  0
VERTEX
  5
3945
  8
L1
 10
-48.854262809056188
 20
-61.629040188112008
 30
0.0
  0
VERTEX
  5
3946
  8
L1
 10
-48.901814526611417
 20
-61.43879410102852
 30
0.0
  0
VERTEX
  5
3947
  8
L1
 10
-48.930507715392359
 20
-61.244746949737078
 30
0.0
  0
VERTEX
  5
3948
  8
L1
 10
-48.940067006392269
 20
-61.048761007954049
 30
0.0
  0
SEQEND
  5
3949
  8
L1
  0
POLYLINE
  5
2C7F
  8
L1
 66
     1
 10
0.0
 20
0.0
 30
0.0
  0
VERTEX
  5
394A
  8
L1
 10
-45.753531830061434
 20
-58.410487068577368
 30
0.0
  0
VERTEX
  5
394B
  8
L1
 10
-45.753386952883943
 20
-56.424044178209208
 30
0.0
  0
VERTEX
  5
394C
  8
L1
 10
-45.753308807014207
 20
-55.487013311033202
 30
0.0
  0
VERTEX
  5
394D
  8
L1
 10
-45.753270396568432
 20
-55.047205250548132
 30
0.0
  0
VERTEX
  5
394E
  8
L1
 10
-45.753233223709117
 20
-54.632120097312622
 30
0.0
  0
VERTEX
  5
394F
  8
L1
 10
-45.753197885382178
 20
-54.245946345212978
 30
0.0
  0
VERTEX
  5
3950
  8
L1
 10
-45.753164978532709
 20
-53.892872488134969
 30
0.0
  0
VERTEX
  5
3951
  8
L1
 10
-45.753135100106647
 20
-53.577087019964551
 30
0.0
  0
VERTEX
  5
3952
  8
L1
 10
-45.75310884704902
 20
-53.302778434587587
 30
0.0
  0
VERTEX
  5
3953
  8
L1
 10
-45.753086816305647
 20
-53.074135225890132
 30
0.0
  0
VERTEX
  5
3954
  8
L1
 10
-45.753069604821967
 20
-52.89534588775814
 30
0.0
  0
VERTEX
  5
3955
  8
L1
 10
-45.753057809543179
 20
-52.770598914077247
 30
0.0
  0
VERTEX
  5
3956
  8
L1
 10
-45.753052027415322
 20
-52.704082798733737
 30
0.0
  0
VERTEX
  5
3957
  8
L1
 10
-45.753177495457912
 20
-52.078441932290211
 30
0.0
  0
VERTEX
  5
3958
  8
L1
 10
-45.753970694560728
 20
-51.41084171288508
 30
0.0
  0
VERTEX
  5
3959
  8
L1
 10
-45.755930900025582
 20
-50.755722706520878
 30
0.0
  0
VERTEX
  5
395A
  8
L1
 10
-45.757504653675539
 20
-50.449856335104748
 30
0.0
  0
VERTEX
  5
395B
  8
L1
 10
-45.759557387154068
 20
-50.167525479199867
 30
0.0
  0
VERTEX
  5
395C
  8
L1
 10
-45.761354794898352
 20
-49.983564951782853
 30
0.0
  0
VERTEX
  5
395D
  8
L1
 10
-45.763332052487378
 20
-49.820371722467939
 30
0.0
  0
VERTEX
  5
395E
  8
L1
 10
-45.767557312440204
 20
-49.54292535546233
 30
0.0
  0
VERTEX
  5
395F
  8
L1
 10
-45.775209178122573
 20
-49.090260369176121
 30
0.0
  0
VERTEX
  5
3960
  8
L1
 10
-45.777423035071926
 20
-48.902124195728113
 30
0.0
  0
VERTEX
  5
3961
  8
L1
 10
-45.778661992835559
 20
-48.74220411833528
 30
0.0
  0
VERTEX
  5
3962
  8
L1
 10
-45.77957052045258
 20
-48.486914580232622
 30
0.0
  0
VERTEX
  5
3963
  8
L1
 10
-45.7845971915741
 20
-48.093854270388299
 30
0.0
  0
VERTEX
  5
3964
  8
L1
 10
-45.800003366940359
 20
-47.807914022364798
 30
0.0
  0
VERTEX
  5
3965
  8
L1
 10
-45.828914853896201
 20
-47.557492392563518
 30
0.0
  0
VERTEX
  5
3966
  8
L1
 10
-45.874688493096812
 20
-47.333464485976712
 30
0.0
  0
VERTEX
  5
3967
  8
L1
 10
-45.940681125197329
 20
-47.126705407596148
 30
0.0
  0
VERTEX
  5
3968
  8
L1
 10
-46.11777948236886
 20
-46.775584834541633
 30
0.0
  0
VERTEX
  5
3969
  8
L1
 10
-46.343988616445408
 20
-46.47900760245227
 30
0.0
  0
VERTEX
  5
396A
  8
L1
 10
-46.511696085540393
 20
-46.315139309370238
 30
0.0
  0
VERTEX
  5
396B
  8
L1
 10
-46.677128723978228
 20
-46.185193105712457
 30
0.0
  0
VERTEX
  5
396C
  8
L1
 10
-46.832707005165673
 20
-46.085410040520109
 30
0.0
  0
VERTEX
  5
396D
  8
L1
 10
-46.970851402509417
 20
-46.012031162834262
 30
0.0
  0
VERTEX
  5
396E
  8
L1
 10
-47.307335435830339
 20
-45.886681489540592
 30
0.0
  0
VERTEX
  5
396F
  8
L1
 10
-47.674842112126377
 20
-45.818957548941512
 30
0.0
  0
VERTEX
  5
3970
  8
L1
 10
-48.26381588076287
 20
-45.785612236198737
 30
0.0
  0
VERTEX
  5
3971
  8
L1
 10
-48.43366008529528
 20
-45.784139765980846
 30
0.0
  0
VERTEX
  5
3972
  8
L1
 10
-48.625486371482218
 20
-45.783302126209541
 30
0.0
  0
VERTEX
  5
3973
  8
L1
 10
-48.84576562767603
 20
-45.782043960514102
 30
0.0
  0
VERTEX
  5
3974
  8
L1
 10
-49.100968742229327
 20
-45.779309912524461
 30
0.0
  0
VERTEX
  5
3975
  8
L1
 10
-49.62253616490954
 20
-45.769918280977549
 30
0.0
  0
VERTEX
  5
3976
  8
L1
 10
-49.948703579785622
 20
-45.764616808163737
 30
0.0
  0
VERTEX
  5
3977
  8
L1
 10
-50.143710039649591
 20
-45.762153585896158
 30
0.0
  0
VERTEX
  5
3978
  8
L1
 10
-50.365932363622733
 20
-45.759944488635647
 30
0.0
  0
VERTEX
  5
3979
  8
L1
 10
-50.785761146631209
 20
-45.756888727032667
 30
0.0
  0
VERTEX
  5
397A
  8
L1
 10
-51.252831452857102
 20
-45.754802571812263
 30
0.0
  0
VERTEX
  5
397B
  8
L1
 10
-51.52284907529377
 20
-45.754071989326583
 30
0.0
  0
VERTEX
  5
397C
  8
L1
 10
-51.827197356275633
 20
-45.753522479713922
 30
0.0
  0
VERTEX
  5
397D
  8
L1
 10
-52.173383055049499
 20
-45.75313360006669
 30
0.0
  0
VERTEX
  5
397E
  8
L1
 10
-52.568912930862261
 20
-45.752884907477153
 30
0.0
  0
VERTEX
  5
397F
  8
L1
 10
-53.02129374296095
 20
-45.752755959038041
 30
0.0
  0
VERTEX
  5
3980
  8
L1
 10
-53.538032250592209
 20
-45.75272631184157
 30
0.0
  0
VERTEX
  5
3981
  8
L1
 10
-54.126635213003283
 20
-45.752775522980301
 30
0.0
  0
VERTEX
  5
3982
  8
L1
 10
-54.450231727015932
 20
-45.752823312016858
 30
0.0
  0
VERTEX
  5
3983
  8
L1
 10
-54.794609389441
 20
-45.752883149546733
 30
0.0
  0
VERTEX
  5
3984
  8
L1
 10
-55.160706545184333
 20
-45.752952480206602
 30
0.0
  0
VERTEX
  5
3985
  8
L1
 10
-55.549461539152162
 20
-45.753028748633128
 30
0.0
  0
VERTEX
  5
3986
  8
L1
 10
-55.961812716249938
 20
-45.753109399462787
 30
0.0
  0
VERTEX
  5
3987
  8
L1
 10
-56.398698421383749
 20
-45.753191877332142
 30
0.0
  0
VERTEX
  5
3988
  8
L1
 10
-56.861056999459322
 20
-45.753273626877721
 30
0.0
  0
VERTEX
  5
3989
  8
L1
 10
-57.349826795382619
 20
-45.753352092735952
 30
0.0
  0
VERTEX
  5
398A
  8
L1
 10
-57.865946154059593
 20
-45.753424719543773
 30
0.0
  0
VERTEX
  5
398B
  8
L1
 10
-58.410353420395893
 20
-45.753488951937349
 30
0.0
  0
SEQEND
  5
398C
  8
L1
  0
LINE
  5
2C80
  8
L1
 10
61.517100759268089
 20
-65.012304130909214
 30
0.0
 11
-61.517100759268139
 21
-65.012304130909214
 31
0.0
  0
LINE
  5
2C81
  8
L1
 10
60.170682693037911
 20
-63.665886064679107
 30
0.0
 11
-60.170682693037982
 21
-63.665886064679057
 31
0.0
  0
LINE
  5
2C82
  8
L1
 10
-48.940067006392212
 20
61.048761007953999
 30
0.0
 11
-48.940067006392212
 21
56.529651470526801
 31
0.0
  0
POLYLINE
  5
2C83
  8
L1
 66
     1
 10
0.0
 20
0.0
 30
0.0
  0
VERTEX
  5
398D
  8
L1
 10
-47.731177419503688
 20
55.320761883638284
 30
0.0
  0
VERTEX
  5
398E
  8
L1
 10
-47.731067602106179
 20
55.95416466186105
 30
0.0
  0
VERTEX
  5
398F
  8
L1
 10
-47.731025240095043
 20
56.131103641319669
 30
0.0
  0
VERTEX
  5
3990
  8
L1
 10
-47.730992769293721
 20
56.287221051487791
 30
0.0
  0
VERTEX
  5
3991
  8
L1
 10
-47.730953684686419
 20
56.55252694178813
 30
0.0
  0
VERTEX
  5
3992
  8
L1
 10
-47.730952227016239
 20
57.004173447096029
 30
0.0
  0
VERTEX
  5
3993
  8
L1
 10
-47.730974587417613
 20
57.252657173446607
 30
0.0
  0
VERTEX
  5
3994
  8
L1
 10
-47.731002162953018
 20
57.557676623157192
 30
0.0
  0
VERTEX
  5
3995
  8
L1
 10
-47.731015520999676
 20
57.741097105419612
 30
0.0
  0
VERTEX
  5
3996
  8
L1
 10
-47.731027320354372
 20
57.950303351899031
 30
0.0
  0
VERTEX
  5
3997
  8
L1
 10
-47.731036606858758
 20
58.189179307054189
 30
0.0
  0
VERTEX
  5
3998
  8
L1
 10
-47.731042426354058
 20
58.461608915343952
 30
0.0
  0
VERTEX
  5
3999
  8
L1
 10
-47.731027276929119
 20
59.839721278491027
 30
0.0
  0
SEQEND
  5
399A
  8
L1
  0
LINE
  5
2C84
  8
L1
 10
-61.65930218969163
 20
59.0357465344049
 30
0.0
 11
-61.31076465179143
 21
58.687208996504687
 31
0.0
  0
LINE
  5
2C85
  8
L1
 10
-51.799700862313443
 20
56.968840929871419
 30
0.0
 11
-56.531159070128687
 21
61.70029913768667
 31
0.0
  0
CIRCLE
  5
2C86
  8
L1
 10
-56.750000000000107
 20
56.75
 30
0.0
 40
6.097393363178492
  0
CIRCLE
  5
2C87
  8
L1
 10
-56.750000000000107
 20
56.75
 30
0.0
 40
5.7974047862592784
  0
LINE
  5
2C88
  8
L1
 10
-65.012304130909286
 20
-61.517100759268182
 30
0.0
 11
-65.012304130909286
 21
61.517100759268139
 31
0.0
  0
LINE
  5
2C89
  8
L1
 10
-63.665886064679107
 20
-60.170682693038032
 30
0.0
 11
-63.665886064679107
 21
60.170682693037982
 31
0.0
  0
LINE
  5
2C8A
  8
L1
 10
-63.046020077463247
 20
46.9428079368829
 30
0.0
 11
-63.046020077463247
 21
-46.9428079368829
 31
0.0
  0
LINE
  5
2C8B
  8
L1
 10
-61.851053299360387
 20
-45.747841158779949
 30
0.0
 11
-61.851053299360387
 21
45.747841158779977
 31
0.0
  0
LINE
  5
2C8C
  8
L1
 10
-59.733858588995247
 20
44.374643532980031
 30
0.0
 11
-59.733858588995247
 21
-44.374682106856881
 31
0.0
  0
POLYLINE
  5
2C8D
  8
L1
 66
     1
 10
0.0
 20
0.0
 30
0.0
  0
VERTEX
  5
399B
  8
L1
 10
-47.731027276929119
 20
-59.839721278491083
 30
0.0
  0
VERTEX
  5
399C
  8
L1
 10
-47.730987414274857
 20
-59.85201139788483
 30
0.0
  0
VERTEX
  5
399D
  8
L1
 10
-47.730364050865141
 20
-59.889972759174782
 30
0.0
  0
VERTEX
  5
399E
  8
L1
 10
-47.727125082442221
 20
-59.961522756105069
 30
0.0
  0
VERTEX
  5
399F
  8
L1
 10
-47.711372876901578
 20
-60.112091818183217
 30
0.0
  0
VERTEX
  5
39A0
  8
L1
 10
-47.694575012660493
 20
-60.209448876169631
 30
0.0
  0
SEQEND
  5
39A1
  8
L1
  0
LINE
  5
2C8E
  8
L1
 10
-48.940067006392212
 20
-61.048761007954049
 30
0.0
 11
-48.940067006392212
 21
-56.529651470526858
 31
0.0
  0
ARC
  5
2C8F
  8
L1
 10
-56.750000000000107
 20
-56.750000000000057
 30
0.0
 40
5.7825462644184809
 50
207.01652280964069
 51
242.98347719035701
  0
LINE
  5
2C90
  8
L1
 10
-51.799700862313443
 20
-56.968840929871469
 30
0.0
 11
-56.531159070128687
 21
-61.70029913768672
 31
0.0
  0
CIRCLE
  5
2C91
  8
L1
 10
-56.750000000000107
 20
-56.750000000000057
 30
0.0
 40
5.7974047862592784
  0
CIRCLE
  5
2C92
  8
L1
 10
-56.750000000000107
 20
-56.750000000000057
 30
0.0
 40
6.097393363178492
  0
POLYLINE
  5
2C93
  8
L1
 66
     1
 10
0.0
 20
0.0
 30
0.0
  0
VERTEX
  5
39A2
  8
L1
 10
-59.263214172935307
 20
-61.883099641752267
 30
0.0
  0
VERTEX
  5
39A3
  8
L1
 10
-59.319858836591841
 20
-61.892416041710817
 30
0.0
  0
VERTEX
  5
39A4
  8
L1
 10
-59.376706762295328
 20
-61.90152917928782
 30
0.0
  0
SEQEND
  5
39A5
  8
L1
  0
POLYLINE
  5
2C94
  8
L1
 66
     1
 10
0.0
 20
0.0
 30
0.0
  0
VERTEX
  5
39A6
  8
L1
 10
-59.035746534405121
 20
-61.659302189691509
 30
0.0
  0
VERTEX
  5
39A7
  8
L1
 10
-59.080639129592441
 20
-61.704116422292429
 30
0.0
  0
VERTEX
  5
39A8
  8
L1
 10
-59.124081047125863
 20
-61.747342135618972
 30
0.0
  0
VERTEX
  5
39A9
  8
L1
 10
-59.162953301975563
 20
-61.785862277598987
 30
0.0
  0
VERTEX
  5
39AA
  8
L1
 10
-59.197587405172101
 20
-61.820028179014798
 30
0.0
  0
VERTEX
  5
39AB
  8
L1
 10
-59.224983031468703
 20
-61.846862727420103
 30
0.0
  0
VERTEX
  5
39AC
  8
L1
 10
-59.245965950158052
 20
-61.867206662007902
 30
0.0
  0
VERTEX
  5
39AD
  8
L1
 10
-59.258187265245851
 20
-61.878765071482349
 30
0.0
  0
VERTEX
  5
39AE
  8
L1
 10
-59.263214172935307
 20
-61.883099641752267
 30
0.0
  0
SEQEND
  5
39AF
  8
L1
  0
LINE
  5
2C95
  8
L1
 10
-58.687208996505042
 20
-61.31076465179126
 30
0.0
 11
-59.035746534405177
 21
-61.659302189691459
 31
0.0
  0
POLYLINE
  5
2C96
  8
L1
 66
     1
 10
0.0
 20
0.0
 30
0.0
  0
VERTEX
  5
39B0
  8
L1
 10
-61.557000000000073
 20
-65.012088437774196
 30
0.0
  0
VERTEX
  5
39B1
  8
L1
 10
-61.537048032038292
 20
-65.012250207188856
 30
0.0
  0
VERTEX
  5
39B2
  8
L1
 10
-61.517100759268203
 20
-65.012304130909214
 30
0.0
  0
SEQEND
  5
39B3
  8
L1
  0
ARC
  5
2C97
  8
L1
 10
-56.750000000000107
 20
-56.750000000000057
 30
0.0
 40
4.9551339946734032
 50
246.98638392760739
 51
272.53126179329098
  0
POLYLINE
  5
2C98
  8
L1
 66
     1
 10
0.0
 20
0.0
 30
0.0
  0
VERTEX
  5
39B4
  8
L1
 10
-65.012304130909214
 20
-61.517100759268203
 30
0.0
  0
VERTEX
  5
39B5
  8
L1
 10
-65.012250207188856
 20
-61.537048032038221
 30
0.0
  0
VERTEX
  5
39B6
  8
L1
 10
-65.012088437774196
 20
-61.556999999999952
 30
0.0
  0
SEQEND
  5
39B7
  8
L1
  0
POLYLINE
  5
2C99
  8
L1
 66
     1
 10
0.0
 20
0.0
 30
0.0
  0
VERTEX
  5
39B8
  8
L1
 10
-65.012088437774139
 20
-61.556999999999952
 30
0.0
  0
VERTEX
  5
39B9
  8
L1
 10
-64.993014072386003
 20
-61.885630568632337
 30
0.0
  0
VERTEX
  5
39BA
  8
L1
 10
-64.941714390114328
 20
-62.218787602445332
 30
0.0
  0
VERTEX
  5
39BB
  8
L1
 10
-64.857024460342913
 20
-62.550151943173887
 30
0.0
  0
VERTEX
  5
39BC
  8
L1
 10
-64.739585002002457
 20
-62.873772386241001
 30
0.0
  0
VERTEX
  5
39BD
  8
L1
 10
-64.59075649900069
 20
-63.184196702883348
 30
0.0
  0
VERTEX
  5
39BE
  8
L1
 10
-64.413440750186226
 20
-63.476619230896119
 30
0.0
  0
VERTEX
  5
39BF
  8
L1
 10
-64.211400615580374
 20
-63.74639901824434
 30
0.0
  0
VERTEX
  5
39C0
  8
L1
 10
-63.989929119073679
 20
-63.989929119073679
 30
0.0
  0
VERTEX
  5
39C1
  8
L1
 10
-63.746399018244411
 20
-64.21140061558026
 30
0.0
  0
VERTEX
  5
39C2
  8
L1
 10
-63.476619230896233
 20
-64.413440750186112
 30
0.0
  0
VERTEX
  5
39C3
  8
L1
 10
-63.184196702883469
 20
-64.590756499000577
 30
0.0
  0
VERTEX
  5
39C4
  8
L1
 10
-62.873772386241001
 20
-64.739585002002457
 30
0.0
  0
VERTEX
  5
39C5
  8
L1
 10
-62.550151943174001
 20
-64.857024460342913
 30
0.0
  0
VERTEX
  5
39C6
  8
L1
 10
-62.218787602445438
 20
-64.941714390114328
 30
0.0
  0
VERTEX
  5
39C7
  8
L1
 10
-61.88563056863245
 20
-64.993014072386003
 30
0.0
  0
VERTEX
  5
39C8
  8
L1
 10
-61.557000000000073
 20
-65.012088437774139
 30
0.0
  0
SEQEND
  5
39C9
  8
L1
  0
POLYLINE
  5
2C9A
  8
L1
 66
     1
 10
0.0
 20
0.0
 30
0.0
  0
VERTEX
  5
39CA
  8
L1
 10
-63.665886064679107
 20
-60.170682693038032
 30
0.0
  0
VERTEX
  5
39CB
  8
L1
 10
-63.662880445724561
 20
-60.315235367923947
 30
0.0
  0
VERTEX
  5
39CC
  8
L1
 10
-63.653913841849032
 20
-60.45952652732381
 30
0.0
  0
VERTEX
  5
39CD
  8
L1
 10
-63.639001518973323
 20
-60.603310511069651
 30
0.0
  0
VERTEX
  5
39CE
  8
L1
 10
-63.618168865789073
 20
-60.746342522475338
 30
0.0
  0
VERTEX
  5
39CF
  8
L1
 10
-63.591451350533532
 20
-60.888379045111321
 30
0.0
  0
VERTEX
  5
39D0
  8
L1
 10
-63.558894460604051
 20
-61.029178257398371
 30
0.0
  0
VERTEX
  5
39D1
  8
L1
 10
-63.520553625114069
 20
-61.168500444316351
 30
0.0
  0
VERTEX
  5
39D2
  8
L1
 10
-63.476494120523618
 20
-61.306108405526743
 30
0.0
  0
VERTEX
  5
39D3
  8
L1
 10
-63.426790959503933
 20
-61.441767859213307
 30
0.0
  0
VERTEX
  5
39D4
  8
L1
 10
-63.371528763226188
 20
-61.575247840954212
 30
0.0
  0
VERTEX
  5
39D5
  8
L1
 10
-63.310801617291247
 20
-61.706321096946048
 30
0.0
  0
VERTEX
  5
39D6
  8
L1
 10
-63.244712911546003
 20
-61.834764470910727
 30
0.0
  0
VERTEX
  5
39D7
  8
L1
 10
-63.173375164059053
 20
-61.960359284025692
 30
0.0
  0
VERTEX
  5
39D8
  8
L1
 10
-63.096909829555102
 20
-62.082891707231397
 30
0.0
  0
VERTEX
  5
39D9
  8
L1
 10
-63.015447092634531
 20
-62.202153125281939
 30
0.0
  0
VERTEX
  5
39DA
  8
L1
 10
-62.929125646130217
 20
-62.31794049191916
 30
0.0
  0
VERTEX
  5
39DB
  8
L1
 10
-62.8380924549786
 20
-62.430056675565019
 30
0.0
  0
VERTEX
  5
39DC
  8
L1
 10
-62.742502506007149
 20
-62.538310794944032
 30
0.0
  0
VERTEX
  5
39DD
  8
L1
 10
-62.642518544064949
 20
-62.642518544064949
 30
0.0
  0
VERTEX
  5
39DE
  8
L1
 10
-62.538310794944032
 20
-62.742502506007149
 30
0.0
  0
VERTEX
  5
39DF
  8
L1
 10
-62.430056675565019
 20
-62.8380924549786
 30
0.0
  0
VERTEX
  5
39E0
  8
L1
 10
-62.31794049191916
 20
-62.929125646130217
 30
0.0
  0
VERTEX
  5
39E1
  8
L1
 10
-62.202153125281939
 20
-63.015447092634531
 30
0.0
  0
VERTEX
  5
39E2
  8
L1
 10
-62.082891707231397
 20
-63.096909829555102
 30
0.0
  0
VERTEX
  5
39E3
  8
L1
 10
-61.960359284025692
 20
-63.173375164059053
 30
0.0
  0
VERTEX
  5
39E4
  8
L1
 10
-61.834764470910727
 20
-63.244712911546003
 30
0.0
  0
VERTEX
  5
39E5
  8
L1
 10
-61.706321096946048
 20
-63.310801617291247
 30
0.0
  0
VERTEX
  5
39E6
  8
L1
 10
-61.575247840954212
 20
-63.371528763226188
 30
0.0
  0
VERTEX
  5
39E7
  8
L1
 10
-61.441767859213307
 20
-63.426790959503933
 30
0.0
  0
VERTEX
  5
39E8
  8
L1
 10
-61.306108405526743
 20
-63.476494120523618
 30
0.0
  0
VERTEX
  5
39E9
  8
L1
 10
-61.168500444316351
 20
-63.520553625114069
 30
0.0
  0
VERTEX
  5
39EA
  8
L1
 10
-61.029178257398371
 20
-63.558894460604051
 30
0.0
  0
VERTEX
  5
39EB
  8
L1
 10
-60.888379045111321
 20
-63.591451350533532
 30
0.0
  0
VERTEX
  5
39EC
  8
L1
 10
-60.746342522475338
 20
-63.618168865789073
 30
0.0
  0
VERTEX
  5
39ED
  8
L1
 10
-60.603310511069651
 20
-63.639001518973323
 30
0.0
  0
VERTEX
  5
39EE
  8
L1
 10
-60.45952652732381
 20
-63.653913841849032
 30
0.0
  0
VERTEX
  5
39EF
  8
L1
 10
-60.315235367923947
 20
-63.662880445724561
 30
0.0
  0
VERTEX
  5
39F0
  8
L1
 10
-60.170682693038032
 20
-63.665886064679107
 30
0.0
  0
SEQEND
  5
39F1
  8
L1
  0
POLYLINE
  5
2C9B
  8
L1
 66
     1
 10
0.0
 20
0.0
 30
0.0
  0
VERTEX
  5
39F2
  8
L1
 10
-61.69707308894732
 20
-46.491233016057322
 30
0.0
  0
VERTEX
  5
39F3
  8
L1
 10
-61.812200114655923
 20
-46.128589660902307
 30
0.0
  0
VERTEX
  5
39F4
  8
L1
 10
-61.851053299360331
 20
-45.747841158780027
 30
0.0
  0
SEQEND
  5
39F5
  8
L1
  0
POLYLINE
  5
2C9C
  8
L1
 66
     1
 10
0.0
 20
0.0
 30
0.0
  0
VERTEX
  5
39F6
  8
L1
 10
-58.410353420395893
 20
-45.753488951937349
 30
0.0
  0
VERTEX
  5
39F7
  8
L1
 10
-58.6380984030543
 20
-45.739390136792963
 30
0.0
  0
VERTEX
  5
39F8
  8
L1
 10
-58.898657065353518
 20
-45.682324404041758
 30
0.0
  0
VERTEX
  5
39F9
  8
L1
 10
-59.14184012490238
 20
-45.57488796794496
 30
0.0
  0
VERTEX
  5
39FA
  8
L1
 10
-59.319455708063117
 20
-45.446422899777808
 30
0.0
  0
VERTEX
  5
39FB
  8
L1
 10
-59.467834044425899
 20
-45.285116982980533
 30
0.0
  0
VERTEX
  5
39FC
  8
L1
 10
-59.59439958037575
 20
-45.072757364054041
 30
0.0
  0
VERTEX
  5
39FD
  8
L1
 10
-59.677770945913949
 20
-44.839330738015633
 30
0.0
  0
VERTEX
  5
39FE
  8
L1
 10
-59.720611716776027
 20
-44.609409821459437
 30
0.0
  0
VERTEX
  5
39FF
  8
L1
 10
-59.733858588995247
 20
-44.37464353298008
 30
0.0
  0
SEQEND
  5
3A00
  8
L1
  0
POLYLINE
  5
2C9D
  8
L1
 66
     1
 10
0.0
 20
0.0
 30
0.0
  0
VERTEX
  5
3A01
  8
L1
 10
-60.209532526953858
 20
-47.694571369592268
 30
0.0
  0
VERTEX
  5
3A02
  8
L1
 10
-60.121389640016389
 20
-47.710009078187802
 30
0.0
  0
VERTEX
  5
3A03
  8
L1
 10
-60.00206621337162
 20
-47.724096145796523
 30
0.0
  0
VERTEX
  5
3A04
  8
L1
 10
-59.905035198184571
 20
-47.729918285639542
 30
0.0
  0
VERTEX
  5
3A05
  8
L1
 10
-59.861714048434692
 20
-47.730911186794799
 30
0.0
  0
VERTEX
  5
3A06
  8
L1
 10
-59.839732262174891
 20
-47.73103826061282
 30
0.0
  0
SEQEND
  5
3A07
  8
L1
  0
POLYLINE
  5
2C9E
  8
L1
 66
     1
 10
0.0
 20
0.0
 30
0.0
  0
VERTEX
  5
3A08
  8
L1
 10
-61.048761007954113
 20
-48.940067006392091
 30
0.0
  0
VERTEX
  5
3A09
  8
L1
 10
-61.244746949737078
 20
-48.930507715392253
 30
0.0
  0
VERTEX
  5
3A0A
  8
L1
 10
-61.438794101028577
 20
-48.90181452661124
 30
0.0
  0
VERTEX
  5
3A0B
  8
L1
 10
-61.629040188112072
 20
-48.854262809056081
 30
0.0
  0
VERTEX
  5
3A0C
  8
L1
 10
-61.813659416146947
 20
-48.788308917345432
 30
0.0
  0
VERTEX
  5
3A0D
  8
L1
 10
-61.99087999135196
 20
-48.704585812067762
 30
0.0
  0
VERTEX
  5
3A0E
  8
L1
 10
-62.159001124939259
 20
-48.603896985247388
 30
0.0
  0
VERTEX
  5
3A0F
  8
L1
 10
-62.316409355612507
 20
-48.487208749218659
 30
0.0
  0
VERTEX
  5
3A10
  8
L1
 10
-62.461594033981612
 20
-48.355640962910449
 30
0.0
  0
VERTEX
  5
3A11
  8
L1
 10
-62.593161820289822
 20
-48.210456284541351
 30
0.0
  0
VERTEX
  5
3A12
  8
L1
 10
-62.709850056318537
 20
-48.05304805386811
 30
0.0
  0
VERTEX
  5
3A13
  8
L1
 10
-62.810538883138861
 20
-47.884926920280797
 30
0.0
  0
VERTEX
  5
3A14
  8
L1
 10
-62.894261988416588
 20
-47.707706345075792
 30
0.0
  0
VERTEX
  5
3A15
  8
L1
 10
-62.96021588012718
 20
-47.523087117040909
 30
0.0
  0
VERTEX
  5
3A16
  8
L1
 10
-63.007767597682403
 20
-47.332841029957407
 30
0.0
  0
VERTEX
  5
3A17
  8
L1
 10
-63.036460786463351
 20
-47.138793878665972
 30
0.0
  0
VERTEX
  5
3A18
  8
L1
 10
-63.046020077463197
 20
-46.94280793688295
 30
0.0
  0
SEQEND
  5
3A19
  8
L1
  0
POLYLINE
  5
2C9F
  8
L1
 66
     1
 10
0.0
 20
0.0
 30
0.0
  0
VERTEX
  5
3A1A
  8
L1
 10
-59.839732262174891
 20
-47.73103826061282
 30
0.0
  0
VERTEX
  5
3A1B
  8
L1
 10
-58.083973469469463
 20
-47.731027259837902
 30
0.0
  0
VERTEX
  5
3A1C
  8
L1
 10
-57.85081987423564
 20
-47.731013356836051
 30
0.0
  0
VERTEX
  5
3A1D
  8
L1
 10
-57.644496456116137
 20
-47.730998303025622
 30
0.0
  0
VERTEX
  5
3A1E
  8
L1
 10
-57.28865016423174
 20
-47.730970725167019
 30
0.0
  0
VERTEX
  5
3A1F
  8
L1
 10
-56.638329848963728
 20
-47.73096756381306
 30
0.0
  0
VERTEX
  5
3A20
  8
L1
 10
-56.418913584252891
 20
-47.730992933396799
 30
0.0
  0
VERTEX
  5
3A21
  8
L1
 10
-56.224854588928793
 20
-47.731029005698304
 30
0.0
  0
VERTEX
  5
3A22
  8
L1
 10
-55.893364057215813
 20
-47.731113810185427
 30
0.0
  0
VERTEX
  5
3A23
  8
L1
 10
-55.32078238495086
 20
-47.73119792081598
 30
0.0
  0
SEQEND
  5
3A24
  8
L1
  0
LINE
  5
2CA0
  8
L1
 10
-56.529651470526971
 20
-48.940067006392091
 30
0.0
 11
-61.048761007954113
 21
-48.940067006392091
 31
0.0
  0
POLYLINE
  5
2CA1
  8
L1
 66
     1
 10
0.0
 20
0.0
 30
0.0
  0
VERTEX
  5
3A25
  8
L1
 10
-61.697073088947377
 20
-46.491233016057322
 30
0.0
  0
VERTEX
  5
3A26
  8
L1
 10
-61.586257410710118
 20
-46.70918685163781
 30
0.0
  0
VERTEX
  5
3A27
  8
L1
 10
-61.446843118683212
 20
-46.917362679660698
 30
0.0
  0
VERTEX
  5
3A28
  8
L1
 10
-61.212661423407212
 20
-47.176712330546472
 30
0.0
  0
VERTEX
  5
3A29
  8
L1
 10
-60.93519276105507
 20
-47.39546261586878
 30
0.0
  0
VERTEX
  5
3A2A
  8
L1
 10
-60.610822161094227
 20
-47.569986725547949
 30
0.0
  0
VERTEX
  5
3A2B
  8
L1
 10
-60.262771699553582
 20
-47.683178154070887
 30
0.0
  0
VERTEX
  5
3A2C
  8
L1
 10
-60.209532526953858
 20
-47.694571369592268
 30
0.0
  0
SEQEND
  5
3A2D
  8
L1
  0
POLYLINE
  5
2CA2
  8
L1
 66
     1
 10
0.0
 20
0.0
 30
0.0
  0
VERTEX
  5
3A2E
  8
L1
 10
-47.731177419503688
 20
-55.32076188363834
 30
0.0
  0
VERTEX
  5
3A2F
  8
L1
 10
-47.731067602106179
 20
-55.954164661861121
 30
0.0
  0
VERTEX
  5
3A30
  8
L1
 10
-47.731025240095043
 20
-56.131103641319733
 30
0.0
  0
VERTEX
  5
3A31
  8
L1
 10
-47.730992769293721
 20
-56.287221051487847
 30
0.0
  0
VERTEX
  5
3A32
  8
L1
 10
-47.730953684686419
 20
-56.552526941788187
 30
0.0
  0
VERTEX
  5
3A33
  8
L1
 10
-47.730952227016239
 20
-57.0041734470961
 30
0.0
  0
VERTEX
  5
3A34
  8
L1
 10
-47.730974587417613
 20
-57.252657173446657
 30
0.0
  0
VERTEX
  5
3A35
  8
L1
 10
-47.731002162953018
 20
-57.557676623157249
 30
0.0
  0
VERTEX
  5
3A36
  8
L1
 10
-47.731015520999676
 20
-57.741097105419669
 30
0.0
  0
VERTEX
  5
3A37
  8
L1
 10
-47.731027320354372
 20
-57.950303351899102
 30
0.0
  0
VERTEX
  5
3A38
  8
L1
 10
-47.731036606858758
 20
-58.189179307054239
 30
0.0
  0
VERTEX
  5
3A39
  8
L1
 10
-47.731042426354058
 20
-58.461608915344023
 30
0.0
  0
VERTEX
  5
3A3A
  8
L1
 10
-47.731027276929119
 20
-59.839721278491083
 30
0.0
  0
SEQEND
  5
3A3B
  8
L1
  0
POLYLINE
  5
2CA3
  8
L1
 66
     1
 10
0.0
 20
0.0
 30
0.0
  0
VERTEX
  5
3A3C
  8
L1
 10
-61.901529179287877
 20
-59.37670676229515
 30
0.0
  0
VERTEX
  5
3A3D
  8
L1
 10
-61.892416041710298
 20
-59.319858836588139
 30
0.0
  0
VERTEX
  5
3A3E
  8
L1
 10
-61.883099641752381
 20
-59.263214172935193
 30
0.0
  0
SEQEND
  5
3A3F
  8
L1
  0
LINE
  5
2CA4
  8
L1
 10
-61.65930218969163
 20
-59.03574653440495
 30
0.0
 11
-61.31076465179143
 21
-58.687208996504751
 31
0.0
  0
POLYLINE
  5
2CA5
  8
L1
 66
     1
 10
0.0
 20
0.0
 30
0.0
  0
VERTEX
  5
3A40
  8
L1
 10
-61.883099641752317
 20
-59.263214172935143
 30
0.0
  0
VERTEX
  5
3A41
  8
L1
 10
-61.878765071482349
 20
-59.258187265245567
 30
0.0
  0
VERTEX
  5
3A42
  8
L1
 10
-61.867206662008023
 20
-59.245965950157817
 30
0.0
  0
VERTEX
  5
3A43
  8
L1
 10
-61.846862727420103
 20
-59.224983031468469
 30
0.0
  0
VERTEX
  5
3A44
  8
L1
 10
-61.820028179014798
 20
-59.19758740517193
 30
0.0
  0
VERTEX
  5
3A45
  8
L1
 10
-61.785862277598987
 20
-59.162953301975449
 30
0.0
  0
VERTEX
  5
3A46
  8
L1
 10
-61.747342135619022
 20
-59.124081047125628
 30
0.0
  0
VERTEX
  5
3A47
  8
L1
 10
-61.704116422292479
 20
-59.080639129592271
 30
0.0
  0
VERTEX
  5
3A48
  8
L1
 10
-61.65930218969163
 20
-59.03574653440495
 30
0.0
  0
SEQEND
  5
3A49
  8
L1
  0
ARC
  5
2CA6
  8
L1
 10
-56.750000000000107
 20
-56.750000000000057
 30
0.0
 40
4.9551339946734032
 50
177.46873820670879
 51
203.0136160723882
  0
LINE
  5
2CA7
  8
L1
 10
-61.700299137686777
 20
-56.531159070128751
 30
0.0
 11
-56.968840929871362
 21
-51.79970086231333
 31
0.0
  0
ARC
  5
2CA8
  8
L1
 10
-56.750000000000107
 20
-56.750000000000057
 30
0.0
 40
4.9551339946734032
 50
357.4687382067072
 51
92.531261793291065
  0
POLYLINE
  5
2CA9
  8
L1
 66
     1
 10
0.0
 20
0.0
 30
0.0
  0
VERTEX
  5
3A4A
  8
L1
 10
-55.32078238495086
 20
-47.73119792081598
 30
0.0
  0
VERTEX
  5
3A4B
  8
L1
 10
-55.274528509900676
 20
-47.73134011044521
 30
0.0
  0
VERTEX
  5
3A4C
  8
L1
 10
-55.079716260798143
 20
-47.735147577404689
 30
0.0
  0
VERTEX
  5
3A4D
  8
L1
 10
-54.654345306803179
 20
-47.761489579966963
 30
0.0
  0
VERTEX
  5
3A4E
  8
L1
 10
-54.443648320938671
 20
-47.783626368724981
 30
0.0
  0
VERTEX
  5
3A4F
  8
L1
 10
-54.190406214040543
 20
-47.818253940848066
 30
0.0
  0
VERTEX
  5
3A50
  8
L1
 10
-53.899137393666251
 20
-47.868982863103383
 30
0.0
  0
VERTEX
  5
3A51
  8
L1
 10
-53.574360267373322
 20
-47.939423702257443
 30
0.0
  0
VERTEX
  5
3A52
  8
L1
 10
-53.102463247988567
 20
-48.068720341375922
 30
0.0
  0
VERTEX
  5
3A53
  8
L1
 10
-52.640184031571607
 20
-48.227961217950281
 30
0.0
  0
VERTEX
  5
3A54
  8
L1
 10
-52.189007119832873
 20
-48.416600588234637
 30
0.0
  0
VERTEX
  5
3A55
  8
L1
 10
-51.750417014482757
 20
-48.63409270848274
 30
0.0
  0
VERTEX
  5
3A56
  8
L1
 10
-51.121594719335583
 20
-49.011544102013893
 30
0.0
  0
VERTEX
  5
3A57
  8
L1
 10
-50.531802437309132
 20
-49.447658529267528
 30
0.0
  0
VERTEX
  5
3A58
  8
L1
 10
-49.972111510274893
 20
-49.952800165016349
 30
0.0
  0
VERTEX
  5
3A59
  8
L1
 10
-49.46502754152624
 20
-50.51079011418426
 30
0.0
  0
VERTEX
  5
3A5A
  8
L1
 10
-49.065647524673068
 20
-51.042093674499597
 30
0.0
  0
VERTEX
  5
3A5B
  8
L1
 10
-48.713930872883907
 20
-51.606167470228108
 30
0.0
  0
VERTEX
  5
3A5C
  8
L1
 10
-48.4183582272085
 20
-52.186023013524391
 30
0.0
  0
VERTEX
  5
3A5D
  8
L1
 10
-48.17339280696433
 20
-52.788933891203442
 30
0.0
  0
VERTEX
  5
3A5E
  8
L1
 10
-48.017642363475552
 20
-53.275410070638941
 30
0.0
  0
VERTEX
  5
3A5F
  8
L1
 10
-47.907254360812878
 20
-53.713902935420201
 30
0.0
  0
VERTEX
  5
3A60
  8
L1
 10
-47.833466786330398
 20
-54.095945040035303
 30
0.0
  0
VERTEX
  5
3A61
  8
L1
 10
-47.78751762738176
 20
-54.413068938971954
 30
0.0
  0
VERTEX
  5
3A62
  8
L1
 10
-47.74939591604646
 20
-54.804668282786572
 30
0.0
  0
VERTEX
  5
3A63
  8
L1
 10
-47.733238830100277
 20
-55.147078120581618
 30
0.0
  0
VERTEX
  5
3A64
  8
L1
 10
-47.731177986682717
 20
-55.31778647522497
 30
0.0
  0
VERTEX
  5
3A65
  8
L1
 10
-47.731177419503688
 20
-55.32076188363834
 30
0.0
  0
SEQEND
  5
3A66
  8
L1
  0
POLYLINE
  5
2CAA
  8
L1
 66
     1
 10
0.0
 20
0.0
 30
0.0
  0
VERTEX
  5
3A67
  8
L1
 10
-48.940067006392212
 20
-56.529651470526858
 30
0.0
  0
VERTEX
  5
3A68
  8
L1
 10
-48.942769004879779
 20
-56.327433511053748
 30
0.0
  0
VERTEX
  5
3A69
  8
L1
 10
-48.950844016536387
 20
-56.125372715584263
 30
0.0
  0
VERTEX
  5
3A6A
  8
L1
 10
-48.964286337915041
 20
-55.923611801317072
 30
0.0
  0
VERTEX
  5
3A6B
  8
L1
 10
-48.98308647459384
 20
-55.722293273642208
 30
0.0
  0
VERTEX
  5
3A6C
  8
L1
 10
-49.007231147881839
 20
-55.521559325488617
 30
0.0
  0
VERTEX
  5
3A6D
  8
L1
 10
-49.036703304198063
 20
-55.321551736891763
 30
0.0
  0
VERTEX
  5
3A6E
  8
L1
 10
-49.07148212711661
 20
-55.122411774853497
 30
0.0
  0
VERTEX
  5
3A6F
  8
L1
 10
-49.111543052069351
 20
-54.924280093563773
 30
0.0
  0
VERTEX
  5
3A70
  8
L1
 10
-49.156857783696061
 20
-54.727296635055723
 30
0.0
  0
VERTEX
  5
3A71
  8
L1
 10
-49.207394315829788
 20
-54.531600530363221
 30
0.0
  0
VERTEX
  5
3A72
  8
L1
 10
-49.263116954103047
 20
-54.33733000125158
 30
0.0
  0
VERTEX
  5
3A73
  8
L1
 10
-49.32398634115895
 20
-54.14462226259036
 30
0.0
  0
VERTEX
  5
3A74
  8
L1
 10
-49.389959484449612
 20
-53.953613425437418
 30
0.0
  0
VERTEX
  5
3A75
  8
L1
 10
-49.460989786602447
 20
-53.76443840090257
 30
0.0
  0
VERTEX
  5
3A76
  8
L1
 10
-49.537027078331903
 20
-53.577230804858679
 30
0.0
  0
VERTEX
  5
3A77
  8
L1
 10
-49.618017653874567
 20
-53.392122863567749
 30
0.0
  0
VERTEX
  5
3A78
  8
L1
 10
-49.703904308922013
 20
-53.209245320288233
 30
0.0
  0
VERTEX
  5
3A79
  8
L1
 10
-49.79462638102472
 20
-53.028727342930431
 30
0.0
  0
VERTEX
  5
3A7A
  8
L1
 10
-49.890119792438327
 20
-52.850696432823732
 30
0.0
  0
VERTEX
  5
3A7B
  8
L1
 10
-49.990317095382473
 20
-52.675278334661357
 30
0.0
  0
VERTEX
  5
3A7C
  8
L1
 10
-50.095147519679472
 20
-52.502596947686243
 30
0.0
  0
VERTEX
  5
3A7D
  8
L1
 10
-50.204537022740048
 20
-52.332774238179702
 30
0.0
  0
VERTEX
  5
3A7E
  8
L1
 10
-50.31840834186017
 20
-52.165930153315458
 30
0.0
  0
VERTEX
  5
3A7F
  8
L1
 10
-50.436681048792252
 20
-52.0021825364405
 30
0.0
  0
VERTEX
  5
3A80
  8
L1
 10
-50.559271606552443
 20
-51.841647043840908
 30
0.0
  0
VERTEX
  5
3A81
  8
L1
 10
-50.686093428423419
 20
-51.684437063052997
 30
0.0
  0
VERTEX
  5
3A82
  8
L1
 10
-50.817056939111183
 20
-51.530663632776793
 30
0.0
  0
VERTEX
  5
3A83
  8
L1
 10
-50.952069638013093
 20
-51.380435364448537
 30
0.0
  0
VERTEX
  5
3A84
  8
L1
 10
-51.091036164551383
 20
-51.23385836552746
 30
0.0
  0
VERTEX
  5
3A85
  8
L1
 10
-51.23385836552756
 20
-51.091036164551269
 30
0.0
  0
VERTEX
  5
3A86
  8
L1
 10
-51.380435364448651
 20
-50.952069638012972
 30
0.0
  0
VERTEX
  5
3A87
  8
L1
 10
-51.530663632776907
 20
-50.817056939111069
 30
0.0
  0
VERTEX
  5
3A88
  8
L1
 10
-51.68443706305311
 20
-50.686093428423298
 30
0.0
  0
VERTEX
  5
3A89
  8
L1
 10
-51.841647043841022
 20
-50.559271606552329
 30
0.0
  0
VERTEX
  5
3A8A
  8
L1
 10
-52.002182536440607
 20
-50.436681048792138
 30
0.0
  0
VERTEX
  5
3A8B
  8
L1
 10
-52.165930153315571
 20
-50.318408341860049
 30
0.0
  0
VERTEX
  5
3A8C
  8
L1
 10
-52.332774238179802
 20
-50.204537022739942
 30
0.0
  0
VERTEX
  5
3A8D
  8
L1
 10
-52.502596947686357
 20
-50.095147519679358
 30
0.0
  0
VERTEX
  5
3A8E
  8
L1
 10
-52.675278334661471
 20
-49.990317095382352
 30
0.0
  0
VERTEX
  5
3A8F
  8
L1
 10
-52.850696432823831
 20
-49.890119792438213
 30
0.0
  0
VERTEX
  5
3A90
  8
L1
 10
-53.028727342930551
 20
-49.794626381024607
 30
0.0
  0
VERTEX
  5
3A91
  8
L1
 10
-53.209245320288339
 20
-49.703904308921892
 30
0.0
  0
VERTEX
  5
3A92
  8
L1
 10
-53.39212286356787
 20
-49.61801765387446
 30
0.0
  0
VERTEX
  5
3A93
  8
L1
 10
-53.5772308048588
 20
-49.537027078331789
 30
0.0
  0
VERTEX
  5
3A94
  8
L1
 10
-53.764438400902691
 20
-49.46098978660234
 30
0.0
  0
VERTEX
  5
3A95
  8
L1
 10
-53.953613425437538
 20
-49.389959484449491
 30
0.0
  0
VERTEX
  5
3A96
  8
L1
 10
-54.144622262590467
 20
-49.323986341158843
 30
0.0
  0
VERTEX
  5
3A97
  8
L1
 10
-54.337330001251701
 20
-49.263116954102941
 30
0.0
  0
VERTEX
  5
3A98
  8
L1
 10
-54.531600530363328
 20
-49.207394315829667
 30
0.0
  0
VERTEX
  5
3A99
  8
L1
 10
-54.727296635055829
 20
-49.156857783695962
 30
0.0
  0
VERTEX
  5
3A9A
  8
L1
 10
-54.924280093563873
 20
-49.111543052069237
 30
0.0
  0
VERTEX
  5
3A9B
  8
L1
 10
-55.12241177485361
 20
-49.071482127116496
 30
0.0
  0
VERTEX
  5
3A9C
  8
L1
 10
-55.32155173689187
 20
-49.036703304197943
 30
0.0
  0
VERTEX
  5
3A9D
  8
L1
 10
-55.521559325488738
 20
-49.007231147881718
 30
0.0
  0
VERTEX
  5
3A9E
  8
L1
 10
-55.722293273642322
 20
-48.983086474593733
 30
0.0
  0
VERTEX
  5
3A9F
  8
L1
 10
-55.923611801317172
 20
-48.964286337914928
 30
0.0
  0
VERTEX
  5
3AA0
  8
L1
 10
-56.125372715584369
 20
-48.95084401653628
 30
0.0
  0
VERTEX
  5
3AA1
  8
L1
 10
-56.327433511053869
 20
-48.942769004879658
 30
0.0
  0
VERTEX
  5
3AA2
  8
L1
 10
-56.529651470526971
 20
-48.940067006392091
 30
0.0
  0
SEQEND
  5
3AA3
  8
L1
  0
ARC
  5
2CAB
  8
L1
 10
-56.750000000000107
 20
56.75
 30
0.0
 40
4.9551339946734032
 50
156.98638392761021
 51
182.53126179329109
  0
POLYLINE
  5
2CAC
  8
L1
 66
     1
 10
0.0
 20
0.0
 30
0.0
  0
VERTEX
  5
3AA4
  8
L1
 10
-60.209532526953858
 20
47.694571369592197
 30
0.0
  0
VERTEX
  5
3AA5
  8
L1
 10
-60.121389640016389
 20
47.710009078187731
 30
0.0
  0
VERTEX
  5
3AA6
  8
L1
 10
-60.00206621337162
 20
47.724096145796459
 30
0.0
  0
VERTEX
  5
3AA7
  8
L1
 10
-59.905035198184571
 20
47.729918285639478
 30
0.0
  0
VERTEX
  5
3AA8
  8
L1
 10
-59.861714048434692
 20
47.730911186794742
 30
0.0
  0
VERTEX
  5
3AA9
  8
L1
 10
-59.839732262174891
 20
47.731038260612763
 30
0.0
  0
SEQEND
  5
3AAA
  8
L1
  0
POLYLINE
  5
2CAD
  8
L1
 66
     1
 10
0.0
 20
0.0
 30
0.0
  0
VERTEX
  5
3AAB
  8
L1
 10
-61.048761007954113
 20
48.940067006392042
 30
0.0
  0
VERTEX
  5
3AAC
  8
L1
 10
-61.244746949737078
 20
48.930507715392189
 30
0.0
  0
VERTEX
  5
3AAD
  8
L1
 10
-61.438794101028577
 20
48.90181452661119
 30
0.0
  0
VERTEX
  5
3AAE
  8
L1
 10
-61.629040188112072
 20
48.854262809056017
 30
0.0
  0
VERTEX
  5
3AAF
  8
L1
 10
-61.813659416146947
 20
48.788308917345368
 30
0.0
  0
VERTEX
  5
3AB0
  8
L1
 10
-61.99087999135196
 20
48.704585812067698
 30
0.0
  0
VERTEX
  5
3AB1
  8
L1
 10
-62.159001124939259
 20
48.603896985247331
 30
0.0
  0
VERTEX
  5
3AB2
  8
L1
 10
-62.316409355612507
 20
48.48720874921861
 30
0.0
  0
VERTEX
  5
3AB3
  8
L1
 10
-62.461594033981612
 20
48.3556409629104
 30
0.0
  0
VERTEX
  5
3AB4
  8
L1
 10
-62.593161820289822
 20
48.210456284541287
 30
0.0
  0
VERTEX
  5
3AB5
  8
L1
 10
-62.709850056318537
 20
48.053048053868046
 30
0.0
  0
VERTEX
  5
3AB6
  8
L1
 10
-62.810538883138861
 20
47.884926920280741
 30
0.0
  0
VERTEX
  5
3AB7
  8
L1
 10
-62.894261988416588
 20
47.707706345075728
 30
0.0
  0
VERTEX
  5
3AB8
  8
L1
 10
-62.96021588012718
 20
47.523087117040859
 30
0.0
  0
VERTEX
  5
3AB9
  8
L1
 10
-63.007767597682403
 20
47.332841029957358
 30
0.0
  0
VERTEX
  5
3ABA
  8
L1
 10
-63.036460786463351
 20
47.138793878665922
 30
0.0
  0
VERTEX
  5
3ABB
  8
L1
 10
-63.046020077463197
 20
46.9428079368829
 30
0.0
  0
SEQEND
  5
3ABC
  8
L1
  0
POLYLINE
  5
2CAE
  8
L1
 66
     1
 10
0.0
 20
0.0
 30
0.0
  0
VERTEX
  5
3ABD
  8
L1
 10
-61.697073088947377
 20
46.491233016057258
 30
0.0
  0
VERTEX
  5
3ABE
  8
L1
 10
-61.586257410710118
 20
46.709186851637753
 30
0.0
  0
VERTEX
  5
3ABF
  8
L1
 10
-61.446843118683212
 20
46.917362679660641
 30
0.0
  0
VERTEX
  5
3AC0
  8
L1
 10
-61.212661423407212
 20
47.176712330546422
 30
0.0
  0
VERTEX
  5
3AC1
  8
L1
 10
-60.93519276105507
 20
47.395462615868723
 30
0.0
  0
VERTEX
  5
3AC2
  8
L1
 10
-60.610822161094227
 20
47.569986725547892
 30
0.0
  0
VERTEX
  5
3AC3
  8
L1
 10
-60.262771699553582
 20
47.683178154070838
 30
0.0
  0
VERTEX
  5
3AC4
  8
L1
 10
-60.209532526953858
 20
47.694571369592197
 30
0.0
  0
SEQEND
  5
3AC5
  8
L1
  0
LINE
  5
2CAF
  8
L1
 10
-56.529651470526971
 20
48.940067006392042
 30
0.0
 11
-61.048761007954113
 21
48.940067006392042
 31
0.0
  0
POLYLINE
  5
2CB0
  8
L1
 66
     1
 10
0.0
 20
0.0
 30
0.0
  0
VERTEX
  5
3AC6
  8
L1
 10
-59.839732262174891
 20
47.731038260612763
 30
0.0
  0
VERTEX
  5
3AC7
  8
L1
 10
-58.083973469469463
 20
47.731027259837838
 30
0.0
  0
VERTEX
  5
3AC8
  8
L1
 10
-57.85081987423564
 20
47.731013356836002
 30
0.0
  0
VERTEX
  5
3AC9
  8
L1
 10
-57.644496456116137
 20
47.730998303025551
 30
0.0
  0
VERTEX
  5
3ACA
  8
L1
 10
-57.28865016423174
 20
47.730970725166969
 30
0.0
  0
VERTEX
  5
3ACB
  8
L1
 10
-56.638329848963728
 20
47.73096756381301
 30
0.0
  0
VERTEX
  5
3ACC
  8
L1
 10
-56.418913584252891
 20
47.730992933396749
 30
0.0
  0
VERTEX
  5
3ACD
  8
L1
 10
-56.224854588928793
 20
47.73102900569824
 30
0.0
  0
VERTEX
  5
3ACE
  8
L1
 10
-55.893364057215813
 20
47.73111381018537
 30
0.0
  0
VERTEX
  5
3ACF
  8
L1
 10
-55.32078238495086
 20
47.73119792081593
 30
0.0
  0
SEQEND
  5
3AD0
  8
L1
  0
POLYLINE
  5
2CB1
  8
L1
 66
     1
 10
0.0
 20
0.0
 30
0.0
  0
VERTEX
  5
3AD1
  8
L1
 10
-58.410353420395893
 20
45.753488951937292
 30
0.0
  0
VERTEX
  5
3AD2
  8
L1
 10
-58.6380984030543
 20
45.739390136792899
 30
0.0
  0
VERTEX
  5
3AD3
  8
L1
 10
-58.898657065353518
 20
45.682324404041701
 30
0.0
  0
VERTEX
  5
3AD4
  8
L1
 10
-59.14184012490238
 20
45.574887967944903
 30
0.0
  0
VERTEX
  5
3AD5
  8
L1
 10
-59.319455708063117
 20
45.446422899777751
 30
0.0
  0
VERTEX
  5
3AD6
  8
L1
 10
-59.467834044425899
 20
45.285116982980462
 30
0.0
  0
VERTEX
  5
3AD7
  8
L1
 10
-59.59439958037575
 20
45.072757364053977
 30
0.0
  0
VERTEX
  5
3AD8
  8
L1
 10
-59.677770945913949
 20
44.839330738015583
 30
0.0
  0
VERTEX
  5
3AD9
  8
L1
 10
-59.720611716776027
 20
44.609409821459387
 30
0.0
  0
VERTEX
  5
3ADA
  8
L1
 10
-59.733858588995247
 20
44.374643532980031
 30
0.0
  0
SEQEND
  5
3ADB
  8
L1
  0
POLYLINE
  5
2CB2
  8
L1
 66
     1
 10
0.0
 20
0.0
 30
0.0
  0
VERTEX
  5
3ADC
  8
L1
 10
-61.69707308894732
 20
46.491233016057258
 30
0.0
  0
VERTEX
  5
3ADD
  8
L1
 10
-61.812200114655923
 20
46.128589660902257
 30
0.0
  0
VERTEX
  5
3ADE
  8
L1
 10
-61.851053299360331
 20
45.747841158779977
 30
0.0
  0
SEQEND
  5
3ADF
  8
L1
  0
LINE
  5
2CB3
  8
L1
 10
-61.700299137686777
 20
56.531159070128687
 30
0.0
 11
-56.968840929871362
 21
51.799700862313273
 31
0.0
  0
POLYLINE
  5
2CB4
  8
L1
 66
     1
 10
0.0
 20
0.0
 30
0.0
  0
VERTEX
  5
3AE0
  8
L1
 10
-48.940067006392212
 20
56.529651470526801
 30
0.0
  0
VERTEX
  5
3AE1
  8
L1
 10
-48.942769004879779
 20
56.327433511053698
 30
0.0
  0
VERTEX
  5
3AE2
  8
L1
 10
-48.950844016536387
 20
56.125372715584199
 30
0.0
  0
VERTEX
  5
3AE3
  8
L1
 10
-48.964286337915041
 20
55.923611801317008
 30
0.0
  0
VERTEX
  5
3AE4
  8
L1
 10
-48.98308647459384
 20
55.722293273642151
 30
0.0
  0
VERTEX
  5
3AE5
  8
L1
 10
-49.007231147881839
 20
55.52155932548856
 30
0.0
  0
VERTEX
  5
3AE6
  8
L1
 10
-49.036703304198063
 20
55.321551736891699
 30
0.0
  0
VERTEX
  5
3AE7
  8
L1
 10
-49.07148212711661
 20
55.122411774853447
 30
0.0
  0
VERTEX
  5
3AE8
  8
L1
 10
-49.111543052069351
 20
54.924280093563709
 30
0.0
  0
VERTEX
  5
3AE9
  8
L1
 10
-49.156857783696061
 20
54.727296635055673
 30
0.0
  0
VERTEX
  5
3AEA
  8
L1
 10
-49.207394315829788
 20
54.531600530363171
 30
0.0
  0
VERTEX
  5
3AEB
  8
L1
 10
-49.263116954103047
 20
54.33733000125153
 30
0.0
  0
VERTEX
  5
3AEC
  8
L1
 10
-49.32398634115895
 20
54.144622262590303
 30
0.0
  0
VERTEX
  5
3AED
  8
L1
 10
-49.389959484449612
 20
53.953613425437361
 30
0.0
  0
VERTEX
  5
3AEE
  8
L1
 10
-49.460989786602447
 20
53.76443840090252
 30
0.0
  0
VERTEX
  5
3AEF
  8
L1
 10
-49.537027078331903
 20
53.57723080485863
 30
0.0
  0
VERTEX
  5
3AF0
  8
L1
 10
-49.618017653874567
 20
53.392122863567693
 30
0.0
  0
VERTEX
  5
3AF1
  8
L1
 10
-49.703904308922013
 20
53.209245320288183
 30
0.0
  0
VERTEX
  5
3AF2
  8
L1
 10
-49.79462638102472
 20
53.028727342930381
 30
0.0
  0
VERTEX
  5
3AF3
  8
L1
 10
-49.890119792438327
 20
52.850696432823661
 30
0.0
  0
VERTEX
  5
3AF4
  8
L1
 10
-49.990317095382473
 20
52.6752783346613
 30
0.0
  0
VERTEX
  5
3AF5
  8
L1
 10
-50.095147519679472
 20
52.502596947686193
 30
0.0
  0
VERTEX
  5
3AF6
  8
L1
 10
-50.204537022740048
 20
52.332774238179638
 30
0.0
  0
VERTEX
  5
3AF7
  8
L1
 10
-50.31840834186017
 20
52.165930153315401
 30
0.0
  0
VERTEX
  5
3AF8
  8
L1
 10
-50.436681048792252
 20
52.002182536440444
 30
0.0
  0
VERTEX
  5
3AF9
  8
L1
 10
-50.559271606552443
 20
51.841647043840851
 30
0.0
  0
VERTEX
  5
3AFA
  8
L1
 10
-50.686093428423419
 20
51.68443706305294
 30
0.0
  0
VERTEX
  5
3AFB
  8
L1
 10
-50.817056939111183
 20
51.530663632776729
 30
0.0
  0
VERTEX
  5
3AFC
  8
L1
 10
-50.952069638013093
 20
51.380435364448488
 30
0.0
  0
VERTEX
  5
3AFD
  8
L1
 10
-51.091036164551383
 20
51.233858365527389
 30
0.0
  0
VERTEX
  5
3AFE
  8
L1
 10
-51.23385836552756
 20
51.091036164551213
 30
0.0
  0
VERTEX
  5
3AFF
  8
L1
 10
-51.380435364448651
 20
50.952069638012922
 30
0.0
  0
VERTEX
  5
3B00
  8
L1
 10
-51.530663632776907
 20
50.817056939111012
 30
0.0
  0
VERTEX
  5
3B01
  8
L1
 10
-51.68443706305311
 20
50.686093428423248
 30
0.0
  0
VERTEX
  5
3B02
  8
L1
 10
-51.841647043841022
 20
50.559271606552272
 30
0.0
  0
VERTEX
  5
3B03
  8
L1
 10
-52.002182536440607
 20
50.436681048792082
 30
0.0
  0
VERTEX
  5
3B04
  8
L1
 10
-52.165930153315571
 20
50.318408341859993
 30
0.0
  0
VERTEX
  5
3B05
  8
L1
 10
-52.332774238179802
 20
50.204537022739892
 30
0.0
  0
VERTEX
  5
3B06
  8
L1
 10
-52.502596947686357
 20
50.095147519679301
 30
0.0
  0
VERTEX
  5
3B07
  8
L1
 10
-52.675278334661471
 20
49.990317095382288
 30
0.0
  0
VERTEX
  5
3B08
  8
L1
 10
-52.850696432823831
 20
49.890119792438163
 30
0.0
  0
VERTEX
  5
3B09
  8
L1
 10
-53.028727342930551
 20
49.794626381024557
 30
0.0
  0
VERTEX
  5
3B0A
  8
L1
 10
-53.209245320288339
 20
49.703904308921842
 30
0.0
  0
VERTEX
  5
3B0B
  8
L1
 10
-53.39212286356787
 20
49.618017653874404
 30
0.0
  0
VERTEX
  5
3B0C
  8
L1
 10
-53.5772308048588
 20
49.537027078331732
 30
0.0
  0
VERTEX
  5
3B0D
  8
L1
 10
-53.764438400902691
 20
49.460989786602283
 30
0.0
  0
VERTEX
  5
3B0E
  8
L1
 10
-53.953613425437538
 20
49.389959484449442
 30
0.0
  0
VERTEX
  5
3B0F
  8
L1
 10
-54.144622262590467
 20
49.323986341158779
 30
0.0
  0
VERTEX
  5
3B10
  8
L1
 10
-54.337330001251701
 20
49.263116954102877
 30
0.0
  0
VERTEX
  5
3B11
  8
L1
 10
-54.531600530363328
 20
49.207394315829617
 30
0.0
  0
VERTEX
  5
3B12
  8
L1
 10
-54.727296635055829
 20
49.156857783695891
 30
0.0
  0
VERTEX
  5
3B13
  8
L1
 10
-54.924280093563873
 20
49.11154305206918
 30
0.0
  0
VERTEX
  5
3B14
  8
L1
 10
-55.12241177485361
 20
49.07148212711644
 30
0.0
  0
VERTEX
  5
3B15
  8
L1
 10
-55.32155173689187
 20
49.036703304197893
 30
0.0
  0
VERTEX
  5
3B16
  8
L1
 10
-55.521559325488738
 20
49.007231147881669
 30
0.0
  0
VERTEX
  5
3B17
  8
L1
 10
-55.722293273642322
 20
48.983086474593676
 30
0.0
  0
VERTEX
  5
3B18
  8
L1
 10
-55.923611801317172
 20
48.964286337914871
 30
0.0
  0
VERTEX
  5
3B19
  8
L1
 10
-56.125372715584369
 20
48.95084401653623
 30
0.0
  0
VERTEX
  5
3B1A
  8
L1
 10
-56.327433511053869
 20
48.942769004879608
 30
0.0
  0
VERTEX
  5
3B1B
  8
L1
 10
-56.529651470526971
 20
48.940067006392042
 30
0.0
  0
SEQEND
  5
3B1C
  8
L1
  0
POLYLINE
  5
2CB5
  8
L1
 66
     1
 10
0.0
 20
0.0
 30
0.0
  0
VERTEX
  5
3B1D
  8
L1
 10
-55.32078238495086
 20
47.73119792081593
 30
0.0
  0
VERTEX
  5
3B1E
  8
L1
 10
-55.274528509900676
 20
47.73134011044516
 30
0.0
  0
VERTEX
  5
3B1F
  8
L1
 10
-55.079716260798143
 20
47.735147577404632
 30
0.0
  0
VERTEX
  5
3B20
  8
L1
 10
-54.654345306803179
 20
47.761489579966899
 30
0.0
  0
VERTEX
  5
3B21
  8
L1
 10
-54.443648320938671
 20
47.783626368724917
 30
0.0
  0
VERTEX
  5
3B22
  8
L1
 10
-54.190406214040543
 20
47.818253940848017
 30
0.0
  0
VERTEX
  5
3B23
  8
L1
 10
-53.899137393666251
 20
47.868982863103319
 30
0.0
  0
VERTEX
  5
3B24
  8
L1
 10
-53.574360267373322
 20
47.939423702257379
 30
0.0
  0
VERTEX
  5
3B25
  8
L1
 10
-53.102463247988567
 20
48.068720341375872
 30
0.0
  0
VERTEX
  5
3B26
  8
L1
 10
-52.640184031571607
 20
48.227961217950217
 30
0.0
  0
VERTEX
  5
3B27
  8
L1
 10
-52.189007119832873
 20
48.416600588234587
 30
0.0
  0
VERTEX
  5
3B28
  8
L1
 10
-51.750417014482757
 20
48.63409270848269
 30
0.0
  0
VERTEX
  5
3B29
  8
L1
 10
-51.121594719335583
 20
49.011544102013829
 30
0.0
  0
VERTEX
  5
3B2A
  8
L1
 10
-50.531802437309132
 20
49.447658529267471
 30
0.0
  0
VERTEX
  5
3B2B
  8
L1
 10
-49.972111510274893
 20
49.952800165016299
 30
0.0
  0
VERTEX
  5
3B2C
  8
L1
 10
-49.46502754152624
 20
50.510790114184204
 30
0.0
  0
VERTEX
  5
3B2D
  8
L1
 10
-49.065647524673068
 20
51.04209367449954
 30
0.0
  0
VERTEX
  5
3B2E
  8
L1
 10
-48.713930872883907
 20
51.606167470228058
 30
0.0
  0
VERTEX
  5
3B2F
  8
L1
 10
-48.4183582272085
 20
52.186023013524327
 30
0.0
  0
VERTEX
  5
3B30
  8
L1
 10
-48.17339280696433
 20
52.788933891203378
 30
0.0
  0
VERTEX
  5
3B31
  8
L1
 10
-48.017642363475552
 20
53.275410070638891
 30
0.0
  0
VERTEX
  5
3B32
  8
L1
 10
-47.907254360812878
 20
53.713902935420151
 30
0.0
  0
VERTEX
  5
3B33
  8
L1
 10
-47.833466786330398
 20
54.095945040035247
 30
0.0
  0
VERTEX
  5
3B34
  8
L1
 10
-47.78751762738176
 20
54.41306893897189
 30
0.0
  0
VERTEX
  5
3B35
  8
L1
 10
-47.74939591604646
 20
54.804668282786501
 30
0.0
  0
VERTEX
  5
3B36
  8
L1
 10
-47.733238830100277
 20
55.147078120581568
 30
0.0
  0
VERTEX
  5
3B37
  8
L1
 10
-47.731177986682717
 20
55.317786475224921
 30
0.0
  0
VERTEX
  5
3B38
  8
L1
 10
-47.731177419503688
 20
55.320761883638284
 30
0.0
  0
SEQEND
  5
3B39
  8
L1
  0
ARC
  5
2CB6
  8
L1
 10
-56.750000000000107
 20
56.75
 30
0.0
 40
4.9551339946734032
 50
267.46873820670891
 51
2.531261793292781
  0
POLYLINE
  5
2CB7
  8
L1
 66
     1
 10
0.0
 20
0.0
 30
0.0
  0
VERTEX
  5
3B3A
  8
L1
 10
-47.731027276929119
 20
59.839721278491027
 30
0.0
  0
VERTEX
  5
3B3B
  8
L1
 10
-47.730987414274857
 20
59.85201139788478
 30
0.0
  0
VERTEX
  5
3B3C
  8
L1
 10
-47.730364050865141
 20
59.889972759174732
 30
0.0
  0
VERTEX
  5
3B3D
  8
L1
 10
-47.727125082442221
 20
59.961522756105012
 30
0.0
  0
VERTEX
  5
3B3E
  8
L1
 10
-47.711372876901578
 20
60.112091818183153
 30
0.0
  0
VERTEX
  5
3B3F
  8
L1
 10
-47.694575012660493
 20
60.209448876169567
 30
0.0
  0
SEQEND
  5
3B40
  8
L1
  0
POLYLINE
  5
2CB8
  8
L1
 66
     1
 10
0.0
 20
0.0
 30
0.0
  0
VERTEX
  5
3B41
  8
L1
 10
-61.557000000000073
 20
65.012088437774139
 30
0.0
  0
VERTEX
  5
3B42
  8
L1
 10
-61.537048032038292
 20
65.012250207188799
 30
0.0
  0
VERTEX
  5
3B43
  8
L1
 10
-61.517100759268203
 20
65.012304130909172
 30
0.0
  0
SEQEND
  5
3B44
  8
L1
  0
LINE
  5
2CB9
  8
L1
 10
-58.687208996505042
 20
61.310764651791203
 30
0.0
 11
-59.035746534405177
 21
61.659302189691402
 31
0.0
  0
POLYLINE
  5
2CBA
  8
L1
 66
     1
 10
0.0
 20
0.0
 30
0.0
  0
VERTEX
  5
3B45
  8
L1
 10
-59.035746534405121
 20
61.659302189691459
 30
0.0
  0
VERTEX
  5
3B46
  8
L1
 10
-59.080639129592441
 20
61.704116422292373
 30
0.0
  0
VERTEX
  5
3B47
  8
L1
 10
-59.124081047125863
 20
61.747342135618901
 30
0.0
  0
VERTEX
  5
3B48
  8
L1
 10
-59.162953301975563
 20
61.78586227759893
 30
0.0
  0
VERTEX
  5
3B49
  8
L1
 10
-59.197587405172101
 20
61.820028179014741
 30
0.0
  0
VERTEX
  5
3B4A
  8
L1
 10
-59.224983031468703
 20
61.846862727420053
 30
0.0
  0
VERTEX
  5
3B4B
  8
L1
 10
-59.245965950158052
 20
61.867206662007838
 30
0.0
  0
VERTEX
  5
3B4C
  8
L1
 10
-59.258187265245851
 20
61.878765071482292
 30
0.0
  0
VERTEX
  5
3B4D
  8
L1
 10
-59.263214172935307
 20
61.88309964175221
 30
0.0
  0
SEQEND
  5
3B4E
  8
L1
  0
POLYLINE
  5
2CBB
  8
L1
 66
     1
 10
0.0
 20
0.0
 30
0.0
  0
VERTEX
  5
3B4F
  8
L1
 10
-59.263214172935307
 20
61.88309964175221
 30
0.0
  0
VERTEX
  5
3B50
  8
L1
 10
-59.319858836591841
 20
61.89241604171076
 30
0.0
  0
VERTEX
  5
3B51
  8
L1
 10
-59.376706762295328
 20
61.901529179287763
 30
0.0
  0
SEQEND
  5
3B52
  8
L1
  0
ARC
  5
2CBC
  8
L1
 10
-56.750000000000107
 20
56.75
 30
0.0
 40
5.7825462644184809
 50
117.01652280964289
 51
152.9834771903592
  0
POLYLINE
  5
2CBD
  8
L1
 66
     1
 10
0.0
 20
0.0
 30
0.0
  0
VERTEX
  5
3B53
  8
L1
 10
-61.901529179287877
 20
59.3767067622951
 30
0.0
  0
VERTEX
  5
3B54
  8
L1
 10
-61.892416041710298
 20
59.319858836588082
 30
0.0
  0
VERTEX
  5
3B55
  8
L1
 10
-61.883099641752381
 20
59.263214172935143
 30
0.0
  0
SEQEND
  5
3B56
  8
L1
  0
ARC
  5
2CBE
  8
L1
 10
-56.750000000000107
 20
56.75
 30
0.0
 40
4.9551339946734032
 50
87.46873820670892
 51
113.01361607239249
  0
POLYLINE
  5
2CBF
  8
L1
 66
     1
 10
0.0
 20
0.0
 30
0.0
  0
VERTEX
  5
3B57
  8
L1
 10
-61.883099641752317
 20
59.263214172935072
 30
0.0
  0
VERTEX
  5
3B58
  8
L1
 10
-61.878765071482349
 20
59.25818726524551
 30
0.0
  0
VERTEX
  5
3B59
  8
L1
 10
-61.867206662008023
 20
59.245965950157768
 30
0.0
  0
VERTEX
  5
3B5A
  8
L1
 10
-61.846862727420103
 20
59.224983031468412
 30
0.0
  0
VERTEX
  5
3B5B
  8
L1
 10
-61.820028179014798
 20
59.197587405171873
 30
0.0
  0
VERTEX
  5
3B5C
  8
L1
 10
-61.785862277598987
 20
59.162953301975392
 30
0.0
  0
VERTEX
  5
3B5D
  8
L1
 10
-61.747342135619022
 20
59.124081047125571
 30
0.0
  0
VERTEX
  5
3B5E
  8
L1
 10
-61.704116422292479
 20
59.080639129592207
 30
0.0
  0
VERTEX
  5
3B5F
  8
L1
 10
-61.65930218969163
 20
59.0357465344049
 30
0.0
  0
SEQEND
  5
3B60
  8
L1
  0
POLYLINE
  5
2CC0
  8
L1
 66
     1
 10
0.0
 20
0.0
 30
0.0
  0
VERTEX
  5
3B61
  8
L1
 10
-65.012304130909214
 20
61.517100759268139
 30
0.0
  0
VERTEX
  5
3B62
  8
L1
 10
-65.012250207188856
 20
61.537048032038172
 30
0.0
  0
VERTEX
  5
3B63
  8
L1
 10
-65.012088437774196
 20
61.556999999999903
 30
0.0
  0
SEQEND
  5
3B64
  8
L1
  0
POLYLINE
  5
2CC1
  8
L1
 66
     1
 10
0.0
 20
0.0
 30
0.0
  0
VERTEX
  5
3B65
  8
L1
 10
-63.665886064679107
 20
60.170682693037982
 30
0.0
  0
VERTEX
  5
3B66
  8
L1
 10
-63.662880445724561
 20
60.31523536792389
 30
0.0
  0
VERTEX
  5
3B67
  8
L1
 10
-63.653913841849032
 20
60.45952652732376
 30
0.0
  0
VERTEX
  5
3B68
  8
L1
 10
-63.639001518973323
 20
60.603310511069601
 30
0.0
  0
VERTEX
  5
3B69
  8
L1
 10
-63.618168865789073
 20
60.746342522475288
 30
0.0
  0
VERTEX
  5
3B6A
  8
L1
 10
-63.591451350533532
 20
60.888379045111272
 30
0.0
  0
VERTEX
  5
3B6B
  8
L1
 10
-63.558894460604051
 20
61.029178257398307
 30
0.0
  0
VERTEX
  5
3B6C
  8
L1
 10
-63.520553625114069
 20
61.168500444316287
 30
0.0
  0
VERTEX
  5
3B6D
  8
L1
 10
-63.476494120523618
 20
61.306108405526693
 30
0.0
  0
VERTEX
  5
3B6E
  8
L1
 10
-63.426790959503933
 20
61.441767859213257
 30
0.0
  0
VERTEX
  5
3B6F
  8
L1
 10
-63.371528763226188
 20
61.575247840954141
 30
0.0
  0
VERTEX
  5
3B70
  8
L1
 10
-63.310801617291247
 20
61.706321096945999
 30
0.0
  0
VERTEX
  5
3B71
  8
L1
 10
-63.244712911546003
 20
61.83476447091067
 30
0.0
  0
VERTEX
  5
3B72
  8
L1
 10
-63.173375164059053
 20
61.960359284025628
 30
0.0
  0
VERTEX
  5
3B73
  8
L1
 10
-63.096909829555102
 20
62.08289170723134
 30
0.0
  0
VERTEX
  5
3B74
  8
L1
 10
-63.015447092634531
 20
62.202153125281882
 30
0.0
  0
VERTEX
  5
3B75
  8
L1
 10
-62.929125646130217
 20
62.317940491919103
 30
0.0
  0
VERTEX
  5
3B76
  8
L1
 10
-62.8380924549786
 20
62.43005667556497
 30
0.0
  0
VERTEX
  5
3B77
  8
L1
 10
-62.742502506007149
 20
62.538310794943982
 30
0.0
  0
VERTEX
  5
3B78
  8
L1
 10
-62.642518544064949
 20
62.642518544064899
 30
0.0
  0
VERTEX
  5
3B79
  8
L1
 10
-62.538310794944032
 20
62.742502506007099
 30
0.0
  0
VERTEX
  5
3B7A
  8
L1
 10
-62.430056675565019
 20
62.83809245497855
 30
0.0
  0
VERTEX
  5
3B7B
  8
L1
 10
-62.31794049191916
 20
62.92912564613016
 30
0.0
  0
VERTEX
  5
3B7C
  8
L1
 10
-62.202153125281939
 20
63.015447092634467
 30
0.0
  0
VERTEX
  5
3B7D
  8
L1
 10
-62.082891707231397
 20
63.096909829555052
 30
0.0
  0
VERTEX
  5
3B7E
  8
L1
 10
-61.960359284025692
 20
63.173375164058989
 30
0.0
  0
VERTEX
  5
3B7F
  8
L1
 10
-61.834764470910727
 20
63.244712911545939
 30
0.0
  0
VERTEX
  5
3B80
  8
L1
 10
-61.706321096946048
 20
63.31080161729119
 30
0.0
  0
VERTEX
  5
3B81
  8
L1
 10
-61.575247840954212
 20
63.371528763226138
 30
0.0
  0
VERTEX
  5
3B82
  8
L1
 10
-61.441767859213307
 20
63.426790959503869
 30
0.0
  0
VERTEX
  5
3B83
  8
L1
 10
-61.306108405526743
 20
63.476494120523569
 30
0.0
  0
VERTEX
  5
3B84
  8
L1
 10
-61.168500444316351
 20
63.520553625114019
 30
0.0
  0
VERTEX
  5
3B85
  8
L1
 10
-61.029178257398371
 20
63.558894460603987
 30
0.0
  0
VERTEX
  5
3B86
  8
L1
 10
-60.888379045111321
 20
63.591451350533468
 30
0.0
  0
VERTEX
  5
3B87
  8
L1
 10
-60.746342522475338
 20
63.618168865789009
 30
0.0
  0
VERTEX
  5
3B88
  8
L1
 10
-60.603310511069651
 20
63.639001518973252
 30
0.0
  0
VERTEX
  5
3B89
  8
L1
 10
-60.45952652732381
 20
63.653913841848969
 30
0.0
  0
VERTEX
  5
3B8A
  8
L1
 10
-60.315235367923947
 20
63.662880445724511
 30
0.0
  0
VERTEX
  5
3B8B
  8
L1
 10
-60.170682693038032
 20
63.665886064679057
 30
0.0
  0
SEQEND
  5
3B8C
  8
L1
  0
POLYLINE
  5
2CC2
  8
L1
 66
     1
 10
0.0
 20
0.0
 30
0.0
  0
VERTEX
  5
3B8D
  8
L1
 10
-65.012088437774139
 20
61.556999999999903
 30
0.0
  0
VERTEX
  5
3B8E
  8
L1
 10
-64.993014072386003
 20
61.88563056863228
 30
0.0
  0
VERTEX
  5
3B8F
  8
L1
 10
-64.941714390114328
 20
62.218787602445282
 30
0.0
  0
VERTEX
  5
3B90
  8
L1
 10
-64.857024460342913
 20
62.55015194317383
 30
0.0
  0
VERTEX
  5
3B91
  8
L1
 10
-64.739585002002457
 20
62.873772386240937
 30
0.0
  0
VERTEX
  5
3B92
  8
L1
 10
-64.59075649900069
 20
63.184196702883298
 30
0.0
  0
VERTEX
  5
3B93
  8
L1
 10
-64.413440750186226
 20
63.476619230896063
 30
0.0
  0
VERTEX
  5
3B94
  8
L1
 10
-64.211400615580374
 20
63.74639901824429
 30
0.0
  0
VERTEX
  5
3B95
  8
L1
 10
-63.989929119073679
 20
63.989929119073622
 30
0.0
  0
VERTEX
  5
3B96
  8
L1
 10
-63.746399018244411
 20
64.211400615580203
 30
0.0
  0
VERTEX
  5
3B97
  8
L1
 10
-63.476619230896233
 20
64.413440750186055
 30
0.0
  0
VERTEX
  5
3B98
  8
L1
 10
-63.184196702883469
 20
64.59075649900052
 30
0.0
  0
VERTEX
  5
3B99
  8
L1
 10
-62.873772386241001
 20
64.739585002002386
 30
0.0
  0
VERTEX
  5
3B9A
  8
L1
 10
-62.550151943174001
 20
64.85702446034287
 30
0.0
  0
VERTEX
  5
3B9B
  8
L1
 10
-62.218787602445438
 20
64.941714390114271
 30
0.0
  0
VERTEX
  5
3B9C
  8
L1
 10
-61.88563056863245
 20
64.993014072385961
 30
0.0
  0
VERTEX
  5
3B9D
  8
L1
 10
-61.557000000000073
 20
65.012088437774082
 30
0.0
  0
SEQEND
  5
3B9E
  8
L1
  0
LINE
  5
2CC3
  8
L1
 10
61.659302189691509
 20
59.0357465344049
 30
0.0
 11
61.31076465179131
 21
58.687208996504687
 31
0.0
  0
POLYLINE
  5
2CC4
  8
L1
 66
     1
 10
0.0
 20
0.0
 30
0.0
  0
VERTEX
  5
3B9F
  8
L1
 10
47.731177419503581
 20
55.320761883638284
 30
0.0
  0
VERTEX
  5
3BA0
  8
L1
 10
47.731067602106059
 20
55.95416466186105
 30
0.0
  0
VERTEX
  5
3BA1
  8
L1
 10
47.731025240094937
 20
56.131103641319669
 30
0.0
  0
VERTEX
  5
3BA2
  8
L1
 10
47.7309927692936
 20
56.287221051487791
 30
0.0
  0
VERTEX
  5
3BA3
  8
L1
 10
47.730953684686312
 20
56.55252694178813
 30
0.0
  0
VERTEX
  5
3BA4
  8
L1
 10
47.730952227016132
 20
57.004173447096029
 30
0.0
  0
VERTEX
  5
3BA5
  8
L1
 10
47.730974587417514
 20
57.252657173446607
 30
0.0
  0
VERTEX
  5
3BA6
  8
L1
 10
47.731002162952898
 20
57.557676623157192
 30
0.0
  0
VERTEX
  5
3BA7
  8
L1
 10
47.731015520999563
 20
57.741097105419612
 30
0.0
  0
VERTEX
  5
3BA8
  8
L1
 10
47.731027320354251
 20
57.950303351899031
 30
0.0
  0
VERTEX
  5
3BA9
  8
L1
 10
47.731036606858652
 20
58.189179307054189
 30
0.0
  0
VERTEX
  5
3BAA
  8
L1
 10
47.731042426353952
 20
58.461608915343952
 30
0.0
  0
VERTEX
  5
3BAB
  8
L1
 10
47.731027276929012
 20
59.839721278491027
 30
0.0
  0
SEQEND
  5
3BAC
  8
L1
  0
LINE
  5
2CC5
  8
L1
 10
48.940067006392091
 20
61.048761007953999
 30
0.0
 11
48.940067006392091
 21
56.529651470526801
 31
0.0
  0
POLYLINE
  5
2CC6
  8
L1
 66
     1
 10
0.0
 20
0.0
 30
0.0
  0
VERTEX
  5
3BAD
  8
L1
 10
44.374682106856589
 20
59.733858588995083
 30
0.0
  0
VERTEX
  5
3BAE
  8
L1
 10
44.64023126564939
 20
59.716736632092818
 30
0.0
  0
VERTEX
  5
3BAF
  8
L1
 10
44.919291824364329
 20
59.65443992442146
 30
0.0
  0
VERTEX
  5
3BB0
  8
L1
 10
45.179395273564289
 20
59.538391884477441
 30
0.0
  0
VERTEX
  5
3BB1
  8
L1
 10
45.352842111795027
 20
59.412748111393682
 30
0.0
  0
VERTEX
  5
3BB2
  8
L1
 10
45.498650191247179
 20
59.25606480495798
 30
0.0
  0
VERTEX
  5
3BB3
  8
L1
 10
45.620996060697053
 20
59.054471571681511
 30
0.0
  0
VERTEX
  5
3BB4
  8
L1
 10
45.701733713783369
 20
58.83237854626401
 30
0.0
  0
VERTEX
  5
3BB5
  8
L1
 10
45.741252804035867
 20
58.623512583951019
 30
0.0
  0
VERTEX
  5
3BB6
  8
L1
 10
45.753531830061313
 20
58.410487068577311
 30
0.0
  0
SEQEND
  5
3BB7
  8
L1
  0
LINE
  5
2CC7
  8
L1
 10
51.79970086231333
 20
56.968840929871419
 30
0.0
 11
56.531159070128581
 21
61.70029913768667
 31
0.0
  0
CIRCLE
  5
2CC8
  8
L1
 10
56.75
 20
56.75
 30
0.0
 40
5.7974047862592784
  0
CIRCLE
  5
2CC9
  8
L1
 10
56.75
 20
56.75
 30
0.0
 40
6.097393363178492
  0
POLYLINE
  5
2CCA
  8
L1
 66
     1
 10
0.0
 20
0.0
 30
0.0
  0
VERTEX
  5
3BB8
  8
L1
 10
-44.37468210685671
 20
59.733858588995083
 30
0.0
  0
VERTEX
  5
3BB9
  8
L1
 10
-44.640231265649497
 20
59.716736632092818
 30
0.0
  0
VERTEX
  5
3BBA
  8
L1
 10
-44.91929182436445
 20
59.65443992442146
 30
0.0
  0
VERTEX
  5
3BBB
  8
L1
 10
-45.17939527356441
 20
59.538391884477441
 30
0.0
  0
VERTEX
  5
3BBC
  8
L1
 10
-45.352842111795148
 20
59.412748111393682
 30
0.0
  0
VERTEX
  5
3BBD
  8
L1
 10
-45.498650191247293
 20
59.25606480495798
 30
0.0
  0
VERTEX
  5
3BBE
  8
L1
 10
-45.620996060697159
 20
59.054471571681511
 30
0.0
  0
VERTEX
  5
3BBF
  8
L1
 10
-45.701733713783483
 20
58.83237854626401
 30
0.0
  0
VERTEX
  5
3BC0
  8
L1
 10
-45.74125280403598
 20
58.623512583951019
 30
0.0
  0
VERTEX
  5
3BC1
  8
L1
 10
-45.753531830061434
 20
58.410487068577311
 30
0.0
  0
SEQEND
  5
3BC2
  8
L1
  0
LINE
  5
2CCB
  8
L6
 10
0.0
 20
71.391648896809514
 30
0.0
 11
0.0
 21
-71.391648896809585
 31
0.0
  0
LINE
  5
2CCC
  8
L1
 10
63.665886064679
 20
-60.170682693038032
 30
0.0
 11
63.665886064679
 21
60.170682693037982
 31
0.0
  0
LINE
  5
2CCD
  8
L1
 10
65.012304130909172
 20
-61.517100759268182
 30
0.0
 11
65.012304130909172
 21
61.517100759268139
 31
0.0
  0
LINE
  5
2CCE
  8
L1
 10
-44.012304130909229
 20
46.012304130909108
 30
0.0
 11
44.012304130909108
 21
46.012304130909108
 31
0.0
  0
LINE
  5
2CCF
  8
L1
 10
-46.9428079368829
 20
-63.046020077463197
 30
0.0
 11
46.942807936883007
 21
-63.046020077463197
 31
0.0
  0
LINE
  5
2CD0
  8
L1
 10
-44.012304130909229
 20
-46.012304130909172
 30
0.0
 11
44.012304130909108
 21
-46.012304130909172
 31
0.0
  0
LINE
  5
2CD1
  8
L1
 10
45.747841158780027
 20
-61.851053299360331
 30
0.0
 11
-45.747841158780027
 21
-61.851053299360331
 31
0.0
  0
LINE
  5
2CD2
  8
L1
 10
-44.37464353298202
 20
-59.733858588995133
 30
0.0
 11
44.374682106856589
 21
-59.733858588995133
 31
0.0
  0
LINE
  5
2CD3
  8
L1
 10
-46.012304130909172
 20
44.012304130909172
 30
0.0
 11
-46.012304130909229
 21
-44.012304130909172
 31
0.0
  0
POLYLINE
  5
2CD4
  8
L1
 66
     1
 10
0.0
 20
0.0
 30
0.0
  0
VERTEX
  5
3BC3
  8
L1
 10
-45.74784115878014
 20
-61.851053299360331
 30
0.0
  0
VERTEX
  5
3BC4
  8
L1
 10
-46.128673880457711
 20
-61.812182668059343
 30
0.0
  0
VERTEX
  5
3BC5
  8
L1
 10
-46.491390218655958
 20
-61.69700458937217
 30
0.0
  0
SEQEND
  5
3BC6
  8
L1
  0
ARC
  5
2CD5
  8
L1
 10
-44.012304130909229
 20
-44.012304130909229
 30
0.0
 40
2.0
 50
180.0
 51
270.0
  0
POLYLINE
  5
2CD6
  8
L1
 66
     1
 10
0.0
 20
0.0
 30
0.0
  0
VERTEX
  5
3BC7
  8
L1
 10
-44.37468210685671
 20
-59.733858588995133
 30
0.0
  0
VERTEX
  5
3BC8
  8
L1
 10
-44.640231265649497
 20
-59.716736632092868
 30
0.0
  0
VERTEX
  5
3BC9
  8
L1
 10
-44.91929182436445
 20
-59.654439924421517
 30
0.0
  0
VERTEX
  5
3BCA
  8
L1
 10
-45.17939527356441
 20
-59.538391884477512
 30
0.0
  0
VERTEX
  5
3BCB
  8
L1
 10
-45.352842111795148
 20
-59.412748111393739
 30
0.0
  0
VERTEX
  5
3BCC
  8
L1
 10
-45.498650191247293
 20
-59.256064804958051
 30
0.0
  0
VERTEX
  5
3BCD
  8
L1
 10
-45.620996060697159
 20
-59.054471571681582
 30
0.0
  0
VERTEX
  5
3BCE
  8
L1
 10
-45.701733713783483
 20
-58.832378546264067
 30
0.0
  0
VERTEX
  5
3BCF
  8
L1
 10
-45.74125280403598
 20
-58.623512583951083
 30
0.0
  0
VERTEX
  5
3BD0
  8
L1
 10
-45.753531830061434
 20
-58.410487068577368
 30
0.0
  0
SEQEND
  5
3BD1
  8
L1
  0
ARC
  5
2CD7
  8
L1
 10
-44.012304130909229
 20
44.012304130909172
 30
0.0
 40
2.0
 50
90.0
 51
180.0
  0
LINE
  5
2CD8
  8
L1
 10
59.733858588995133
 20
44.374643532980031
 30
0.0
 11
59.733858588995133
 21
-44.374682106856881
 31
0.0
  0
LINE
  5
2CD9
  8
L1
 10
46.012304130909051
 20
44.012304130909172
 30
0.0
 11
46.012304130909108
 21
-44.012304130909172
 31
0.0
  0
LINE
  5
2CDA
  8
L1
 10
61.851053299360267
 20
-45.747841158779949
 30
0.0
 11
61.851053299360267
 21
45.747841158779977
 31
0.0
  0
LINE
  5
2CDB
  8
L1
 10
63.04602007746314
 20
46.9428079368829
 30
0.0
 11
63.04602007746314
 21
-46.9428079368829
 31
0.0
  0
ARC
  5
2CDC
  8
L1
 10
56.75
 20
-56.750000000000057
 30
0.0
 40
5.7825462644184809
 50
297.01652280964282
 51
332.98347719035928
  0
POLYLINE
  5
2CDD
  8
L1
 66
     1
 10
0.0
 20
0.0
 30
0.0
  0
VERTEX
  5
3BD2
  8
L1
 10
47.731027276929012
 20
-59.839721278491083
 30
0.0
  0
VERTEX
  5
3BD3
  8
L1
 10
47.73098741427475
 20
-59.85201139788483
 30
0.0
  0
VERTEX
  5
3BD4
  8
L1
 10
47.730364050865028
 20
-59.889972759174782
 30
0.0
  0
VERTEX
  5
3BD5
  8
L1
 10
47.727125082442107
 20
-59.961522756105069
 30
0.0
  0
VERTEX
  5
3BD6
  8
L1
 10
47.711372876901457
 20
-60.112091818183217
 30
0.0
  0
VERTEX
  5
3BD7
  8
L1
 10
47.69457501266038
 20
-60.209448876169631
 30
0.0
  0
SEQEND
  5
3BD8
  8
L1
  0
LINE
  5
2CDE
  8
L1
 10
48.940067006392091
 20
-61.048761007954049
 30
0.0
 11
48.940067006392091
 21
-56.529651470526858
 31
0.0
  0
LINE
  5
2CDF
  8
L1
 10
51.79970086231333
 20
-56.968840929871469
 30
0.0
 11
56.531159070128581
 21
-61.70029913768672
 31
0.0
  0
CIRCLE
  5
2CE0
  8
L1
 10
56.75
 20
-56.750000000000057
 30
0.0
 40
6.097393363178492
  0
CIRCLE
  5
2CE1
  8
L1
 10
56.75
 20
-56.750000000000057
 30
0.0
 40
5.7974047862592784
  0
POLYLINE
  5
2CE2
  8
L1
 66
     1
 10
0.0
 20
0.0
 30
0.0
  0
VERTEX
  5
3BD9
  8
L1
 10
46.94280793688295
 20
-63.046020077463247
 30
0.0
  0
VERTEX
  5
3BDA
  8
L1
 10
47.138793878665972
 20
-63.036460786463351
 30
0.0
  0
VERTEX
  5
3BDB
  8
L1
 10
47.332841029957478
 20
-63.007767597682459
 30
0.0
  0
VERTEX
  5
3BDC
  8
L1
 10
47.523087117040973
 20
-62.960215880127237
 30
0.0
  0
VERTEX
  5
3BDD
  8
L1
 10
47.707706345075842
 20
-62.894261988416638
 30
0.0
  0
VERTEX
  5
3BDE
  8
L1
 10
47.884926920280861
 20
-62.810538883138967
 30
0.0
  0
VERTEX
  5
3BDF
  8
L1
 10
48.053048053868167
 20
-62.709850056318601
 30
0.0
  0
VERTEX
  5
3BE0
  8
L1
 10
48.210456284541401
 20
-62.593161820289879
 30
0.0
  0
VERTEX
  5
3BE1
  8
L1
 10
48.355640962910513
 20
-62.461594033981662
 30
0.0
  0
VERTEX
  5
3BE2
  8
L1
 10
48.487208749218723
 20
-62.316409355612556
 30
0.0
  0
VERTEX
  5
3BE3
  8
L1
 10
48.603896985247452
 20
-62.159001124939323
 30
0.0
  0
VERTEX
  5
3BE4
  8
L1
 10
48.704585812067819
 20
-61.99087999135201
 30
0.0
  0
VERTEX
  5
3BE5
  8
L1
 10
48.788308917345553
 20
-61.813659416146947
 30
0.0
  0
VERTEX
  5
3BE6
  8
L1
 10
48.854262809056081
 20
-61.629040188112008
 30
0.0
  0
VERTEX
  5
3BE7
  8
L1
 10
48.901814526611297
 20
-61.43879410102852
 30
0.0
  0
VERTEX
  5
3BE8
  8
L1
 10
48.930507715392253
 20
-61.244746949737078
 30
0.0
  0
VERTEX
  5
3BE9
  8
L1
 10
48.940067006392162
 20
-61.048761007954049
 30
0.0
  0
SEQEND
  5
3BEA
  8
L1
  0
POLYLINE
  5
2CE3
  8
L1
 66
     1
 10
0.0
 20
0.0
 30
0.0
  0
VERTEX
  5
3BEB
  8
L1
 10
47.69457501266038
 20
-60.209448876169631
 30
0.0
  0
VERTEX
  5
3BEC
  8
L1
 10
47.62600796589237
 20
-60.464535195819451
 30
0.0
  0
VERTEX
  5
3BED
  8
L1
 10
47.485917548022542
 20
-60.784367596849393
 30
0.0
  0
VERTEX
  5
3BEE
  8
L1
 10
47.293394107578017
 20
-61.076768389670796
 30
0.0
  0
VERTEX
  5
3BEF
  8
L1
 10
47.049744330121477
 20
-61.33717089796118
 30
0.0
  0
VERTEX
  5
3BF0
  8
L1
 10
46.770281178529899
 20
-61.549061621128999
 30
0.0
  0
VERTEX
  5
3BF1
  8
L1
 10
46.491390218655852
 20
-61.697004589372114
 30
0.0
  0
SEQEND
  5
3BF2
  8
L1
  0
POLYLINE
  5
2CE4
  8
L1
 66
     1
 10
0.0
 20
0.0
 30
0.0
  0
VERTEX
  5
3BF3
  8
L1
 10
45.747841158780027
 20
-61.851053299360331
 30
0.0
  0
VERTEX
  5
3BF4
  8
L1
 10
46.12867388045759
 20
-61.812182668059343
 30
0.0
  0
VERTEX
  5
3BF5
  8
L1
 10
46.491390218655852
 20
-61.69700458937217
 30
0.0
  0
SEQEND
  5
3BF6
  8
L1
  0
POLYLINE
  5
2CE5
  8
L1
 66
     1
 10
0.0
 20
0.0
 30
0.0
  0
VERTEX
  5
3BF7
  8
L1
 10
65.012304130909115
 20
-61.517100759268203
 30
0.0
  0
VERTEX
  5
3BF8
  8
L1
 10
65.012250207188742
 20
-61.537048032038221
 30
0.0
  0
VERTEX
  5
3BF9
  8
L1
 10
65.012088437774082
 20
-61.556999999999952
 30
0.0
  0
SEQEND
  5
3BFA
  8
L1
  0
POLYLINE
  5
2CE6
  8
L1
 66
     1
 10
0.0
 20
0.0
 30
0.0
  0
VERTEX
  5
3BFB
  8
L1
 10
61.556999999999952
 20
-65.012088437774196
 30
0.0
  0
VERTEX
  5
3BFC
  8
L1
 10
61.537048032038172
 20
-65.012250207188856
 30
0.0
  0
VERTEX
  5
3BFD
  8
L1
 10
61.517100759268089
 20
-65.012304130909214
 30
0.0
  0
SEQEND
  5
3BFE
  8
L1
  0
POLYLINE
  5
2CE7
  8
L1
 66
     1
 10
0.0
 20
0.0
 30
0.0
  0
VERTEX
  5
3BFF
  8
L1
 10
63.665886064679
 20
-60.170682693038032
 30
0.0
  0
VERTEX
  5
3C00
  8
L1
 10
63.662880445724461
 20
-60.315235367923947
 30
0.0
  0
VERTEX
  5
3C01
  8
L1
 10
63.653913841848919
 20
-60.45952652732381
 30
0.0
  0
VERTEX
  5
3C02
  8
L1
 10
63.639001518973203
 20
-60.603310511069651
 30
0.0
  0
VERTEX
  5
3C03
  8
L1
 10
63.618168865788959
 20
-60.746342522475338
 30
0.0
  0
VERTEX
  5
3C04
  8
L1
 10
63.591451350533418
 20
-60.888379045111321
 30
0.0
  0
VERTEX
  5
3C05
  8
L1
 10
63.558894460603938
 20
-61.029178257398371
 30
0.0
  0
VERTEX
  5
3C06
  8
L1
 10
63.520553625113962
 20
-61.168500444316351
 30
0.0
  0
VERTEX
  5
3C07
  8
L1
 10
63.476494120523512
 20
-61.306108405526743
 30
0.0
  0
VERTEX
  5
3C08
  8
L1
 10
63.426790959503819
 20
-61.441767859213307
 30
0.0
  0
VERTEX
  5
3C09
  8
L1
 10
63.371528763226081
 20
-61.575247840954212
 30
0.0
  0
VERTEX
  5
3C0A
  8
L1
 10
63.310801617291133
 20
-61.706321096946048
 30
0.0
  0
VERTEX
  5
3C0B
  8
L1
 10
63.244712911545889
 20
-61.834764470910727
 30
0.0
  0
VERTEX
  5
3C0C
  8
L1
 10
63.173375164058939
 20
-61.960359284025692
 30
0.0
  0
VERTEX
  5
3C0D
  8
L1
 10
63.096909829554988
 20
-62.082891707231397
 30
0.0
  0
VERTEX
  5
3C0E
  8
L1
 10
63.015447092634417
 20
-62.202153125281939
 30
0.0
  0
VERTEX
  5
3C0F
  8
L1
 10
62.929125646130103
 20
-62.31794049191916
 30
0.0
  0
VERTEX
  5
3C10
  8
L1
 10
62.838092454978487
 20
-62.430056675565019
 30
0.0
  0
VERTEX
  5
3C11
  8
L1
 10
62.742502506007042
 20
-62.538310794944032
 30
0.0
  0
VERTEX
  5
3C12
  8
L1
 10
62.642518544064842
 20
-62.642518544064949
 30
0.0
  0
VERTEX
  5
3C13
  8
L1
 10
62.538310794943932
 20
-62.742502506007149
 30
0.0
  0
VERTEX
  5
3C14
  8
L1
 10
62.430056675564913
 20
-62.8380924549786
 30
0.0
  0
VERTEX
  5
3C15
  8
L1
 10
62.317940491919039
 20
-62.929125646130217
 30
0.0
  0
VERTEX
  5
3C16
  8
L1
 10
62.202153125281818
 20
-63.015447092634531
 30
0.0
  0
VERTEX
  5
3C17
  8
L1
 10
62.082891707231283
 20
-63.096909829555102
 30
0.0
  0
VERTEX
  5
3C18
  8
L1
 10
61.960359284025571
 20
-63.173375164059053
 30
0.0
  0
VERTEX
  5
3C19
  8
L1
 10
61.834764470910613
 20
-63.244712911546003
 30
0.0
  0
VERTEX
  5
3C1A
  8
L1
 10
61.706321096945942
 20
-63.310801617291247
 30
0.0
  0
VERTEX
  5
3C1B
  8
L1
 10
61.575247840954091
 20
-63.371528763226188
 30
0.0
  0
VERTEX
  5
3C1C
  8
L1
 10
61.441767859213201
 20
-63.426790959503933
 30
0.0
  0
VERTEX
  5
3C1D
  8
L1
 10
61.306108405526622
 20
-63.476494120523618
 30
0.0
  0
VERTEX
  5
3C1E
  8
L1
 10
61.168500444316237
 20
-63.520553625114069
 30
0.0
  0
VERTEX
  5
3C1F
  8
L1
 10
61.029178257398257
 20
-63.558894460604051
 30
0.0
  0
VERTEX
  5
3C20
  8
L1
 10
60.888379045111201
 20
-63.591451350533532
 30
0.0
  0
VERTEX
  5
3C21
  8
L1
 10
60.746342522475231
 20
-63.618168865789073
 30
0.0
  0
VERTEX
  5
3C22
  8
L1
 10
60.60331051106953
 20
-63.639001518973323
 30
0.0
  0
VERTEX
  5
3C23
  8
L1
 10
60.45952652732371
 20
-63.653913841849032
 30
0.0
  0
VERTEX
  5
3C24
  8
L1
 10
60.315235367923833
 20
-63.662880445724561
 30
0.0
  0
VERTEX
  5
3C25
  8
L1
 10
60.170682693037911
 20
-63.665886064679107
 30
0.0
  0
SEQEND
  5
3C26
  8
L1
  0
POLYLINE
  5
2CE8
  8
L1
 66
     1
 10
0.0
 20
0.0
 30
0.0
  0
VERTEX
  5
3C27
  8
L1
 10
59.263214172935193
 20
-61.883099641752267
 30
0.0
  0
VERTEX
  5
3C28
  8
L1
 10
59.31985883659172
 20
-61.892416041710817
 30
0.0
  0
VERTEX
  5
3C29
  8
L1
 10
59.376706762295207
 20
-61.90152917928782
 30
0.0
  0
SEQEND
  5
3C2A
  8
L1
  0
ARC
  5
2CE9
  8
L1
 10
56.75
 20
-56.750000000000057
 30
0.0
 40
4.9551339946734032
 50
267.46873820670891
 51
293.01361607239249
  0
LINE
  5
2CEA
  8
L1
 10
58.687208996504921
 20
-61.31076465179126
 30
0.0
 11
59.035746534405057
 21
-61.659302189691459
 31
0.0
  0
POLYLINE
  5
2CEB
  8
L1
 66
     1
 10
0.0
 20
0.0
 30
0.0
  0
VERTEX
  5
3C2B
  8
L1
 10
59.035746534405
 20
-61.659302189691509
 30
0.0
  0
VERTEX
  5
3C2C
  8
L1
 10
59.080639129592321
 20
-61.704116422292429
 30
0.0
  0
VERTEX
  5
3C2D
  8
L1
 10
59.124081047125742
 20
-61.747342135618972
 30
0.0
  0
VERTEX
  5
3C2E
  8
L1
 10
59.162953301975449
 20
-61.785862277598987
 30
0.0
  0
VERTEX
  5
3C2F
  8
L1
 10
59.197587405171987
 20
-61.820028179014798
 30
0.0
  0
VERTEX
  5
3C30
  8
L1
 10
59.224983031468582
 20
-61.846862727420103
 30
0.0
  0
VERTEX
  5
3C31
  8
L1
 10
59.245965950157938
 20
-61.867206662007902
 30
0.0
  0
VERTEX
  5
3C32
  8
L1
 10
59.258187265245738
 20
-61.878765071482349
 30
0.0
  0
VERTEX
  5
3C33
  8
L1
 10
59.263214172935193
 20
-61.883099641752267
 30
0.0
  0
SEQEND
  5
3C34
  8
L1
  0
POLYLINE
  5
2CEC
  8
L1
 66
     1
 10
0.0
 20
0.0
 30
0.0
  0
VERTEX
  5
3C35
  8
L1
 10
65.012088437774025
 20
-61.556999999999952
 30
0.0
  0
VERTEX
  5
3C36
  8
L1
 10
64.993014072385904
 20
-61.885630568632337
 30
0.0
  0
VERTEX
  5
3C37
  8
L1
 10
64.941714390114214
 20
-62.218787602445332
 30
0.0
  0
VERTEX
  5
3C38
  8
L1
 10
64.857024460342814
 20
-62.550151943173887
 30
0.0
  0
VERTEX
  5
3C39
  8
L1
 10
64.739585002002343
 20
-62.873772386241001
 30
0.0
  0
VERTEX
  5
3C3A
  8
L1
 10
64.590756499000577
 20
-63.184196702883348
 30
0.0
  0
VERTEX
  5
3C3B
  8
L1
 10
64.413440750186112
 20
-63.476619230896119
 30
0.0
  0
VERTEX
  5
3C3C
  8
L1
 10
64.21140061558026
 20
-63.74639901824434
 30
0.0
  0
VERTEX
  5
3C3D
  8
L1
 10
63.989929119073558
 20
-63.989929119073679
 30
0.0
  0
VERTEX
  5
3C3E
  8
L1
 10
63.74639901824429
 20
-64.21140061558026
 30
0.0
  0
VERTEX
  5
3C3F
  8
L1
 10
63.476619230896119
 20
-64.413440750186112
 30
0.0
  0
VERTEX
  5
3C40
  8
L1
 10
63.184196702883348
 20
-64.590756499000577
 30
0.0
  0
VERTEX
  5
3C41
  8
L1
 10
62.87377238624088
 20
-64.739585002002457
 30
0.0
  0
VERTEX
  5
3C42
  8
L1
 10
62.550151943173887
 20
-64.857024460342913
 30
0.0
  0
VERTEX
  5
3C43
  8
L1
 10
62.218787602445332
 20
-64.941714390114328
 30
0.0
  0
VERTEX
  5
3C44
  8
L1
 10
61.885630568632337
 20
-64.993014072386003
 30
0.0
  0
VERTEX
  5
3C45
  8
L1
 10
61.556999999999952
 20
-65.012088437774139
 30
0.0
  0
SEQEND
  5
3C46
  8
L1
  0
POLYLINE
  5
2CED
  8
L1
 66
     1
 10
0.0
 20
0.0
 30
0.0
  0
VERTEX
  5
3C47
  8
L1
 10
48.940067006392091
 20
-56.529651470526858
 30
0.0
  0
VERTEX
  5
3C48
  8
L1
 10
48.942769004879658
 20
-56.327433511053748
 30
0.0
  0
VERTEX
  5
3C49
  8
L1
 10
48.95084401653628
 20
-56.125372715584263
 30
0.0
  0
VERTEX
  5
3C4A
  8
L1
 10
48.964286337914928
 20
-55.923611801317072
 30
0.0
  0
VERTEX
  5
3C4B
  8
L1
 10
48.983086474593733
 20
-55.722293273642208
 30
0.0
  0
VERTEX
  5
3C4C
  8
L1
 10
49.007231147881718
 20
-55.521559325488617
 30
0.0
  0
VERTEX
  5
3C4D
  8
L1
 10
49.036703304197943
 20
-55.321551736891763
 30
0.0
  0
VERTEX
  5
3C4E
  8
L1
 10
49.071482127116496
 20
-55.122411774853497
 30
0.0
  0
VERTEX
  5
3C4F
  8
L1
 10
49.111543052069237
 20
-54.924280093563773
 30
0.0
  0
VERTEX
  5
3C50
  8
L1
 10
49.156857783695962
 20
-54.727296635055723
 30
0.0
  0
VERTEX
  5
3C51
  8
L1
 10
49.207394315829667
 20
-54.531600530363221
 30
0.0
  0
VERTEX
  5
3C52
  8
L1
 10
49.263116954102941
 20
-54.33733000125158
 30
0.0
  0
VERTEX
  5
3C53
  8
L1
 10
49.323986341158843
 20
-54.14462226259036
 30
0.0
  0
VERTEX
  5
3C54
  8
L1
 10
49.389959484449491
 20
-53.953613425437418
 30
0.0
  0
VERTEX
  5
3C55
  8
L1
 10
49.46098978660234
 20
-53.76443840090257
 30
0.0
  0
VERTEX
  5
3C56
  8
L1
 10
49.537027078331789
 20
-53.577230804858679
 30
0.0
  0
VERTEX
  5
3C57
  8
L1
 10
49.61801765387446
 20
-53.392122863567749
 30
0.0
  0
VERTEX
  5
3C58
  8
L1
 10
49.703904308921892
 20
-53.209245320288233
 30
0.0
  0
VERTEX
  5
3C59
  8
L1
 10
49.794626381024607
 20
-53.028727342930431
 30
0.0
  0
VERTEX
  5
3C5A
  8
L1
 10
49.890119792438213
 20
-52.850696432823732
 30
0.0
  0
VERTEX
  5
3C5B
  8
L1
 10
49.990317095382352
 20
-52.675278334661357
 30
0.0
  0
VERTEX
  5
3C5C
  8
L1
 10
50.095147519679358
 20
-52.502596947686243
 30
0.0
  0
VERTEX
  5
3C5D
  8
L1
 10
50.204537022739942
 20
-52.332774238179702
 30
0.0
  0
VERTEX
  5
3C5E
  8
L1
 10
50.318408341860049
 20
-52.165930153315458
 30
0.0
  0
VERTEX
  5
3C5F
  8
L1
 10
50.436681048792138
 20
-52.0021825364405
 30
0.0
  0
VERTEX
  5
3C60
  8
L1
 10
50.559271606552329
 20
-51.841647043840908
 30
0.0
  0
VERTEX
  5
3C61
  8
L1
 10
50.686093428423298
 20
-51.684437063052997
 30
0.0
  0
VERTEX
  5
3C62
  8
L1
 10
50.817056939111069
 20
-51.530663632776793
 30
0.0
  0
VERTEX
  5
3C63
  8
L1
 10
50.952069638012972
 20
-51.380435364448537
 30
0.0
  0
VERTEX
  5
3C64
  8
L1
 10
51.091036164551269
 20
-51.23385836552746
 30
0.0
  0
VERTEX
  5
3C65
  8
L1
 10
51.23385836552746
 20
-51.091036164551269
 30
0.0
  0
VERTEX
  5
3C66
  8
L1
 10
51.380435364448537
 20
-50.952069638012972
 30
0.0
  0
VERTEX
  5
3C67
  8
L1
 10
51.530663632776793
 20
-50.817056939111069
 30
0.0
  0
VERTEX
  5
3C68
  8
L1
 10
51.684437063052997
 20
-50.686093428423298
 30
0.0
  0
VERTEX
  5
3C69
  8
L1
 10
51.841647043840908
 20
-50.559271606552329
 30
0.0
  0
VERTEX
  5
3C6A
  8
L1
 10
52.0021825364405
 20
-50.436681048792138
 30
0.0
  0
VERTEX
  5
3C6B
  8
L1
 10
52.165930153315458
 20
-50.318408341860049
 30
0.0
  0
VERTEX
  5
3C6C
  8
L1
 10
52.332774238179702
 20
-50.204537022739942
 30
0.0
  0
VERTEX
  5
3C6D
  8
L1
 10
52.502596947686243
 20
-50.095147519679358
 30
0.0
  0
VERTEX
  5
3C6E
  8
L1
 10
52.675278334661357
 20
-49.990317095382352
 30
0.0
  0
VERTEX
  5
3C6F
  8
L1
 10
52.850696432823732
 20
-49.890119792438213
 30
0.0
  0
VERTEX
  5
3C70
  8
L1
 10
53.028727342930431
 20
-49.794626381024607
 30
0.0
  0
VERTEX
  5
3C71
  8
L1
 10
53.209245320288233
 20
-49.703904308921892
 30
0.0
  0
VERTEX
  5
3C72
  8
L1
 10
53.392122863567749
 20
-49.61801765387446
 30
0.0
  0
VERTEX
  5
3C73
  8
L1
 10
53.577230804858679
 20
-49.537027078331789
 30
0.0
  0
VERTEX
  5
3C74
  8
L1
 10
53.76443840090257
 20
-49.46098978660234
 30
0.0
  0
VERTEX
  5
3C75
  8
L1
 10
53.953613425437418
 20
-49.389959484449491
 30
0.0
  0
VERTEX
  5
3C76
  8
L1
 10
54.14462226259036
 20
-49.323986341158843
 30
0.0
  0
VERTEX
  5
3C77
  8
L1
 10
54.33733000125158
 20
-49.263116954102941
 30
0.0
  0
VERTEX
  5
3C78
  8
L1
 10
54.531600530363221
 20
-49.207394315829667
 30
0.0
  0
VERTEX
  5
3C79
  8
L1
 10
54.727296635055723
 20
-49.156857783695962
 30
0.0
  0
VERTEX
  5
3C7A
  8
L1
 10
54.924280093563773
 20
-49.111543052069237
 30
0.0
  0
VERTEX
  5
3C7B
  8
L1
 10
55.122411774853497
 20
-49.071482127116496
 30
0.0
  0
VERTEX
  5
3C7C
  8
L1
 10
55.321551736891763
 20
-49.036703304197943
 30
0.0
  0
VERTEX
  5
3C7D
  8
L1
 10
55.521559325488617
 20
-49.007231147881718
 30
0.0
  0
VERTEX
  5
3C7E
  8
L1
 10
55.722293273642208
 20
-48.983086474593733
 30
0.0
  0
VERTEX
  5
3C7F
  8
L1
 10
55.923611801317072
 20
-48.964286337914928
 30
0.0
  0
VERTEX
  5
3C80
  8
L1
 10
56.125372715584263
 20
-48.95084401653628
 30
0.0
  0
VERTEX
  5
3C81
  8
L1
 10
56.327433511053748
 20
-48.942769004879658
 30
0.0
  0
VERTEX
  5
3C82
  8
L1
 10
56.529651470526858
 20
-48.940067006392091
 30
0.0
  0
SEQEND
  5
3C83
  8
L1
  0
POLYLINE
  5
2CEE
  8
L1
 66
     1
 10
0.0
 20
0.0
 30
0.0
  0
VERTEX
  5
3C84
  8
L1
 10
55.320782384950739
 20
-47.73119792081598
 30
0.0
  0
VERTEX
  5
3C85
  8
L1
 10
55.274528509900563
 20
-47.73134011044521
 30
0.0
  0
VERTEX
  5
3C86
  8
L1
 10
55.079716260798023
 20
-47.735147577404689
 30
0.0
  0
VERTEX
  5
3C87
  8
L1
 10
54.654345306803059
 20
-47.761489579966963
 30
0.0
  0
VERTEX
  5
3C88
  8
L1
 10
54.443648320938571
 20
-47.783626368724981
 30
0.0
  0
VERTEX
  5
3C89
  8
L1
 10
54.190406214040422
 20
-47.818253940848066
 30
0.0
  0
VERTEX
  5
3C8A
  8
L1
 10
53.899137393666138
 20
-47.868982863103383
 30
0.0
  0
VERTEX
  5
3C8B
  8
L1
 10
53.574360267373208
 20
-47.939423702257443
 30
0.0
  0
VERTEX
  5
3C8C
  8
L1
 10
53.102463247988453
 20
-48.068720341375922
 30
0.0
  0
VERTEX
  5
3C8D
  8
L1
 10
52.640184031571494
 20
-48.227961217950281
 30
0.0
  0
VERTEX
  5
3C8E
  8
L1
 10
52.189007119832752
 20
-48.416600588234637
 30
0.0
  0
VERTEX
  5
3C8F
  8
L1
 10
51.75041701448265
 20
-48.63409270848274
 30
0.0
  0
VERTEX
  5
3C90
  8
L1
 10
51.121594719335462
 20
-49.011544102013893
 30
0.0
  0
VERTEX
  5
3C91
  8
L1
 10
50.531802437309011
 20
-49.447658529267528
 30
0.0
  0
VERTEX
  5
3C92
  8
L1
 10
49.972111510274772
 20
-49.952800165016349
 30
0.0
  0
VERTEX
  5
3C93
  8
L1
 10
49.465027541526119
 20
-50.51079011418426
 30
0.0
  0
VERTEX
  5
3C94
  8
L1
 10
49.065647524672947
 20
-51.042093674499597
 30
0.0
  0
VERTEX
  5
3C95
  8
L1
 10
48.713930872883793
 20
-51.606167470228108
 30
0.0
  0
VERTEX
  5
3C96
  8
L1
 10
48.41835822720838
 20
-52.186023013524391
 30
0.0
  0
VERTEX
  5
3C97
  8
L1
 10
48.173392806964223
 20
-52.788933891203442
 30
0.0
  0
VERTEX
  5
3C98
  8
L1
 10
48.017642363475431
 20
-53.275410070638941
 30
0.0
  0
VERTEX
  5
3C99
  8
L1
 10
47.907254360812757
 20
-53.713902935420201
 30
0.0
  0
VERTEX
  5
3C9A
  8
L1
 10
47.833466786330291
 20
-54.095945040035303
 30
0.0
  0
VERTEX
  5
3C9B
  8
L1
 10
47.787517627381639
 20
-54.413068938971954
 30
0.0
  0
VERTEX
  5
3C9C
  8
L1
 10
47.749395916046353
 20
-54.804668282786572
 30
0.0
  0
VERTEX
  5
3C9D
  8
L1
 10
47.733238830100163
 20
-55.147078120581618
 30
0.0
  0
VERTEX
  5
3C9E
  8
L1
 10
47.73117798668261
 20
-55.31778647522497
 30
0.0
  0
VERTEX
  5
3C9F
  8
L1
 10
47.731177419503581
 20
-55.32076188363834
 30
0.0
  0
SEQEND
  5
3CA0
  8
L1
  0
POLYLINE
  5
2CEF
  8
L1
 66
     1
 10
0.0
 20
0.0
 30
0.0
  0
VERTEX
  5
3CA1
  8
L1
 10
45.753531830061313
 20
-58.410487068577368
 30
0.0
  0
VERTEX
  5
3CA2
  8
L1
 10
45.753386952883822
 20
-56.424044178209208
 30
0.0
  0
VERTEX
  5
3CA3
  8
L1
 10
45.753308807014093
 20
-55.487013311033202
 30
0.0
  0
VERTEX
  5
3CA4
  8
L1
 10
45.753270396568333
 20
-55.047205250548132
 30
0.0
  0
VERTEX
  5
3CA5
  8
L1
 10
45.753233223709003
 20
-54.632120097312622
 30
0.0
  0
VERTEX
  5
3CA6
  8
L1
 10
45.753197885382058
 20
-54.245946345212978
 30
0.0
  0
VERTEX
  5
3CA7
  8
L1
 10
45.753164978532588
 20
-53.892872488134969
 30
0.0
  0
VERTEX
  5
3CA8
  8
L1
 10
45.753135100106533
 20
-53.577087019964551
 30
0.0
  0
VERTEX
  5
3CA9
  8
L1
 10
45.7531088470489
 20
-53.302778434587587
 30
0.0
  0
VERTEX
  5
3CAA
  8
L1
 10
45.75308681630554
 20
-53.074135225890132
 30
0.0
  0
VERTEX
  5
3CAB
  8
L1
 10
45.75306960482186
 20
-52.89534588775814
 30
0.0
  0
VERTEX
  5
3CAC
  8
L1
 10
45.753057809543058
 20
-52.770598914077247
 30
0.0
  0
VERTEX
  5
3CAD
  8
L1
 10
45.753052027415201
 20
-52.704082798733737
 30
0.0
  0
VERTEX
  5
3CAE
  8
L1
 10
45.753177495457813
 20
-52.078441932290211
 30
0.0
  0
VERTEX
  5
3CAF
  8
L1
 10
45.753970694560607
 20
-51.41084171288508
 30
0.0
  0
VERTEX
  5
3CB0
  8
L1
 10
45.755930900025483
 20
-50.755722706520878
 30
0.0
  0
VERTEX
  5
3CB1
  8
L1
 10
45.757504653675419
 20
-50.449856335104748
 30
0.0
  0
VERTEX
  5
3CB2
  8
L1
 10
45.759557387153947
 20
-50.167525479199867
 30
0.0
  0
VERTEX
  5
3CB3
  8
L1
 10
45.761354794898232
 20
-49.983564951782853
 30
0.0
  0
VERTEX
  5
3CB4
  8
L1
 10
45.763332052487272
 20
-49.820371722467939
 30
0.0
  0
VERTEX
  5
3CB5
  8
L1
 10
45.767557312440083
 20
-49.54292535546233
 30
0.0
  0
VERTEX
  5
3CB6
  8
L1
 10
45.775209178122452
 20
-49.090260369176121
 30
0.0
  0
VERTEX
  5
3CB7
  8
L1
 10
45.777423035071813
 20
-48.902124195728113
 30
0.0
  0
VERTEX
  5
3CB8
  8
L1
 10
45.778661992835453
 20
-48.74220411833528
 30
0.0
  0
VERTEX
  5
3CB9
  8
L1
 10
45.779570520452459
 20
-48.486914580232622
 30
0.0
  0
VERTEX
  5
3CBA
  8
L1
 10
45.784597191573987
 20
-48.093854270388299
 30
0.0
  0
VERTEX
  5
3CBB
  8
L1
 10
45.800003366940238
 20
-47.807914022364798
 30
0.0
  0
VERTEX
  5
3CBC
  8
L1
 10
45.828914853896087
 20
-47.557492392563518
 30
0.0
  0
VERTEX
  5
3CBD
  8
L1
 10
45.874688493096698
 20
-47.333464485976712
 30
0.0
  0
VERTEX
  5
3CBE
  8
L1
 10
45.940681125197209
 20
-47.126705407596148
 30
0.0
  0
VERTEX
  5
3CBF
  8
L1
 10
46.117779482368739
 20
-46.775584834541633
 30
0.0
  0
VERTEX
  5
3CC0
  8
L1
 10
46.343988616445287
 20
-46.47900760245227
 30
0.0
  0
VERTEX
  5
3CC1
  8
L1
 10
46.511696085540272
 20
-46.315139309370238
 30
0.0
  0
VERTEX
  5
3CC2
  8
L1
 10
46.677128723978107
 20
-46.185193105712457
 30
0.0
  0
VERTEX
  5
3CC3
  8
L1
 10
46.83270700516556
 20
-46.085410040520109
 30
0.0
  0
VERTEX
  5
3CC4
  8
L1
 10
46.970851402509311
 20
-46.012031162834262
 30
0.0
  0
VERTEX
  5
3CC5
  8
L1
 10
47.307335435830218
 20
-45.886681489540592
 30
0.0
  0
VERTEX
  5
3CC6
  8
L1
 10
47.674842112126271
 20
-45.818957548941512
 30
0.0
  0
VERTEX
  5
3CC7
  8
L1
 10
48.26381588076277
 20
-45.785612236198737
 30
0.0
  0
VERTEX
  5
3CC8
  8
L1
 10
48.43366008529518
 20
-45.784139765980846
 30
0.0
  0
VERTEX
  5
3CC9
  8
L1
 10
48.625486371482111
 20
-45.783302126209541
 30
0.0
  0
VERTEX
  5
3CCA
  8
L1
 10
48.84576562767591
 20
-45.782043960514102
 30
0.0
  0
VERTEX
  5
3CCB
  8
L1
 10
49.100968742229213
 20
-45.779309912524461
 30
0.0
  0
VERTEX
  5
3CCC
  8
L1
 10
49.622536164909441
 20
-45.769918280977549
 30
0.0
  0
VERTEX
  5
3CCD
  8
L1
 10
49.948703579785501
 20
-45.764616808163737
 30
0.0
  0
VERTEX
  5
3CCE
  8
L1
 10
50.143710039649477
 20
-45.762153585896158
 30
0.0
  0
VERTEX
  5
3CCF
  8
L1
 10
50.365932363622619
 20
-45.759944488635647
 30
0.0
  0
VERTEX
  5
3CD0
  8
L1
 10
50.785761146631103
 20
-45.756888727032667
 30
0.0
  0
VERTEX
  5
3CD1
  8
L1
 10
51.252831452856981
 20
-45.754802571812263
 30
0.0
  0
VERTEX
  5
3CD2
  8
L1
 10
51.522849075293671
 20
-45.754071989326583
 30
0.0
  0
VERTEX
  5
3CD3
  8
L1
 10
51.827197356275519
 20
-45.753522479713922
 30
0.0
  0
VERTEX
  5
3CD4
  8
L1
 10
52.173383055049378
 20
-45.75313360006669
 30
0.0
  0
VERTEX
  5
3CD5
  8
L1
 10
52.568912930862162
 20
-45.752884907477153
 30
0.0
  0
VERTEX
  5
3CD6
  8
L1
 10
53.021293742960829
 20
-45.752755959038041
 30
0.0
  0
VERTEX
  5
3CD7
  8
L1
 10
53.538032250592089
 20
-45.75272631184157
 30
0.0
  0
VERTEX
  5
3CD8
  8
L1
 10
54.126635213003162
 20
-45.752775522980301
 30
0.0
  0
VERTEX
  5
3CD9
  8
L1
 10
54.450231727015812
 20
-45.752823312016858
 30
0.0
  0
VERTEX
  5
3CDA
  8
L1
 10
54.7946093894409
 20
-45.752883149546733
 30
0.0
  0
VERTEX
  5
3CDB
  8
L1
 10
55.160706545184212
 20
-45.752952480206602
 30
0.0
  0
VERTEX
  5
3CDC
  8
L1
 10
55.549461539152048
 20
-45.753028748633128
 30
0.0
  0
VERTEX
  5
3CDD
  8
L1
 10
55.961812716249817
 20
-45.753109399462787
 30
0.0
  0
VERTEX
  5
3CDE
  8
L1
 10
56.398698421383642
 20
-45.753191877332142
 30
0.0
  0
VERTEX
  5
3CDF
  8
L1
 10
56.861056999459208
 20
-45.753273626877721
 30
0.0
  0
VERTEX
  5
3CE0
  8
L1
 10
57.349826795382512
 20
-45.753352092735952
 30
0.0
  0
VERTEX
  5
3CE1
  8
L1
 10
57.865946154059493
 20
-45.753424719543773
 30
0.0
  0
VERTEX
  5
3CE2
  8
L1
 10
58.410353420395779
 20
-45.753488951937349
 30
0.0
  0
SEQEND
  5
3CE3
  8
L1
  0
ARC
  5
2CF0
  8
L1
 10
44.012304130909108
 20
-44.012304130909229
 30
0.0
 40
2.0
 50
270.0
 51
0.0
  0
POLYLINE
  5
2CF1
  8
L1
 66
     1
 10
0.0
 20
0.0
 30
0.0
  0
VERTEX
  5
3CE4
  8
L1
 10
47.731177419503581
 20
-55.32076188363834
 30
0.0
  0
VERTEX
  5
3CE5
  8
L1
 10
47.731067602106059
 20
-55.954164661861121
 30
0.0
  0
VERTEX
  5
3CE6
  8
L1
 10
47.731025240094937
 20
-56.131103641319733
 30
0.0
  0
VERTEX
  5
3CE7
  8
L1
 10
47.7309927692936
 20
-56.287221051487847
 30
0.0
  0
VERTEX
  5
3CE8
  8
L1
 10
47.730953684686312
 20
-56.552526941788187
 30
0.0
  0
VERTEX
  5
3CE9
  8
L1
 10
47.730952227016132
 20
-57.0041734470961
 30
0.0
  0
VERTEX
  5
3CEA
  8
L1
 10
47.730974587417514
 20
-57.252657173446657
 30
0.0
  0
VERTEX
  5
3CEB
  8
L1
 10
47.731002162952898
 20
-57.557676623157249
 30
0.0
  0
VERTEX
  5
3CEC
  8
L1
 10
47.731015520999563
 20
-57.741097105419669
 30
0.0
  0
VERTEX
  5
3CED
  8
L1
 10
47.731027320354251
 20
-57.950303351899102
 30
0.0
  0
VERTEX
  5
3CEE
  8
L1
 10
47.731036606858652
 20
-58.189179307054239
 30
0.0
  0
VERTEX
  5
3CEF
  8
L1
 10
47.731042426353952
 20
-58.461608915344023
 30
0.0
  0
VERTEX
  5
3CF0
  8
L1
 10
47.731027276929012
 20
-59.839721278491083
 30
0.0
  0
SEQEND
  5
3CF1
  8
L1
  0
POLYLINE
  5
2CF2
  8
L1
 66
     1
 10
0.0
 20
0.0
 30
0.0
  0
VERTEX
  5
3CF2
  8
L1
 10
44.374682106856589
 20
-59.733858588995133
 30
0.0
  0
VERTEX
  5
3CF3
  8
L1
 10
44.64023126564939
 20
-59.716736632092868
 30
0.0
  0
VERTEX
  5
3CF4
  8
L1
 10
44.919291824364329
 20
-59.654439924421517
 30
0.0
  0
VERTEX
  5
3CF5
  8
L1
 10
45.179395273564289
 20
-59.538391884477512
 30
0.0
  0
VERTEX
  5
3CF6
  8
L1
 10
45.352842111795027
 20
-59.412748111393739
 30
0.0
  0
VERTEX
  5
3CF7
  8
L1
 10
45.498650191247179
 20
-59.256064804958051
 30
0.0
  0
VERTEX
  5
3CF8
  8
L1
 10
45.620996060697053
 20
-59.054471571681582
 30
0.0
  0
VERTEX
  5
3CF9
  8
L1
 10
45.701733713783369
 20
-58.832378546264067
 30
0.0
  0
VERTEX
  5
3CFA
  8
L1
 10
45.741252804035867
 20
-58.623512583951083
 30
0.0
  0
VERTEX
  5
3CFB
  8
L1
 10
45.753531830061313
 20
-58.410487068577368
 30
0.0
  0
SEQEND
  5
3CFC
  8
L1
  0
POLYLINE
  5
2CF3
  8
L1
 66
     1
 10
0.0
 20
0.0
 30
0.0
  0
VERTEX
  5
3CFD
  8
L1
 10
61.697073088947207
 20
-46.491233016057322
 30
0.0
  0
VERTEX
  5
3CFE
  8
L1
 10
61.812200114655809
 20
-46.128589660902307
 30
0.0
  0
VERTEX
  5
3CFF
  8
L1
 10
61.85105329936021
 20
-45.747841158780027
 30
0.0
  0
SEQEND
  5
3D00
  8
L1
  0
POLYLINE
  5
2CF4
  8
L1
 66
     1
 10
0.0
 20
0.0
 30
0.0
  0
VERTEX
  5
3D01
  8
L1
 10
58.410353420395779
 20
-45.753488951937349
 30
0.0
  0
VERTEX
  5
3D02
  8
L1
 10
58.63809840305418
 20
-45.739390136792963
 30
0.0
  0
VERTEX
  5
3D03
  8
L1
 10
58.898657065353397
 20
-45.682324404041758
 30
0.0
  0
VERTEX
  5
3D04
  8
L1
 10
59.141840124902281
 20
-45.57488796794496
 30
0.0
  0
VERTEX
  5
3D05
  8
L1
 10
59.319455708063003
 20
-45.446422899777808
 30
0.0
  0
VERTEX
  5
3D06
  8
L1
 10
59.467834044425778
 20
-45.285116982980533
 30
0.0
  0
VERTEX
  5
3D07
  8
L1
 10
59.594399580375629
 20
-45.072757364054041
 30
0.0
  0
VERTEX
  5
3D08
  8
L1
 10
59.677770945913828
 20
-44.839330738015633
 30
0.0
  0
VERTEX
  5
3D09
  8
L1
 10
59.72061171677592
 20
-44.609409821459437
 30
0.0
  0
VERTEX
  5
3D0A
  8
L1
 10
59.733858588995133
 20
-44.37464353298008
 30
0.0
  0
SEQEND
  5
3D0B
  8
L1
  0
POLYLINE
  5
2CF5
  8
L1
 66
     1
 10
0.0
 20
0.0
 30
0.0
  0
VERTEX
  5
3D0C
  8
L1
 10
60.209532526953751
 20
-47.694571369592268
 30
0.0
  0
VERTEX
  5
3D0D
  8
L1
 10
60.121389640016282
 20
-47.710009078187802
 30
0.0
  0
VERTEX
  5
3D0E
  8
L1
 10
60.002066213371499
 20
-47.724096145796523
 30
0.0
  0
VERTEX
  5
3D0F
  8
L1
 10
59.905035198184457
 20
-47.729918285639542
 30
0.0
  0
VERTEX
  5
3D10
  8
L1
 10
59.861714048434571
 20
-47.730911186794799
 30
0.0
  0
VERTEX
  5
3D11
  8
L1
 10
59.839732262174778
 20
-47.73103826061282
 30
0.0
  0
SEQEND
  5
3D12
  8
L1
  0
POLYLINE
  5
2CF6
  8
L1
 66
     1
 10
0.0
 20
0.0
 30
0.0
  0
VERTEX
  5
3D13
  8
L1
 10
61.048761007953999
 20
-48.940067006392091
 30
0.0
  0
VERTEX
  5
3D14
  8
L1
 10
61.244746949736957
 20
-48.930507715392253
 30
0.0
  0
VERTEX
  5
3D15
  8
L1
 10
61.438794101028464
 20
-48.90181452661124
 30
0.0
  0
VERTEX
  5
3D16
  8
L1
 10
61.629040188111958
 20
-48.854262809056081
 30
0.0
  0
VERTEX
  5
3D17
  8
L1
 10
61.813659416146827
 20
-48.788308917345432
 30
0.0
  0
VERTEX
  5
3D18
  8
L1
 10
61.990879991351839
 20
-48.704585812067762
 30
0.0
  0
VERTEX
  5
3D19
  8
L1
 10
62.159001124939152
 20
-48.603896985247388
 30
0.0
  0
VERTEX
  5
3D1A
  8
L1
 10
62.316409355612393
 20
-48.487208749218659
 30
0.0
  0
VERTEX
  5
3D1B
  8
L1
 10
62.461594033981498
 20
-48.355640962910449
 30
0.0
  0
VERTEX
  5
3D1C
  8
L1
 10
62.593161820289708
 20
-48.210456284541351
 30
0.0
  0
VERTEX
  5
3D1D
  8
L1
 10
62.70985005631843
 20
-48.05304805386811
 30
0.0
  0
VERTEX
  5
3D1E
  8
L1
 10
62.81053888313874
 20
-47.884926920280797
 30
0.0
  0
VERTEX
  5
3D1F
  8
L1
 10
62.894261988416467
 20
-47.707706345075792
 30
0.0
  0
VERTEX
  5
3D20
  8
L1
 10
62.960215880127059
 20
-47.523087117040909
 30
0.0
  0
VERTEX
  5
3D21
  8
L1
 10
63.007767597682289
 20
-47.332841029957407
 30
0.0
  0
VERTEX
  5
3D22
  8
L1
 10
63.03646078646323
 20
-47.138793878665972
 30
0.0
  0
VERTEX
  5
3D23
  8
L1
 10
63.046020077463083
 20
-46.94280793688295
 30
0.0
  0
SEQEND
  5
3D24
  8
L1
  0
LINE
  5
2CF7
  8
L1
 10
56.529651470526858
 20
-48.940067006392091
 30
0.0
 11
61.048761007953999
 21
-48.940067006392091
 31
0.0
  0
POLYLINE
  5
2CF8
  8
L1
 66
     1
 10
0.0
 20
0.0
 30
0.0
  0
VERTEX
  5
3D25
  8
L1
 10
59.839732262174778
 20
-47.73103826061282
 30
0.0
  0
VERTEX
  5
3D26
  8
L1
 10
58.083973469469363
 20
-47.731027259837902
 30
0.0
  0
VERTEX
  5
3D27
  8
L1
 10
57.850819874235519
 20
-47.731013356836051
 30
0.0
  0
VERTEX
  5
3D28
  8
L1
 10
57.64449645611603
 20
-47.730998303025622
 30
0.0
  0
VERTEX
  5
3D29
  8
L1
 10
57.288650164231633
 20
-47.730970725167019
 30
0.0
  0
VERTEX
  5
3D2A
  8
L1
 10
56.638329848963622
 20
-47.73096756381306
 30
0.0
  0
VERTEX
  5
3D2B
  8
L1
 10
56.418913584252778
 20
-47.730992933396799
 30
0.0
  0
VERTEX
  5
3D2C
  8
L1
 10
56.224854588928672
 20
-47.731029005698304
 30
0.0
  0
VERTEX
  5
3D2D
  8
L1
 10
55.893364057215713
 20
-47.731113810185427
 30
0.0
  0
VERTEX
  5
3D2E
  8
L1
 10
55.320782384950739
 20
-47.73119792081598
 30
0.0
  0
SEQEND
  5
3D2F
  8
L1
  0
POLYLINE
  5
2CF9
  8
L1
 66
     1
 10
0.0
 20
0.0
 30
0.0
  0
VERTEX
  5
3D30
  8
L1
 10
61.697073088947263
 20
-46.491233016057322
 30
0.0
  0
VERTEX
  5
3D31
  8
L1
 10
61.586257410709997
 20
-46.70918685163781
 30
0.0
  0
VERTEX
  5
3D32
  8
L1
 10
61.446843118683091
 20
-46.917362679660698
 30
0.0
  0
VERTEX
  5
3D33
  8
L1
 10
61.212661423407098
 20
-47.176712330546472
 30
0.0
  0
VERTEX
  5
3D34
  8
L1
 10
60.935192761054957
 20
-47.39546261586878
 30
0.0
  0
VERTEX
  5
3D35
  8
L1
 10
60.61082216109412
 20
-47.569986725547949
 30
0.0
  0
VERTEX
  5
3D36
  8
L1
 10
60.262771699553468
 20
-47.683178154070887
 30
0.0
  0
VERTEX
  5
3D37
  8
L1
 10
60.209532526953751
 20
-47.694571369592268
 30
0.0
  0
SEQEND
  5
3D38
  8
L1
  0
POLYLINE
  5
2CFA
  8
L1
 66
     1
 10
0.0
 20
0.0
 30
0.0
  0
VERTEX
  5
3D39
  8
L1
 10
61.88309964175221
 20
-59.263214172935143
 30
0.0
  0
VERTEX
  5
3D3A
  8
L1
 10
61.878765071482242
 20
-59.258187265245567
 30
0.0
  0
VERTEX
  5
3D3B
  8
L1
 10
61.867206662007902
 20
-59.245965950157817
 30
0.0
  0
VERTEX
  5
3D3C
  8
L1
 10
61.846862727419982
 20
-59.224983031468469
 30
0.0
  0
VERTEX
  5
3D3D
  8
L1
 10
61.820028179014678
 20
-59.19758740517193
 30
0.0
  0
VERTEX
  5
3D3E
  8
L1
 10
61.785862277598881
 20
-59.162953301975449
 30
0.0
  0
VERTEX
  5
3D3F
  8
L1
 10
61.747342135618901
 20
-59.124081047125628
 30
0.0
  0
VERTEX
  5
3D40
  8
L1
 10
61.704116422292373
 20
-59.080639129592271
 30
0.0
  0
VERTEX
  5
3D41
  8
L1
 10
61.659302189691509
 20
-59.03574653440495
 30
0.0
  0
SEQEND
  5
3D42
  8
L1
  0
LINE
  5
2CFB
  8
L1
 10
61.659302189691509
 20
-59.03574653440495
 30
0.0
 11
61.31076465179131
 21
-58.687208996504751
 31
0.0
  0
POLYLINE
  5
2CFC
  8
L1
 66
     1
 10
0.0
 20
0.0
 30
0.0
  0
VERTEX
  5
3D43
  8
L1
 10
61.901529179287763
 20
-59.37670676229515
 30
0.0
  0
VERTEX
  5
3D44
  8
L1
 10
61.892416041710192
 20
-59.319858836588139
 30
0.0
  0
VERTEX
  5
3D45
  8
L1
 10
61.883099641752267
 20
-59.263214172935193
 30
0.0
  0
SEQEND
  5
3D46
  8
L1
  0
ARC
  5
2CFD
  8
L1
 10
56.75
 20
-56.750000000000057
 30
0.0
 40
4.9551339946734032
 50
336.98638392761018
 51
2.5312617932911539
  0
LINE
  5
2CFE
  8
L1
 10
61.70029913768667
 20
-56.531159070128751
 30
0.0
 11
56.968840929871249
 21
-51.79970086231333
 31
0.0
  0
ARC
  5
2CFF
  8
L1
 10
56.75
 20
-56.750000000000057
 30
0.0
 40
4.9551339946734032
 50
87.46873820670892
 51
182.53126179329271
  0
POLYLINE
  5
2D00
  8
L1
 66
     1
 10
0.0
 20
0.0
 30
0.0
  0
VERTEX
  5
3D47
  8
L1
 10
45.753531830061313
 20
58.410487068577311
 30
0.0
  0
VERTEX
  5
3D48
  8
L1
 10
45.753386952883822
 20
56.424044178209158
 30
0.0
  0
VERTEX
  5
3D49
  8
L1
 10
45.753308807014093
 20
55.487013311033131
 30
0.0
  0
VERTEX
  5
3D4A
  8
L1
 10
45.753270396568333
 20
55.047205250548068
 30
0.0
  0
VERTEX
  5
3D4B
  8
L1
 10
45.753233223709003
 20
54.632120097312573
 30
0.0
  0
VERTEX
  5
3D4C
  8
L1
 10
45.753197885382058
 20
54.245946345212928
 30
0.0
  0
VERTEX
  5
3D4D
  8
L1
 10
45.753164978532588
 20
53.892872488134913
 30
0.0
  0
VERTEX
  5
3D4E
  8
L1
 10
45.753135100106533
 20
53.577087019964488
 30
0.0
  0
VERTEX
  5
3D4F
  8
L1
 10
45.7531088470489
 20
53.302778434587538
 30
0.0
  0
VERTEX
  5
3D50
  8
L1
 10
45.75308681630554
 20
53.074135225890082
 30
0.0
  0
VERTEX
  5
3D51
  8
L1
 10
45.75306960482186
 20
52.895345887758083
 30
0.0
  0
VERTEX
  5
3D52
  8
L1
 10
45.753057809543058
 20
52.770598914077198
 30
0.0
  0
VERTEX
  5
3D53
  8
L1
 10
45.753052027415201
 20
52.70408279873368
 30
0.0
  0
VERTEX
  5
3D54
  8
L1
 10
45.753177495457813
 20
52.078441932290161
 30
0.0
  0
VERTEX
  5
3D55
  8
L1
 10
45.753970694560607
 20
51.410841712885031
 30
0.0
  0
VERTEX
  5
3D56
  8
L1
 10
45.755930900025483
 20
50.755722706520828
 30
0.0
  0
VERTEX
  5
3D57
  8
L1
 10
45.757504653675419
 20
50.449856335104698
 30
0.0
  0
VERTEX
  5
3D58
  8
L1
 10
45.759557387153947
 20
50.16752547919981
 30
0.0
  0
VERTEX
  5
3D59
  8
L1
 10
45.761354794898232
 20
49.983564951782789
 30
0.0
  0
VERTEX
  5
3D5A
  8
L1
 10
45.763332052487272
 20
49.820371722467883
 30
0.0
  0
VERTEX
  5
3D5B
  8
L1
 10
45.767557312440083
 20
49.542925355462273
 30
0.0
  0
VERTEX
  5
3D5C
  8
L1
 10
45.775209178122452
 20
49.090260369176058
 30
0.0
  0
VERTEX
  5
3D5D
  8
L1
 10
45.777423035071813
 20
48.902124195728042
 30
0.0
  0
VERTEX
  5
3D5E
  8
L1
 10
45.778661992835453
 20
48.742204118335231
 30
0.0
  0
VERTEX
  5
3D5F
  8
L1
 10
45.779570520452459
 20
48.486914580232572
 30
0.0
  0
VERTEX
  5
3D60
  8
L1
 10
45.784597191573987
 20
48.093854270388249
 30
0.0
  0
VERTEX
  5
3D61
  8
L1
 10
45.800003366940238
 20
47.807914022364741
 30
0.0
  0
VERTEX
  5
3D62
  8
L1
 10
45.828914853896087
 20
47.557492392563461
 30
0.0
  0
VERTEX
  5
3D63
  8
L1
 10
45.874688493096698
 20
47.333464485976663
 30
0.0
  0
VERTEX
  5
3D64
  8
L1
 10
45.940681125197209
 20
47.126705407596091
 30
0.0
  0
VERTEX
  5
3D65
  8
L1
 10
46.117779482368739
 20
46.775584834541569
 30
0.0
  0
VERTEX
  5
3D66
  8
L1
 10
46.343988616445287
 20
46.479007602452207
 30
0.0
  0
VERTEX
  5
3D67
  8
L1
 10
46.511696085540272
 20
46.315139309370181
 30
0.0
  0
VERTEX
  5
3D68
  8
L1
 10
46.677128723978107
 20
46.185193105712408
 30
0.0
  0
VERTEX
  5
3D69
  8
L1
 10
46.83270700516556
 20
46.08541004052006
 30
0.0
  0
VERTEX
  5
3D6A
  8
L1
 10
46.970851402509311
 20
46.012031162834212
 30
0.0
  0
VERTEX
  5
3D6B
  8
L1
 10
47.307335435830218
 20
45.886681489540528
 30
0.0
  0
VERTEX
  5
3D6C
  8
L1
 10
47.674842112126271
 20
45.818957548941448
 30
0.0
  0
VERTEX
  5
3D6D
  8
L1
 10
48.26381588076277
 20
45.785612236198681
 30
0.0
  0
VERTEX
  5
3D6E
  8
L1
 10
48.43366008529518
 20
45.784139765980797
 30
0.0
  0
VERTEX
  5
3D6F
  8
L1
 10
48.625486371482111
 20
45.783302126209492
 30
0.0
  0
VERTEX
  5
3D70
  8
L1
 10
48.84576562767591
 20
45.782043960514038
 30
0.0
  0
VERTEX
  5
3D71
  8
L1
 10
49.100968742229213
 20
45.779309912524411
 30
0.0
  0
VERTEX
  5
3D72
  8
L1
 10
49.622536164909441
 20
45.769918280977492
 30
0.0
  0
VERTEX
  5
3D73
  8
L1
 10
49.948703579785501
 20
45.764616808163673
 30
0.0
  0
VERTEX
  5
3D74
  8
L1
 10
50.143710039649477
 20
45.762153585896087
 30
0.0
  0
VERTEX
  5
3D75
  8
L1
 10
50.365932363622619
 20
45.759944488635597
 30
0.0
  0
VERTEX
  5
3D76
  8
L1
 10
50.785761146631103
 20
45.756888727032617
 30
0.0
  0
VERTEX
  5
3D77
  8
L1
 10
51.252831452856981
 20
45.754802571812199
 30
0.0
  0
VERTEX
  5
3D78
  8
L1
 10
51.522849075293671
 20
45.754071989326512
 30
0.0
  0
VERTEX
  5
3D79
  8
L1
 10
51.827197356275519
 20
45.753522479713872
 30
0.0
  0
VERTEX
  5
3D7A
  8
L1
 10
52.173383055049378
 20
45.753133600066633
 30
0.0
  0
VERTEX
  5
3D7B
  8
L1
 10
52.568912930862162
 20
45.752884907477089
 30
0.0
  0
VERTEX
  5
3D7C
  8
L1
 10
53.021293742960829
 20
45.752755959037977
 30
0.0
  0
VERTEX
  5
3D7D
  8
L1
 10
53.538032250592089
 20
45.752726311841514
 30
0.0
  0
VERTEX
  5
3D7E
  8
L1
 10
54.126635213003162
 20
45.752775522980237
 30
0.0
  0
VERTEX
  5
3D7F
  8
L1
 10
54.450231727015812
 20
45.752823312016787
 30
0.0
  0
VERTEX
  5
3D80
  8
L1
 10
54.7946093894409
 20
45.752883149546683
 30
0.0
  0
VERTEX
  5
3D81
  8
L1
 10
55.160706545184212
 20
45.752952480206538
 30
0.0
  0
VERTEX
  5
3D82
  8
L1
 10
55.549461539152048
 20
45.753028748633078
 30
0.0
  0
VERTEX
  5
3D83
  8
L1
 10
55.961812716249817
 20
45.753109399462737
 30
0.0
  0
VERTEX
  5
3D84
  8
L1
 10
56.398698421383642
 20
45.753191877332078
 30
0.0
  0
VERTEX
  5
3D85
  8
L1
 10
56.861056999459208
 20
45.753273626877672
 30
0.0
  0
VERTEX
  5
3D86
  8
L1
 10
57.349826795382512
 20
45.753352092735888
 30
0.0
  0
VERTEX
  5
3D87
  8
L1
 10
57.865946154059493
 20
45.753424719543709
 30
0.0
  0
VERTEX
  5
3D88
  8
L1
 10
58.410353420395779
 20
45.753488951937292
 30
0.0
  0
SEQEND
  5
3D89
  8
L1
  0
POLYLINE
  5
2D01
  8
L1
 66
     1
 10
0.0
 20
0.0
 30
0.0
  0
VERTEX
  5
3D8A
  8
L1
 10
55.320782384950739
 20
47.73119792081593
 30
0.0
  0
VERTEX
  5
3D8B
  8
L1
 10
55.274528509900563
 20
47.73134011044516
 30
0.0
  0
VERTEX
  5
3D8C
  8
L1
 10
55.079716260798023
 20
47.735147577404632
 30
0.0
  0
VERTEX
  5
3D8D
  8
L1
 10
54.654345306803059
 20
47.761489579966899
 30
0.0
  0
VERTEX
  5
3D8E
  8
L1
 10
54.443648320938571
 20
47.783626368724917
 30
0.0
  0
VERTEX
  5
3D8F
  8
L1
 10
54.190406214040422
 20
47.818253940848017
 30
0.0
  0
VERTEX
  5
3D90
  8
L1
 10
53.899137393666138
 20
47.868982863103319
 30
0.0
  0
VERTEX
  5
3D91
  8
L1
 10
53.574360267373208
 20
47.939423702257379
 30
0.0
  0
VERTEX
  5
3D92
  8
L1
 10
53.102463247988453
 20
48.068720341375872
 30
0.0
  0
VERTEX
  5
3D93
  8
L1
 10
52.640184031571494
 20
48.227961217950217
 30
0.0
  0
VERTEX
  5
3D94
  8
L1
 10
52.189007119832752
 20
48.416600588234587
 30
0.0
  0
VERTEX
  5
3D95
  8
L1
 10
51.75041701448265
 20
48.63409270848269
 30
0.0
  0
VERTEX
  5
3D96
  8
L1
 10
51.121594719335462
 20
49.011544102013829
 30
0.0
  0
VERTEX
  5
3D97
  8
L1
 10
50.531802437309011
 20
49.447658529267471
 30
0.0
  0
VERTEX
  5
3D98
  8
L1
 10
49.972111510274772
 20
49.952800165016299
 30
0.0
  0
VERTEX
  5
3D99
  8
L1
 10
49.465027541526119
 20
50.510790114184204
 30
0.0
  0
VERTEX
  5
3D9A
  8
L1
 10
49.065647524672947
 20
51.04209367449954
 30
0.0
  0
VERTEX
  5
3D9B
  8
L1
 10
48.713930872883793
 20
51.606167470228058
 30
0.0
  0
VERTEX
  5
3D9C
  8
L1
 10
48.41835822720838
 20
52.186023013524327
 30
0.0
  0
VERTEX
  5
3D9D
  8
L1
 10
48.173392806964223
 20
52.788933891203378
 30
0.0
  0
VERTEX
  5
3D9E
  8
L1
 10
48.017642363475431
 20
53.275410070638891
 30
0.0
  0
VERTEX
  5
3D9F
  8
L1
 10
47.907254360812757
 20
53.713902935420151
 30
0.0
  0
VERTEX
  5
3DA0
  8
L1
 10
47.833466786330291
 20
54.095945040035247
 30
0.0
  0
VERTEX
  5
3DA1
  8
L1
 10
47.787517627381639
 20
54.41306893897189
 30
0.0
  0
VERTEX
  5
3DA2
  8
L1
 10
47.749395916046353
 20
54.804668282786501
 30
0.0
  0
VERTEX
  5
3DA3
  8
L1
 10
47.733238830100163
 20
55.147078120581568
 30
0.0
  0
VERTEX
  5
3DA4
  8
L1
 10
47.73117798668261
 20
55.317786475224921
 30
0.0
  0
VERTEX
  5
3DA5
  8
L1
 10
47.731177419503581
 20
55.320761883638284
 30
0.0
  0
SEQEND
  5
3DA6
  8
L1
  0
POLYLINE
  5
2D02
  8
L1
 66
     1
 10
0.0
 20
0.0
 30
0.0
  0
VERTEX
  5
3DA7
  8
L1
 10
48.940067006392091
 20
56.529651470526801
 30
0.0
  0
VERTEX
  5
3DA8
  8
L1
 10
48.942769004879658
 20
56.327433511053698
 30
0.0
  0
VERTEX
  5
3DA9
  8
L1
 10
48.95084401653628
 20
56.125372715584199
 30
0.0
  0
VERTEX
  5
3DAA
  8
L1
 10
48.964286337914928
 20
55.923611801317008
 30
0.0
  0
VERTEX
  5
3DAB
  8
L1
 10
48.983086474593733
 20
55.722293273642151
 30
0.0
  0
VERTEX
  5
3DAC
  8
L1
 10
49.007231147881718
 20
55.52155932548856
 30
0.0
  0
VERTEX
  5
3DAD
  8
L1
 10
49.036703304197943
 20
55.321551736891699
 30
0.0
  0
VERTEX
  5
3DAE
  8
L1
 10
49.071482127116496
 20
55.122411774853447
 30
0.0
  0
VERTEX
  5
3DAF
  8
L1
 10
49.111543052069237
 20
54.924280093563709
 30
0.0
  0
VERTEX
  5
3DB0
  8
L1
 10
49.156857783695962
 20
54.727296635055673
 30
0.0
  0
VERTEX
  5
3DB1
  8
L1
 10
49.207394315829667
 20
54.531600530363171
 30
0.0
  0
VERTEX
  5
3DB2
  8
L1
 10
49.263116954102941
 20
54.33733000125153
 30
0.0
  0
VERTEX
  5
3DB3
  8
L1
 10
49.323986341158843
 20
54.144622262590303
 30
0.0
  0
VERTEX
  5
3DB4
  8
L1
 10
49.389959484449491
 20
53.953613425437361
 30
0.0
  0
VERTEX
  5
3DB5
  8
L1
 10
49.46098978660234
 20
53.76443840090252
 30
0.0
  0
VERTEX
  5
3DB6
  8
L1
 10
49.537027078331789
 20
53.57723080485863
 30
0.0
  0
VERTEX
  5
3DB7
  8
L1
 10
49.61801765387446
 20
53.392122863567693
 30
0.0
  0
VERTEX
  5
3DB8
  8
L1
 10
49.703904308921892
 20
53.209245320288183
 30
0.0
  0
VERTEX
  5
3DB9
  8
L1
 10
49.794626381024607
 20
53.028727342930381
 30
0.0
  0
VERTEX
  5
3DBA
  8
L1
 10
49.890119792438213
 20
52.850696432823661
 30
0.0
  0
VERTEX
  5
3DBB
  8
L1
 10
49.990317095382352
 20
52.6752783346613
 30
0.0
  0
VERTEX
  5
3DBC
  8
L1
 10
50.095147519679358
 20
52.502596947686193
 30
0.0
  0
VERTEX
  5
3DBD
  8
L1
 10
50.204537022739942
 20
52.332774238179638
 30
0.0
  0
VERTEX
  5
3DBE
  8
L1
 10
50.318408341860049
 20
52.165930153315401
 30
0.0
  0
VERTEX
  5
3DBF
  8
L1
 10
50.436681048792138
 20
52.002182536440444
 30
0.0
  0
VERTEX
  5
3DC0
  8
L1
 10
50.559271606552329
 20
51.841647043840851
 30
0.0
  0
VERTEX
  5
3DC1
  8
L1
 10
50.686093428423298
 20
51.68443706305294
 30
0.0
  0
VERTEX
  5
3DC2
  8
L1
 10
50.817056939111069
 20
51.530663632776729
 30
0.0
  0
VERTEX
  5
3DC3
  8
L1
 10
50.952069638012972
 20
51.380435364448488
 30
0.0
  0
VERTEX
  5
3DC4
  8
L1
 10
51.091036164551269
 20
51.233858365527389
 30
0.0
  0
VERTEX
  5
3DC5
  8
L1
 10
51.23385836552746
 20
51.091036164551213
 30
0.0
  0
VERTEX
  5
3DC6
  8
L1
 10
51.380435364448537
 20
50.952069638012922
 30
0.0
  0
VERTEX
  5
3DC7
  8
L1
 10
51.530663632776793
 20
50.817056939111012
 30
0.0
  0
VERTEX
  5
3DC8
  8
L1
 10
51.684437063052997
 20
50.686093428423248
 30
0.0
  0
VERTEX
  5
3DC9
  8
L1
 10
51.841647043840908
 20
50.559271606552272
 30
0.0
  0
VERTEX
  5
3DCA
  8
L1
 10
52.0021825364405
 20
50.436681048792082
 30
0.0
  0
VERTEX
  5
3DCB
  8
L1
 10
52.165930153315458
 20
50.318408341859993
 30
0.0
  0
VERTEX
  5
3DCC
  8
L1
 10
52.332774238179702
 20
50.204537022739892
 30
0.0
  0
VERTEX
  5
3DCD
  8
L1
 10
52.502596947686243
 20
50.095147519679301
 30
0.0
  0
VERTEX
  5
3DCE
  8
L1
 10
52.675278334661357
 20
49.990317095382288
 30
0.0
  0
VERTEX
  5
3DCF
  8
L1
 10
52.850696432823732
 20
49.890119792438163
 30
0.0
  0
VERTEX
  5
3DD0
  8
L1
 10
53.028727342930431
 20
49.794626381024557
 30
0.0
  0
VERTEX
  5
3DD1
  8
L1
 10
53.209245320288233
 20
49.703904308921842
 30
0.0
  0
VERTEX
  5
3DD2
  8
L1
 10
53.392122863567749
 20
49.618017653874404
 30
0.0
  0
VERTEX
  5
3DD3
  8
L1
 10
53.577230804858679
 20
49.537027078331732
 30
0.0
  0
VERTEX
  5
3DD4
  8
L1
 10
53.76443840090257
 20
49.460989786602283
 30
0.0
  0
VERTEX
  5
3DD5
  8
L1
 10
53.953613425437418
 20
49.389959484449442
 30
0.0
  0
VERTEX
  5
3DD6
  8
L1
 10
54.14462226259036
 20
49.323986341158779
 30
0.0
  0
VERTEX
  5
3DD7
  8
L1
 10
54.33733000125158
 20
49.263116954102877
 30
0.0
  0
VERTEX
  5
3DD8
  8
L1
 10
54.531600530363221
 20
49.207394315829617
 30
0.0
  0
VERTEX
  5
3DD9
  8
L1
 10
54.727296635055723
 20
49.156857783695891
 30
0.0
  0
VERTEX
  5
3DDA
  8
L1
 10
54.924280093563773
 20
49.11154305206918
 30
0.0
  0
VERTEX
  5
3DDB
  8
L1
 10
55.122411774853497
 20
49.07148212711644
 30
0.0
  0
VERTEX
  5
3DDC
  8
L1
 10
55.321551736891763
 20
49.036703304197893
 30
0.0
  0
VERTEX
  5
3DDD
  8
L1
 10
55.521559325488617
 20
49.007231147881669
 30
0.0
  0
VERTEX
  5
3DDE
  8
L1
 10
55.722293273642208
 20
48.983086474593676
 30
0.0
  0
VERTEX
  5
3DDF
  8
L1
 10
55.923611801317072
 20
48.964286337914871
 30
0.0
  0
VERTEX
  5
3DE0
  8
L1
 10
56.125372715584263
 20
48.95084401653623
 30
0.0
  0
VERTEX
  5
3DE1
  8
L1
 10
56.327433511053748
 20
48.942769004879608
 30
0.0
  0
VERTEX
  5
3DE2
  8
L1
 10
56.529651470526858
 20
48.940067006392042
 30
0.0
  0
SEQEND
  5
3DE3
  8
L1
  0
ARC
  5
2D03
  8
L1
 10
44.012304130909108
 20
44.012304130909172
 30
0.0
 40
2.0
 50
0.0
 51
90.0
  0
ARC
  5
2D04
  8
L1
 10
56.75
 20
56.75
 30
0.0
 40
4.9551339946734032
 50
357.46873820670879
 51
23.013616072391041
  0
POLYLINE
  5
2D05
  8
L1
 66
     1
 10
0.0
 20
0.0
 30
0.0
  0
VERTEX
  5
3DE4
  8
L1
 10
61.697073088947263
 20
46.491233016057258
 30
0.0
  0
VERTEX
  5
3DE5
  8
L1
 10
61.586257410709997
 20
46.709186851637753
 30
0.0
  0
VERTEX
  5
3DE6
  8
L1
 10
61.446843118683091
 20
46.917362679660641
 30
0.0
  0
VERTEX
  5
3DE7
  8
L1
 10
61.212661423407098
 20
47.176712330546422
 30
0.0
  0
VERTEX
  5
3DE8
  8
L1
 10
60.935192761054957
 20
47.395462615868723
 30
0.0
  0
VERTEX
  5
3DE9
  8
L1
 10
60.61082216109412
 20
47.569986725547892
 30
0.0
  0
VERTEX
  5
3DEA
  8
L1
 10
60.262771699553468
 20
47.683178154070838
 30
0.0
  0
VERTEX
  5
3DEB
  8
L1
 10
60.209532526953751
 20
47.694571369592197
 30
0.0
  0
SEQEND
  5
3DEC
  8
L1
  0
POLYLINE
  5
2D06
  8
L1
 66
     1
 10
0.0
 20
0.0
 30
0.0
  0
VERTEX
  5
3DED
  8
L1
 10
61.048761007953999
 20
48.940067006392042
 30
0.0
  0
VERTEX
  5
3DEE
  8
L1
 10
61.244746949736957
 20
48.930507715392189
 30
0.0
  0
VERTEX
  5
3DEF
  8
L1
 10
61.438794101028464
 20
48.90181452661119
 30
0.0
  0
VERTEX
  5
3DF0
  8
L1
 10
61.629040188111958
 20
48.854262809056017
 30
0.0
  0
VERTEX
  5
3DF1
  8
L1
 10
61.813659416146827
 20
48.788308917345368
 30
0.0
  0
VERTEX
  5
3DF2
  8
L1
 10
61.990879991351839
 20
48.704585812067698
 30
0.0
  0
VERTEX
  5
3DF3
  8
L1
 10
62.159001124939152
 20
48.603896985247331
 30
0.0
  0
VERTEX
  5
3DF4
  8
L1
 10
62.316409355612393
 20
48.48720874921861
 30
0.0
  0
VERTEX
  5
3DF5
  8
L1
 10
62.461594033981498
 20
48.3556409629104
 30
0.0
  0
VERTEX
  5
3DF6
  8
L1
 10
62.593161820289708
 20
48.210456284541287
 30
0.0
  0
VERTEX
  5
3DF7
  8
L1
 10
62.70985005631843
 20
48.053048053868046
 30
0.0
  0
VERTEX
  5
3DF8
  8
L1
 10
62.81053888313874
 20
47.884926920280741
 30
0.0
  0
VERTEX
  5
3DF9
  8
L1
 10
62.894261988416467
 20
47.707706345075728
 30
0.0
  0
VERTEX
  5
3DFA
  8
L1
 10
62.960215880127059
 20
47.523087117040859
 30
0.0
  0
VERTEX
  5
3DFB
  8
L1
 10
63.007767597682289
 20
47.332841029957358
 30
0.0
  0
VERTEX
  5
3DFC
  8
L1
 10
63.03646078646323
 20
47.138793878665922
 30
0.0
  0
VERTEX
  5
3DFD
  8
L1
 10
63.046020077463083
 20
46.9428079368829
 30
0.0
  0
SEQEND
  5
3DFE
  8
L1
  0
POLYLINE
  5
2D07
  8
L1
 66
     1
 10
0.0
 20
0.0
 30
0.0
  0
VERTEX
  5
3DFF
  8
L1
 10
60.209532526953751
 20
47.694571369592197
 30
0.0
  0
VERTEX
  5
3E00
  8
L1
 10
60.121389640016282
 20
47.710009078187731
 30
0.0
  0
VERTEX
  5
3E01
  8
L1
 10
60.002066213371499
 20
47.724096145796459
 30
0.0
  0
VERTEX
  5
3E02
  8
L1
 10
59.905035198184457
 20
47.729918285639478
 30
0.0
  0
VERTEX
  5
3E03
  8
L1
 10
59.861714048434571
 20
47.730911186794742
 30
0.0
  0
VERTEX
  5
3E04
  8
L1
 10
59.839732262174778
 20
47.731038260612763
 30
0.0
  0
SEQEND
  5
3E05
  8
L1
  0
POLYLINE
  5
2D08
  8
L1
 66
     1
 10
0.0
 20
0.0
 30
0.0
  0
VERTEX
  5
3E06
  8
L1
 10
59.839732262174778
 20
47.731038260612763
 30
0.0
  0
VERTEX
  5
3E07
  8
L1
 10
58.083973469469363
 20
47.731027259837838
 30
0.0
  0
VERTEX
  5
3E08
  8
L1
 10
57.850819874235519
 20
47.731013356836002
 30
0.0
  0
VERTEX
  5
3E09
  8
L1
 10
57.64449645611603
 20
47.730998303025551
 30
0.0
  0
VERTEX
  5
3E0A
  8
L1
 10
57.288650164231633
 20
47.730970725166969
 30
0.0
  0
VERTEX
  5
3E0B
  8
L1
 10
56.638329848963622
 20
47.73096756381301
 30
0.0
  0
VERTEX
  5
3E0C
  8
L1
 10
56.418913584252778
 20
47.730992933396749
 30
0.0
  0
VERTEX
  5
3E0D
  8
L1
 10
56.224854588928672
 20
47.73102900569824
 30
0.0
  0
VERTEX
  5
3E0E
  8
L1
 10
55.893364057215713
 20
47.73111381018537
 30
0.0
  0
VERTEX
  5
3E0F
  8
L1
 10
55.320782384950739
 20
47.73119792081593
 30
0.0
  0
SEQEND
  5
3E10
  8
L1
  0
LINE
  5
2D09
  8
L1
 10
56.529651470526858
 20
48.940067006392042
 30
0.0
 11
61.048761007953999
 21
48.940067006392042
 31
0.0
  0
POLYLINE
  5
2D0A
  8
L1
 66
     1
 10
0.0
 20
0.0
 30
0.0
  0
VERTEX
  5
3E11
  8
L1
 10
58.410353420395779
 20
45.753488951937292
 30
0.0
  0
VERTEX
  5
3E12
  8
L1
 10
58.63809840305418
 20
45.739390136792899
 30
0.0
  0
VERTEX
  5
3E13
  8
L1
 10
58.898657065353397
 20
45.682324404041701
 30
0.0
  0
VERTEX
  5
3E14
  8
L1
 10
59.141840124902281
 20
45.574887967944903
 30
0.0
  0
VERTEX
  5
3E15
  8
L1
 10
59.319455708063003
 20
45.446422899777751
 30
0.0
  0
VERTEX
  5
3E16
  8
L1
 10
59.467834044425778
 20
45.285116982980462
 30
0.0
  0
VERTEX
  5
3E17
  8
L1
 10
59.594399580375629
 20
45.072757364053977
 30
0.0
  0
VERTEX
  5
3E18
  8
L1
 10
59.677770945913828
 20
44.839330738015583
 30
0.0
  0
VERTEX
  5
3E19
  8
L1
 10
59.72061171677592
 20
44.609409821459387
 30
0.0
  0
VERTEX
  5
3E1A
  8
L1
 10
59.733858588995133
 20
44.374643532980031
 30
0.0
  0
SEQEND
  5
3E1B
  8
L1
  0
POLYLINE
  5
2D0B
  8
L1
 66
     1
 10
0.0
 20
0.0
 30
0.0
  0
VERTEX
  5
3E1C
  8
L1
 10
61.697073088947207
 20
46.491233016057258
 30
0.0
  0
VERTEX
  5
3E1D
  8
L1
 10
61.812200114655809
 20
46.128589660902257
 30
0.0
  0
VERTEX
  5
3E1E
  8
L1
 10
61.85105329936021
 20
45.747841158779977
 30
0.0
  0
SEQEND
  5
3E1F
  8
L1
  0
LINE
  5
2D0C
  8
L1
 10
61.70029913768667
 20
56.531159070128687
 30
0.0
 11
56.968840929871249
 21
51.799700862313273
 31
0.0
  0
ARC
  5
2D0D
  8
L1
 10
56.75
 20
56.75
 30
0.0
 40
4.9551339946734032
 50
177.4687382067072
 51
272.53126179329098
  0
LINE
  5
2D0E
  8
L1
 10
-44.37464353298202
 20
59.733858588995083
 30
0.0
 11
44.374682106856589
 21
59.733858588995083
 31
0.0
  0
LINE
  5
2D0F
  8
L1
 10
45.747841158780027
 20
61.851053299360267
 30
0.0
 11
-45.747841158780027
 21
61.851053299360267
 31
0.0
  0
LINE
  5
2D10
  8
L1
 10
-46.9428079368829
 20
63.04602007746314
 30
0.0
 11
46.942807936883007
 21
63.04602007746314
 31
0.0
  0
POLYLINE
  5
2D11
  8
L1
 66
     1
 10
0.0
 20
0.0
 30
0.0
  0
VERTEX
  5
3E20
  8
L1
 10
-45.74784115878014
 20
61.851053299360267
 30
0.0
  0
VERTEX
  5
3E21
  8
L1
 10
-46.128673880457711
 20
61.812182668059272
 30
0.0
  0
VERTEX
  5
3E22
  8
L1
 10
-46.491390218655958
 20
61.697004589372114
 30
0.0
  0
SEQEND
  5
3E23
  8
L1
  0
POLYLINE
  5
2D12
  8
L1
 66
     1
 10
0.0
 20
0.0
 30
0.0
  0
VERTEX
  5
3E24
  8
L1
 10
45.747841158780027
 20
61.851053299360267
 30
0.0
  0
VERTEX
  5
3E25
  8
L1
 10
46.12867388045759
 20
61.812182668059272
 30
0.0
  0
VERTEX
  5
3E26
  8
L1
 10
46.491390218655852
 20
61.697004589372114
 30
0.0
  0
SEQEND
  5
3E27
  8
L1
  0
POLYLINE
  5
2D13
  8
L1
 66
     1
 10
0.0
 20
0.0
 30
0.0
  0
VERTEX
  5
3E28
  8
L1
 10
47.69457501266038
 20
60.209448876169567
 30
0.0
  0
VERTEX
  5
3E29
  8
L1
 10
47.62600796589237
 20
60.464535195819387
 30
0.0
  0
VERTEX
  5
3E2A
  8
L1
 10
47.485917548022542
 20
60.784367596849329
 30
0.0
  0
VERTEX
  5
3E2B
  8
L1
 10
47.293394107578017
 20
61.076768389670747
 30
0.0
  0
VERTEX
  5
3E2C
  8
L1
 10
47.049744330121477
 20
61.33717089796113
 30
0.0
  0
VERTEX
  5
3E2D
  8
L1
 10
46.770281178529899
 20
61.549061621128942
 30
0.0
  0
VERTEX
  5
3E2E
  8
L1
 10
46.491390218655852
 20
61.697004589372057
 30
0.0
  0
SEQEND
  5
3E2F
  8
L1
  0
POLYLINE
  5
2D14
  8
L1
 66
     1
 10
0.0
 20
0.0
 30
0.0
  0
VERTEX
  5
3E30
  8
L1
 10
47.731027276929012
 20
59.839721278491027
 30
0.0
  0
VERTEX
  5
3E31
  8
L1
 10
47.73098741427475
 20
59.85201139788478
 30
0.0
  0
VERTEX
  5
3E32
  8
L1
 10
47.730364050865028
 20
59.889972759174732
 30
0.0
  0
VERTEX
  5
3E33
  8
L1
 10
47.727125082442107
 20
59.961522756105012
 30
0.0
  0
VERTEX
  5
3E34
  8
L1
 10
47.711372876901457
 20
60.112091818183153
 30
0.0
  0
VERTEX
  5
3E35
  8
L1
 10
47.69457501266038
 20
60.209448876169567
 30
0.0
  0
SEQEND
  5
3E36
  8
L1
  0
POLYLINE
  5
2D15
  8
L1
 66
     1
 10
0.0
 20
0.0
 30
0.0
  0
VERTEX
  5
3E37
  8
L1
 10
46.94280793688295
 20
63.046020077463197
 30
0.0
  0
VERTEX
  5
3E38
  8
L1
 10
47.138793878665972
 20
63.036460786463287
 30
0.0
  0
VERTEX
  5
3E39
  8
L1
 10
47.332841029957478
 20
63.007767597682403
 30
0.0
  0
VERTEX
  5
3E3A
  8
L1
 10
47.523087117040973
 20
62.96021588012718
 30
0.0
  0
VERTEX
  5
3E3B
  8
L1
 10
47.707706345075842
 20
62.894261988416588
 30
0.0
  0
VERTEX
  5
3E3C
  8
L1
 10
47.884926920280861
 20
62.810538883138911
 30
0.0
  0
VERTEX
  5
3E3D
  8
L1
 10
48.053048053868167
 20
62.709850056318537
 30
0.0
  0
VERTEX
  5
3E3E
  8
L1
 10
48.210456284541401
 20
62.593161820289822
 30
0.0
  0
VERTEX
  5
3E3F
  8
L1
 10
48.355640962910513
 20
62.461594033981612
 30
0.0
  0
VERTEX
  5
3E40
  8
L1
 10
48.487208749218723
 20
62.316409355612507
 30
0.0
  0
VERTEX
  5
3E41
  8
L1
 10
48.603896985247452
 20
62.159001124939259
 30
0.0
  0
VERTEX
  5
3E42
  8
L1
 10
48.704585812067819
 20
61.99087999135196
 30
0.0
  0
VERTEX
  5
3E43
  8
L1
 10
48.788308917345553
 20
61.813659416146891
 30
0.0
  0
VERTEX
  5
3E44
  8
L1
 10
48.854262809056081
 20
61.629040188111958
 30
0.0
  0
VERTEX
  5
3E45
  8
L1
 10
48.901814526611297
 20
61.438794101028464
 30
0.0
  0
VERTEX
  5
3E46
  8
L1
 10
48.930507715392253
 20
61.244746949737021
 30
0.0
  0
VERTEX
  5
3E47
  8
L1
 10
48.940067006392162
 20
61.048761007953999
 30
0.0
  0
SEQEND
  5
3E48
  8
L1
  0
POLYLINE
  5
2D16
  8
L1
 66
     1
 10
0.0
 20
0.0
 30
0.0
  0
VERTEX
  5
3E49
  8
L1
 10
65.012304130909115
 20
61.517100759268139
 30
0.0
  0
VERTEX
  5
3E4A
  8
L1
 10
65.012250207188742
 20
61.537048032038172
 30
0.0
  0
VERTEX
  5
3E4B
  8
L1
 10
65.012088437774082
 20
61.556999999999903
 30
0.0
  0
SEQEND
  5
3E4C
  8
L1
  0
POLYLINE
  5
2D17
  8
L1
 66
     1
 10
0.0
 20
0.0
 30
0.0
  0
VERTEX
  5
3E4D
  8
L1
 10
61.901529179287763
 20
59.3767067622951
 30
0.0
  0
VERTEX
  5
3E4E
  8
L1
 10
61.892416041710192
 20
59.319858836588082
 30
0.0
  0
VERTEX
  5
3E4F
  8
L1
 10
61.883099641752267
 20
59.263214172935143
 30
0.0
  0
SEQEND
  5
3E50
  8
L1
  0
ARC
  5
2D18
  8
L1
 10
56.75
 20
56.75
 30
0.0
 40
5.7825462644184809
 50
27.01652280964073
 51
62.983477190357078
  0
POLYLINE
  5
2D19
  8
L1
 66
     1
 10
0.0
 20
0.0
 30
0.0
  0
VERTEX
  5
3E51
  8
L1
 10
59.263214172935193
 20
61.88309964175221
 30
0.0
  0
VERTEX
  5
3E52
  8
L1
 10
59.31985883659172
 20
61.89241604171076
 30
0.0
  0
VERTEX
  5
3E53
  8
L1
 10
59.376706762295207
 20
61.901529179287763
 30
0.0
  0
SEQEND
  5
3E54
  8
L1
  0
POLYLINE
  5
2D1A
  8
L1
 66
     1
 10
0.0
 20
0.0
 30
0.0
  0
VERTEX
  5
3E55
  8
L1
 10
63.665886064679
 20
60.170682693037982
 30
0.0
  0
VERTEX
  5
3E56
  8
L1
 10
63.662880445724461
 20
60.31523536792389
 30
0.0
  0
VERTEX
  5
3E57
  8
L1
 10
63.653913841848919
 20
60.45952652732376
 30
0.0
  0
VERTEX
  5
3E58
  8
L1
 10
63.639001518973203
 20
60.603310511069601
 30
0.0
  0
VERTEX
  5
3E59
  8
L1
 10
63.618168865788959
 20
60.746342522475288
 30
0.0
  0
VERTEX
  5
3E5A
  8
L1
 10
63.591451350533418
 20
60.888379045111272
 30
0.0
  0
VERTEX
  5
3E5B
  8
L1
 10
63.558894460603938
 20
61.029178257398307
 30
0.0
  0
VERTEX
  5
3E5C
  8
L1
 10
63.520553625113962
 20
61.168500444316287
 30
0.0
  0
VERTEX
  5
3E5D
  8
L1
 10
63.476494120523512
 20
61.306108405526693
 30
0.0
  0
VERTEX
  5
3E5E
  8
L1
 10
63.426790959503819
 20
61.441767859213257
 30
0.0
  0
VERTEX
  5
3E5F
  8
L1
 10
63.371528763226081
 20
61.575247840954141
 30
0.0
  0
VERTEX
  5
3E60
  8
L1
 10
63.310801617291133
 20
61.706321096945999
 30
0.0
  0
VERTEX
  5
3E61
  8
L1
 10
63.244712911545889
 20
61.83476447091067
 30
0.0
  0
VERTEX
  5
3E62
  8
L1
 10
63.173375164058939
 20
61.960359284025628
 30
0.0
  0
VERTEX
  5
3E63
  8
L1
 10
63.096909829554988
 20
62.08289170723134
 30
0.0
  0
VERTEX
  5
3E64
  8
L1
 10
63.015447092634417
 20
62.202153125281882
 30
0.0
  0
VERTEX
  5
3E65
  8
L1
 10
62.929125646130103
 20
62.317940491919103
 30
0.0
  0
VERTEX
  5
3E66
  8
L1
 10
62.838092454978487
 20
62.43005667556497
 30
0.0
  0
VERTEX
  5
3E67
  8
L1
 10
62.742502506007042
 20
62.538310794943982
 30
0.0
  0
VERTEX
  5
3E68
  8
L1
 10
62.642518544064842
 20
62.642518544064899
 30
0.0
  0
VERTEX
  5
3E69
  8
L1
 10
62.538310794943932
 20
62.742502506007099
 30
0.0
  0
VERTEX
  5
3E6A
  8
L1
 10
62.430056675564913
 20
62.83809245497855
 30
0.0
  0
VERTEX
  5
3E6B
  8
L1
 10
62.317940491919039
 20
62.92912564613016
 30
0.0
  0
VERTEX
  5
3E6C
  8
L1
 10
62.202153125281818
 20
63.015447092634467
 30
0.0
  0
VERTEX
  5
3E6D
  8
L1
 10
62.082891707231283
 20
63.096909829555052
 30
0.0
  0
VERTEX
  5
3E6E
  8
L1
 10
61.960359284025571
 20
63.173375164058989
 30
0.0
  0
VERTEX
  5
3E6F
  8
L1
 10
61.834764470910613
 20
63.244712911545939
 30
0.0
  0
VERTEX
  5
3E70
  8
L1
 10
61.706321096945942
 20
63.31080161729119
 30
0.0
  0
VERTEX
  5
3E71
  8
L1
 10
61.575247840954091
 20
63.371528763226138
 30
0.0
  0
VERTEX
  5
3E72
  8
L1
 10
61.441767859213201
 20
63.426790959503869
 30
0.0
  0
VERTEX
  5
3E73
  8
L1
 10
61.306108405526622
 20
63.476494120523569
 30
0.0
  0
VERTEX
  5
3E74
  8
L1
 10
61.168500444316237
 20
63.520553625114019
 30
0.0
  0
VERTEX
  5
3E75
  8
L1
 10
61.029178257398257
 20
63.558894460603987
 30
0.0
  0
VERTEX
  5
3E76
  8
L1
 10
60.888379045111201
 20
63.591451350533468
 30
0.0
  0
VERTEX
  5
3E77
  8
L1
 10
60.746342522475231
 20
63.618168865789009
 30
0.0
  0
VERTEX
  5
3E78
  8
L1
 10
60.60331051106953
 20
63.639001518973252
 30
0.0
  0
VERTEX
  5
3E79
  8
L1
 10
60.45952652732371
 20
63.653913841848969
 30
0.0
  0
VERTEX
  5
3E7A
  8
L1
 10
60.315235367923833
 20
63.662880445724511
 30
0.0
  0
VERTEX
  5
3E7B
  8
L1
 10
60.170682693037911
 20
63.665886064679057
 30
0.0
  0
SEQEND
  5
3E7C
  8
L1
  0
POLYLINE
  5
2D1B
  8
L1
 66
     1
 10
0.0
 20
0.0
 30
0.0
  0
VERTEX
  5
3E7D
  8
L1
 10
61.556999999999952
 20
65.012088437774139
 30
0.0
  0
VERTEX
  5
3E7E
  8
L1
 10
61.537048032038172
 20
65.012250207188799
 30
0.0
  0
VERTEX
  5
3E7F
  8
L1
 10
61.517100759268089
 20
65.012304130909172
 30
0.0
  0
SEQEND
  5
3E80
  8
L1
  0
LINE
  5
2D1C
  8
L1
 10
58.687208996504921
 20
61.310764651791203
 30
0.0
 11
59.035746534405057
 21
61.659302189691402
 31
0.0
  0
ARC
  5
2D1D
  8
L1
 10
56.75
 20
56.75
 30
0.0
 40
4.9551339946734032
 50
66.986383927607449
 51
92.531261793291065
  0
POLYLINE
  5
2D1E
  8
L1
 66
     1
 10
0.0
 20
0.0
 30
0.0
  0
VERTEX
  5
3E81
  8
L1
 10
59.035746534405
 20
61.659302189691459
 30
0.0
  0
VERTEX
  5
3E82
  8
L1
 10
59.080639129592321
 20
61.704116422292373
 30
0.0
  0
VERTEX
  5
3E83
  8
L1
 10
59.124081047125742
 20
61.747342135618901
 30
0.0
  0
VERTEX
  5
3E84
  8
L1
 10
59.162953301975449
 20
61.78586227759893
 30
0.0
  0
VERTEX
  5
3E85
  8
L1
 10
59.197587405171987
 20
61.820028179014741
 30
0.0
  0
VERTEX
  5
3E86
  8
L1
 10
59.224983031468582
 20
61.846862727420053
 30
0.0
  0
VERTEX
  5
3E87
  8
L1
 10
59.245965950157938
 20
61.867206662007838
 30
0.0
  0
VERTEX
  5
3E88
  8
L1
 10
59.258187265245738
 20
61.878765071482292
 30
0.0
  0
VERTEX
  5
3E89
  8
L1
 10
59.263214172935193
 20
61.88309964175221
 30
0.0
  0
SEQEND
  5
3E8A
  8
L1
  0
POLYLINE
  5
2D1F
  8
L1
 66
     1
 10
0.0
 20
0.0
 30
0.0
  0
VERTEX
  5
3E8B
  8
L1
 10
61.88309964175221
 20
59.263214172935072
 30
0.0
  0
VERTEX
  5
3E8C
  8
L1
 10
61.878765071482242
 20
59.25818726524551
 30
0.0
  0
VERTEX
  5
3E8D
  8
L1
 10
61.867206662007902
 20
59.245965950157768
 30
0.0
  0
VERTEX
  5
3E8E
  8
L1
 10
61.846862727419982
 20
59.224983031468412
 30
0.0
  0
VERTEX
  5
3E8F
  8
L1
 10
61.820028179014678
 20
59.197587405171873
 30
0.0
  0
VERTEX
  5
3E90
  8
L1
 10
61.785862277598881
 20
59.162953301975392
 30
0.0
  0
VERTEX
  5
3E91
  8
L1
 10
61.747342135618901
 20
59.124081047125571
 30
0.0
  0
VERTEX
  5
3E92
  8
L1
 10
61.704116422292373
 20
59.080639129592207
 30
0.0
  0
VERTEX
  5
3E93
  8
L1
 10
61.659302189691509
 20
59.0357465344049
 30
0.0
  0
SEQEND
  5
3E94
  8
L1
  0
POLYLINE
  5
2D20
  8
L1
 66
     1
 10
0.0
 20
0.0
 30
0.0
  0
VERTEX
  5
3E95
  8
L1
 10
65.012088437774025
 20
61.556999999999903
 30
0.0
  0
VERTEX
  5
3E96
  8
L1
 10
64.993014072385904
 20
61.88563056863228
 30
0.0
  0
VERTEX
  5
3E97
  8
L1
 10
64.941714390114214
 20
62.218787602445282
 30
0.0
  0
VERTEX
  5
3E98
  8
L1
 10
64.857024460342814
 20
62.55015194317383
 30
0.0
  0
VERTEX
  5
3E99
  8
L1
 10
64.739585002002343
 20
62.873772386240937
 30
0.0
  0
VERTEX
  5
3E9A
  8
L1
 10
64.590756499000577
 20
63.184196702883298
 30
0.0
  0
VERTEX
  5
3E9B
  8
L1
 10
64.413440750186112
 20
63.476619230896063
 30
0.0
  0
VERTEX
  5
3E9C
  8
L1
 10
64.21140061558026
 20
63.74639901824429
 30
0.0
  0
VERTEX
  5
3E9D
  8
L1
 10
63.989929119073558
 20
63.989929119073622
 30
0.0
  0
VERTEX
  5
3E9E
  8
L1
 10
63.74639901824429
 20
64.211400615580203
 30
0.0
  0
VERTEX
  5
3E9F
  8
L1
 10
63.476619230896119
 20
64.413440750186055
 30
0.0
  0
VERTEX
  5
3EA0
  8
L1
 10
63.184196702883348
 20
64.59075649900052
 30
0.0
  0
VERTEX
  5
3EA1
  8
L1
 10
62.87377238624088
 20
64.739585002002386
 30
0.0
  0
VERTEX
  5
3EA2
  8
L1
 10
62.550151943173887
 20
64.85702446034287
 30
0.0
  0
VERTEX
  5
3EA3
  8
L1
 10
62.218787602445332
 20
64.941714390114271
 30
0.0
  0
VERTEX
  5
3EA4
  8
L1
 10
61.885630568632337
 20
64.993014072385961
 30
0.0
  0
VERTEX
  5
3EA5
  8
L1
 10
61.556999999999952
 20
65.012088437774082
 30
0.0
  0
SEQEND
  5
3EA6
  8
L1
  0
ENDBLK
  5
2C76
  8
0
  0
BLOCK
  8
0
  2
S1
 70
     0
 10
0.0
 20
0.0
 30
0.0
  3
S1
  1

  0
LINE
  5
2D25
  8
L1
 10
3.160157810777775
 20
-59.73430157526905
 30
0.0
 11
3.1601578107778319
 21
59.734301575269107
 31
0.0
  0
LINE
  5
2D26
  8
L1
 10
54.760157810777827
 20
-64.293024100224784
 30
0.0
 11
54.760157810777827
 21
64.29302410022467
 31
0.0
  0
LINE
  5
2D27
  8
L1
 10
54.040877780093261
 20
65.012304130909172
 30
0.0
 11
54.040877780093382
 21
-65.012304130909214
 31
0.0
  0
LINE
  5
2D28
  8
L1
 10
28.16015781077769
 20
63.46616015772809
 30
0.0
 11
28.1601578107778
 21
-63.466160157728147
 31
0.0
  0
LINE
  5
2D29
  8
L1
 10
55.830792269781959
 20
62.950215693135021
 30
0.0
 11
55.830792269781988
 21
-62.950215693135021
 31
0.0
  0
LINE
  5
2D2A
  8
L1
 10
5.1690848786155348
 20
-61.851268992495363
 30
0.0
 11
5.1690848786154779
 21
61.851268992495307
 31
0.0
  0
LINE
  5
2D2B
  8
L6
 10
0.0
 20
0.0
 30
0.0
 11
59.097455156615972
 21
0.0
 31
0.0
  0
LINE
  5
2D2C
  8
L2
 10
54.760157810777827
 20
47.950000000000038
 30
0.0
 11
30.360157810777849
 21
47.311063513711808
 31
0.0
  0
LINE
  5
2D2D
  8
L2
 10
54.760157810777827
 20
-47.950000000000102
 30
0.0
 11
30.360157810777849
 21
-47.311063513711872
 31
0.0
  0
LINE
  5
2D2E
  8
L1
 10
54.040877780093382
 20
-65.012304130909214
 30
0.0
 11
28.349690619529241
 21
-63.665886064679057
 31
0.0
  0
LINE
  5
2D2F
  8
L2
 10
5.4601578107778428
 20
44.577422181563399
 30
0.0
 11
5.4601578107778153
 21
-44.57742218156357
 31
0.0
  0
LINE
  5
2D30
  8
L2
 10
3.6601578107778319
 20
46.012304130909229
 30
0.0
 11
3.6601578107778319
 21
-46.012304130909278
 31
0.0
  0
LINE
  5
2D31
  8
L1
 10
3.1601578107778319
 20
-59.734301575269171
 30
0.0
 11
5.1690848786154779
 21
-61.851268992495363
 31
0.0
  0
LINE
  5
2D32
  8
L1
 10
27.970409308891298
 20
-63.04623577059828
 30
0.0
 11
5.1690848786154779
 21
-61.851268992495363
 31
0.0
  0
ARC
  5
2D33
  8
L1
 10
28.360157810777849
 20
-63.466160157728147
 30
0.0
 40
0.2
 50
180.0
 51
267.00000000000091
  0
ARC
  5
2D34
  8
L1
 10
27.959942117642719
 20
-63.245961677549133
 30
0.0
 40
0.1999999999999993
 50
0.0
 51
86.999999999999304
  0
LINE
  5
2D35
  8
L1
 10
5.1690848786155348
 20
-47.745088924290989
 30
0.0
 11
27.97062500202648
 21
-48.940067006392091
 31
0.0
  0
LINE
  5
2D36
  8
L2
 10
6.7816538764134
 20
-46.075366483695397
 30
0.0
 11
30.360157810777849
 21
-47.311063513711872
 31
0.0
  0
POLYLINE
  5
2D37
  8
L1
 66
     1
 10
0.0
 20
0.0
 30
0.0
  0
VERTEX
  5
3EA8
  8
L1
 10
3.1648722959803588
 20
-45.758858587444927
 30
0.0
  0
VERTEX
  5
3EA9
  8
L1
 10
3.159942117391807
 20
-45.753263322456178
 30
0.0
  0
SEQEND
  5
3EAA
  8
L1
  0
POLYLINE
  5
2D38
  8
L1
 66
     1
 10
0.0
 20
0.0
 30
0.0
  0
VERTEX
  5
3EAB
  8
L1
 10
3.1614010756477731
 20
-45.754872691900289
 30
0.0
  0
VERTEX
  5
3EAC
  8
L1
 10
3.1599421174865649
 20
-45.753217248205821
 30
0.0
  0
SEQEND
  5
3EAD
  8
L1
  0
POLYLINE
  5
2D39
  8
L1
 66
     1
 10
0.0
 20
0.0
 30
0.0
  0
VERTEX
  5
3EAE
  8
L1
 10
3.1599421179500089
 20
-45.753318914029592
 30
0.0
  0
VERTEX
  5
3EAF
  8
L1
 10
3.1612908786958371
 20
-45.754852641417529
 30
0.0
  0
SEQEND
  5
3EB0
  8
L1
  0
POLYLINE
  5
2D3A
  8
L1
 66
     1
 10
0.0
 20
0.0
 30
0.0
  0
VERTEX
  5
3EB1
  8
L1
 10
3.1599421176427138
 20
-45.753003738827601
 30
0.0
  0
VERTEX
  5
3EB2
  8
L1
 10
3.1599421176427138
 20
-45.75294360382577
 30
0.0
  0
VERTEX
  5
3EB3
  8
L1
 10
3.1599421176427138
 20
-45.752957346444411
 30
0.0
  0
VERTEX
  5
3EB4
  8
L1
 10
3.1599421176427138
 20
-45.753029134770827
 30
0.0
  0
VERTEX
  5
3EB5
  8
L1
 10
3.1599421176427138
 20
-45.753143136892326
 30
0.0
  0
VERTEX
  5
3EB6
  8
L1
 10
3.1599421176427138
 20
-45.753283520895927
 30
0.0
  0
VERTEX
  5
3EB7
  8
L1
 10
3.1599421176427138
 20
-45.753434454869073
 30
0.0
  0
VERTEX
  5
3EB8
  8
L1
 10
3.1599421176427138
 20
-45.75358010689888
 30
0.0
  0
VERTEX
  5
3EB9
  8
L1
 10
3.1599421176427138
 20
-45.753704645072439
 30
0.0
  0
SEQEND
  5
3EBA
  8
L1
  0
POLYLINE
  5
2D3B
  8
L1
 66
     1
 10
0.0
 20
0.0
 30
0.0
  0
VERTEX
  5
3EBB
  8
L1
 10
3.1648722959803588
 20
-45.75885858744499
 30
0.0
  0
VERTEX
  5
3EBC
  8
L1
 10
3.159942117391807
 20
-45.753263322456228
 30
0.0
  0
SEQEND
  5
3EBD
  8
L1
  0
POLYLINE
  5
2D3C
  8
L1
 66
     1
 10
0.0
 20
0.0
 30
0.0
  0
VERTEX
  5
3EBE
  8
L1
 10
3.1614010756477731
 20
-45.754872691900339
 30
0.0
  0
VERTEX
  5
3EBF
  8
L1
 10
3.1599421174865649
 20
-45.753217248205893
 30
0.0
  0
SEQEND
  5
3EC0
  8
L1
  0
POLYLINE
  5
2D3D
  8
L1
 66
     1
 10
0.0
 20
0.0
 30
0.0
  0
VERTEX
  5
3EC1
  8
L1
 10
3.1599421179500089
 20
-45.753318914029649
 30
0.0
  0
VERTEX
  5
3EC2
  8
L1
 10
3.1612908786958371
 20
-45.754852641417578
 30
0.0
  0
SEQEND
  5
3EC3
  8
L1
  0
POLYLINE
  5
2D3E
  8
L1
 66
     1
 10
0.0
 20
0.0
 30
0.0
  0
VERTEX
  5
3EC4
  8
L1
 10
3.1599421176427138
 20
-45.753003738827658
 30
0.0
  0
VERTEX
  5
3EC5
  8
L1
 10
3.1599421176427138
 20
-45.75294360382582
 30
0.0
  0
VERTEX
  5
3EC6
  8
L1
 10
3.1599421176427138
 20
-45.752957346444482
 30
0.0
  0
VERTEX
  5
3EC7
  8
L1
 10
3.1599421176427138
 20
-45.753029134770877
 30
0.0
  0
VERTEX
  5
3EC8
  8
L1
 10
3.1599421176427138
 20
-45.75314313689239
 30
0.0
  0
VERTEX
  5
3EC9
  8
L1
 10
3.1599421176427138
 20
-45.753283520895991
 30
0.0
  0
VERTEX
  5
3ECA
  8
L1
 10
3.1599421176427138
 20
-45.753434454869137
 30
0.0
  0
VERTEX
  5
3ECB
  8
L1
 10
3.1599421176427138
 20
-45.75358010689893
 30
0.0
  0
VERTEX
  5
3ECC
  8
L1
 10
3.1599421176427138
 20
-45.753704645072503
 30
0.0
  0
SEQEND
  5
3ECD
  8
L1
  0
POLYLINE
  5
2D3F
  8
L1
 66
     1
 10
0.0
 20
0.0
 30
0.0
  0
VERTEX
  5
3ECE
  8
L1
 10
3.1648722959803588
 20
-45.75885858744499
 30
0.0
  0
VERTEX
  5
3ECF
  8
L1
 10
3.159942117391807
 20
-45.753263322456228
 30
0.0
  0
SEQEND
  5
3ED0
  8
L1
  0
POLYLINE
  5
2D40
  8
L1
 66
     1
 10
0.0
 20
0.0
 30
0.0
  0
VERTEX
  5
3ED1
  8
L1
 10
3.1614010756477731
 20
-45.754872691900339
 30
0.0
  0
VERTEX
  5
3ED2
  8
L1
 10
3.1599421174865649
 20
-45.753217248205893
 30
0.0
  0
SEQEND
  5
3ED3
  8
L1
  0
POLYLINE
  5
2D41
  8
L1
 66
     1
 10
0.0
 20
0.0
 30
0.0
  0
VERTEX
  5
3ED4
  8
L1
 10
3.1599421179500089
 20
-45.753318914029649
 30
0.0
  0
VERTEX
  5
3ED5
  8
L1
 10
3.1612908786958371
 20
-45.754852641417578
 30
0.0
  0
SEQEND
  5
3ED6
  8
L1
  0
POLYLINE
  5
2D42
  8
L1
 66
     1
 10
0.0
 20
0.0
 30
0.0
  0
VERTEX
  5
3ED7
  8
L1
 10
3.1599421176427138
 20
-45.753003738827658
 30
0.0
  0
VERTEX
  5
3ED8
  8
L1
 10
3.1599421176427138
 20
-45.75294360382582
 30
0.0
  0
VERTEX
  5
3ED9
  8
L1
 10
3.1599421176427138
 20
-45.752957346444482
 30
0.0
  0
VERTEX
  5
3EDA
  8
L1
 10
3.1599421176427138
 20
-45.753029134770877
 30
0.0
  0
VERTEX
  5
3EDB
  8
L1
 10
3.1599421176427138
 20
-45.75314313689239
 30
0.0
  0
VERTEX
  5
3EDC
  8
L1
 10
3.1599421176427138
 20
-45.753283520895991
 30
0.0
  0
VERTEX
  5
3EDD
  8
L1
 10
3.1599421176427138
 20
-45.753434454869137
 30
0.0
  0
VERTEX
  5
3EDE
  8
L1
 10
3.1599421176427138
 20
-45.75358010689893
 30
0.0
  0
VERTEX
  5
3EDF
  8
L1
 10
3.1599421176427138
 20
-45.753704645072503
 30
0.0
  0
SEQEND
  5
3EE0
  8
L1
  0
LINE
  5
2D43
  8
L1
 10
3.1599421176427138
 20
-46.012519824044368
 30
0.0
 11
3.160104868679098
 21
-46.012511294623948
 31
0.0
  0
LINE
  5
2D44
  8
L2
 10
3.6601578107778319
 20
-46.012304130909278
 30
0.0
 11
3.160157810777803
 21
-46.012304130909278
 31
0.0
  0
LINE
  5
2D45
  8
L1
 10
3.1599421176427138
 20
-46.012519824044368
 30
0.0
 11
3.160104868679098
 21
-46.012511294623948
 31
0.0
  0
LINE
  5
2D46
  8
L1
 10
3.1601578107778892
 20
-45.628121507064741
 30
0.0
 11
5.1690848786155348
 21
-47.745088924290989
 31
0.0
  0
ARC
  5
2D47
  8
L2
 10
6.9601578107778153
 20
-44.57742218156357
 30
0.0
 40
1.5
 50
180.0
 51
266.9999999999992
  0
POLYLINE
  5
2D48
  8
L1
 66
     1
 10
0.0
 20
0.0
 30
0.0
  0
VERTEX
  5
3EE1
  8
L1
 10
28.1601578107778
 20
-49.118147833022419
 30
0.0
  0
VERTEX
  5
3EE2
  8
L1
 10
28.1601578107778
 20
-49.134374981044353
 30
0.0
  0
VERTEX
  5
3EE3
  8
L1
 10
28.1601578107778
 20
-49.139792913343001
 30
0.0
  0
SEQEND
  5
3EE4
  8
L1
  0
ARC
  5
2D49
  8
L1
 10
27.960157810777869
 20
-49.139792913343001
 30
0.0
 40
0.2
 50
0.0
 51
87.000000000000909
  0
LINE
  5
2D4A
  8
L1
 10
5.1690848786155348
 20
47.74508892429094
 30
0.0
 11
27.97062500202648
 21
48.940067006392042
 31
0.0
  0
LINE
  5
2D4B
  8
L2
 10
30.360157810777849
 20
47.311063513711808
 30
0.0
 11
6.7816538764134
 21
46.075366483695291
 31
0.0
  0
POLYLINE
  5
2D4C
  8
L1
 66
     1
 10
0.0
 20
0.0
 30
0.0
  0
VERTEX
  5
3EE5
  8
L1
 10
3.1599421176427138
 20
45.753003738827601
 30
0.0
  0
VERTEX
  5
3EE6
  8
L1
 10
3.1599421176427138
 20
45.75294360382577
 30
0.0
  0
VERTEX
  5
3EE7
  8
L1
 10
3.1599421176427138
 20
45.752957346444411
 30
0.0
  0
VERTEX
  5
3EE8
  8
L1
 10
3.1599421176427138
 20
45.753029134770827
 30
0.0
  0
VERTEX
  5
3EE9
  8
L1
 10
3.1599421176427138
 20
45.753143136892326
 30
0.0
  0
VERTEX
  5
3EEA
  8
L1
 10
3.1599421176427138
 20
45.753283520895927
 30
0.0
  0
VERTEX
  5
3EEB
  8
L1
 10
3.1599421176427138
 20
45.753434454869073
 30
0.0
  0
VERTEX
  5
3EEC
  8
L1
 10
3.1599421176427138
 20
45.75358010689888
 30
0.0
  0
VERTEX
  5
3EED
  8
L1
 10
3.1599421176427138
 20
45.753704645072439
 30
0.0
  0
SEQEND
  5
3EEE
  8
L1
  0
POLYLINE
  5
2D4D
  8
L1
 66
     1
 10
0.0
 20
0.0
 30
0.0
  0
VERTEX
  5
3EEF
  8
L1
 10
3.1599421179500089
 20
45.753318914029592
 30
0.0
  0
VERTEX
  5
3EF0
  8
L1
 10
3.1612908786958371
 20
45.754852641417529
 30
0.0
  0
SEQEND
  5
3EF1
  8
L1
  0
POLYLINE
  5
2D4E
  8
L1
 66
     1
 10
0.0
 20
0.0
 30
0.0
  0
VERTEX
  5
3EF2
  8
L1
 10
3.1614010756477731
 20
45.754872691900289
 30
0.0
  0
VERTEX
  5
3EF3
  8
L1
 10
3.1599421174865649
 20
45.753217248205821
 30
0.0
  0
SEQEND
  5
3EF4
  8
L1
  0
POLYLINE
  5
2D4F
  8
L1
 66
     1
 10
0.0
 20
0.0
 30
0.0
  0
VERTEX
  5
3EF5
  8
L1
 10
3.1648722959803588
 20
45.758858587444927
 30
0.0
  0
VERTEX
  5
3EF6
  8
L1
 10
3.159942117391807
 20
45.753263322456178
 30
0.0
  0
SEQEND
  5
3EF7
  8
L1
  0
LINE
  5
2D50
  8
L2
 10
3.6601578107778319
 20
46.012304130909229
 30
0.0
 11
3.160157810777803
 21
46.012304130909229
 31
0.0
  0
LINE
  5
2D51
  8
L1
 10
3.1601578107778892
 20
45.628121507064691
 30
0.0
 11
5.1690848786155348
 21
47.74508892429094
 31
0.0
  0
LINE
  5
2D52
  8
L1
 10
3.1599421176427138
 20
46.012519824044318
 30
0.0
 11
3.160104868679098
 21
46.012511294623891
 31
0.0
  0
ARC
  5
2D53
  8
L2
 10
6.9601578107778428
 20
44.577422181563399
 30
0.0
 40
1.5
 50
93.000000000000711
 51
180.0
  0
POLYLINE
  5
2D54
  8
L1
 66
     1
 10
0.0
 20
0.0
 30
0.0
  0
VERTEX
  5
3EF8
  8
L1
 10
28.1601578107778
 20
49.139792913342937
 30
0.0
  0
VERTEX
  5
3EF9
  8
L1
 10
28.1601578107778
 20
49.134110764828279
 30
0.0
  0
VERTEX
  5
3EFA
  8
L1
 10
28.1601578107778
 20
49.117093630705817
 30
0.0
  0
SEQEND
  5
3EFB
  8
L1
  0
ARC
  5
2D55
  8
L1
 10
27.960157810777869
 20
49.139792913342937
 30
0.0
 40
0.2
 50
272.99999999999909
 51
0.0
  0
LINE
  5
2D56
  8
L1
 10
54.760157810777827
 20
-64.293024100224784
 30
0.0
 11
54.040877780093382
 21
-65.012304130909214
 31
0.0
  0
LINE
  5
2D57
  8
L2
 10
54.75994211764268
 20
-62.450215693135021
 30
0.0
 11
55.52433957074922
 21
-62.584999588102512
 31
0.0
  0
LINE
  5
2D58
  8
L1
 10
55.52433957074922
 20
-63.315431798167538
 30
0.0
 11
54.763132094207691
 21
-63.449653214198811
 31
0.0
  0
ARC
  5
2D59
  8
L1
 10
55.459942117642733
 20
-62.950215693135021
 30
0.0
 40
0.3708501521392529
 50
280.00000000000011
 51
0.0
  0
ARC
  5
2D5A
  8
L2
 10
55.459942117642733
 20
-62.950215693135021
 30
0.0
 40
0.3708501521392529
 50
0.0
 51
79.999999999999801
  0
LINE
  5
2D5B
  8
L1
 10
54.040877780093382
 20
65.012304130909172
 30
0.0
 11
28.349690619529241
 21
63.665886064679057
 31
0.0
  0
LINE
  5
2D5C
  8
L1
 10
27.970409308891298
 20
63.04623577059823
 30
0.0
 11
5.1690848786154779
 21
61.851268992495307
 31
0.0
  0
LINE
  5
2D5D
  8
L1
 10
3.1601578107778319
 20
59.734301575269107
 30
0.0
 11
5.1690848786154779
 21
61.851268992495307
 31
0.0
  0
ARC
  5
2D5E
  8
L1
 10
28.360157810777849
 20
63.466160157728147
 30
0.0
 40
0.2
 50
92.999999999999105
 51
180.0
  0
ARC
  5
2D5F
  8
L1
 10
28.360157810777849
 20
63.46616015772809
 30
0.0
 40
0.2
 50
93.000000000000711
 51
180.0
  0
ARC
  5
2D60
  8
L1
 10
27.959942117642719
 20
63.245961677549133
 30
0.0
 40
0.1999999999999993
 50
273.00000000000068
 51
0.0
  0
LINE
  5
2D61
  8
L1
 10
54.040877780093261
 20
65.012304130909172
 30
0.0
 11
54.760157810777827
 21
64.29302410022467
 31
0.0
  0
LINE
  5
2D62
  8
L1
 10
55.52433957074922
 20
63.315431798167538
 30
0.0
 11
54.763132094207691
 21
63.449653214198811
 31
0.0
  0
ARC
  5
2D63
  8
L1
 10
55.459942117642733
 20
62.950215693135021
 30
0.0
 40
0.3708501521392529
 50
0.0
 51
79.999999999999801
  0
LINE
  5
2D64
  8
L2
 10
54.75994211764268
 20
62.450215693135021
 30
0.0
 11
55.52433957074922
 21
62.584999588102512
 31
0.0
  0
ARC
  5
2D65
  8
L2
 10
55.459942117642733
 20
62.950215693135021
 30
0.0
 40
0.3708501521392529
 50
280.00000000000011
 51
0.0
  0
ENDBLK
  5
2D24
  8
0
  0
BLOCK
  8
0
  2
S2
 70
     0
 10
0.0
 20
0.0
 30
0.0
  3
S2
  1

  0
LINE
  5
2D6A
  8
L1
 10
-62.950215693135078
 20
-3.2666628868339549
 30
0.0
 11
62.950215693134957
 21
-3.2666628868339549
 31
0.0
  0
LINE
  5
2D6B
  8
L1
 10
-65.012304130909214
 20
-5.0565773765226822
 30
0.0
 11
65.012304130909115
 21
-5.0565773765225677
 31
0.0
  0
LINE
  5
2D6C
  8
L1
 10
64.293024100224784
 20
-4.337297345838123
 30
0.0
 11
-64.293024100224784
 21
-4.337297345838123
 31
0.0
  0
LINE
  5
2D6D
  8
L1
 10
61.851268992495307
 20
-53.92837027800045
 30
0.0
 11
-61.851268992495307
 21
-53.92837027800045
 31
0.0
  0
LINE
  5
2D6E
  8
L1
 10
-63.466160157728147
 20
-30.93729734583826
 30
0.0
 11
63.466160157728147
 21
-30.93729734583814
 31
0.0
  0
LINE
  5
2D6F
  8
L1
 10
59.734301575269001
 20
-55.93729734583814
 30
0.0
 11
-59.734301575269228
 21
-55.93729734583814
 31
0.0
  0
LINE
  5
2D70
  8
L2
 10
-47.311063513711808
 20
-28.737297345838101
 30
0.0
 11
-46.07536648369534
 21
-52.315801280202543
 31
0.0
  0
LINE
  5
2D71
  8
L1
 10
-45.628121507064741
 20
-55.937297345838033
 30
0.0
 11
-47.74508892429094
 21
-53.92837027800045
 31
0.0
  0
LINE
  5
2D72
  8
L1
 10
-63.04623577059828
 20
-31.127045847724609
 30
0.0
 11
-61.851268992495307
 21
-53.92837027800045
 31
0.0
  0
LINE
  5
2D73
  8
L1
 10
-47.74508892429094
 20
-53.92837027800045
 30
0.0
 11
-48.940067006392162
 21
-31.12683015458947
 31
0.0
  0
LINE
  5
2D74
  8
L1
 10
-59.734301575269228
 20
-55.93729734583814
 30
0.0
 11
-61.851268992495307
 21
-53.92837027800045
 31
0.0
  0
LINE
  5
2D75
  8
L1
 10
-65.012304130909214
 20
-5.0565773765226822
 30
0.0
 11
-64.293024100224784
 21
-4.337297345838123
 31
0.0
  0
ARC
  5
2D76
  8
L2
 10
-62.950215693135021
 20
-3.637513038973224
 30
0.0
 40
0.3708501521392529
 50
10.00000000000021
 51
90.0
  0
LINE
  5
2D77
  8
L2
 10
-62.450215693135071
 20
-4.3375130389732703
 30
0.0
 11
-62.584999588102612
 21
-3.5731155858667298
 31
0.0
  0
ARC
  5
2D78
  8
L1
 10
-62.950215693135021
 20
-3.637513038973224
 30
0.0
 40
0.3708501521392529
 50
90.0
 51
169.99999999999969
  0
LINE
  5
2D79
  8
L1
 10
-63.315431798167538
 20
-3.5731155858667298
 30
0.0
 11
-63.449653214198861
 21
-4.3343230624082016
 31
0.0
  0
ARC
  5
2D7A
  8
L1
 10
-63.245961677549133
 20
-31.137513038973221
 30
0.0
 40
0.1999999999999993
 50
3.0000000000007159
 51
90.0
  0
ARC
  5
2D7B
  8
L1
 10
-63.46616015772809
 20
-30.737297345838101
 30
0.0
 40
0.2
 50
183.00000000000071
 51
270.0
  0
ARC
  5
2D7C
  8
L1
 10
-63.46616015772809
 20
-30.737297345838101
 30
0.0
 40
0.2
 50
182.99999999999909
 51
270.0
  0
ARC
  5
2D7D
  8
L1
 10
-49.139792913342887
 20
-31.137297345838078
 30
0.0
 40
0.2
 50
2.9999999999990901
 51
90.0
  0
POLYLINE
  5
2D7E
  8
L1
 66
     1
 10
0.0
 20
0.0
 30
0.0
  0
VERTEX
  5
3EFD
  8
L1
 10
-49.139792913342937
 20
-30.93729734583814
 30
0.0
  0
VERTEX
  5
3EFE
  8
L1
 10
-49.134110764828392
 20
-30.93729734583814
 30
0.0
  0
VERTEX
  5
3EFF
  8
L1
 10
-49.117093630705881
 20
-30.93729734583814
 30
0.0
  0
SEQEND
  5
3F00
  8
L1
  0
LINE
  5
2D7F
  8
L1
 10
-65.012304130909214
 20
-5.0565773765225677
 30
0.0
 11
-63.665886064679171
 21
-30.747764537086709
 31
0.0
  0
LINE
  5
2D80
  8
L2
 10
-47.950000000000038
 20
-4.337297345838123
 30
0.0
 11
-47.311063513711808
 21
-28.737297345838101
 31
0.0
  0
LINE
  5
2D81
  8
L2
 10
-46.012304130909342
 20
-55.437297345838147
 30
0.0
 11
46.012304130909229
 21
-55.437297345838147
 31
0.0
  0
LINE
  5
2D82
  8
L2
 10
-44.577422181563399
 20
-53.637297345838078
 30
0.0
 11
44.57742218156352
 21
-53.637297345838078
 31
0.0
  0
ARC
  5
2D83
  8
L2
 10
-44.57742218156335
 20
-52.137297345838071
 30
0.0
 40
1.5
 50
183.00000000000071
 51
270.0
  0
LINE
  5
2D84
  8
L1
 10
-46.012519824044368
 20
-55.937513038973293
 30
0.0
 11
-46.012511294623891
 21
-55.937350287936852
 31
0.0
  0
LINE
  5
2D85
  8
L2
 10
-46.012304130909342
 20
-55.437297345838147
 30
0.0
 11
-46.012304130909342
 21
-55.93729734583814
 31
0.0
  0
POLYLINE
  5
2D86
  8
L1
 66
     1
 10
0.0
 20
0.0
 30
0.0
  0
VERTEX
  5
3F01
  8
L1
 10
-45.758858587445047
 20
-55.932582860635648
 30
0.0
  0
VERTEX
  5
3F02
  8
L1
 10
-45.753263322456178
 20
-55.937513039224093
 30
0.0
  0
SEQEND
  5
3F03
  8
L1
  0
POLYLINE
  5
2D87
  8
L1
 66
     1
 10
0.0
 20
0.0
 30
0.0
  0
VERTEX
  5
3F04
  8
L1
 10
-45.754872691900339
 20
-55.93605408096824
 30
0.0
  0
VERTEX
  5
3F05
  8
L1
 10
-45.753217248205821
 20
-55.937513039129378
 30
0.0
  0
SEQEND
  5
3F06
  8
L1
  0
POLYLINE
  5
2D88
  8
L1
 66
     1
 10
0.0
 20
0.0
 30
0.0
  0
VERTEX
  5
3F07
  8
L1
 10
-45.753318914029698
 20
-55.937513038665877
 30
0.0
  0
VERTEX
  5
3F08
  8
L1
 10
-45.754852641417529
 20
-55.93616427792017
 30
0.0
  0
SEQEND
  5
3F09
  8
L1
  0
POLYLINE
  5
2D89
  8
L1
 66
     1
 10
0.0
 20
0.0
 30
0.0
  0
VERTEX
  5
3F0A
  8
L1
 10
-45.753003738827601
 20
-55.937513038973293
 30
0.0
  0
VERTEX
  5
3F0B
  8
L1
 10
-45.75294360382577
 20
-55.937513038973293
 30
0.0
  0
VERTEX
  5
3F0C
  8
L1
 10
-45.752957346444411
 20
-55.937513038973293
 30
0.0
  0
VERTEX
  5
3F0D
  8
L1
 10
-45.753029134770941
 20
-55.937513038973293
 30
0.0
  0
VERTEX
  5
3F0E
  8
L1
 10
-45.75314313689239
 20
-55.937513038973293
 30
0.0
  0
VERTEX
  5
3F0F
  8
L1
 10
-45.753283520896048
 20
-55.937513038973293
 30
0.0
  0
VERTEX
  5
3F10
  8
L1
 10
-45.753434454869193
 20
-55.937513038973293
 30
0.0
  0
VERTEX
  5
3F11
  8
L1
 10
-45.75358010689888
 20
-55.937513038973293
 30
0.0
  0
VERTEX
  5
3F12
  8
L1
 10
-45.753704645072503
 20
-55.937513038973293
 30
0.0
  0
SEQEND
  5
3F13
  8
L1
  0
LINE
  5
2D8A
  8
L6
 10
0.0
 20
-59.097455156615972
 30
0.0
 11
0.0
 21
0.0
 31
0.0
  0
LINE
  5
2D8B
  8
L1
 10
63.04623577059828
 20
-31.127045847724609
 30
0.0
 11
61.851268992495307
 21
-53.92837027800045
 31
0.0
  0
LINE
  5
2D8C
  8
L2
 10
46.07536648369534
 20
-52.315801280202543
 30
0.0
 11
47.311063513711808
 21
-28.737297345838101
 31
0.0
  0
LINE
  5
2D8D
  8
L1
 10
47.74508892429094
 20
-53.92837027800045
 30
0.0
 11
48.940067006392042
 21
-31.12683015458947
 31
0.0
  0
ARC
  5
2D8E
  8
L2
 10
44.57742218156357
 20
-52.137297345838071
 30
0.0
 40
1.5
 50
270.0
 51
356.9999999999992
  0
LINE
  5
2D8F
  8
L1
 10
45.628121507064627
 20
-55.937297345838033
 30
0.0
 11
47.74508892429094
 21
-53.92837027800045
 31
0.0
  0
LINE
  5
2D90
  8
L1
 10
46.012519824044368
 20
-55.937513038973293
 30
0.0
 11
46.012511294623891
 21
-55.937350287936852
 31
0.0
  0
LINE
  5
2D91
  8
L2
 10
46.012304130909229
 20
-55.437297345838147
 30
0.0
 11
46.012304130909229
 21
-55.93729734583814
 31
0.0
  0
LINE
  5
2D92
  8
L1
 10
46.012519824044368
 20
-55.937513038973293
 30
0.0
 11
46.012511294623891
 21
-55.937350287936852
 31
0.0
  0
POLYLINE
  5
2D93
  8
L1
 66
     1
 10
0.0
 20
0.0
 30
0.0
  0
VERTEX
  5
3F14
  8
L1
 10
45.753003738827601
 20
-55.937513038973293
 30
0.0
  0
VERTEX
  5
3F15
  8
L1
 10
45.75294360382577
 20
-55.937513038973293
 30
0.0
  0
VERTEX
  5
3F16
  8
L1
 10
45.752957346444411
 20
-55.937513038973293
 30
0.0
  0
VERTEX
  5
3F17
  8
L1
 10
45.753029134770827
 20
-55.937513038973293
 30
0.0
  0
VERTEX
  5
3F18
  8
L1
 10
45.753143136892277
 20
-55.937513038973293
 30
0.0
  0
VERTEX
  5
3F19
  8
L1
 10
45.753283520895927
 20
-55.937513038973293
 30
0.0
  0
VERTEX
  5
3F1A
  8
L1
 10
45.753434454869073
 20
-55.937513038973293
 30
0.0
  0
VERTEX
  5
3F1B
  8
L1
 10
45.75358010689888
 20
-55.937513038973293
 30
0.0
  0
VERTEX
  5
3F1C
  8
L1
 10
45.753704645072503
 20
-55.937513038973293
 30
0.0
  0
SEQEND
  5
3F1D
  8
L1
  0
POLYLINE
  5
2D94
  8
L1
 66
     1
 10
0.0
 20
0.0
 30
0.0
  0
VERTEX
  5
3F1E
  8
L1
 10
45.753318914029592
 20
-55.937513038665877
 30
0.0
  0
VERTEX
  5
3F1F
  8
L1
 10
45.754852641417529
 20
-55.93616427792017
 30
0.0
  0
SEQEND
  5
3F20
  8
L1
  0
POLYLINE
  5
2D95
  8
L1
 66
     1
 10
0.0
 20
0.0
 30
0.0
  0
VERTEX
  5
3F21
  8
L1
 10
45.754872691900339
 20
-55.93605408096824
 30
0.0
  0
VERTEX
  5
3F22
  8
L1
 10
45.753217248205821
 20
-55.937513039129378
 30
0.0
  0
SEQEND
  5
3F23
  8
L1
  0
POLYLINE
  5
2D96
  8
L1
 66
     1
 10
0.0
 20
0.0
 30
0.0
  0
VERTEX
  5
3F24
  8
L1
 10
45.758858587444927
 20
-55.932582860635648
 30
0.0
  0
VERTEX
  5
3F25
  8
L1
 10
45.753263322456178
 20
-55.937513039224093
 30
0.0
  0
SEQEND
  5
3F26
  8
L1
  0
POLYLINE
  5
2D97
  8
L1
 66
     1
 10
0.0
 20
0.0
 30
0.0
  0
VERTEX
  5
3F27
  8
L1
 10
45.753003738827601
 20
-55.937513038973293
 30
0.0
  0
VERTEX
  5
3F28
  8
L1
 10
45.75294360382577
 20
-55.937513038973293
 30
0.0
  0
VERTEX
  5
3F29
  8
L1
 10
45.752957346444411
 20
-55.937513038973293
 30
0.0
  0
VERTEX
  5
3F2A
  8
L1
 10
45.753029134770827
 20
-55.937513038973293
 30
0.0
  0
VERTEX
  5
3F2B
  8
L1
 10
45.753143136892277
 20
-55.937513038973293
 30
0.0
  0
VERTEX
  5
3F2C
  8
L1
 10
45.753283520895927
 20
-55.937513038973293
 30
0.0
  0
VERTEX
  5
3F2D
  8
L1
 10
45.753434454869073
 20
-55.937513038973293
 30
0.0
  0
VERTEX
  5
3F2E
  8
L1
 10
45.75358010689888
 20
-55.937513038973293
 30
0.0
  0
VERTEX
  5
3F2F
  8
L1
 10
45.753704645072503
 20
-55.937513038973293
 30
0.0
  0
SEQEND
  5
3F30
  8
L1
  0
POLYLINE
  5
2D98
  8
L1
 66
     1
 10
0.0
 20
0.0
 30
0.0
  0
VERTEX
  5
3F31
  8
L1
 10
45.753318914029592
 20
-55.937513038665877
 30
0.0
  0
VERTEX
  5
3F32
  8
L1
 10
45.754852641417529
 20
-55.93616427792017
 30
0.0
  0
SEQEND
  5
3F33
  8
L1
  0
POLYLINE
  5
2D99
  8
L1
 66
     1
 10
0.0
 20
0.0
 30
0.0
  0
VERTEX
  5
3F34
  8
L1
 10
45.754872691900339
 20
-55.93605408096824
 30
0.0
  0
VERTEX
  5
3F35
  8
L1
 10
45.753217248205821
 20
-55.937513039129378
 30
0.0
  0
SEQEND
  5
3F36
  8
L1
  0
POLYLINE
  5
2D9A
  8
L1
 66
     1
 10
0.0
 20
0.0
 30
0.0
  0
VERTEX
  5
3F37
  8
L1
 10
45.758858587444927
 20
-55.932582860635648
 30
0.0
  0
VERTEX
  5
3F38
  8
L1
 10
45.753263322456178
 20
-55.937513039224093
 30
0.0
  0
SEQEND
  5
3F39
  8
L1
  0
POLYLINE
  5
2D9B
  8
L1
 66
     1
 10
0.0
 20
0.0
 30
0.0
  0
VERTEX
  5
3F3A
  8
L1
 10
45.753003738827601
 20
-55.937513038973293
 30
0.0
  0
VERTEX
  5
3F3B
  8
L1
 10
45.75294360382577
 20
-55.937513038973293
 30
0.0
  0
VERTEX
  5
3F3C
  8
L1
 10
45.752957346444411
 20
-55.937513038973293
 30
0.0
  0
VERTEX
  5
3F3D
  8
L1
 10
45.753029134770713
 20
-55.937513038973293
 30
0.0
  0
VERTEX
  5
3F3E
  8
L1
 10
45.753143136892277
 20
-55.937513038973293
 30
0.0
  0
VERTEX
  5
3F3F
  8
L1
 10
45.75328352089582
 20
-55.937513038973293
 30
0.0
  0
VERTEX
  5
3F40
  8
L1
 10
45.753434454868959
 20
-55.937513038973293
 30
0.0
  0
VERTEX
  5
3F41
  8
L1
 10
45.75358010689888
 20
-55.937513038973293
 30
0.0
  0
VERTEX
  5
3F42
  8
L1
 10
45.753704645072389
 20
-55.937513038973293
 30
0.0
  0
SEQEND
  5
3F43
  8
L1
  0
POLYLINE
  5
2D9C
  8
L1
 66
     1
 10
0.0
 20
0.0
 30
0.0
  0
VERTEX
  5
3F44
  8
L1
 10
45.753318914029478
 20
-55.937513038665877
 30
0.0
  0
VERTEX
  5
3F45
  8
L1
 10
45.754852641417529
 20
-55.93616427792017
 30
0.0
  0
SEQEND
  5
3F46
  8
L1
  0
POLYLINE
  5
2D9D
  8
L1
 66
     1
 10
0.0
 20
0.0
 30
0.0
  0
VERTEX
  5
3F47
  8
L1
 10
45.754872691900232
 20
-55.93605408096824
 30
0.0
  0
VERTEX
  5
3F48
  8
L1
 10
45.753217248205821
 20
-55.937513039129378
 30
0.0
  0
SEQEND
  5
3F49
  8
L1
  0
POLYLINE
  5
2D9E
  8
L1
 66
     1
 10
0.0
 20
0.0
 30
0.0
  0
VERTEX
  5
3F4A
  8
L1
 10
45.75885858744482
 20
-55.932582860635648
 30
0.0
  0
VERTEX
  5
3F4B
  8
L1
 10
45.753263322456178
 20
-55.937513039224093
 30
0.0
  0
SEQEND
  5
3F4C
  8
L1
  0
LINE
  5
2D9F
  8
L1
 10
59.734301575269107
 20
-55.93729734583814
 30
0.0
 11
61.851268992495307
 21
-53.92837027800045
 31
0.0
  0
ARC
  5
2DA0
  8
L1
 10
49.139792913343001
 20
-31.137297345838078
 30
0.0
 40
0.2
 50
90.0
 51
177.00000000000091
  0
LINE
  5
2DA1
  8
L2
 10
47.950000000000038
 20
-4.337297345838123
 30
0.0
 11
47.311063513711808
 21
-28.737297345838101
 31
0.0
  0
LINE
  5
2DA2
  8
L1
 10
64.293024100224784
 20
-4.337297345838123
 30
0.0
 11
65.012304130909115
 21
-5.0565773765225677
 31
0.0
  0
ARC
  5
2DA3
  8
L2
 10
62.950215693135021
 20
-3.637513038973224
 30
0.0
 40
0.3708501521392529
 50
90.0
 51
169.99999999999969
  0
ARC
  5
2DA4
  8
L1
 10
62.950215693135021
 20
-3.637513038973224
 30
0.0
 40
0.3708501521392529
 50
10.00000000000021
 51
90.0
  0
LINE
  5
2DA5
  8
L1
 10
63.315431798167538
 20
-3.5731155858667298
 30
0.0
 11
63.44965321419874
 21
-4.3343230624082016
 31
0.0
  0
LINE
  5
2DA6
  8
L2
 10
62.450215693134972
 20
-4.3375130389732703
 30
0.0
 11
62.584999588102391
 21
-3.5731155858667298
 31
0.0
  0
POLYLINE
  5
2DA7
  8
L1
 66
     1
 10
0.0
 20
0.0
 30
0.0
  0
VERTEX
  5
3F4D
  8
L1
 10
49.118147833022363
 20
-30.93729734583814
 30
0.0
  0
VERTEX
  5
3F4E
  8
L1
 10
49.134374981044282
 20
-30.93729734583814
 30
0.0
  0
VERTEX
  5
3F4F
  8
L1
 10
49.139792913342937
 20
-30.93729734583814
 30
0.0
  0
SEQEND
  5
3F50
  8
L1
  0
ARC
  5
2DA8
  8
L1
 10
63.245961677549133
 20
-31.137513038973221
 30
0.0
 40
0.1999999999999993
 50
90.0
 51
176.9999999999992
  0
ARC
  5
2DA9
  8
L1
 10
63.466160157728211
 20
-30.737297345838101
 30
0.0
 40
0.2
 50
270.0
 51
357.00000000000091
  0
LINE
  5
2DAA
  8
L1
 10
65.012304130909115
 20
-5.0565773765225677
 30
0.0
 11
63.665886064678944
 21
-30.747764537086709
 31
0.0
  0
ENDBLK
  5
2D69
  8
0
  0
BLOCK
  8
0
  2
S3
 70
     0
 10
0.0
 20
0.0
 30
0.0
  3
S3
  1

  0
LINE
  5
2DAF
  8
L1
 10
5.0565773765225677
 20
-65.012304130909214
 30
0.0
 11
30.747764537086709
 21
-63.665886064679057
 31
0.0
  0
LINE
  5
2DB0
  8
L2
 10
4.337297345838123
 20
-47.950000000000102
 30
0.0
 11
28.737297345838101
 21
-47.311063513711872
 31
0.0
  0
LINE
  5
2DB1
  8
L2
 10
4.337297345838123
 20
47.950000000000038
 30
0.0
 11
28.737297345838101
 21
47.311063513711808
 31
0.0
  0
LINE
  5
2DB2
  8
L6
 10
59.097455156615972
 20
0.0
 30
0.0
 11
0.0
 21
0.0
 31
0.0
  0
LINE
  5
2DB3
  8
L1
 10
5.0565773765225677
 20
65.012304130909172
 30
0.0
 11
30.747764537086709
 21
63.665886064679057
 31
0.0
  0
LINE
  5
2DB4
  8
L1
 10
3.2666628868339549
 20
62.950215693135021
 30
0.0
 11
3.2666628868339549
 21
-62.950215693135021
 31
0.0
  0
LINE
  5
2DB5
  8
L1
 10
5.0565773765226822
 20
65.012304130909172
 30
0.0
 11
5.0565773765225677
 21
-65.012304130909214
 31
0.0
  0
LINE
  5
2DB6
  8
L1
 10
4.337297345838123
 20
-64.293024100224784
 30
0.0
 11
4.337297345838123
 21
64.29302410022467
 31
0.0
  0
ARC
  5
2DB7
  8
L2
 10
3.637513038973224
 20
-62.950215693135021
 30
0.0
 40
0.3708501521392529
 50
100.00000000000171
 51
180.0
  0
ARC
  5
2DB8
  8
L1
 10
3.637513038973224
 20
-62.950215693135021
 30
0.0
 40
0.3708501521392529
 50
180.0
 51
259.99999999999812
  0
LINE
  5
2DB9
  8
L1
 10
3.5731155858667298
 20
-63.315431798167538
 30
0.0
 11
4.3343230624082594
 21
-63.449653214198811
 31
0.0
  0
LINE
  5
2DBA
  8
L2
 10
4.3375130389732703
 20
-62.450215693135021
 30
0.0
 11
3.5731155858667298
 21
-62.584999588102512
 31
0.0
  0
LINE
  5
2DBB
  8
L1
 10
4.337297345838123
 20
-64.293024100224784
 30
0.0
 11
5.0565773765225677
 21
-65.012304130909214
 31
0.0
  0
ARC
  5
2DBC
  8
L2
 10
3.637513038973224
 20
62.950215693135021
 30
0.0
 40
0.3708501521392529
 50
180.0
 51
259.99999999999812
  0
LINE
  5
2DBD
  8
L2
 10
4.3375130389732703
 20
62.450215693135021
 30
0.0
 11
3.5731155858667298
 21
62.584999588102512
 31
0.0
  0
ARC
  5
2DBE
  8
L1
 10
3.637513038973224
 20
62.950215693135021
 30
0.0
 40
0.3708501521392529
 50
100.00000000000171
 51
180.0
  0
LINE
  5
2DBF
  8
L1
 10
3.5731155858667298
 20
63.315431798167538
 30
0.0
 11
4.3343230624082594
 21
63.449653214198811
 31
0.0
  0
LINE
  5
2DC0
  8
L1
 10
5.0565773765226822
 20
65.012304130909172
 30
0.0
 11
4.337297345838123
 21
64.29302410022467
 31
0.0
  0
LINE
  5
2DC1
  8
L1
 10
53.92837027800045
 20
-61.851268992495363
 30
0.0
 11
53.92837027800045
 21
61.851268992495307
 31
0.0
  0
LINE
  5
2DC2
  8
L1
 10
30.93729734583826
 20
63.46616015772809
 30
0.0
 11
30.93729734583814
 21
-63.466160157728147
 31
0.0
  0
LINE
  5
2DC3
  8
L1
 10
55.93729734583814
 20
-59.73430157526905
 30
0.0
 11
55.93729734583814
 21
59.734301575269107
 31
0.0
  0
LINE
  5
2DC4
  8
L2
 10
55.437297345838147
 20
46.012304130909229
 30
0.0
 11
55.437297345838147
 21
-46.012304130909278
 31
0.0
  0
LINE
  5
2DC5
  8
L2
 10
53.637297345838078
 20
44.577422181563399
 30
0.0
 11
53.637297345838128
 21
-44.57742218156357
 31
0.0
  0
LINE
  5
2DC6
  8
L2
 10
52.315801280202543
 20
-46.075366483695397
 30
0.0
 11
28.737297345838101
 21
-47.311063513711872
 31
0.0
  0
LINE
  5
2DC7
  8
L1
 10
53.92837027800045
 20
-47.745088924290989
 30
0.0
 11
31.12683015458947
 21
-48.940067006392091
 31
0.0
  0
LINE
  5
2DC8
  8
L1
 10
31.127045847724609
 20
-63.04623577059828
 30
0.0
 11
53.92837027800045
 21
-61.851268992495363
 31
0.0
  0
ARC
  5
2DC9
  8
L1
 10
31.137513038973221
 20
-63.245961677549133
 30
0.0
 40
0.1999999999999993
 50
92.999999999999105
 51
180.0
  0
ARC
  5
2DCA
  8
L1
 10
30.737297345838101
 20
-63.466160157728147
 30
0.0
 40
0.2
 50
272.99999999999909
 51
0.0
  0
ARC
  5
2DCB
  8
L1
 10
31.137297345838078
 20
-49.139792913343001
 30
0.0
 40
0.2
 50
92.999999999999105
 51
180.0
  0
POLYLINE
  5
2DCC
  8
L1
 66
     1
 10
0.0
 20
0.0
 30
0.0
  0
VERTEX
  5
3F52
  8
L1
 10
30.93729734583814
 20
-49.118147833022419
 30
0.0
  0
VERTEX
  5
3F53
  8
L1
 10
30.93729734583814
 20
-49.134374981044353
 30
0.0
  0
VERTEX
  5
3F54
  8
L1
 10
30.93729734583814
 20
-49.139792913343001
 30
0.0
  0
SEQEND
  5
3F55
  8
L1
  0
LINE
  5
2DCD
  8
L1
 10
55.93729734583814
 20
-59.734301575269171
 30
0.0
 11
53.92837027800045
 21
-61.851268992495363
 31
0.0
  0
ARC
  5
2DCE
  8
L2
 10
52.137297345838142
 20
-44.57742218156357
 30
0.0
 40
1.5
 50
273.00000000000227
 51
0.0
  0
LINE
  5
2DCF
  8
L1
 10
55.937297345838033
 20
-45.628121507064741
 30
0.0
 11
53.92837027800045
 21
-47.745088924290989
 31
0.0
  0
LINE
  5
2DD0
  8
L1
 10
55.937513038973243
 20
-46.012519824044368
 30
0.0
 11
55.937350287936852
 21
-46.012511294623948
 31
0.0
  0
LINE
  5
2DD1
  8
L2
 10
55.437297345838147
 20
-46.012304130909278
 30
0.0
 11
55.93729734583814
 21
-46.012304130909278
 31
0.0
  0
LINE
  5
2DD2
  8
L1
 10
55.937513038973243
 20
-46.012519824044368
 30
0.0
 11
55.937350287936852
 21
-46.012511294623948
 31
0.0
  0
POLYLINE
  5
2DD3
  8
L1
 66
     1
 10
0.0
 20
0.0
 30
0.0
  0
VERTEX
  5
3F56
  8
L1
 10
55.937513038973243
 20
-45.753003738827658
 30
0.0
  0
VERTEX
  5
3F57
  8
L1
 10
55.937513038973243
 20
-45.75294360382582
 30
0.0
  0
VERTEX
  5
3F58
  8
L1
 10
55.937513038973243
 20
-45.752957346444482
 30
0.0
  0
VERTEX
  5
3F59
  8
L1
 10
55.937513038973243
 20
-45.753029134770877
 30
0.0
  0
VERTEX
  5
3F5A
  8
L1
 10
55.937513038973243
 20
-45.75314313689239
 30
0.0
  0
VERTEX
  5
3F5B
  8
L1
 10
55.937513038973243
 20
-45.753283520895991
 30
0.0
  0
VERTEX
  5
3F5C
  8
L1
 10
55.937513038973243
 20
-45.753434454869137
 30
0.0
  0
VERTEX
  5
3F5D
  8
L1
 10
55.937513038973243
 20
-45.75358010689893
 30
0.0
  0
VERTEX
  5
3F5E
  8
L1
 10
55.937513038973243
 20
-45.753704645072503
 30
0.0
  0
SEQEND
  5
3F5F
  8
L1
  0
POLYLINE
  5
2DD4
  8
L1
 66
     1
 10
0.0
 20
0.0
 30
0.0
  0
VERTEX
  5
3F60
  8
L1
 10
55.937513038665941
 20
-45.753318914029649
 30
0.0
  0
VERTEX
  5
3F61
  8
L1
 10
55.936164277920113
 20
-45.754852641417578
 30
0.0
  0
SEQEND
  5
3F62
  8
L1
  0
POLYLINE
  5
2DD5
  8
L1
 66
     1
 10
0.0
 20
0.0
 30
0.0
  0
VERTEX
  5
3F63
  8
L1
 10
55.936054080968169
 20
-45.754872691900339
 30
0.0
  0
VERTEX
  5
3F64
  8
L1
 10
55.937513039129378
 20
-45.753217248205893
 30
0.0
  0
SEQEND
  5
3F65
  8
L1
  0
POLYLINE
  5
2DD6
  8
L1
 66
     1
 10
0.0
 20
0.0
 30
0.0
  0
VERTEX
  5
3F66
  8
L1
 10
55.932582860635591
 20
-45.75885858744499
 30
0.0
  0
VERTEX
  5
3F67
  8
L1
 10
55.937513039224143
 20
-45.753263322456228
 30
0.0
  0
SEQEND
  5
3F68
  8
L1
  0
POLYLINE
  5
2DD7
  8
L1
 66
     1
 10
0.0
 20
0.0
 30
0.0
  0
VERTEX
  5
3F69
  8
L1
 10
55.937513038973243
 20
-45.753003738827658
 30
0.0
  0
VERTEX
  5
3F6A
  8
L1
 10
55.937513038973243
 20
-45.75294360382582
 30
0.0
  0
VERTEX
  5
3F6B
  8
L1
 10
55.937513038973243
 20
-45.752957346444482
 30
0.0
  0
VERTEX
  5
3F6C
  8
L1
 10
55.937513038973243
 20
-45.753029134770877
 30
0.0
  0
VERTEX
  5
3F6D
  8
L1
 10
55.937513038973243
 20
-45.75314313689239
 30
0.0
  0
VERTEX
  5
3F6E
  8
L1
 10
55.937513038973243
 20
-45.753283520895991
 30
0.0
  0
VERTEX
  5
3F6F
  8
L1
 10
55.937513038973243
 20
-45.753434454869137
 30
0.0
  0
VERTEX
  5
3F70
  8
L1
 10
55.937513038973243
 20
-45.75358010689893
 30
0.0
  0
VERTEX
  5
3F71
  8
L1
 10
55.937513038973243
 20
-45.753704645072503
 30
0.0
  0
SEQEND
  5
3F72
  8
L1
  0
POLYLINE
  5
2DD8
  8
L1
 66
     1
 10
0.0
 20
0.0
 30
0.0
  0
VERTEX
  5
3F73
  8
L1
 10
55.937513038665941
 20
-45.753318914029649
 30
0.0
  0
VERTEX
  5
3F74
  8
L1
 10
55.936164277920113
 20
-45.754852641417578
 30
0.0
  0
SEQEND
  5
3F75
  8
L1
  0
POLYLINE
  5
2DD9
  8
L1
 66
     1
 10
0.0
 20
0.0
 30
0.0
  0
VERTEX
  5
3F76
  8
L1
 10
55.936054080968169
 20
-45.754872691900339
 30
0.0
  0
VERTEX
  5
3F77
  8
L1
 10
55.937513039129378
 20
-45.753217248205893
 30
0.0
  0
SEQEND
  5
3F78
  8
L1
  0
POLYLINE
  5
2DDA
  8
L1
 66
     1
 10
0.0
 20
0.0
 30
0.0
  0
VERTEX
  5
3F79
  8
L1
 10
55.932582860635591
 20
-45.75885858744499
 30
0.0
  0
VERTEX
  5
3F7A
  8
L1
 10
55.937513039224143
 20
-45.753263322456228
 30
0.0
  0
SEQEND
  5
3F7B
  8
L1
  0
POLYLINE
  5
2DDB
  8
L1
 66
     1
 10
0.0
 20
0.0
 30
0.0
  0
VERTEX
  5
3F7C
  8
L1
 10
55.937513038973243
 20
-45.753003738827601
 30
0.0
  0
VERTEX
  5
3F7D
  8
L1
 10
55.937513038973243
 20
-45.75294360382577
 30
0.0
  0
VERTEX
  5
3F7E
  8
L1
 10
55.937513038973243
 20
-45.752957346444411
 30
0.0
  0
VERTEX
  5
3F7F
  8
L1
 10
55.937513038973243
 20
-45.753029134770827
 30
0.0
  0
VERTEX
  5
3F80
  8
L1
 10
55.937513038973243
 20
-45.753143136892326
 30
0.0
  0
VERTEX
  5
3F81
  8
L1
 10
55.937513038973243
 20
-45.753283520895927
 30
0.0
  0
VERTEX
  5
3F82
  8
L1
 10
55.937513038973243
 20
-45.753434454869073
 30
0.0
  0
VERTEX
  5
3F83
  8
L1
 10
55.937513038973243
 20
-45.75358010689888
 30
0.0
  0
VERTEX
  5
3F84
  8
L1
 10
55.937513038973243
 20
-45.753704645072439
 30
0.0
  0
SEQEND
  5
3F85
  8
L1
  0
POLYLINE
  5
2DDC
  8
L1
 66
     1
 10
0.0
 20
0.0
 30
0.0
  0
VERTEX
  5
3F86
  8
L1
 10
55.937513038665941
 20
-45.753318914029592
 30
0.0
  0
VERTEX
  5
3F87
  8
L1
 10
55.936164277920113
 20
-45.754852641417529
 30
0.0
  0
SEQEND
  5
3F88
  8
L1
  0
POLYLINE
  5
2DDD
  8
L1
 66
     1
 10
0.0
 20
0.0
 30
0.0
  0
VERTEX
  5
3F89
  8
L1
 10
55.936054080968169
 20
-45.754872691900289
 30
0.0
  0
VERTEX
  5
3F8A
  8
L1
 10
55.937513039129378
 20
-45.753217248205821
 30
0.0
  0
SEQEND
  5
3F8B
  8
L1
  0
POLYLINE
  5
2DDE
  8
L1
 66
     1
 10
0.0
 20
0.0
 30
0.0
  0
VERTEX
  5
3F8C
  8
L1
 10
55.932582860635591
 20
-45.758858587444927
 30
0.0
  0
VERTEX
  5
3F8D
  8
L1
 10
55.937513039224143
 20
-45.753263322456178
 30
0.0
  0
SEQEND
  5
3F8E
  8
L1
  0
LINE
  5
2DDF
  8
L2
 10
28.737297345838101
 20
47.311063513711808
 30
0.0
 11
52.315801280202543
 21
46.075366483695291
 31
0.0
  0
LINE
  5
2DE0
  8
L1
 10
53.92837027800045
 20
47.74508892429094
 30
0.0
 11
31.12683015458947
 21
48.940067006392042
 31
0.0
  0
ARC
  5
2DE1
  8
L1
 10
31.137297345838078
 20
49.139792913342937
 30
0.0
 40
0.2
 50
180.0
 51
267.00000000000091
  0
POLYLINE
  5
2DE2
  8
L1
 66
     1
 10
0.0
 20
0.0
 30
0.0
  0
VERTEX
  5
3F8F
  8
L1
 10
30.93729734583814
 20
49.139792913342937
 30
0.0
  0
VERTEX
  5
3F90
  8
L1
 10
30.93729734583814
 20
49.134110764828279
 30
0.0
  0
VERTEX
  5
3F91
  8
L1
 10
30.93729734583814
 20
49.117093630705817
 30
0.0
  0
SEQEND
  5
3F92
  8
L1
  0
ARC
  5
2DE3
  8
L2
 10
52.137297345838071
 20
44.577422181563399
 30
0.0
 40
1.5
 50
0.0
 51
87.000000000000909
  0
LINE
  5
2DE4
  8
L1
 10
55.937513038973243
 20
46.012519824044318
 30
0.0
 11
55.937350287936852
 21
46.012511294623891
 31
0.0
  0
LINE
  5
2DE5
  8
L1
 10
55.937297345838033
 20
45.628121507064691
 30
0.0
 11
53.92837027800045
 21
47.74508892429094
 31
0.0
  0
LINE
  5
2DE6
  8
L2
 10
55.437297345838147
 20
46.012304130909229
 30
0.0
 11
55.93729734583814
 21
46.012304130909229
 31
0.0
  0
POLYLINE
  5
2DE7
  8
L1
 66
     1
 10
0.0
 20
0.0
 30
0.0
  0
VERTEX
  5
3F93
  8
L1
 10
55.932582860635591
 20
45.758858587444927
 30
0.0
  0
VERTEX
  5
3F94
  8
L1
 10
55.937513039224143
 20
45.753263322456178
 30
0.0
  0
SEQEND
  5
3F95
  8
L1
  0
POLYLINE
  5
2DE8
  8
L1
 66
     1
 10
0.0
 20
0.0
 30
0.0
  0
VERTEX
  5
3F96
  8
L1
 10
55.936054080968169
 20
45.754872691900289
 30
0.0
  0
VERTEX
  5
3F97
  8
L1
 10
55.937513039129378
 20
45.753217248205821
 30
0.0
  0
SEQEND
  5
3F98
  8
L1
  0
POLYLINE
  5
2DE9
  8
L1
 66
     1
 10
0.0
 20
0.0
 30
0.0
  0
VERTEX
  5
3F99
  8
L1
 10
55.937513038665941
 20
45.753318914029592
 30
0.0
  0
VERTEX
  5
3F9A
  8
L1
 10
55.936164277920113
 20
45.754852641417529
 30
0.0
  0
SEQEND
  5
3F9B
  8
L1
  0
POLYLINE
  5
2DEA
  8
L1
 66
     1
 10
0.0
 20
0.0
 30
0.0
  0
VERTEX
  5
3F9C
  8
L1
 10
55.937513038973243
 20
45.753003738827601
 30
0.0
  0
VERTEX
  5
3F9D
  8
L1
 10
55.937513038973243
 20
45.75294360382577
 30
0.0
  0
VERTEX
  5
3F9E
  8
L1
 10
55.937513038973243
 20
45.752957346444411
 30
0.0
  0
VERTEX
  5
3F9F
  8
L1
 10
55.937513038973243
 20
45.753029134770827
 30
0.0
  0
VERTEX
  5
3FA0
  8
L1
 10
55.937513038973243
 20
45.753143136892326
 30
0.0
  0
VERTEX
  5
3FA1
  8
L1
 10
55.937513038973243
 20
45.753283520895927
 30
0.0
  0
VERTEX
  5
3FA2
  8
L1
 10
55.937513038973243
 20
45.753434454869073
 30
0.0
  0
VERTEX
  5
3FA3
  8
L1
 10
55.937513038973243
 20
45.75358010689888
 30
0.0
  0
VERTEX
  5
3FA4
  8
L1
 10
55.937513038973243
 20
45.753704645072439
 30
0.0
  0
SEQEND
  5
3FA5
  8
L1
  0
LINE
  5
2DEB
  8
L1
 10
31.127045847724609
 20
63.04623577059823
 30
0.0
 11
53.92837027800045
 21
61.851268992495307
 31
0.0
  0
ARC
  5
2DEC
  8
L1
 10
31.137513038973221
 20
63.245961677549133
 30
0.0
 40
0.1999999999999993
 50
180.0
 51
266.99999999999761
  0
ARC
  5
2DED
  8
L1
 10
30.737297345838101
 20
63.46616015772809
 30
0.0
 40
0.2
 50
0.0
 51
87.000000000000909
  0
ARC
  5
2DEE
  8
L1
 10
30.737297345838101
 20
63.466160157728147
 30
0.0
 40
0.2
 50
0.0
 51
87.000000000000909
  0
LINE
  5
2DEF
  8
L1
 10
55.93729734583814
 20
59.734301575269107
 30
0.0
 11
53.92837027800045
 21
61.851268992495307
 31
0.0
  0
ENDBLK
  5
2DAE
  8
0
  0
BLOCK
  8
0
  2
S4
 70
     0
 10
0.0
 20
0.0
 30
0.0
  3
S4
  1

  0
LINE
  5
2DF4
  8
L1
 10
64.293024100224784
 20
4.337297345838123
 30
0.0
 11
-64.293024100224784
 21
4.337297345838123
 31
0.0
  0
LINE
  5
2DF5
  8
L1
 10
-65.012304130909214
 20
5.0565773765226822
 30
0.0
 11
65.012304130909115
 21
5.0565773765225677
 31
0.0
  0
LINE
  5
2DF6
  8
L1
 10
-62.950215693135078
 20
3.2666628868339549
 30
0.0
 11
62.950215693134957
 21
3.2666628868339549
 31
0.0
  0
LINE
  5
2DF7
  8
L1
 10
59.734301575269001
 20
55.93729734583814
 30
0.0
 11
-59.734301575269228
 21
55.93729734583814
 31
0.0
  0
LINE
  5
2DF8
  8
L1
 10
-63.466160157728147
 20
30.93729734583826
 30
0.0
 11
63.466160157728147
 21
30.93729734583814
 31
0.0
  0
LINE
  5
2DF9
  8
L1
 10
61.851268992495307
 20
53.92837027800045
 30
0.0
 11
-61.851268992495307
 21
53.92837027800045
 31
0.0
  0
LINE
  5
2DFA
  8
L2
 10
-47.311063513711808
 20
28.737297345838101
 30
0.0
 11
-46.07536648369534
 21
52.315801280202543
 31
0.0
  0
LINE
  5
2DFB
  8
L1
 10
-45.628121507064741
 20
55.937297345838033
 30
0.0
 11
-47.74508892429094
 21
53.92837027800045
 31
0.0
  0
LINE
  5
2DFC
  8
L1
 10
-63.04623577059828
 20
31.127045847724609
 30
0.0
 11
-61.851268992495307
 21
53.92837027800045
 31
0.0
  0
LINE
  5
2DFD
  8
L1
 10
-47.74508892429094
 20
53.92837027800045
 30
0.0
 11
-48.940067006392162
 21
31.12683015458947
 31
0.0
  0
ARC
  5
2DFE
  8
L1
 10
-63.46616015772809
 20
30.737297345838101
 30
0.0
 40
0.2
 50
90.0
 51
177.00000000000091
  0
ARC
  5
2DFF
  8
L1
 10
-63.46616015772809
 20
30.737297345838101
 30
0.0
 40
0.2
 50
90.0
 51
177.00000000000091
  0
ARC
  5
2E00
  8
L1
 10
-63.245961677549133
 20
31.137513038973221
 30
0.0
 40
0.1999999999999993
 50
270.0
 51
356.99999999999761
  0
POLYLINE
  5
2E01
  8
L1
 66
     1
 10
0.0
 20
0.0
 30
0.0
  0
VERTEX
  5
3FA7
  8
L1
 10
-49.139792913342937
 20
30.93729734583814
 30
0.0
  0
VERTEX
  5
3FA8
  8
L1
 10
-49.134110764828392
 20
30.93729734583814
 30
0.0
  0
VERTEX
  5
3FA9
  8
L1
 10
-49.117093630705881
 20
30.93729734583814
 30
0.0
  0
SEQEND
  5
3FAA
  8
L1
  0
ARC
  5
2E02
  8
L1
 10
-49.139792913342887
 20
31.137297345838078
 30
0.0
 40
0.2
 50
270.0
 51
357.00000000000091
  0
LINE
  5
2E03
  8
L1
 10
-65.012304130909214
 20
5.0565773765226822
 30
0.0
 11
-64.293024100224784
 21
4.337297345838123
 31
0.0
  0
LINE
  5
2E04
  8
L1
 10
-63.315431798167538
 20
3.5731155858667298
 30
0.0
 11
-63.449653214198861
 21
4.3343230624082016
 31
0.0
  0
ARC
  5
2E05
  8
L1
 10
-62.950215693135021
 20
3.637513038973224
 30
0.0
 40
0.3708501521392529
 50
189.99999999999861
 51
270.0
  0
LINE
  5
2E06
  8
L2
 10
-62.450215693135071
 20
4.3375130389732703
 30
0.0
 11
-62.584999588102612
 21
3.5731155858667298
 31
0.0
  0
ARC
  5
2E07
  8
L2
 10
-62.950215693135021
 20
3.637513038973224
 30
0.0
 40
0.3708501521392529
 50
270.0
 51
349.99999999999812
  0
LINE
  5
2E08
  8
L1
 10
-65.012304130909214
 20
5.0565773765225677
 30
0.0
 11
-63.665886064679171
 21
30.747764537086709
 31
0.0
  0
LINE
  5
2E09
  8
L2
 10
-47.950000000000038
 20
4.337297345838123
 30
0.0
 11
-47.311063513711808
 21
28.737297345838101
 31
0.0
  0
LINE
  5
2E0A
  8
L1
 10
-59.734301575269228
 20
55.93729734583814
 30
0.0
 11
-61.851268992495307
 21
53.92837027800045
 31
0.0
  0
LINE
  5
2E0B
  8
L2
 10
-44.577422181563399
 20
53.637297345838078
 30
0.0
 11
44.57742218156352
 21
53.637297345838078
 31
0.0
  0
LINE
  5
2E0C
  8
L2
 10
-46.012304130909342
 20
55.437297345838147
 30
0.0
 11
46.012304130909229
 21
55.437297345838147
 31
0.0
  0
LINE
  5
2E0D
  8
L6
 10
0.0
 20
59.097455156615972
 30
0.0
 11
0.0
 21
0.0
 31
0.0
  0
POLYLINE
  5
2E0E
  8
L1
 66
     1
 10
0.0
 20
0.0
 30
0.0
  0
VERTEX
  5
3FAB
  8
L1
 10
-45.753003738827601
 20
55.937513038973293
 30
0.0
  0
VERTEX
  5
3FAC
  8
L1
 10
-45.75294360382577
 20
55.937513038973293
 30
0.0
  0
VERTEX
  5
3FAD
  8
L1
 10
-45.752957346444411
 20
55.937513038973293
 30
0.0
  0
VERTEX
  5
3FAE
  8
L1
 10
-45.753029134770941
 20
55.937513038973293
 30
0.0
  0
VERTEX
  5
3FAF
  8
L1
 10
-45.75314313689239
 20
55.937513038973293
 30
0.0
  0
VERTEX
  5
3FB0
  8
L1
 10
-45.753283520896048
 20
55.937513038973293
 30
0.0
  0
VERTEX
  5
3FB1
  8
L1
 10
-45.753434454869193
 20
55.937513038973293
 30
0.0
  0
VERTEX
  5
3FB2
  8
L1
 10
-45.75358010689888
 20
55.937513038973293
 30
0.0
  0
VERTEX
  5
3FB3
  8
L1
 10
-45.753704645072503
 20
55.937513038973293
 30
0.0
  0
SEQEND
  5
3FB4
  8
L1
  0
POLYLINE
  5
2E0F
  8
L1
 66
     1
 10
0.0
 20
0.0
 30
0.0
  0
VERTEX
  5
3FB5
  8
L1
 10
-45.753318914029698
 20
55.937513038665877
 30
0.0
  0
VERTEX
  5
3FB6
  8
L1
 10
-45.754852641417529
 20
55.93616427792017
 30
0.0
  0
SEQEND
  5
3FB7
  8
L1
  0
POLYLINE
  5
2E10
  8
L1
 66
     1
 10
0.0
 20
0.0
 30
0.0
  0
VERTEX
  5
3FB8
  8
L1
 10
-45.754872691900339
 20
55.93605408096824
 30
0.0
  0
VERTEX
  5
3FB9
  8
L1
 10
-45.753217248205821
 20
55.937513039129378
 30
0.0
  0
SEQEND
  5
3FBA
  8
L1
  0
POLYLINE
  5
2E11
  8
L1
 66
     1
 10
0.0
 20
0.0
 30
0.0
  0
VERTEX
  5
3FBB
  8
L1
 10
-45.758858587445047
 20
55.932582860635648
 30
0.0
  0
VERTEX
  5
3FBC
  8
L1
 10
-45.753263322456178
 20
55.937513039224093
 30
0.0
  0
SEQEND
  5
3FBD
  8
L1
  0
LINE
  5
2E12
  8
L2
 10
-46.012304130909342
 20
55.437297345838147
 30
0.0
 11
-46.012304130909342
 21
55.93729734583814
 31
0.0
  0
LINE
  5
2E13
  8
L1
 10
-46.012519824044368
 20
55.937513038973293
 30
0.0
 11
-46.012511294623891
 21
55.937350287936852
 31
0.0
  0
ARC
  5
2E14
  8
L2
 10
-44.57742218156335
 20
52.137297345838071
 30
0.0
 40
1.5
 50
90.0
 51
177.00000000000091
  0
LINE
  5
2E15
  8
L1
 10
63.04623577059828
 20
31.127045847724609
 30
0.0
 11
61.851268992495307
 21
53.92837027800045
 31
0.0
  0
LINE
  5
2E16
  8
L1
 10
47.74508892429094
 20
53.92837027800045
 30
0.0
 11
48.940067006392042
 21
31.12683015458947
 31
0.0
  0
LINE
  5
2E17
  8
L2
 10
46.07536648369534
 20
52.315801280202543
 30
0.0
 11
47.311063513711808
 21
28.737297345838101
 31
0.0
  0
ARC
  5
2E18
  8
L1
 10
49.139792913343001
 20
31.137297345838078
 30
0.0
 40
0.2
 50
182.99999999999909
 51
270.0
  0
LINE
  5
2E19
  8
L2
 10
47.950000000000038
 20
4.337297345838123
 30
0.0
 11
47.311063513711808
 21
28.737297345838101
 31
0.0
  0
POLYLINE
  5
2E1A
  8
L1
 66
     1
 10
0.0
 20
0.0
 30
0.0
  0
VERTEX
  5
3FBE
  8
L1
 10
49.118147833022363
 20
30.93729734583814
 30
0.0
  0
VERTEX
  5
3FBF
  8
L1
 10
49.134374981044282
 20
30.93729734583814
 30
0.0
  0
VERTEX
  5
3FC0
  8
L1
 10
49.139792913342937
 20
30.93729734583814
 30
0.0
  0
SEQEND
  5
3FC1
  8
L1
  0
ARC
  5
2E1B
  8
L1
 10
63.466160157728211
 20
30.737297345838101
 30
0.0
 40
0.2
 50
2.9999999999990901
 51
90.0
  0
ARC
  5
2E1C
  8
L1
 10
63.245961677549133
 20
31.137513038973221
 30
0.0
 40
0.1999999999999993
 50
182.99999999999909
 51
270.0
  0
LINE
  5
2E1D
  8
L1
 10
64.293024100224784
 20
4.337297345838123
 30
0.0
 11
65.012304130909115
 21
5.0565773765225677
 31
0.0
  0
LINE
  5
2E1E
  8
L2
 10
62.450215693134972
 20
4.3375130389732703
 30
0.0
 11
62.584999588102391
 21
3.5731155858667298
 31
0.0
  0
LINE
  5
2E1F
  8
L1
 10
63.315431798167538
 20
3.5731155858667298
 30
0.0
 11
63.44965321419874
 21
4.3343230624082016
 31
0.0
  0
ARC
  5
2E20
  8
L1
 10
62.950215693135021
 20
3.637513038973224
 30
0.0
 40
0.3708501521392529
 50
270.0
 51
349.99999999999812
  0
ARC
  5
2E21
  8
L2
 10
62.950215693135021
 20
3.637513038973224
 30
0.0
 40
0.3708501521392529
 50
189.99999999999861
 51
270.0
  0
LINE
  5
2E22
  8
L1
 10
65.012304130909115
 20
5.0565773765225677
 30
0.0
 11
63.665886064678944
 21
30.747764537086709
 31
0.0
  0
POLYLINE
  5
2E23
  8
L1
 66
     1
 10
0.0
 20
0.0
 30
0.0
  0
VERTEX
  5
3FC2
  8
L1
 10
45.75885858744482
 20
55.932582860635648
 30
0.0
  0
VERTEX
  5
3FC3
  8
L1
 10
45.753263322456178
 20
55.937513039224093
 30
0.0
  0
SEQEND
  5
3FC4
  8
L1
  0
POLYLINE
  5
2E24
  8
L1
 66
     1
 10
0.0
 20
0.0
 30
0.0
  0
VERTEX
  5
3FC5
  8
L1
 10
45.754872691900232
 20
55.93605408096824
 30
0.0
  0
VERTEX
  5
3FC6
  8
L1
 10
45.753217248205821
 20
55.937513039129378
 30
0.0
  0
SEQEND
  5
3FC7
  8
L1
  0
POLYLINE
  5
2E25
  8
L1
 66
     1
 10
0.0
 20
0.0
 30
0.0
  0
VERTEX
  5
3FC8
  8
L1
 10
45.753318914029478
 20
55.937513038665877
 30
0.0
  0
VERTEX
  5
3FC9
  8
L1
 10
45.754852641417529
 20
55.93616427792017
 30
0.0
  0
SEQEND
  5
3FCA
  8
L1
  0
POLYLINE
  5
2E26
  8
L1
 66
     1
 10
0.0
 20
0.0
 30
0.0
  0
VERTEX
  5
3FCB
  8
L1
 10
45.753003738827601
 20
55.937513038973293
 30
0.0
  0
VERTEX
  5
3FCC
  8
L1
 10
45.75294360382577
 20
55.937513038973293
 30
0.0
  0
VERTEX
  5
3FCD
  8
L1
 10
45.752957346444411
 20
55.937513038973293
 30
0.0
  0
VERTEX
  5
3FCE
  8
L1
 10
45.753029134770713
 20
55.937513038973293
 30
0.0
  0
VERTEX
  5
3FCF
  8
L1
 10
45.753143136892277
 20
55.937513038973293
 30
0.0
  0
VERTEX
  5
3FD0
  8
L1
 10
45.75328352089582
 20
55.937513038973293
 30
0.0
  0
VERTEX
  5
3FD1
  8
L1
 10
45.753434454868959
 20
55.937513038973293
 30
0.0
  0
VERTEX
  5
3FD2
  8
L1
 10
45.75358010689888
 20
55.937513038973293
 30
0.0
  0
VERTEX
  5
3FD3
  8
L1
 10
45.753704645072389
 20
55.937513038973293
 30
0.0
  0
SEQEND
  5
3FD4
  8
L1
  0
POLYLINE
  5
2E27
  8
L1
 66
     1
 10
0.0
 20
0.0
 30
0.0
  0
VERTEX
  5
3FD5
  8
L1
 10
45.758858587444927
 20
55.932582860635648
 30
0.0
  0
VERTEX
  5
3FD6
  8
L1
 10
45.753263322456178
 20
55.937513039224093
 30
0.0
  0
SEQEND
  5
3FD7
  8
L1
  0
POLYLINE
  5
2E28
  8
L1
 66
     1
 10
0.0
 20
0.0
 30
0.0
  0
VERTEX
  5
3FD8
  8
L1
 10
45.754872691900339
 20
55.93605408096824
 30
0.0
  0
VERTEX
  5
3FD9
  8
L1
 10
45.753217248205821
 20
55.937513039129378
 30
0.0
  0
SEQEND
  5
3FDA
  8
L1
  0
POLYLINE
  5
2E29
  8
L1
 66
     1
 10
0.0
 20
0.0
 30
0.0
  0
VERTEX
  5
3FDB
  8
L1
 10
45.753318914029592
 20
55.937513038665877
 30
0.0
  0
VERTEX
  5
3FDC
  8
L1
 10
45.754852641417529
 20
55.93616427792017
 30
0.0
  0
SEQEND
  5
3FDD
  8
L1
  0
POLYLINE
  5
2E2A
  8
L1
 66
     1
 10
0.0
 20
0.0
 30
0.0
  0
VERTEX
  5
3FDE
  8
L1
 10
45.753003738827601
 20
55.937513038973293
 30
0.0
  0
VERTEX
  5
3FDF
  8
L1
 10
45.75294360382577
 20
55.937513038973293
 30
0.0
  0
VERTEX
  5
3FE0
  8
L1
 10
45.752957346444411
 20
55.937513038973293
 30
0.0
  0
VERTEX
  5
3FE1
  8
L1
 10
45.753029134770827
 20
55.937513038973293
 30
0.0
  0
VERTEX
  5
3FE2
  8
L1
 10
45.753143136892277
 20
55.937513038973293
 30
0.0
  0
VERTEX
  5
3FE3
  8
L1
 10
45.753283520895927
 20
55.937513038973293
 30
0.0
  0
VERTEX
  5
3FE4
  8
L1
 10
45.753434454869073
 20
55.937513038973293
 30
0.0
  0
VERTEX
  5
3FE5
  8
L1
 10
45.75358010689888
 20
55.937513038973293
 30
0.0
  0
VERTEX
  5
3FE6
  8
L1
 10
45.753704645072503
 20
55.937513038973293
 30
0.0
  0
SEQEND
  5
3FE7
  8
L1
  0
POLYLINE
  5
2E2B
  8
L1
 66
     1
 10
0.0
 20
0.0
 30
0.0
  0
VERTEX
  5
3FE8
  8
L1
 10
45.758858587444927
 20
55.932582860635648
 30
0.0
  0
VERTEX
  5
3FE9
  8
L1
 10
45.753263322456178
 20
55.937513039224093
 30
0.0
  0
SEQEND
  5
3FEA
  8
L1
  0
POLYLINE
  5
2E2C
  8
L1
 66
     1
 10
0.0
 20
0.0
 30
0.0
  0
VERTEX
  5
3FEB
  8
L1
 10
45.754872691900339
 20
55.93605408096824
 30
0.0
  0
VERTEX
  5
3FEC
  8
L1
 10
45.753217248205821
 20
55.937513039129378
 30
0.0
  0
SEQEND
  5
3FED
  8
L1
  0
POLYLINE
  5
2E2D
  8
L1
 66
     1
 10
0.0
 20
0.0
 30
0.0
  0
VERTEX
  5
3FEE
  8
L1
 10
45.753318914029592
 20
55.937513038665877
 30
0.0
  0
VERTEX
  5
3FEF
  8
L1
 10
45.754852641417529
 20
55.93616427792017
 30
0.0
  0
SEQEND
  5
3FF0
  8
L1
  0
POLYLINE
  5
2E2E
  8
L1
 66
     1
 10
0.0
 20
0.0
 30
0.0
  0
VERTEX
  5
3FF1
  8
L1
 10
45.753003738827601
 20
55.937513038973293
 30
0.0
  0
VERTEX
  5
3FF2
  8
L1
 10
45.75294360382577
 20
55.937513038973293
 30
0.0
  0
VERTEX
  5
3FF3
  8
L1
 10
45.752957346444411
 20
55.937513038973293
 30
0.0
  0
VERTEX
  5
3FF4
  8
L1
 10
45.753029134770827
 20
55.937513038973293
 30
0.0
  0
VERTEX
  5
3FF5
  8
L1
 10
45.753143136892277
 20
55.937513038973293
 30
0.0
  0
VERTEX
  5
3FF6
  8
L1
 10
45.753283520895927
 20
55.937513038973293
 30
0.0
  0
VERTEX
  5
3FF7
  8
L1
 10
45.753434454869073
 20
55.937513038973293
 30
0.0
  0
VERTEX
  5
3FF8
  8
L1
 10
45.75358010689888
 20
55.937513038973293
 30
0.0
  0
VERTEX
  5
3FF9
  8
L1
 10
45.753704645072503
 20
55.937513038973293
 30
0.0
  0
SEQEND
  5
3FFA
  8
L1
  0
LINE
  5
2E2F
  8
L1
 10
46.012519824044368
 20
55.937513038973293
 30
0.0
 11
46.012511294623891
 21
55.937350287936852
 31
0.0
  0
LINE
  5
2E30
  8
L2
 10
46.012304130909229
 20
55.437297345838147
 30
0.0
 11
46.012304130909229
 21
55.93729734583814
 31
0.0
  0
LINE
  5
2E31
  8
L1
 10
46.012519824044368
 20
55.937513038973293
 30
0.0
 11
46.012511294623891
 21
55.937350287936852
 31
0.0
  0
LINE
  5
2E32
  8
L1
 10
45.628121507064627
 20
55.937297345838033
 30
0.0
 11
47.74508892429094
 21
53.92837027800045
 31
0.0
  0
ARC
  5
2E33
  8
L2
 10
44.57742218156357
 20
52.137297345838071
 30
0.0
 40
1.5
 50
3.0000000000023421
 51
90.0
  0
LINE
  5
2E34
  8
L1
 10
59.734301575269107
 20
55.93729734583814
 30
0.0
 11
61.851268992495307
 21
53.92837027800045
 31
0.0
  0
ENDBLK
  5
2DF3
  8
0
  0
ENDSEC
  0
SECTION
  2
ENTITIES
  0
INSERT
  5
2C73
  8
L1
  2
B
 10
71.647448105225749
 20
169.50139615341601
 30
0.0
  0
INSERT
  5
2D21
  8
L1
  2
T
 10
334.15406419089982
 20
169.5013961534159
 30
0.0
  0
INSERT
  5
2D66
  8
L1
  2
S1
 10
174.87129062594951
 20
169.50139615341601
 30
0.0
  0
INSERT
  5
2DAB
  8
L1
  2
S2
 10
334.15406419089982
 20
69.316077745081657
 30
0.0
  0
INSERT
  5
2DF0
  8
L1
  2
S3
 10
434.33938259923411
 20
169.50139615341601
 30
0.0
  0
INSERT
  5
2E35
  8
L1
  2
S4
 10
334.15406419089982
 20
269.68671456175019
 30
0.0
  0
ENDSEC
  0
EOF
