  0
SECTION
  2
HEADER
  9
$ACADVER
  1
AC1009
  9
$INSBASE
 10
0.0
 20
0.0
 30
0.0
  9
$EXTMIN
 10
1.7318564185058269
 20
0.1101438752302783
 30
0.0
  9
$EXTMAX
 10
449.36400487609939
 20
246.4946858504243
 30
0.0000000000000036
  9
$LIMMIN
 10
0.0
 20
0.0
  9
$LIMMAX
 10
450.25897665037178
 20
249.12547383360081
  9
$ORTHOMODE
 70
     1
  9
$REGENMODE
 70
     1
  9
$FILLMODE
 70
     1
  9
$QTEXTMODE
 70
     0
  9
$MIRRTEXT
 70
     1
  9
$DRAGMODE
 70
     2
  9
$LTSCALE
 40
10.0
  9
$OSMODE
 70
     5
  9
$ATTMODE
 70
     1
  9
$TEXTSIZE
 40
2.5
  9
$TRACEWID
 40
1.0
  9
$TEXTSTYLE
  7
SIMPLEX
  9
$CLAYER
  8
L1
  9
$CELTYPE
  6
BYLAYER
  9
$CECOLOR
 62
   256
  9
$DIMSCALE
 40
1.0
  9
$DIMASZ
 40
3.5
  9
$DIMEXO
 40
0.1
  9
$DIMDLI
 40
0.38
  9
$DIMRND
 40
0.0
  9
$DIMDLE
 40
0.0
  9
$DIMEXE
 40
0.18
  9
$DIMTP
 40
0.0
  9
$DIMTM
 40
0.0
  9
$DIMTXT
 40
3.5
  9
$DIMCEN
 40
1.0
  9
$DIMTSZ
 40
0.0
  9
$DIMTOL
 70
     0
  9
$DIMLIM
 70
     0
  9
$DIMTIH
 70
     0
  9
$DIMTOH
 70
     0
  9
$DIMSE1
 70
     0
  9
$DIMSE2
 70
     0
  9
$DIMTAD
 70
     1
  9
$DIMZIN
 70
     8
  9
$DIMBLK
  1

  9
$DIMASO
 70
     1
  9
$DIMSHO
 70
     1
  9
$DIMPOST
  1

  9
$DIMAPOST
  1

  9
$DIMALT
 70
     0
  9
$DIMALTD
 70
     2
  9
$DIMALTF
 40
25.399999999999999
  9
$DIMLFAC
 40
1.0
  9
$DIMTOFL
 70
     1
  9
$DIMTVP
 40
0.0
  9
$DIMTIX
 70
     0
  9
$DIMSOXD
 70
     0
  9
$DIMSAH
 70
     0
  9
$DIMBLK1
  1

  9
$DIMBLK2
  1

  9
$DIMSTYLE
  2
FIBOX
  9
$DIMCLRD
 70
     1
  9
$DIMCLRE
 70
     1
  9
$DIMCLRT
 70
     3
  9
$DIMTFAC
 40
1.0
  9
$DIMGAP
 40
1.0
  9
$LUNITS
 70
     2
  9
$LUPREC
 70
     4
  9
$SKETCHINC
 40
1.0
  9
$FILLETRAD
 40
0.0
  9
$AUNITS
 70
     0
  9
$AUPREC
 70
     0
  9
$MENU
  1
.
  9
$ELEVATION
 40
0.0
  9
$PELEVATION
 40
0.0
  9
$THICKNESS
 40
0.0
  9
$LIMCHECK
 70
     0
  9
$BLIPMODE
 70
     0
  9
$CHAMFERA
 40
10.0
  9
$CHAMFERB
 40
10.0
  9
$SKPOLY
 70
     0
  9
$TDCREATE
 40
2450519.5748858559
  9
$TDUPDATE
 40
2452502.5271098609
  9
$TDINDWG
 40
0.6866358449
  9
$TDUSRTIMER
 40
0.6866358449
  9
$USRTIMER
 70
     1
  9
$ANGBASE
 50
0.0
  9
$ANGDIR
 70
     0
  9
$PDMODE
 70
     0
  9
$PDSIZE
 40
0.0
  9
$PLINEWID
 40
0.0
  9
$COORDS
 70
     2
  9
$SPLFRAME
 70
     0
  9
$SPLINETYPE
 70
     6
  9
$SPLINESEGS
 70
     8
  9
$ATTDIA
 70
     0
  9
$ATTREQ
 70
     1
  9
$HANDLING
 70
 22529
  9
$HANDSEED
  5
4549
  9
$SURFTAB1
 70
     6
  9
$SURFTAB2
 70
     6
  9
$SURFTYPE
 70
     6
  9
$SURFU
 70
     6
  9
$SURFV
 70
     6
  9
$UCSNAME
  2

  9
$UCSORG
 10
0.0
 20
0.0
 30
0.0
  9
$UCSXDIR
 10
1.0
 20
0.0
 30
0.0
  9
$UCSYDIR
 10
0.0
 20
1.0
 30
0.0
  9
$PUCSNAME
  2

  9
$PUCSORG
 10
0.0
 20
0.0
 30
0.0
  9
$PUCSXDIR
 10
1.0
 20
0.0
 30
0.0
  9
$PUCSYDIR
 10
0.0
 20
1.0
 30
0.0
  9
$USERI1
 70
     0
  9
$USERI2
 70
     0
  9
$USERI3
 70
     0
  9
$USERI4
 70
     0
  9
$USERI5
 70
     0
  9
$USERR1
 40
0.0
  9
$USERR2
 40
0.0
  9
$USERR3
 40
0.0
  9
$USERR4
 40
0.0
  9
$USERR5
 40
0.0
  9
$WORLDVIEW
 70
     1
  9
$SHADEDGE
 70
     3
  9
$SHADEDIF
 70
    70
  9
$TILEMODE
 70
     1
  9
$MAXACTVP
 70
    16
  9
$PLIMCHECK
 70
     0
  9
$PEXTMIN
 10
-713.17818562869934
 20
47.884823385623768
 30
0.0
  9
$PEXTMAX
 10
126.8218143713006
 20
641.8848233856238
 30
0.0
  9
$PLIMMIN
 10
0.0
 20
0.0
  9
$PLIMMAX
 10
420.0
 20
297.0
  9
$UNITMODE
 70
     0
  9
$VISRETAIN
 70
     0
  9
$PLINEGEN
 70
     0
  9
$PSLTSCALE
 70
     1
  0
ENDSEC
  0
SECTION
  2
TABLES
  0
TABLE
  2
VPORT
 70
     2
  0
VPORT
  2
*ACTIVE
 70
     0
 10
0.0
 20
0.0
 11
1.0
 21
1.0
 12
348.24741589073869
 22
-51.104048881639983
 13
0.0
 23
0.0
 14
10.0
 24
10.0
 15
10.0
 25
10.0
 16
0.0
 26
0.0
 36
1.0
 17
-122.7057021118397
 27
174.41233986876409
 37
-47.893155058462547
 40
295.8623235568196
 41
1.5205479452054791
 42
50.0
 43
0.0
 44
0.0
 50
0.0
 51
0.0
 71
     0
 72
   500
 73
     1
 74
     0
 75
     0
 76
     0
 77
     0
 78
     0
  0
ENDTAB
  0
TABLE
  2
LTYPE
 70
     3
  0
LTYPE
  2
CONTINUOUS
 70
     0
  3
Solid line
 72
    65
 73
     0
 40
0.0
  0
LTYPE
  2
HIDDEN
 70
     0
  3
__ __ __ __ __ __ __ __ __ __ __ __ __ __ __ __
 72
    65
 73
     2
 40
0.375
 49
0.25
 49
-0.125
  0
LTYPE
  2
CENTER
 70
     0
  3
____ _ ____ _ ____ _ ____ _ ____ _ ____ _ ____ 
 72
    65
 73
     4
 40
2.0
 49
1.25
 49
-0.25
 49
0.25
 49
-0.25
  0
ENDTAB
  0
TABLE
  2
LAYER
 70
     4
  0
LAYER
  2
0
 70
     0
 62
     7
  6
CONTINUOUS
  0
LAYER
  2
L2
 70
     0
 62
     1
  6
HIDDEN
  0
LAYER
  2
L1
 70
     0
 62
     7
  6
CONTINUOUS
  0
LAYER
  2
L6
 70
     0
 62
     1
  6
CENTER
  0
ENDTAB
  0
TABLE
  2
STYLE
 70
     2
  0
STYLE
  2
STANDARD
 70
     0
 40
0.0
 41
1.0
 50
0.0
 71
     0
 42
2.5
  3
ISOCP
  4

  0
STYLE
  2
SIMPLEX
 70
     0
 40
0.0
 41
0.8
 50
0.0
 71
     0
 42
2.5
  3
SIMPLEX.SHX
  4

  0
ENDTAB
  0
TABLE
  2
VIEW
 70
     0
  0
ENDTAB
  0
TABLE
  2
UCS
 70
     0
  0
ENDTAB
  0
TABLE
  2
APPID
 70
     2
  0
APPID
  2
ACAD
 70
     0
  0
APPID
  2
CONTENTBLOCKICON
 70
     0
  0
ENDTAB
  0
TABLE
  2
DIMSTYLE
 70
     1
  0
DIMSTYLE
  2
FIBOX
 70
     0
  3

  4

  5

  6

  7

 40
1.0
 41
3.5
 42
0.1
 43
0.38
 44
0.18
 45
0.0
 46
0.0
 47
0.0
 48
0.0
140
3.5
141
1.0
142
0.0
143
25.399999999999999
144
1.0
145
0.0
146
1.0
147
1.0
 71
     0
 72
     0
 73
     0
 74
     0
 75
     0
 76
     0
 77
     1
 78
     8
170
     0
171
     2
172
     1
173
     0
174
     0
175
     0
176
     1
177
     1
178
     3
  0
ENDTAB
  0
ENDSEC
  0
SECTION
  2
BLOCKS
  0
BLOCK
  8
0
  2
$MODEL_SPACE
 70
     0
 10
0.0
 20
0.0
 30
0.0
  3
$MODEL_SPACE
  1

  0
ENDBLK
  5
6
  8
0
  0
BLOCK
 67
     1
  8
0
  2
$PAPER_SPACE
 70
     0
 10
0.0
 20
0.0
 30
0.0
  3
$PAPER_SPACE
  1

  0
ENDBLK
  5
9
 67
     1
  8
0
  0
BLOCK
  8
0
  2
B
 70
     0
 10
0.0
 20
0.0
 30
0.0
  3
B
  1

  0
LINE
  5
2CC6
  8
L1
 10
64.29302410022467
 20
-36.556999999999952
 30
0.0000000000000036
 11
64.29302410022467
 21
36.556999999999952
 31
0.0000000000000036
  0
LINE
  5
2CC7
  8
L1
 10
65.012304130909214
 20
36.517100759268203
 30
0.0
 11
65.012304130909214
 21
-36.517100759268139
 31
0.0
  0
LINE
  5
2CC8
  8
L1
 10
63.449999999999932
 20
22.150000000000031
 30
0.0
 11
63.449999999999932
 21
-22.14999999999997
 31
0.0
  0
LINE
  5
2CC9
  8
L1
 10
62.450000000000038
 20
-22.14999999999997
 30
0.0
 11
62.450000000000038
 21
22.150000000000031
 31
0.0
  0
LINE
  5
2CCA
  8
L1
 10
62.25
 20
22.65010280250732
 30
0.0
 11
62.25
 21
-22.65010280250732
 31
0.0
  0
LINE
  5
2CCB
  8
L1
 10
61.61106351371177
 20
-22.011166316219079
 30
0.0
 11
61.61106351371177
 21
22.0111663162192
 31
0.0
  0
LINE
  5
2CCC
  8
L6
 10
0.0
 20
43.01306853155188
 30
0.0
 11
0.0
 21
-43.419859034836911
 31
0.0
  0
LINE
  5
2CCD
  8
L1
 10
-63.449999999999932
 20
-22.14999999999997
 30
0.0
 11
-63.449999999999932
 21
22.150000000000031
 31
0.0
  0
LINE
  5
2CCE
  8
L1
 10
-62.449999999999932
 20
22.150000000000031
 30
0.0
 11
-62.449999999999932
 21
-22.150000000000031
 31
0.0
  0
LINE
  5
2CCF
  8
L1
 10
-65.012304130909214
 20
-36.517100759268089
 30
0.0
 11
-65.012304130909214
 21
36.517100759268203
 31
0.0
  0
LINE
  5
2CD0
  8
L1
 10
-64.293024100224784
 20
36.557000000000009
 30
0.0
 11
-64.293024100224784
 21
-36.556999999999952
 31
0.0
  0
LINE
  5
2CD1
  8
L1
 10
-62.25
 20
-22.65010280250732
 30
0.0
 11
-62.25
 21
22.65010280250732
 31
0.0
  0
LINE
  5
2CD2
  8
L1
 10
-61.611063513711883
 20
22.0111663162192
 30
0.0
 11
-61.611063513711883
 21
-22.011166316219079
 31
0.0
  0
LINE
  5
2CD3
  8
L1
 10
47.650102802507369
 20
-37.249999999999943
 30
0.0
 11
-47.650102802507369
 21
-37.249999999999943
 31
0.0
  0
LINE
  5
2CD4
  8
L1
 10
-47.149999999999977
 20
-37.449999999999989
 30
0.0
 11
47.149999999999977
 21
-37.449999999999989
 31
0.0
  0
LINE
  5
2CD5
  8
L1
 10
47.149999999999977
 20
-38.449999999999982
 30
0.0
 11
-47.149999999999977
 21
-38.449999999999982
 31
0.0
  0
LINE
  5
2CD6
  8
L1
 10
-47.011166316219139
 20
-36.611063513711827
 30
0.0
 11
47.011166316219139
 21
-36.611063513711827
 31
0.0
  0
LINE
  5
2CD7
  8
L1
 10
61.51710075926826
 20
-40.012304130909172
 30
0.0
 11
-61.517100759268139
 21
-40.012304130909108
 31
0.0
  0
LINE
  5
2CD8
  8
L1
 10
-61.556999999999903
 20
-39.293024100224613
 30
0.0
 11
61.557000000000023
 21
-39.293024100224613
 31
0.0
  0
LINE
  5
2CD9
  8
L6
 10
-69.512738801149354
 20
0.0
 30
0.0
 11
67.220701339356623
 21
0.0
 31
0.0
  0
LINE
  5
2CDA
  8
L1
 10
-61.950102802507331
 20
-22.950000000000038
 30
0.0
 11
-56.75
 21
-22.950000000000038
 31
0.0
  0
LINE
  5
2CDB
  8
L1
 10
-56.75
 20
-22.311063513711868
 30
0.0
 11
-61.311166316219207
 21
-22.311063513711868
 31
0.0
  0
LINE
  5
2CDC
  8
L1
 10
-61.725994013984177
 20
-31.519828982065921
 30
0.0
 11
-56.980171017934033
 21
-26.774005986015759
 31
0.0
  0
LINE
  5
2CDD
  8
L1
 10
-56.75
 20
-24.349999999999959
 30
0.0
 11
-60.25
 21
-24.349999999999959
 31
0.0
  0
LINE
  5
2CDE
  8
L1
 10
-59.549999999999947
 20
-25.349999999999959
 30
0.0
 11
-56.75
 21
-25.349999999999959
 31
0.0
  0
ARC
  5
2CDF
  8
L1
 10
-56.75
 20
-31.75000000000006
 30
0.0
 40
4.981314598045679
 50
247.18969882028151
 51
272.64840234128877
  0
LINE
  5
2CE0
  8
L1
 10
-60.64999999999997
 20
-38.25
 30
0.0
 11
-49.377091896450231
 21
-38.25
 31
0.0
  0
ARC
  5
2CE1
  8
L1
 10
-60.64999999999997
 20
-35.650000000000027
 30
0.0
 40
2.6000000000000001
 50
180.0
 51
270.0000000000008
  0
ARC
  5
2CE2
  8
L1
 10
-60.64999999999997
 20
-35.650000000000027
 30
0.0
 40
2.3853190523473331
 50
179.99999999999909
 51
270.0
  0
POLYLINE
  5
2CE3
  8
L1
 66
     1
 10
0.0
 20
0.0
 30
0.0
  0
VERTEX
  5
3B14
  8
L1
 10
-65.012088437774082
 20
-36.557000000000073
 30
0.0
  0
VERTEX
  5
3B15
  8
L1
 10
-64.941714390114385
 20
-37.218787602445438
 30
0.0
  0
VERTEX
  5
3B16
  8
L1
 10
-64.739585002002386
 20
-37.873772386241107
 30
0.0
  0
VERTEX
  5
3B17
  8
L1
 10
-64.413440750186055
 20
-38.476619230896119
 30
0.0
  0
VERTEX
  5
3B18
  8
L1
 10
-63.989929119073622
 20
-38.989929119073679
 30
0.0
  0
VERTEX
  5
3B19
  8
L1
 10
-63.476619230896063
 20
-39.413440750186169
 30
0.0
  0
VERTEX
  5
3B1A
  8
L1
 10
-62.873772386240937
 20
-39.739585002002507
 30
0.0
  0
VERTEX
  5
3B1B
  8
L1
 10
-62.218787602445211
 20
-39.941714390114441
 30
0.0
  0
VERTEX
  5
3B1C
  8
L1
 10
-61.557000000000023
 20
-40.012088437774139
 30
0.0
  0
SEQEND
  5
3B1D
  8
L1
  0
ARC
  5
2CE4
  8
L1
 10
-61.557000000000023
 20
-36.557000000000009
 30
0.0
 40
2.736024100224733
 50
179.99999999999909
 51
270.0
  0
POLYLINE
  5
2CE5
  8
L1
 66
     1
 10
0.0
 20
0.0
 30
0.0
  0
VERTEX
  5
3B1E
  8
L1
 10
-61.557000000000023
 20
-40.012088437774139
 30
0.0
  0
VERTEX
  5
3B1F
  8
L1
 10
-61.537048032038221
 20
-40.012250207188913
 30
0.0
  0
VERTEX
  5
3B20
  8
L1
 10
-61.517100759268139
 20
-40.012304130909222
 30
0.0
  0
SEQEND
  5
3B21
  8
L1
  0
POLYLINE
  5
2CE6
  8
L1
 66
     1
 10
0.0
 20
0.0
 30
0.0
  0
VERTEX
  5
3B22
  8
L1
 10
-62.833921234867262
 20
-28.651538606451759
 30
0.0
  0
VERTEX
  5
3B23
  8
L1
 10
-62.810762206798131
 20
-28.636434023737191
 30
0.0
  0
VERTEX
  5
3B24
  8
L1
 10
-62.789906242087447
 20
-28.61828008194135
 30
0.0
  0
SEQEND
  5
3B25
  8
L1
  0
POLYLINE
  5
2CE7
  8
L1
 66
     1
 10
0.0
 20
0.0
 30
0.0
  0
VERTEX
  5
3B26
  8
L1
 10
-62.833921234867262
 20
-28.651538606451759
 30
0.0
  0
VERTEX
  5
3B27
  8
L1
 10
-62.856637063754533
 20
-28.662409190467031
 30
0.0
  0
VERTEX
  5
3B28
  8
L1
 10
-62.894303154891311
 20
-28.673469501606181
 30
0.0
  0
VERTEX
  5
3B29
  8
L1
 10
-62.931449190202777
 20
-28.677215039596032
 30
0.0
  0
VERTEX
  5
3B2A
  8
L1
 10
-62.969983570547363
 20
-28.673799774059709
 30
0.0
  0
VERTEX
  5
3B2B
  8
L1
 10
-63.006197510124373
 20
-28.663669620354192
 30
0.0
  0
VERTEX
  5
3B2C
  8
L1
 10
-63.064268041043761
 20
-28.62939587154403
 30
0.0
  0
VERTEX
  5
3B2D
  8
L1
 10
-63.116484789524982
 20
-28.56077901756106
 30
0.0
  0
VERTEX
  5
3B2E
  8
L1
 10
-63.133909811786452
 20
-28.483129510806119
 30
0.0
  0
SEQEND
  5
3B2F
  8
L1
  0
LINE
  5
2CE8
  8
L1
 10
-63.25
 20
-24.37709189645016
 30
0.0
 11
-63.25
 21
-35.650000000000027
 31
0.0
  0
ARC
  5
2CE9
  8
L1
 10
-56.75
 20
-31.75000000000006
 30
0.0
 40
4.981314598045679
 50
177.35159765871029
 51
202.81030117971841
  0
ARC
  5
2CEA
  8
L1
 10
-56.75
 20
-31.75000000000006
 30
0.0
 40
5.7825462644184809
 50
207.01652280964029
 51
242.98347719036059
  0
LINE
  5
2CEB
  8
L1
 10
-61.34174324585377
 20
-33.68116262620719
 30
0.0
 11
-62.833921234867262
 21
-35.173340615220631
 31
0.0
  0
POLYLINE
  5
2CEC
  8
L1
 66
     1
 10
0.0
 20
0.0
 30
0.0
  0
VERTEX
  5
3B30
  8
L1
 10
-61.901529179287763
 20
-34.37670676229515
 30
0.0
  0
VERTEX
  5
3B31
  8
L1
 10
-61.875210216835512
 20
-34.214629597188832
 30
0.0
  0
SEQEND
  5
3B32
  8
L1
  0
POLYLINE
  5
2CED
  8
L1
 66
     1
 10
0.0
 20
0.0
 30
0.0
  0
VERTEX
  5
3B33
  8
L1
 10
-62.833921234867262
 20
-35.173340615220631
 30
0.0
  0
VERTEX
  5
3B34
  8
L1
 10
-63.045125652203978
 20
-35.383471994943591
 30
0.0
  0
VERTEX
  5
3B35
  8
L1
 10
-63.25
 20
-35.582353278431412
 30
0.0
  0
SEQEND
  5
3B36
  8
L1
  0
LINE
  5
2CEE
  8
L1
 10
-63.03531905234729
 20
-35.650000000000027
 30
0.0
 11
-63.03531905234729
 21
-35.510496635354741
 31
0.0
  0
LINE
  5
2CEF
  8
L1
 10
-63.133909811786452
 20
-35.46965900567033
 30
0.0
 11
-63.03531905234729
 21
-35.510496635354677
 31
0.0
  0
LINE
  5
2CF0
  8
L1
 10
-63.03531905234729
 20
-35.510496635354677
 30
0.0
 11
-61.901529179287763
 21
-34.3767067622951
 31
0.0
  0
POLYLINE
  5
2CF1
  8
L1
 66
     1
 10
0.0
 20
0.0
 30
0.0
  0
VERTEX
  5
3B37
  8
L1
 10
-65.012304130909214
 20
-36.517100759268203
 30
0.0
  0
VERTEX
  5
3B38
  8
L1
 10
-65.012250207188913
 20
-36.537048032038278
 30
0.0
  0
VERTEX
  5
3B39
  8
L1
 10
-65.012088437774082
 20
-36.557000000000073
 30
0.0
  0
SEQEND
  5
3B3A
  8
L1
  0
LINE
  5
2CF2
  8
L1
 10
-60.173340615220461
 20
-37.833921234867198
 30
0.0
 11
-58.681162626207083
 21
-36.34174324585387
 31
0.0
  0
LINE
  5
2CF3
  8
L1
 10
-59.376706762295051
 20
-36.90152917928782
 30
0.0
 11
-60.510496635354571
 21
-38.03531905234734
 31
0.0
  0
POLYLINE
  5
2CF4
  8
L1
 66
     1
 10
0.0
 20
0.0
 30
0.0
  0
VERTEX
  5
3B3B
  8
L1
 10
-59.214629597188598
 20
-36.875210216835448
 30
0.0
  0
VERTEX
  5
3B3C
  8
L1
 10
-59.376706762295051
 20
-36.90152917928782
 30
0.0
  0
SEQEND
  5
3B3D
  8
L1
  0
POLYLINE
  5
2CF5
  8
L1
 66
     1
 10
0.0
 20
0.0
 30
0.0
  0
VERTEX
  5
3B3E
  8
L1
 10
-60.582353278431128
 20
-38.249999999999972
 30
0.0
  0
VERTEX
  5
3B3F
  8
L1
 10
-60.38347199494342
 20
-38.045125652203971
 30
0.0
  0
VERTEX
  5
3B40
  8
L1
 10
-60.173340615220461
 20
-37.833921234867198
 30
0.0
  0
SEQEND
  5
3B41
  8
L1
  0
LINE
  5
2CF6
  8
L1
 10
-60.469659005670223
 20
-38.133909811786452
 30
0.0
 11
-60.510496635354571
 21
-38.03531905234734
 31
0.0
  0
LINE
  5
2CF7
  8
L1
 10
-60.510496635354571
 20
-38.03531905234734
 30
0.0
 11
-60.64999999999997
 21
-38.03531905234734
 31
0.0
  0
ARC
  5
2CF8
  8
L1
 10
-60.25
 20
-22.150000000000031
 30
0.0
 40
2.1999999999999198
 50
179.99999999999909
 51
270.0
  0
ARC
  5
2CF9
  8
L1
 10
-60.25
 20
-22.150000000000031
 30
0.0
 40
3.1999999999999429
 50
180.0
 51
219.51794668407319
  0
ARC
  5
2CFA
  8
L1
 10
-60.25
 20
-22.150000000000031
 30
0.0
 40
3.1999999999999429
 50
219.51794668407209
 51
270.0
  0
LINE
  5
2CFB
  8
L1
 10
-59.863042131491511
 20
-25.69141597134541
 30
0.0
 11
-62.789906242087447
 21
-28.61828008194135
 31
0.0
  0
POLYLINE
  5
2CFC
  8
L1
 66
     1
 10
0.0
 20
0.0
 30
0.0
  0
VERTEX
  5
3B42
  8
L1
 10
-62.718560984214271
 20
-24.186223628979739
 30
0.0
  0
VERTEX
  5
3B43
  8
L1
 10
-62.728328363554397
 20
-24.174964228796789
 30
0.0
  0
VERTEX
  5
3B44
  8
L1
 10
-62.816397581963876
 20
-24.108500430630102
 30
0.0
  0
VERTEX
  5
3B45
  8
L1
 10
-62.894770114985022
 20
-24.08223338030313
 30
0.0
  0
VERTEX
  5
3B46
  8
L1
 10
-62.969342954088688
 20
-24.07772597707628
 30
0.0
  0
VERTEX
  5
3B47
  8
L1
 10
-63.046544182151358
 20
-24.093056538992069
 30
0.0
  0
VERTEX
  5
3B48
  8
L1
 10
-63.134927642498717
 20
-24.14086875450732
 30
0.0
  0
VERTEX
  5
3B49
  8
L1
 10
-63.177843012775043
 20
-24.181930715518661
 30
0.0
  0
VERTEX
  5
3B4A
  8
L1
 10
-63.211827010204843
 20
-24.230643189592449
 30
0.0
  0
VERTEX
  5
3B4B
  8
L1
 10
-63.247225979339532
 20
-24.336387854964642
 30
0.0
  0
VERTEX
  5
3B4C
  8
L1
 10
-63.25
 20
-24.37709189645016
 30
0.0
  0
SEQEND
  5
3B4D
  8
L1
  0
LINE
  5
2CFD
  8
L1
 10
-60.25
 20
-25.349999999999959
 30
0.0
 11
-59.549999999999947
 21
-25.349999999999959
 31
0.0
  0
POLYLINE
  5
2CFE
  8
L1
 66
     1
 10
0.0
 20
0.0
 30
0.0
  0
VERTEX
  5
3B4E
  8
L1
 10
-59.863042131491511
 20
-25.69141597134541
 30
0.0
  0
VERTEX
  5
3B4F
  8
L1
 10
-59.80830653408043
 20
-25.589012462699252
 30
0.0
  0
VERTEX
  5
3B50
  8
L1
 10
-59.819691121901769
 20
-25.473459795757659
 30
0.0
  0
VERTEX
  5
3B51
  8
L1
 10
-59.893358717371029
 20
-25.383705019846559
 30
0.0
  0
VERTEX
  5
3B52
  8
L1
 10
-60.004479642814658
 20
-25.350000000000019
 30
0.0
  0
SEQEND
  5
3B53
  8
L1
  0
POLYLINE
  5
2CFF
  8
L1
 66
     1
 10
0.0
 20
0.0
 30
0.0
  0
VERTEX
  5
3B54
  8
L1
 10
-61.611063197455913
 20
-22.01147433702948
 30
0.0
  0
VERTEX
  5
3B55
  8
L1
 10
-61.52311073177259
 20
-22.223110731772689
 30
0.0
  0
VERTEX
  5
3B56
  8
L1
 10
-61.311474337029381
 20
-22.311063197455951
 30
0.0
  0
SEQEND
  5
3B57
  8
L1
  0
POLYLINE
  5
2D00
  8
L1
 66
     1
 10
0.0
 20
0.0
 30
0.0
  0
VERTEX
  5
3B58
  8
L1
 10
-61.611063197456133
 20
-22.011474337029711
 30
0.0
  0
VERTEX
  5
3B59
  8
L1
 10
-61.61106343464791
 20
-22.011320366176729
 30
0.0
  0
VERTEX
  5
3B5A
  8
L1
 10
-61.611063513711883
 20
-22.0111663162192
 30
0.0
  0
SEQEND
  5
3B5B
  8
L1
  0
POLYLINE
  5
2D01
  8
L1
 66
     1
 10
0.0
 20
0.0
 30
0.0
  0
VERTEX
  5
3B5C
  8
L1
 10
-62.25
 20
-22.65010280250732
 30
0.0
  0
VERTEX
  5
3B5D
  8
L1
 10
-62.162174606235787
 20
-22.862174606235779
 30
0.0
  0
VERTEX
  5
3B5E
  8
L1
 10
-61.950102802507331
 20
-22.949999999999989
 30
0.0
  0
SEQEND
  5
3B5F
  8
L1
  0
POLYLINE
  5
2D02
  8
L1
 66
     1
 10
0.0
 20
0.0
 30
0.0
  0
VERTEX
  5
3B60
  8
L1
 10
-61.311166316219101
 20
-22.311063513711812
 30
0.0
  0
VERTEX
  5
3B61
  8
L1
 10
-61.31132036617668
 20
-22.311063434647899
 30
0.0
  0
VERTEX
  5
3B62
  8
L1
 10
-61.311474337029608
 20
-22.311063197456061
 30
0.0
  0
SEQEND
  5
3B63
  8
L1
  0
ARC
  5
2D03
  8
L1
 10
-47.149999999999977
 20
-35.250000000000171
 30
0.0
 40
3.1999999999999429
 50
230.48205331592371
 51
270.0
  0
ARC
  5
2D04
  8
L1
 10
-56.75
 20
-31.75000000000006
 30
0.0
 40
9.4389364862881635
 50
0.0
 51
36.689290052443639
  0
LINE
  5
2D05
  8
L1
 10
-47.311063513711808
 20
-27.711063513711849
 30
0.0
 11
-47.311063513711808
 21
-31.75000000000006
 31
0.0
  0
ARC
  5
2D06
  8
L1
 10
-56.75
 20
-31.75000000000006
 30
0.0
 40
4.981314598045679
 50
357.35159765871202
 51
92.648402341288019
  0
ARC
  5
2D07
  8
L1
 10
-56.75
 20
-31.75000000000006
 30
0.0
 40
6.4000000000000501
 50
0.0
 51
90.0
  0
ARC
  5
2D08
  8
L1
 10
-56.75
 20
-31.75000000000006
 30
0.0
 40
7.4000000000000741
 50
0.0000000000008142
 51
90.0
  0
ARC
  5
2D09
  8
L1
 10
-56.75
 20
-31.75000000000006
 30
0.0
 40
8.8000000000000007
 50
0.0
 51
37.114862455073641
  0
ARC
  5
2D0A
  8
L1
 10
-47.149999999999977
 20
-35.250000000000171
 30
0.0
 40
2.1999999999999198
 50
179.99999999999909
 51
270.0
  0
LINE
  5
2D0B
  8
L1
 10
-49.349999999999909
 20
-35.250000000000171
 30
0.0
 11
-49.349999999999909
 21
-31.75
 31
0.0
  0
LINE
  5
2D0C
  8
L1
 10
-51.774005986015709
 20
-31.980171017933959
 30
0.0
 11
-56.519828982065967
 21
-36.725994013984227
 31
0.0
  0
LINE
  5
2D0D
  8
L1
 10
-50.349999999999909
 20
-31.75000000000006
 30
0.0
 11
-50.349999999999909
 21
-34.550000000000118
 31
0.0
  0
LINE
  5
2D0E
  8
L1
 10
-53.61828008194118
 20
-37.789906242087447
 30
0.0
 11
-50.69141597134535
 21
-34.863042131491682
 31
0.0
  0
POLYLINE
  5
2D0F
  8
L1
 66
     1
 10
0.0
 20
0.0
 30
0.0
  0
VERTEX
  5
3B64
  8
L1
 10
-53.483129510805952
 20
-38.133909811786452
 30
0.0
  0
VERTEX
  5
3B65
  8
L1
 10
-53.561089097254808
 20
-38.116342631582881
 30
0.0
  0
VERTEX
  5
3B66
  8
L1
 10
-53.62988764947886
 20
-38.063683269662363
 30
0.0
  0
VERTEX
  5
3B67
  8
L1
 10
-53.66382198210033
 20
-38.005798971456841
 30
0.0
  0
VERTEX
  5
3B68
  8
L1
 10
-53.673840761308043
 20
-37.969761065231751
 30
0.0
  0
VERTEX
  5
3B69
  8
L1
 10
-53.677215039595922
 20
-37.931449190202727
 30
0.0
  0
VERTEX
  5
3B6A
  8
L1
 10
-53.67349345691661
 20
-37.894425336578422
 30
0.0
  0
VERTEX
  5
3B6B
  8
L1
 10
-53.662503182329488
 20
-37.856870092389208
 30
0.0
  0
VERTEX
  5
3B6C
  8
L1
 10
-53.651538606451588
 20
-37.833921234867198
 30
0.0
  0
SEQEND
  5
3B6D
  8
L1
  0
POLYLINE
  5
2D10
  8
L1
 66
     1
 10
0.0
 20
0.0
 30
0.0
  0
VERTEX
  5
3B6E
  8
L1
 10
-53.61828008194118
 20
-37.789906242087397
 30
0.0
  0
VERTEX
  5
3B6F
  8
L1
 10
-53.636434023737017
 20
-37.810762206798181
 30
0.0
  0
VERTEX
  5
3B70
  8
L1
 10
-53.651538606451588
 20
-37.833921234867198
 30
0.0
  0
SEQEND
  5
3B71
  8
L1
  0
POLYLINE
  5
2D11
  8
L1
 66
     1
 10
0.0
 20
0.0
 30
0.0
  0
VERTEX
  5
3B72
  8
L1
 10
-49.377091896450231
 20
-38.25
 30
0.0
  0
VERTEX
  5
3B73
  8
L1
 10
-49.327853836645197
 20
-38.245932012691412
 30
0.0
  0
VERTEX
  5
3B74
  8
L1
 10
-49.246911951984771
 20
-38.220284577506277
 30
0.0
  0
VERTEX
  5
3B75
  8
L1
 10
-49.174312047636931
 20
-38.171089692069302
 30
0.0
  0
VERTEX
  5
3B76
  8
L1
 10
-49.108995180096599
 20
-38.084619140797201
 30
0.0
  0
VERTEX
  5
3B77
  8
L1
 10
-49.078307164097168
 20
-37.976870956421799
 30
0.0
  0
VERTEX
  5
3B78
  8
L1
 10
-49.078802642561747
 20
-37.918126392707279
 30
0.0
  0
VERTEX
  5
3B79
  8
L1
 10
-49.090736040443289
 20
-37.86060445565294
 30
0.0
  0
VERTEX
  5
3B7A
  8
L1
 10
-49.11439994727391
 20
-37.805141473147437
 30
0.0
  0
VERTEX
  5
3B7B
  8
L1
 10
-49.175639443355067
 20
-37.727714453787598
 30
0.0
  0
VERTEX
  5
3B7C
  8
L1
 10
-49.18622362897986
 20
-37.7185609842142
 30
0.0
  0
SEQEND
  5
3B7D
  8
L1
  0
POLYLINE
  5
2D12
  8
L1
 66
     1
 10
0.0
 20
0.0
 30
0.0
  0
VERTEX
  5
3B7E
  8
L1
 10
-50.35172487659122
 20
-34.978267430490803
 30
0.0
  0
VERTEX
  5
3B7F
  8
L1
 10
-50.395447093853143
 20
-34.877531411093337
 30
0.0
  0
VERTEX
  5
3B80
  8
L1
 10
-50.485758637301842
 20
-34.8150634044041
 30
0.0
  0
VERTEX
  5
3B81
  8
L1
 10
-50.595435470450177
 20
-34.809694129381739
 30
0.0
  0
VERTEX
  5
3B82
  8
L1
 10
-50.69141597134535
 20
-34.863042131491682
 30
0.0
  0
SEQEND
  5
3B83
  8
L1
  0
LINE
  5
2D13
  8
L1
 10
-50.349999999999909
 20
-34.550000000000068
 30
0.0
 11
-50.349999999999909
 21
-35.250000000000171
 31
0.0
  0
ARC
  5
2D14
  8
L1
 10
-47.149999999999977
 20
-35.250000000000171
 30
0.0
 40
3.1999999999999429
 50
180.0
 51
230.48205331592439
  0
LINE
  5
2D15
  8
L1
 10
-47.950000000000038
 20
-31.75000000000006
 30
0.0
 11
-47.950000000000038
 21
-36.950102802507381
 31
0.0
  0
LINE
  5
2D16
  8
L1
 10
-47.311063513711808
 20
-36.311166316219207
 30
0.0
 11
-47.311063513711808
 21
-31.75000000000006
 31
0.0
  0
POLYLINE
  5
2D17
  8
L1
 66
     1
 10
0.0
 20
0.0
 30
0.0
  0
VERTEX
  5
3B84
  8
L1
 10
-47.950000000000038
 20
-36.950102802507381
 30
0.0
  0
VERTEX
  5
3B85
  8
L1
 10
-47.862174606235719
 20
-37.16217460623573
 30
0.0
  0
VERTEX
  5
3B86
  8
L1
 10
-47.650102802507369
 20
-37.25
 30
0.0
  0
SEQEND
  5
3B87
  8
L1
  0
POLYLINE
  5
2D18
  8
L1
 66
     1
 10
0.0
 20
0.0
 30
0.0
  0
VERTEX
  5
3B88
  8
L1
 10
-47.311063197456058
 20
-36.311474337029658
 30
0.0
  0
VERTEX
  5
3B89
  8
L1
 10
-47.223110731772863
 20
-36.523110731772761
 30
0.0
  0
VERTEX
  5
3B8A
  8
L1
 10
-47.011474337029647
 20
-36.611063197456069
 30
0.0
  0
SEQEND
  5
3B8B
  8
L1
  0
POLYLINE
  5
2D19
  8
L1
 66
     1
 10
0.0
 20
0.0
 30
0.0
  0
VERTEX
  5
3B8C
  8
L1
 10
-47.311063197456058
 20
-36.311474337029658
 30
0.0
  0
VERTEX
  5
3B8D
  8
L1
 10
-47.311063434647849
 20
-36.31132036617668
 30
0.0
  0
VERTEX
  5
3B8E
  8
L1
 10
-47.311063513711808
 20
-36.311166316219207
 30
0.0
  0
SEQEND
  5
3B8F
  8
L1
  0
POLYLINE
  5
2D1A
  8
L1
 66
     1
 10
0.0
 20
0.0
 30
0.0
  0
VERTEX
  5
3B90
  8
L1
 10
-47.01116631621926
 20
-36.61106351371194
 30
0.0
  0
VERTEX
  5
3B91
  8
L1
 10
-47.011320366176733
 20
-36.611063434647967
 30
0.0
  0
VERTEX
  5
3B92
  8
L1
 10
-47.011474337029767
 20
-36.61106319745619
 30
0.0
  0
SEQEND
  5
3B93
  8
L1
  0
ARC
  5
2D1B
  8
L1
 10
-52.711063513711913
 20
-27.711063513711849
 30
0.0
 40
5.3999999999999986
 50
0.0
 51
90.0
  0
LINE
  5
2D1C
  8
L1
 10
-48.525844682845559
 20
-24.54438979025684
 30
0.0
 11
-49.544389790256901
 21
-23.525844682845531
 31
0.0
  0
LINE
  5
2D1D
  8
L1
 10
-49.949358107518833
 20
-23.508163384265799
 30
0.0
 11
-50.738388551548383
 21
-24.170238538838749
 31
0.0
  0
ARC
  5
2D1E
  8
L1
 10
-56.75
 20
-31.75000000000006
 30
0.0
 40
8.8000000000000007
 50
52.885137544926863
 51
90.0
  0
ARC
  5
2D1F
  8
L1
 10
-56.75
 20
-31.75000000000006
 30
0.0
 40
9.4389364862881635
 50
53.310709947557022
 51
90.0
  0
POLYLINE
  5
2D20
  8
L1
 66
     1
 10
0.0
 20
0.0
 30
0.0
  0
VERTEX
  5
3B94
  8
L1
 10
-49.556995055326858
 20
-23.81437579457161
 30
0.0
  0
VERTEX
  5
3B95
  8
L1
 10
-49.756033631138848
 20
-23.726795248333762
 30
0.0
  0
VERTEX
  5
3B96
  8
L1
 10
-49.961947952636137
 20
-23.796695169241559
 30
0.0
  0
SEQEND
  5
3B97
  8
L1
  0
LINE
  5
2D21
  8
L1
 10
-49.170238538838703
 20
-25.738388551548439
 30
0.0
 11
-48.508163384265799
 21
-24.949358107518741
 31
0.0
  0
LINE
  5
2D22
  8
L1
 10
-49.723178268028278
 20
-26.066087514093109
 30
0.0
 11
-48.796695169241609
 21
-24.961947952636191
 31
0.0
  0
ARC
  5
2D23
  8
L1
 10
-48.737976717201491
 20
-24.7565218246128
 30
0.0
 40
0.3
 50
320.00000000000102
 51
45.000000000002302
  0
POLYLINE
  5
2D24
  8
L1
 66
     1
 10
0.0
 20
0.0
 30
0.0
  0
VERTEX
  5
3B98
  8
L1
 10
-48.796695169241609
 20
-24.961947952636191
 30
0.0
  0
VERTEX
  5
3B99
  8
L1
 10
-48.726795248333808
 20
-24.756033631138902
 30
0.0
  0
VERTEX
  5
3B9A
  8
L1
 10
-48.814375794571667
 20
-24.556995055326919
 30
0.0
  0
SEQEND
  5
3B9B
  8
L1
  0
LINE
  5
2D25
  8
L1
 10
-48.814375794571667
 20
-24.556995055326919
 30
0.0
 11
-49.556995055326979
 21
-23.814375794571671
 31
0.0
  0
POLYLINE
  5
2D26
  8
L1
 66
     1
 10
0.0
 20
0.0
 30
0.0
  0
VERTEX
  5
3B9C
  8
L1
 10
-49.181036322656162
 20
-26.110468916369879
 30
0.0
  0
VERTEX
  5
3B9D
  8
L1
 10
-49.206534419984102
 20
-26.069822874747501
 30
0.0
  0
VERTEX
  5
3B9E
  8
L1
 10
-49.228582275394842
 20
-26.014817212370641
 30
0.0
  0
VERTEX
  5
3B9F
  8
L1
 10
-49.239384776926379
 20
-25.956550108959728
 30
0.0
  0
VERTEX
  5
3BA0
  8
L1
 10
-49.227223424032672
 20
-25.84317080870278
 30
0.0
  0
VERTEX
  5
3BA1
  8
L1
 10
-49.176477154620777
 20
-25.74607750519414
 30
0.0
  0
VERTEX
  5
3BA2
  8
L1
 10
-49.170238538838817
 20
-25.738388551548439
 30
0.0
  0
SEQEND
  5
3BA3
  8
L1
  0
LINE
  5
2D27
  8
L1
 10
-49.961947952636137
 20
-23.796695169241609
 30
0.0
 11
-51.066087514093049
 21
-24.723178268028331
 31
0.0
  0
POLYLINE
  5
2D28
  8
L1
 66
     1
 10
0.0
 20
0.0
 30
0.0
  0
VERTEX
  5
3BA4
  8
L1
 10
-51.439949234256567
 20
-24.73263861090032
 30
0.0
  0
VERTEX
  5
3BA5
  8
L1
 10
-51.379236183845933
 20
-24.768225715399179
 30
0.0
  0
VERTEX
  5
3BA6
  8
L1
 10
-51.299527368618563
 20
-24.790637306143761
 30
0.0
  0
VERTEX
  5
3BA7
  8
L1
 10
-51.225242765889561
 20
-24.791489127163629
 30
0.0
  0
VERTEX
  5
3BA8
  8
L1
 10
-51.146384881686572
 20
-24.771464521769762
 30
0.0
  0
VERTEX
  5
3BA9
  8
L1
 10
-51.066087514093049
 20
-24.723178268028331
 30
0.0
  0
SEQEND
  5
3BAA
  8
L1
  0
POLYLINE
  5
2D29
  8
L1
 66
     1
 10
0.0
 20
0.0
 30
0.0
  0
VERTEX
  5
3BAB
  8
L1
 10
-50.738388551548383
 20
-24.170238538838749
 30
0.0
  0
VERTEX
  5
3BAC
  8
L1
 10
-50.740114986458138
 20
-24.171676214358971
 30
0.0
  0
VERTEX
  5
3BAD
  8
L1
 10
-50.829096643909338
 20
-24.222515936563521
 30
0.0
  0
VERTEX
  5
3BAE
  8
L1
 10
-50.904906570862408
 20
-24.239290622920411
 30
0.0
  0
VERTEX
  5
3BAF
  8
L1
 10
-50.976091252715257
 20
-24.237084613486381
 30
0.0
  0
VERTEX
  5
3BB0
  8
L1
 10
-51.051522375905961
 20
-24.21529237179282
 30
0.0
  0
VERTEX
  5
3BB1
  8
L1
 10
-51.110468916369882
 20
-24.181036322656091
 30
0.0
  0
SEQEND
  5
3BB2
  8
L1
  0
POLYLINE
  5
2D2A
  8
L1
 66
     1
 10
0.0
 20
0.0
 30
0.0
  0
VERTEX
  5
3BB3
  8
L1
 10
-49.723178268028278
 20
-26.066087514093109
 30
0.0
  0
VERTEX
  5
3BB4
  8
L1
 10
-49.774211756682462
 20
-26.153424502115449
 30
0.0
  0
VERTEX
  5
3BB5
  8
L1
 10
-49.793327380957287
 20
-26.265170263561171
 30
0.0
  0
VERTEX
  5
3BB6
  8
L1
 10
-49.786195653967752
 20
-26.324279541652398
 30
0.0
  0
VERTEX
  5
3BB7
  8
L1
 10
-49.767529075808959
 20
-26.38081540596562
 30
0.0
  0
VERTEX
  5
3BB8
  8
L1
 10
-49.732638610900381
 20
-26.43994923425651
 30
0.0
  0
SEQEND
  5
3BB9
  8
L1
  0
LINE
  5
2D2B
  8
L1
 10
-56.75
 20
-22.311063513711868
 30
0.0
 11
-52.711063513711913
 21
-22.311063513711868
 31
0.0
  0
ARC
  5
2D2C
  8
L1
 10
-49.756521824612832
 20
-23.73797671720148
 30
0.0
 40
0.3
 50
45.000000000001727
 51
130.00000000000071
  0
ARC
  5
2D2D
  8
L1
 10
47.150000000000091
 20
-35.250000000000171
 30
0.0
 40
3.1999999999999429
 50
270.0
 51
309.51794668407609
  0
ARC
  5
2D2E
  8
L1
 10
61.55700000000013
 20
-36.557000000000009
 30
0.0
 40
2.736024100224733
 50
270.0
 51
0.0000000000008142
  0
POLYLINE
  5
2D2F
  8
L1
 66
     1
 10
0.0
 20
0.0
 30
0.0
  0
VERTEX
  5
3BBA
  8
L1
 10
65.012088437774196
 20
-36.557000000000073
 30
0.0
  0
VERTEX
  5
3BBB
  8
L1
 10
64.941714390114484
 20
-37.218787602445438
 30
0.0
  0
VERTEX
  5
3BBC
  8
L1
 10
64.739585002002514
 20
-37.873772386241107
 30
0.0
  0
VERTEX
  5
3BBD
  8
L1
 10
64.413440750186169
 20
-38.476619230896119
 30
0.0
  0
VERTEX
  5
3BBE
  8
L1
 10
63.989929119073743
 20
-38.989929119073679
 30
0.0
  0
VERTEX
  5
3BBF
  8
L1
 10
63.476619230896169
 20
-39.413440750186169
 30
0.0
  0
VERTEX
  5
3BC0
  8
L1
 10
62.873772386241058
 20
-39.739585002002507
 30
0.0
  0
VERTEX
  5
3BC1
  8
L1
 10
62.218787602445332
 20
-39.941714390114441
 30
0.0
  0
VERTEX
  5
3BC2
  8
L1
 10
61.55700000000013
 20
-40.012088437774139
 30
0.0
  0
SEQEND
  5
3BC3
  8
L1
  0
ARC
  5
2D30
  8
L1
 10
60.650000000000091
 20
-35.650000000000027
 30
0.0
 40
2.3853190523473331
 50
270.0
 51
0.0000000000008142
  0
ARC
  5
2D31
  8
L1
 10
60.650000000000091
 20
-35.650000000000027
 30
0.0
 40
2.6000000000000001
 50
269.9999999999992
 51
0.0
  0
POLYLINE
  5
2D32
  8
L1
 66
     1
 10
0.0
 20
0.0
 30
0.0
  0
VERTEX
  5
3BC4
  8
L1
 10
61.55700000000013
 20
-40.012088437774139
 30
0.0
  0
VERTEX
  5
3BC5
  8
L1
 10
61.537048032038342
 20
-40.012250207188913
 30
0.0
  0
VERTEX
  5
3BC6
  8
L1
 10
61.51710075926826
 20
-40.012304130909222
 30
0.0
  0
SEQEND
  5
3BC7
  8
L1
  0
ARC
  5
2D33
  8
L1
 10
56.750000000000107
 20
-31.75000000000006
 30
0.0
 40
9.4389364862881635
 50
143.31070994755629
 51
180.0
  0
ARC
  5
2D34
  8
L1
 10
52.711063513712013
 20
-27.711063513711849
 30
0.0
 40
5.3999999999999986
 50
90.0
 51
180.0
  0
ARC
  5
2D35
  8
L1
 10
56.750000000000107
 20
-31.75000000000006
 30
0.0
 40
7.4000000000000741
 50
90.0
 51
179.99999999999909
  0
ARC
  5
2D36
  8
L1
 10
56.750000000000107
 20
-31.75000000000006
 30
0.0
 40
8.8000000000000007
 50
142.88513754492629
 51
180.0
  0
ARC
  5
2D37
  8
L1
 10
47.150000000000091
 20
-35.250000000000171
 30
0.0
 40
2.1999999999999198
 50
270.0
 51
0.0000000000008142
  0
LINE
  5
2D38
  8
L1
 10
47.311063513711929
 20
-27.711063513711849
 30
0.0
 11
47.311063513711929
 21
-31.75000000000006
 31
0.0
  0
LINE
  5
2D39
  8
L1
 10
47.311063513711929
 20
-36.311166316219207
 30
0.0
 11
47.311063513711929
 21
-31.75000000000006
 31
0.0
  0
LINE
  5
2D3A
  8
L1
 10
47.950000000000152
 20
-31.75000000000006
 30
0.0
 11
47.950000000000152
 21
-36.950102802507381
 31
0.0
  0
POLYLINE
  5
2D3B
  8
L1
 66
     1
 10
0.0
 20
0.0
 30
0.0
  0
VERTEX
  5
3BC8
  8
L1
 10
47.950000000000152
 20
-36.950102802507381
 30
0.0
  0
VERTEX
  5
3BC9
  8
L1
 10
47.86217460623584
 20
-37.16217460623573
 30
0.0
  0
VERTEX
  5
3BCA
  8
L1
 10
47.65010280250749
 20
-37.25
 30
0.0
  0
SEQEND
  5
3BCB
  8
L1
  0
POLYLINE
  5
2D3C
  8
L1
 66
     1
 10
0.0
 20
0.0
 30
0.0
  0
VERTEX
  5
3BCC
  8
L1
 10
47.311063197456178
 20
-36.311474337029658
 30
0.0
  0
VERTEX
  5
3BCD
  8
L1
 10
47.223110731772969
 20
-36.523110731772761
 30
0.0
  0
VERTEX
  5
3BCE
  8
L1
 10
47.011474337029767
 20
-36.611063197456069
 30
0.0
  0
SEQEND
  5
3BCF
  8
L1
  0
POLYLINE
  5
2D3D
  8
L1
 66
     1
 10
0.0
 20
0.0
 30
0.0
  0
VERTEX
  5
3BD0
  8
L1
 10
47.011166316219366
 20
-36.61106351371194
 30
0.0
  0
VERTEX
  5
3BD1
  8
L1
 10
47.011320366176847
 20
-36.611063434647967
 30
0.0
  0
VERTEX
  5
3BD2
  8
L1
 10
47.011474337029867
 20
-36.61106319745619
 30
0.0
  0
SEQEND
  5
3BD3
  8
L1
  0
POLYLINE
  5
2D3E
  8
L1
 66
     1
 10
0.0
 20
0.0
 30
0.0
  0
VERTEX
  5
3BD4
  8
L1
 10
47.311063197456178
 20
-36.311474337029658
 30
0.0
  0
VERTEX
  5
3BD5
  8
L1
 10
47.311063434647963
 20
-36.31132036617668
 30
0.0
  0
VERTEX
  5
3BD6
  8
L1
 10
47.311063513711929
 20
-36.311166316219207
 30
0.0
  0
SEQEND
  5
3BD7
  8
L1
  0
LINE
  5
2D3F
  8
L1
 10
61.725994013984291
 20
-31.519828982065921
 30
0.0
 11
56.98017101793414
 21
-26.774005986015759
 31
0.0
  0
POLYLINE
  5
2D40
  8
L1
 66
     1
 10
0.0
 20
0.0
 30
0.0
  0
VERTEX
  5
3BD8
  8
L1
 10
62.833921234867383
 20
-28.651538606451759
 30
0.0
  0
VERTEX
  5
3BD9
  8
L1
 10
62.856637063754647
 20
-28.662409190467031
 30
0.0
  0
VERTEX
  5
3BDA
  8
L1
 10
62.894303154891411
 20
-28.673469501606181
 30
0.0
  0
VERTEX
  5
3BDB
  8
L1
 10
62.931449190202891
 20
-28.677215039596032
 30
0.0
  0
VERTEX
  5
3BDC
  8
L1
 10
62.969983570547463
 20
-28.673799774059709
 30
0.0
  0
VERTEX
  5
3BDD
  8
L1
 10
63.006197510124473
 20
-28.663669620354192
 30
0.0
  0
VERTEX
  5
3BDE
  8
L1
 10
63.064268041043867
 20
-28.62939587154403
 30
0.0
  0
VERTEX
  5
3BDF
  8
L1
 10
63.116484789525089
 20
-28.56077901756106
 30
0.0
  0
VERTEX
  5
3BE0
  8
L1
 10
63.133909811786559
 20
-28.483129510806119
 30
0.0
  0
SEQEND
  5
3BE1
  8
L1
  0
POLYLINE
  5
2D41
  8
L1
 66
     1
 10
0.0
 20
0.0
 30
0.0
  0
VERTEX
  5
3BE2
  8
L1
 10
62.833921234867383
 20
-28.651538606451759
 30
0.0
  0
VERTEX
  5
3BE3
  8
L1
 10
62.810762206798252
 20
-28.636434023737191
 30
0.0
  0
VERTEX
  5
3BE4
  8
L1
 10
62.789906242087561
 20
-28.61828008194135
 30
0.0
  0
SEQEND
  5
3BE5
  8
L1
  0
ARC
  5
2D42
  8
L1
 10
56.750000000000107
 20
-31.75000000000006
 30
0.0
 40
4.981314598045679
 50
87.351597658711981
 51
182.648402341288
  0
ARC
  5
2D43
  8
L1
 10
56.750000000000107
 20
-31.75000000000006
 30
0.0
 40
6.4000000000000501
 50
90.0
 51
180.0
  0
LINE
  5
2D44
  8
L1
 10
63.250000000000107
 20
-24.37709189645016
 30
0.0
 11
63.250000000000107
 21
-35.650000000000027
 31
0.0
  0
ARC
  5
2D45
  8
L1
 10
56.750000000000107
 20
-31.75000000000006
 30
0.0
 40
4.981314598045679
 50
267.35159765871111
 51
292.81030117971841
  0
LINE
  5
2D46
  8
L1
 10
60.650000000000091
 20
-38.25
 30
0.0
 11
49.377091896450331
 21
-38.25
 31
0.0
  0
LINE
  5
2D47
  8
L1
 10
50.350000000000023
 20
-31.75000000000006
 30
0.0
 11
50.350000000000023
 21
-34.550000000000118
 31
0.0
  0
LINE
  5
2D48
  8
L1
 10
49.350000000000023
 20
-35.250000000000171
 30
0.0
 11
49.350000000000023
 21
-31.75
 31
0.0
  0
LINE
  5
2D49
  8
L1
 10
51.774005986015823
 20
-31.980171017933959
 30
0.0
 11
56.51982898206608
 21
-36.725994013984227
 31
0.0
  0
LINE
  5
2D4A
  8
L1
 10
53.618280081941293
 20
-37.789906242087447
 30
0.0
 11
50.691415971345457
 21
-34.863042131491682
 31
0.0
  0
LINE
  5
2D4B
  8
L1
 10
50.350000000000023
 20
-34.550000000000068
 30
0.0
 11
50.350000000000023
 21
-35.250000000000171
 31
0.0
  0
POLYLINE
  5
2D4C
  8
L1
 66
     1
 10
0.0
 20
0.0
 30
0.0
  0
VERTEX
  5
3BE6
  8
L1
 10
50.351724876591327
 20
-34.978267430490803
 30
0.0
  0
VERTEX
  5
3BE7
  8
L1
 10
50.395447093853242
 20
-34.877531411093337
 30
0.0
  0
VERTEX
  5
3BE8
  8
L1
 10
50.485758637301963
 20
-34.8150634044041
 30
0.0
  0
VERTEX
  5
3BE9
  8
L1
 10
50.595435470450298
 20
-34.809694129381739
 30
0.0
  0
VERTEX
  5
3BEA
  8
L1
 10
50.691415971345457
 20
-34.863042131491682
 30
0.0
  0
SEQEND
  5
3BEB
  8
L1
  0
ARC
  5
2D4D
  8
L1
 10
47.150000000000091
 20
-35.250000000000171
 30
0.0
 40
3.1999999999999429
 50
309.51794668407553
 51
0.0
  0
POLYLINE
  5
2D4E
  8
L1
 66
     1
 10
0.0
 20
0.0
 30
0.0
  0
VERTEX
  5
3BEC
  8
L1
 10
49.377091896450331
 20
-38.25
 30
0.0
  0
VERTEX
  5
3BED
  8
L1
 10
49.327853836645318
 20
-38.245932012691412
 30
0.0
  0
VERTEX
  5
3BEE
  8
L1
 10
49.246911951984877
 20
-38.220284577506277
 30
0.0
  0
VERTEX
  5
3BEF
  8
L1
 10
49.174312047637052
 20
-38.171089692069302
 30
0.0
  0
VERTEX
  5
3BF0
  8
L1
 10
49.108995180096713
 20
-38.084619140797201
 30
0.0
  0
VERTEX
  5
3BF1
  8
L1
 10
49.078307164097282
 20
-37.976870956421799
 30
0.0
  0
VERTEX
  5
3BF2
  8
L1
 10
49.078802642561868
 20
-37.918126392707279
 30
0.0
  0
VERTEX
  5
3BF3
  8
L1
 10
49.09073604044341
 20
-37.86060445565294
 30
0.0
  0
VERTEX
  5
3BF4
  8
L1
 10
49.114399947274023
 20
-37.805141473147437
 30
0.0
  0
VERTEX
  5
3BF5
  8
L1
 10
49.17563944335518
 20
-37.727714453787598
 30
0.0
  0
VERTEX
  5
3BF6
  8
L1
 10
49.186223628979967
 20
-37.7185609842142
 30
0.0
  0
SEQEND
  5
3BF7
  8
L1
  0
POLYLINE
  5
2D4F
  8
L1
 66
     1
 10
0.0
 20
0.0
 30
0.0
  0
VERTEX
  5
3BF8
  8
L1
 10
53.618280081941293
 20
-37.789906242087397
 30
0.0
  0
VERTEX
  5
3BF9
  8
L1
 10
53.636434023737138
 20
-37.810762206798181
 30
0.0
  0
VERTEX
  5
3BFA
  8
L1
 10
53.651538606451709
 20
-37.833921234867198
 30
0.0
  0
SEQEND
  5
3BFB
  8
L1
  0
POLYLINE
  5
2D50
  8
L1
 66
     1
 10
0.0
 20
0.0
 30
0.0
  0
VERTEX
  5
3BFC
  8
L1
 10
53.483129510806073
 20
-38.133909811786452
 30
0.0
  0
VERTEX
  5
3BFD
  8
L1
 10
53.561089097254921
 20
-38.116342631582881
 30
0.0
  0
VERTEX
  5
3BFE
  8
L1
 10
53.629887649478967
 20
-38.063683269662363
 30
0.0
  0
VERTEX
  5
3BFF
  8
L1
 10
53.663821982100437
 20
-38.005798971456841
 30
0.0
  0
VERTEX
  5
3C00
  8
L1
 10
53.673840761308149
 20
-37.969761065231751
 30
0.0
  0
VERTEX
  5
3C01
  8
L1
 10
53.677215039596042
 20
-37.931449190202727
 30
0.0
  0
VERTEX
  5
3C02
  8
L1
 10
53.673493456916731
 20
-37.894425336578422
 30
0.0
  0
VERTEX
  5
3C03
  8
L1
 10
53.662503182329601
 20
-37.856870092389208
 30
0.0
  0
VERTEX
  5
3C04
  8
L1
 10
53.651538606451709
 20
-37.833921234867198
 30
0.0
  0
SEQEND
  5
3C05
  8
L1
  0
ARC
  5
2D51
  8
L1
 10
56.750000000000107
 20
-31.75000000000006
 30
0.0
 40
4.981314598045679
 50
337.18969882028148
 51
2.648402341289644
  0
ARC
  5
2D52
  8
L1
 10
56.750000000000107
 20
-31.75000000000006
 30
0.0
 40
5.7825462644184809
 50
297.0165228096393
 51
332.98347719035962
  0
LINE
  5
2D53
  8
L1
 10
61.34174324585387
 20
-33.68116262620719
 30
0.0
 11
62.833921234867383
 21
-35.173340615220631
 31
0.0
  0
LINE
  5
2D54
  8
L1
 10
59.37670676229515
 20
-36.90152917928782
 30
0.0
 11
60.510496635354691
 21
-38.03531905234734
 31
0.0
  0
LINE
  5
2D55
  8
L1
 10
60.173340615220582
 20
-37.833921234867198
 30
0.0
 11
58.681162626207197
 21
-36.34174324585387
 31
0.0
  0
POLYLINE
  5
2D56
  8
L1
 66
     1
 10
0.0
 20
0.0
 30
0.0
  0
VERTEX
  5
3C06
  8
L1
 10
59.214629597188718
 20
-36.875210216835448
 30
0.0
  0
VERTEX
  5
3C07
  8
L1
 10
59.37670676229515
 20
-36.90152917928782
 30
0.0
  0
SEQEND
  5
3C08
  8
L1
  0
LINE
  5
2D57
  8
L1
 10
60.510496635354691
 20
-38.03531905234734
 30
0.0
 11
60.650000000000091
 21
-38.03531905234734
 31
0.0
  0
LINE
  5
2D58
  8
L1
 10
60.469659005670337
 20
-38.133909811786452
 30
0.0
 11
60.510496635354691
 21
-38.03531905234734
 31
0.0
  0
POLYLINE
  5
2D59
  8
L1
 66
     1
 10
0.0
 20
0.0
 30
0.0
  0
VERTEX
  5
3C09
  8
L1
 10
60.582353278431242
 20
-38.249999999999972
 30
0.0
  0
VERTEX
  5
3C0A
  8
L1
 10
60.383471994943527
 20
-38.045125652203971
 30
0.0
  0
VERTEX
  5
3C0B
  8
L1
 10
60.173340615220582
 20
-37.833921234867198
 30
0.0
  0
SEQEND
  5
3C0C
  8
L1
  0
POLYLINE
  5
2D5A
  8
L1
 66
     1
 10
0.0
 20
0.0
 30
0.0
  0
VERTEX
  5
3C0D
  8
L1
 10
65.012304130909342
 20
-36.517100759268203
 30
0.0
  0
VERTEX
  5
3C0E
  8
L1
 10
65.012250207189027
 20
-36.537048032038278
 30
0.0
  0
VERTEX
  5
3C0F
  8
L1
 10
65.012088437774196
 20
-36.557000000000073
 30
0.0
  0
SEQEND
  5
3C10
  8
L1
  0
LINE
  5
2D5B
  8
L1
 10
63.035319052347397
 20
-35.510496635354677
 30
0.0
 11
61.901529179287877
 21
-34.3767067622951
 31
0.0
  0
LINE
  5
2D5C
  8
L1
 10
63.133909811786559
 20
-35.46965900567033
 30
0.0
 11
63.035319052347397
 21
-35.510496635354677
 31
0.0
  0
LINE
  5
2D5D
  8
L1
 10
63.035319052347397
 20
-35.650000000000027
 30
0.0
 11
63.035319052347397
 21
-35.510496635354741
 31
0.0
  0
POLYLINE
  5
2D5E
  8
L1
 66
     1
 10
0.0
 20
0.0
 30
0.0
  0
VERTEX
  5
3C11
  8
L1
 10
62.833921234867383
 20
-35.173340615220631
 30
0.0
  0
VERTEX
  5
3C12
  8
L1
 10
63.045125652204092
 20
-35.383471994943591
 30
0.0
  0
VERTEX
  5
3C13
  8
L1
 10
63.250000000000107
 20
-35.582353278431412
 30
0.0
  0
SEQEND
  5
3C14
  8
L1
  0
POLYLINE
  5
2D5F
  8
L1
 66
     1
 10
0.0
 20
0.0
 30
0.0
  0
VERTEX
  5
3C15
  8
L1
 10
61.901529179287877
 20
-34.37670676229515
 30
0.0
  0
VERTEX
  5
3C16
  8
L1
 10
61.875210216835619
 20
-34.214629597188832
 30
0.0
  0
SEQEND
  5
3C17
  8
L1
  0
LINE
  5
2D60
  8
L1
 10
56.750000000000107
 20
-22.311063513711868
 30
0.0
 11
61.311166316219321
 21
-22.311063513711868
 31
0.0
  0
LINE
  5
2D61
  8
L1
 10
61.950102802507452
 20
-22.950000000000038
 30
0.0
 11
56.750000000000107
 21
-22.950000000000038
 31
0.0
  0
LINE
  5
2D62
  8
L1
 10
56.750000000000107
 20
-24.349999999999959
 30
0.0
 11
60.250000000000107
 21
-24.349999999999959
 31
0.0
  0
LINE
  5
2D63
  8
L1
 10
59.550000000000068
 20
-25.349999999999959
 30
0.0
 11
56.750000000000107
 21
-25.349999999999959
 31
0.0
  0
POLYLINE
  5
2D64
  8
L1
 66
     1
 10
0.0
 20
0.0
 30
0.0
  0
VERTEX
  5
3C18
  8
L1
 10
49.556995055326979
 20
-23.81437579457161
 30
0.0
  0
VERTEX
  5
3C19
  8
L1
 10
49.756033631138962
 20
-23.726795248333762
 30
0.0
  0
VERTEX
  5
3C1A
  8
L1
 10
49.961947952636251
 20
-23.796695169241559
 30
0.0
  0
SEQEND
  5
3C1B
  8
L1
  0
ARC
  5
2D65
  8
L1
 10
56.750000000000107
 20
-31.75000000000006
 30
0.0
 40
9.4389364862881635
 50
90.0
 51
126.689290052443
  0
ARC
  5
2D66
  8
L1
 10
56.750000000000107
 20
-31.75000000000006
 30
0.0
 40
8.8000000000000007
 50
90.0
 51
127.11486245507361
  0
LINE
  5
2D67
  8
L1
 10
49.94935810751894
 20
-23.508163384265799
 30
0.0
 11
50.738388551548503
 21
-24.170238538838749
 31
0.0
  0
LINE
  5
2D68
  8
L1
 10
48.525844682845673
 20
-24.54438979025684
 30
0.0
 11
49.544389790257007
 21
-23.525844682845531
 31
0.0
  0
POLYLINE
  5
2D69
  8
L1
 66
     1
 10
0.0
 20
0.0
 30
0.0
  0
VERTEX
  5
3C1C
  8
L1
 10
50.738388551548503
 20
-24.170238538838749
 30
0.0
  0
VERTEX
  5
3C1D
  8
L1
 10
50.740114986458252
 20
-24.171676214358971
 30
0.0
  0
VERTEX
  5
3C1E
  8
L1
 10
50.829096643909452
 20
-24.222515936563521
 30
0.0
  0
VERTEX
  5
3C1F
  8
L1
 10
50.904906570862522
 20
-24.239290622920411
 30
0.0
  0
VERTEX
  5
3C20
  8
L1
 10
50.976091252715378
 20
-24.237084613486381
 30
0.0
  0
VERTEX
  5
3C21
  8
L1
 10
51.051522375906067
 20
-24.21529237179282
 30
0.0
  0
VERTEX
  5
3C22
  8
L1
 10
51.110468916369989
 20
-24.181036322656091
 30
0.0
  0
SEQEND
  5
3C23
  8
L1
  0
POLYLINE
  5
2D6A
  8
L1
 66
     1
 10
0.0
 20
0.0
 30
0.0
  0
VERTEX
  5
3C24
  8
L1
 10
51.439949234256687
 20
-24.73263861090032
 30
0.0
  0
VERTEX
  5
3C25
  8
L1
 10
51.379236183846039
 20
-24.768225715399179
 30
0.0
  0
VERTEX
  5
3C26
  8
L1
 10
51.299527368618662
 20
-24.790637306143761
 30
0.0
  0
VERTEX
  5
3C27
  8
L1
 10
51.225242765889682
 20
-24.791489127163629
 30
0.0
  0
VERTEX
  5
3C28
  8
L1
 10
51.146384881686693
 20
-24.771464521769762
 30
0.0
  0
VERTEX
  5
3C29
  8
L1
 10
51.066087514093169
 20
-24.723178268028331
 30
0.0
  0
SEQEND
  5
3C2A
  8
L1
  0
LINE
  5
2D6B
  8
L1
 10
49.961947952636251
 20
-23.796695169241609
 30
0.0
 11
51.066087514093169
 21
-24.723178268028331
 31
0.0
  0
POLYLINE
  5
2D6C
  8
L1
 66
     1
 10
0.0
 20
0.0
 30
0.0
  0
VERTEX
  5
3C2B
  8
L1
 10
49.723178268028391
 20
-26.066087514093109
 30
0.0
  0
VERTEX
  5
3C2C
  8
L1
 10
49.774211756682583
 20
-26.153424502115449
 30
0.0
  0
VERTEX
  5
3C2D
  8
L1
 10
49.793327380957408
 20
-26.265170263561171
 30
0.0
  0
VERTEX
  5
3C2E
  8
L1
 10
49.786195653967873
 20
-26.324279541652398
 30
0.0
  0
VERTEX
  5
3C2F
  8
L1
 10
49.76752907580908
 20
-26.38081540596562
 30
0.0
  0
VERTEX
  5
3C30
  8
L1
 10
49.732638610900501
 20
-26.43994923425651
 30
0.0
  0
SEQEND
  5
3C31
  8
L1
  0
LINE
  5
2D6D
  8
L1
 10
49.170238538838817
 20
-25.738388551548439
 30
0.0
 11
48.508163384265913
 21
-24.949358107518741
 31
0.0
  0
POLYLINE
  5
2D6E
  8
L1
 66
     1
 10
0.0
 20
0.0
 30
0.0
  0
VERTEX
  5
3C32
  8
L1
 10
48.79669516924173
 20
-24.961947952636191
 30
0.0
  0
VERTEX
  5
3C33
  8
L1
 10
48.726795248333929
 20
-24.756033631138902
 30
0.0
  0
VERTEX
  5
3C34
  8
L1
 10
48.814375794571788
 20
-24.556995055326919
 30
0.0
  0
SEQEND
  5
3C35
  8
L1
  0
ARC
  5
2D6F
  8
L1
 10
48.737976717201597
 20
-24.7565218246128
 30
0.0
 40
0.3
 50
134.99999999999761
 51
219.99999999999889
  0
POLYLINE
  5
2D70
  8
L1
 66
     1
 10
0.0
 20
0.0
 30
0.0
  0
VERTEX
  5
3C36
  8
L1
 10
49.181036322656261
 20
-26.110468916369879
 30
0.0
  0
VERTEX
  5
3C37
  8
L1
 10
49.206534419984223
 20
-26.069822874747501
 30
0.0
  0
VERTEX
  5
3C38
  8
L1
 10
49.228582275394963
 20
-26.014817212370641
 30
0.0
  0
VERTEX
  5
3C39
  8
L1
 10
49.239384776926499
 20
-25.956550108959728
 30
0.0
  0
VERTEX
  5
3C3A
  8
L1
 10
49.227223424032793
 20
-25.84317080870278
 30
0.0
  0
VERTEX
  5
3C3B
  8
L1
 10
49.176477154620898
 20
-25.74607750519414
 30
0.0
  0
VERTEX
  5
3C3C
  8
L1
 10
49.17023853883893
 20
-25.738388551548439
 30
0.0
  0
SEQEND
  5
3C3D
  8
L1
  0
LINE
  5
2D71
  8
L1
 10
49.723178268028391
 20
-26.066087514093109
 30
0.0
 11
48.79669516924173
 21
-24.961947952636191
 31
0.0
  0
LINE
  5
2D72
  8
L1
 10
48.814375794571788
 20
-24.556995055326919
 30
0.0
 11
49.556995055327093
 21
-23.814375794571671
 31
0.0
  0
LINE
  5
2D73
  8
L1
 10
56.750000000000107
 20
-22.311063513711868
 30
0.0
 11
52.711063513712013
 21
-22.311063513711868
 31
0.0
  0
ARC
  5
2D74
  8
L1
 10
49.756521824612953
 20
-23.73797671720148
 30
0.0
 40
0.3
 50
49.999999999999282
 51
134.99999999999821
  0
ARC
  5
2D75
  8
L1
 10
60.250000000000107
 20
-22.150000000000031
 30
0.0
 40
2.1999999999999198
 50
270.0
 51
0.0000000000008142
  0
ARC
  5
2D76
  8
L1
 10
60.250000000000107
 20
-22.150000000000031
 30
0.0
 40
3.1999999999999429
 50
320.48205331592669
 51
0.0
  0
ARC
  5
2D77
  8
L1
 10
60.250000000000107
 20
-22.150000000000031
 30
0.0
 40
3.1999999999999429
 50
270.0
 51
320.48205331592783
  0
LINE
  5
2D78
  8
L1
 10
59.863042131491618
 20
-25.69141597134541
 30
0.0
 11
62.789906242087561
 21
-28.61828008194135
 31
0.0
  0
POLYLINE
  5
2D79
  8
L1
 66
     1
 10
0.0
 20
0.0
 30
0.0
  0
VERTEX
  5
3C3E
  8
L1
 10
59.863042131491618
 20
-25.69141597134541
 30
0.0
  0
VERTEX
  5
3C3F
  8
L1
 10
59.808306534080543
 20
-25.589012462699252
 30
0.0
  0
VERTEX
  5
3C40
  8
L1
 10
59.81969112190189
 20
-25.473459795757659
 30
0.0
  0
VERTEX
  5
3C41
  8
L1
 10
59.89335871737115
 20
-25.383705019846559
 30
0.0
  0
VERTEX
  5
3C42
  8
L1
 10
60.004479642814772
 20
-25.350000000000019
 30
0.0
  0
SEQEND
  5
3C43
  8
L1
  0
LINE
  5
2D7A
  8
L1
 10
60.250000000000107
 20
-25.349999999999959
 30
0.0
 11
59.550000000000068
 21
-25.349999999999959
 31
0.0
  0
POLYLINE
  5
2D7B
  8
L1
 66
     1
 10
0.0
 20
0.0
 30
0.0
  0
VERTEX
  5
3C44
  8
L1
 10
62.718560984214371
 20
-24.186223628979739
 30
0.0
  0
VERTEX
  5
3C45
  8
L1
 10
62.72832836355451
 20
-24.174964228796789
 30
0.0
  0
VERTEX
  5
3C46
  8
L1
 10
62.816397581963997
 20
-24.108500430630102
 30
0.0
  0
VERTEX
  5
3C47
  8
L1
 10
62.894770114985128
 20
-24.08223338030313
 30
0.0
  0
VERTEX
  5
3C48
  8
L1
 10
62.969342954088802
 20
-24.07772597707628
 30
0.0
  0
VERTEX
  5
3C49
  8
L1
 10
63.046544182151479
 20
-24.093056538992069
 30
0.0
  0
VERTEX
  5
3C4A
  8
L1
 10
63.13492764249883
 20
-24.14086875450732
 30
0.0
  0
VERTEX
  5
3C4B
  8
L1
 10
63.177843012775163
 20
-24.181930715518661
 30
0.0
  0
VERTEX
  5
3C4C
  8
L1
 10
63.211827010204964
 20
-24.230643189592449
 30
0.0
  0
VERTEX
  5
3C4D
  8
L1
 10
63.247225979339639
 20
-24.336387854964642
 30
0.0
  0
VERTEX
  5
3C4E
  8
L1
 10
63.250000000000107
 20
-24.37709189645016
 30
0.0
  0
SEQEND
  5
3C4F
  8
L1
  0
POLYLINE
  5
2D7C
  8
L1
 66
     1
 10
0.0
 20
0.0
 30
0.0
  0
VERTEX
  5
3C50
  8
L1
 10
61.611063197456019
 20
-22.01147433702948
 30
0.0
  0
VERTEX
  5
3C51
  8
L1
 10
61.523110731772697
 20
-22.223110731772689
 30
0.0
  0
VERTEX
  5
3C52
  8
L1
 10
61.311474337029487
 20
-22.311063197455951
 30
0.0
  0
SEQEND
  5
3C53
  8
L1
  0
POLYLINE
  5
2D7D
  8
L1
 66
     1
 10
0.0
 20
0.0
 30
0.0
  0
VERTEX
  5
3C54
  8
L1
 10
61.311166316219207
 20
-22.311063513711812
 30
0.0
  0
VERTEX
  5
3C55
  8
L1
 10
61.311320366176801
 20
-22.311063434647899
 30
0.0
  0
VERTEX
  5
3C56
  8
L1
 10
61.311474337029722
 20
-22.311063197456061
 30
0.0
  0
SEQEND
  5
3C57
  8
L1
  0
POLYLINE
  5
2D7E
  8
L1
 66
     1
 10
0.0
 20
0.0
 30
0.0
  0
VERTEX
  5
3C58
  8
L1
 10
62.250000000000121
 20
-22.65010280250732
 30
0.0
  0
VERTEX
  5
3C59
  8
L1
 10
62.162174606235908
 20
-22.862174606235779
 30
0.0
  0
VERTEX
  5
3C5A
  8
L1
 10
61.950102802507452
 20
-22.949999999999989
 30
0.0
  0
SEQEND
  5
3C5B
  8
L1
  0
POLYLINE
  5
2D7F
  8
L1
 66
     1
 10
0.0
 20
0.0
 30
0.0
  0
VERTEX
  5
3C5C
  8
L1
 10
61.611063197456239
 20
-22.011474337029711
 30
0.0
  0
VERTEX
  5
3C5D
  8
L1
 10
61.611063434648031
 20
-22.011320366176729
 30
0.0
  0
VERTEX
  5
3C5E
  8
L1
 10
61.61106351371199
 20
-22.0111663162192
 30
0.0
  0
SEQEND
  5
3C5F
  8
L1
  0
LINE
  5
2D80
  8
L1
 10
-47.650102802507369
 20
37.25000000000005
 30
0.0
 11
47.650102802507369
 21
37.25000000000005
 31
0.0
  0
LINE
  5
2D81
  8
L1
 10
47.149999999999977
 20
37.450000000000038
 30
0.0
 11
-47.149999999999977
 21
37.450000000000102
 31
0.0
  0
LINE
  5
2D82
  8
L1
 10
-47.149999999999977
 20
38.450000000000102
 30
0.0
 11
47.149999999999977
 21
38.450000000000102
 31
0.0
  0
LINE
  5
2D83
  8
L1
 10
47.011166316219139
 20
36.611063513711827
 30
0.0
 11
-47.011166316219139
 21
36.611063513711827
 31
0.0
  0
LINE
  5
2D84
  8
L1
 10
61.557000000000023
 20
39.29302410022472
 30
0.0
 11
-61.557000000000023
 21
39.29302410022472
 31
0.0
  0
LINE
  5
2D85
  8
L1
 10
-61.517100759268139
 20
40.012304130909172
 30
0.0
 11
61.51710075926826
 21
40.012304130909172
 31
0.0
  0
ARC
  5
2D86
  8
L1
 10
-56.75
 20
31.75000000000006
 30
0.0
 40
4.981314598045679
 50
87.351597658711171
 51
112.81030117971839
  0
LINE
  5
2D87
  8
L1
 10
-61.725994013984177
 20
31.519828982065921
 30
0.0
 11
-56.980171017934033
 21
26.774005986015759
 31
0.0
  0
LINE
  5
2D88
  8
L1
 10
-56.75
 20
24.349999999999959
 30
0.0
 11
-60.25
 21
24.349999999999959
 31
0.0
  0
LINE
  5
2D89
  8
L1
 10
-59.549999999999947
 20
25.349999999999959
 30
0.0
 11
-56.75
 21
25.349999999999959
 31
0.0
  0
LINE
  5
2D8A
  8
L1
 10
-61.950102802507331
 20
22.950000000000038
 30
0.0
 11
-56.75
 21
22.950000000000038
 31
0.0
  0
LINE
  5
2D8B
  8
L1
 10
-56.75
 20
22.311063513711868
 30
0.0
 11
-61.311166316219207
 21
22.311063513711868
 31
0.0
  0
LINE
  5
2D8C
  8
L1
 10
-60.64999999999997
 20
38.25
 30
0.0
 11
-49.377091896450231
 21
38.25
 31
0.0
  0
POLYLINE
  5
2D8D
  8
L1
 66
     1
 10
0.0
 20
0.0
 30
0.0
  0
VERTEX
  5
3C60
  8
L1
 10
-65.012088437774082
 20
36.557000000000073
 30
0.0
  0
VERTEX
  5
3C61
  8
L1
 10
-64.941714390114385
 20
37.218787602445438
 30
0.0
  0
VERTEX
  5
3C62
  8
L1
 10
-64.739585002002386
 20
37.873772386241107
 30
0.0
  0
VERTEX
  5
3C63
  8
L1
 10
-64.413440750186055
 20
38.476619230896119
 30
0.0
  0
VERTEX
  5
3C64
  8
L1
 10
-63.989929119073622
 20
38.989929119073679
 30
0.0
  0
VERTEX
  5
3C65
  8
L1
 10
-63.476619230896063
 20
39.413440750186169
 30
0.0
  0
VERTEX
  5
3C66
  8
L1
 10
-62.873772386240937
 20
39.739585002002507
 30
0.0
  0
VERTEX
  5
3C67
  8
L1
 10
-62.218787602445211
 20
39.941714390114441
 30
0.0
  0
VERTEX
  5
3C68
  8
L1
 10
-61.557000000000023
 20
40.012088437774139
 30
0.0
  0
SEQEND
  5
3C69
  8
L1
  0
ARC
  5
2D8E
  8
L1
 10
-61.557000000000023
 20
36.557000000000009
 30
0.0
 40
2.736024100224733
 50
90.0
 51
180.0000000000008
  0
LINE
  5
2D8F
  8
L1
 10
-63.25
 20
24.37709189645016
 30
0.0
 11
-63.25
 21
35.650000000000027
 31
0.0
  0
ARC
  5
2D90
  8
L1
 10
-60.25
 20
22.150000000000031
 30
0.0
 40
3.1999999999999429
 50
90.0
 51
140.4820533159278
  0
ARC
  5
2D91
  8
L1
 10
-60.25
 20
22.150000000000031
 30
0.0
 40
2.1999999999999198
 50
90.0
 51
180.0000000000008
  0
POLYLINE
  5
2D92
  8
L1
 66
     1
 10
0.0
 20
0.0
 30
0.0
  0
VERTEX
  5
3C6A
  8
L1
 10
-61.611063197455913
 20
22.01147433702948
 30
0.0
  0
VERTEX
  5
3C6B
  8
L1
 10
-61.52311073177259
 20
22.223110731772689
 30
0.0
  0
VERTEX
  5
3C6C
  8
L1
 10
-61.311474337029381
 20
22.311063197455951
 30
0.0
  0
SEQEND
  5
3C6D
  8
L1
  0
ARC
  5
2D93
  8
L1
 10
-60.25
 20
22.150000000000031
 30
0.0
 40
3.1999999999999429
 50
140.48205331592669
 51
180.0
  0
POLYLINE
  5
2D94
  8
L1
 66
     1
 10
0.0
 20
0.0
 30
0.0
  0
VERTEX
  5
3C6E
  8
L1
 10
-62.718560984214271
 20
24.186223628979739
 30
0.0
  0
VERTEX
  5
3C6F
  8
L1
 10
-62.728328363554397
 20
24.174964228796789
 30
0.0
  0
VERTEX
  5
3C70
  8
L1
 10
-62.816397581963876
 20
24.108500430630102
 30
0.0
  0
VERTEX
  5
3C71
  8
L1
 10
-62.894770114985022
 20
24.08223338030313
 30
0.0
  0
VERTEX
  5
3C72
  8
L1
 10
-62.969342954088688
 20
24.07772597707628
 30
0.0
  0
VERTEX
  5
3C73
  8
L1
 10
-63.046544182151358
 20
24.093056538992069
 30
0.0
  0
VERTEX
  5
3C74
  8
L1
 10
-63.134927642498717
 20
24.14086875450732
 30
0.0
  0
VERTEX
  5
3C75
  8
L1
 10
-63.177843012775043
 20
24.181930715518661
 30
0.0
  0
VERTEX
  5
3C76
  8
L1
 10
-63.211827010204843
 20
24.230643189592449
 30
0.0
  0
VERTEX
  5
3C77
  8
L1
 10
-63.247225979339532
 20
24.336387854964642
 30
0.0
  0
VERTEX
  5
3C78
  8
L1
 10
-63.25
 20
24.37709189645016
 30
0.0
  0
SEQEND
  5
3C79
  8
L1
  0
POLYLINE
  5
2D95
  8
L1
 66
     1
 10
0.0
 20
0.0
 30
0.0
  0
VERTEX
  5
3C7A
  8
L1
 10
-62.25
 20
22.65010280250732
 30
0.0
  0
VERTEX
  5
3C7B
  8
L1
 10
-62.162174606235787
 20
22.862174606235779
 30
0.0
  0
VERTEX
  5
3C7C
  8
L1
 10
-61.950102802507331
 20
22.949999999999989
 30
0.0
  0
SEQEND
  5
3C7D
  8
L1
  0
POLYLINE
  5
2D96
  8
L1
 66
     1
 10
0.0
 20
0.0
 30
0.0
  0
VERTEX
  5
3C7E
  8
L1
 10
-61.611063197456133
 20
22.011474337029711
 30
0.0
  0
VERTEX
  5
3C7F
  8
L1
 10
-61.61106343464791
 20
22.011320366176729
 30
0.0
  0
VERTEX
  5
3C80
  8
L1
 10
-61.611063513711883
 20
22.0111663162192
 30
0.0
  0
SEQEND
  5
3C81
  8
L1
  0
POLYLINE
  5
2D97
  8
L1
 66
     1
 10
0.0
 20
0.0
 30
0.0
  0
VERTEX
  5
3C82
  8
L1
 10
-61.311166316219101
 20
22.311063513711812
 30
0.0
  0
VERTEX
  5
3C83
  8
L1
 10
-61.31132036617668
 20
22.311063434647899
 30
0.0
  0
VERTEX
  5
3C84
  8
L1
 10
-61.311474337029608
 20
22.311063197456061
 30
0.0
  0
SEQEND
  5
3C85
  8
L1
  0
LINE
  5
2D98
  8
L1
 10
-59.863042131491511
 20
25.69141597134541
 30
0.0
 11
-62.789906242087447
 21
28.61828008194135
 31
0.0
  0
POLYLINE
  5
2D99
  8
L1
 66
     1
 10
0.0
 20
0.0
 30
0.0
  0
VERTEX
  5
3C86
  8
L1
 10
-62.833921234867262
 20
28.651538606451759
 30
0.0
  0
VERTEX
  5
3C87
  8
L1
 10
-62.810762206798131
 20
28.636434023737191
 30
0.0
  0
VERTEX
  5
3C88
  8
L1
 10
-62.789906242087447
 20
28.61828008194135
 30
0.0
  0
SEQEND
  5
3C89
  8
L1
  0
POLYLINE
  5
2D9A
  8
L1
 66
     1
 10
0.0
 20
0.0
 30
0.0
  0
VERTEX
  5
3C8A
  8
L1
 10
-62.833921234867262
 20
28.651538606451759
 30
0.0
  0
VERTEX
  5
3C8B
  8
L1
 10
-62.856637063754533
 20
28.662409190467031
 30
0.0
  0
VERTEX
  5
3C8C
  8
L1
 10
-62.894303154891311
 20
28.673469501606181
 30
0.0
  0
VERTEX
  5
3C8D
  8
L1
 10
-62.931449190202777
 20
28.677215039596032
 30
0.0
  0
VERTEX
  5
3C8E
  8
L1
 10
-62.969983570547363
 20
28.673799774059709
 30
0.0
  0
VERTEX
  5
3C8F
  8
L1
 10
-63.006197510124373
 20
28.663669620354192
 30
0.0
  0
VERTEX
  5
3C90
  8
L1
 10
-63.064268041043761
 20
28.62939587154403
 30
0.0
  0
VERTEX
  5
3C91
  8
L1
 10
-63.116484789524982
 20
28.56077901756106
 30
0.0
  0
VERTEX
  5
3C92
  8
L1
 10
-63.133909811786452
 20
28.483129510806119
 30
0.0
  0
SEQEND
  5
3C93
  8
L1
  0
LINE
  5
2D9B
  8
L1
 10
-60.25
 20
25.349999999999959
 30
0.0
 11
-59.549999999999947
 21
25.349999999999959
 31
0.0
  0
POLYLINE
  5
2D9C
  8
L1
 66
     1
 10
0.0
 20
0.0
 30
0.0
  0
VERTEX
  5
3C94
  8
L1
 10
-59.863042131491511
 20
25.69141597134541
 30
0.0
  0
VERTEX
  5
3C95
  8
L1
 10
-59.80830653408043
 20
25.589012462699252
 30
0.0
  0
VERTEX
  5
3C96
  8
L1
 10
-59.819691121901769
 20
25.473459795757659
 30
0.0
  0
VERTEX
  5
3C97
  8
L1
 10
-59.893358717371029
 20
25.383705019846559
 30
0.0
  0
VERTEX
  5
3C98
  8
L1
 10
-60.004479642814658
 20
25.350000000000019
 30
0.0
  0
SEQEND
  5
3C99
  8
L1
  0
ARC
  5
2D9D
  8
L1
 10
-56.75
 20
31.75000000000006
 30
0.0
 40
5.7825462644184809
 50
117.0165228096392
 51
152.98347719035959
  0
LINE
  5
2D9E
  8
L1
 10
-61.34174324585377
 20
33.68116262620719
 30
0.0
 11
-62.833921234867262
 21
35.173340615220631
 31
0.0
  0
LINE
  5
2D9F
  8
L1
 10
-63.03531905234729
 20
35.510496635354677
 30
0.0
 11
-61.901529179287763
 21
34.3767067622951
 31
0.0
  0
ARC
  5
2DA0
  8
L1
 10
-56.75
 20
31.75000000000006
 30
0.0
 40
4.981314598045679
 50
157.18969882028051
 51
182.6484023412896
  0
POLYLINE
  5
2DA1
  8
L1
 66
     1
 10
0.0
 20
0.0
 30
0.0
  0
VERTEX
  5
3C9A
  8
L1
 10
-61.901529179287763
 20
34.37670676229515
 30
0.0
  0
VERTEX
  5
3C9B
  8
L1
 10
-61.875210216835512
 20
34.214629597188832
 30
0.0
  0
SEQEND
  5
3C9C
  8
L1
  0
ARC
  5
2DA2
  8
L1
 10
-60.64999999999997
 20
35.650000000000027
 30
0.0
 40
2.6000000000000001
 50
89.999999999999204
 51
180.0
  0
ARC
  5
2DA3
  8
L1
 10
-60.64999999999997
 20
35.650000000000027
 30
0.0
 40
2.3853190523473331
 50
90.0
 51
180.0000000000008
  0
LINE
  5
2DA4
  8
L1
 10
-63.03531905234729
 20
35.650000000000027
 30
0.0
 11
-63.03531905234729
 21
35.510496635354741
 31
0.0
  0
POLYLINE
  5
2DA5
  8
L1
 66
     1
 10
0.0
 20
0.0
 30
0.0
  0
VERTEX
  5
3C9D
  8
L1
 10
-62.833921234867262
 20
35.173340615220631
 30
0.0
  0
VERTEX
  5
3C9E
  8
L1
 10
-63.045125652203978
 20
35.383471994943591
 30
0.0
  0
VERTEX
  5
3C9F
  8
L1
 10
-63.25
 20
35.582353278431412
 30
0.0
  0
SEQEND
  5
3CA0
  8
L1
  0
LINE
  5
2DA6
  8
L1
 10
-63.133909811786452
 20
35.46965900567033
 30
0.0
 11
-63.03531905234729
 21
35.510496635354677
 31
0.0
  0
POLYLINE
  5
2DA7
  8
L1
 66
     1
 10
0.0
 20
0.0
 30
0.0
  0
VERTEX
  5
3CA1
  8
L1
 10
-65.012304130909214
 20
36.517100759268203
 30
0.0
  0
VERTEX
  5
3CA2
  8
L1
 10
-65.012250207188913
 20
36.537048032038278
 30
0.0
  0
VERTEX
  5
3CA3
  8
L1
 10
-65.012088437774082
 20
36.557000000000073
 30
0.0
  0
SEQEND
  5
3CA4
  8
L1
  0
LINE
  5
2DA8
  8
L1
 10
-60.469659005670223
 20
38.133909811786452
 30
0.0
 11
-60.510496635354571
 21
38.03531905234734
 31
0.0
  0
POLYLINE
  5
2DA9
  8
L1
 66
     1
 10
0.0
 20
0.0
 30
0.0
  0
VERTEX
  5
3CA5
  8
L1
 10
-60.582353278431128
 20
38.249999999999972
 30
0.0
  0
VERTEX
  5
3CA6
  8
L1
 10
-60.38347199494342
 20
38.045125652203971
 30
0.0
  0
VERTEX
  5
3CA7
  8
L1
 10
-60.173340615220461
 20
37.833921234867198
 30
0.0
  0
SEQEND
  5
3CA8
  8
L1
  0
LINE
  5
2DAA
  8
L1
 10
-60.173340615220461
 20
37.833921234867198
 30
0.0
 11
-58.681162626207083
 21
36.34174324585387
 31
0.0
  0
POLYLINE
  5
2DAB
  8
L1
 66
     1
 10
0.0
 20
0.0
 30
0.0
  0
VERTEX
  5
3CA9
  8
L1
 10
-59.214629597188598
 20
36.875210216835448
 30
0.0
  0
VERTEX
  5
3CAA
  8
L1
 10
-59.376706762295051
 20
36.90152917928782
 30
0.0
  0
SEQEND
  5
3CAB
  8
L1
  0
LINE
  5
2DAC
  8
L1
 10
-60.510496635354571
 20
38.03531905234734
 30
0.0
 11
-60.64999999999997
 21
38.03531905234734
 31
0.0
  0
LINE
  5
2DAD
  8
L1
 10
-59.376706762295051
 20
36.90152917928782
 30
0.0
 11
-60.510496635354571
 21
38.03531905234734
 31
0.0
  0
POLYLINE
  5
2DAE
  8
L1
 66
     1
 10
0.0
 20
0.0
 30
0.0
  0
VERTEX
  5
3CAC
  8
L1
 10
-61.557000000000023
 20
40.012088437774139
 30
0.0
  0
VERTEX
  5
3CAD
  8
L1
 10
-61.537048032038221
 20
40.012250207188913
 30
0.0
  0
VERTEX
  5
3CAE
  8
L1
 10
-61.517100759268139
 20
40.012304130909222
 30
0.0
  0
SEQEND
  5
3CAF
  8
L1
  0
LINE
  5
2DAF
  8
L1
 10
-47.311063513711808
 20
27.711063513711849
 30
0.0
 11
-47.311063513711808
 21
31.75000000000006
 31
0.0
  0
ARC
  5
2DB0
  8
L1
 10
-56.75
 20
31.75000000000006
 30
0.0
 40
9.4389364862881635
 50
323.31070994755629
 51
0.0
  0
ARC
  5
2DB1
  8
L1
 10
-56.75
 20
31.75000000000006
 30
0.0
 40
4.981314598045679
 50
267.35159765871202
 51
2.6484023412880182
  0
ARC
  5
2DB2
  8
L1
 10
-56.75
 20
31.75000000000006
 30
0.0
 40
7.4000000000000741
 50
270.0
 51
359.9999999999992
  0
ARC
  5
2DB3
  8
L1
 10
-56.75
 20
31.75000000000006
 30
0.0
 40
8.8000000000000007
 50
322.88513754492629
 51
0.0
  0
ARC
  5
2DB4
  8
L1
 10
-56.75
 20
31.75000000000006
 30
0.0
 40
6.4000000000000501
 50
270.0
 51
0.0
  0
ARC
  5
2DB5
  8
L1
 10
-52.711063513711913
 20
27.711063513711849
 30
0.0
 40
5.3999999999999986
 50
270.0
 51
0.0
  0
LINE
  5
2DB6
  8
L1
 10
-49.723178268028278
 20
26.066087514093109
 30
0.0
 11
-48.796695169241609
 21
24.961947952636191
 31
0.0
  0
LINE
  5
2DB7
  8
L1
 10
-49.170238538838703
 20
25.738388551548439
 30
0.0
 11
-48.508163384265799
 21
24.949358107518741
 31
0.0
  0
ARC
  5
2DB8
  8
L1
 10
-56.75
 20
31.75000000000006
 30
0.0
 40
8.8000000000000007
 50
270.0
 51
307.11486245507308
  0
ARC
  5
2DB9
  8
L1
 10
-56.75
 20
31.75000000000006
 30
0.0
 40
9.4389364862881635
 50
270.0
 51
306.68929005244291
  0
LINE
  5
2DBA
  8
L1
 10
-56.75
 20
22.311063513711868
 30
0.0
 11
-52.711063513711913
 21
22.311063513711868
 31
0.0
  0
POLYLINE
  5
2DBB
  8
L1
 66
     1
 10
0.0
 20
0.0
 30
0.0
  0
VERTEX
  5
3CB0
  8
L1
 10
-48.796695169241609
 20
24.961947952636191
 30
0.0
  0
VERTEX
  5
3CB1
  8
L1
 10
-48.726795248333808
 20
24.756033631138902
 30
0.0
  0
VERTEX
  5
3CB2
  8
L1
 10
-48.814375794571667
 20
24.556995055326919
 30
0.0
  0
SEQEND
  5
3CB3
  8
L1
  0
LINE
  5
2DBC
  8
L1
 10
-48.814375794571667
 20
24.556995055326919
 30
0.0
 11
-49.556995055326979
 21
23.814375794571671
 31
0.0
  0
LINE
  5
2DBD
  8
L1
 10
-48.525844682845559
 20
24.54438979025684
 30
0.0
 11
-49.544389790256901
 21
23.525844682845531
 31
0.0
  0
ARC
  5
2DBE
  8
L1
 10
-48.737976717201491
 20
24.7565218246128
 30
0.0
 40
0.3
 50
314.99999999999773
 51
39.999999999998948
  0
LINE
  5
2DBF
  8
L1
 10
-49.961947952636137
 20
23.796695169241609
 30
0.0
 11
-51.066087514093049
 21
24.723178268028331
 31
0.0
  0
POLYLINE
  5
2DC0
  8
L1
 66
     1
 10
0.0
 20
0.0
 30
0.0
  0
VERTEX
  5
3CB4
  8
L1
 10
-51.439949234256567
 20
24.73263861090032
 30
0.0
  0
VERTEX
  5
3CB5
  8
L1
 10
-51.379236183845933
 20
24.768225715399179
 30
0.0
  0
VERTEX
  5
3CB6
  8
L1
 10
-51.299527368618563
 20
24.790637306143761
 30
0.0
  0
VERTEX
  5
3CB7
  8
L1
 10
-51.225242765889561
 20
24.791489127163629
 30
0.0
  0
VERTEX
  5
3CB8
  8
L1
 10
-51.146384881686572
 20
24.771464521769762
 30
0.0
  0
VERTEX
  5
3CB9
  8
L1
 10
-51.066087514093049
 20
24.723178268028331
 30
0.0
  0
SEQEND
  5
3CBA
  8
L1
  0
POLYLINE
  5
2DC1
  8
L1
 66
     1
 10
0.0
 20
0.0
 30
0.0
  0
VERTEX
  5
3CBB
  8
L1
 10
-50.738388551548383
 20
24.170238538838749
 30
0.0
  0
VERTEX
  5
3CBC
  8
L1
 10
-50.740114986458138
 20
24.171676214358971
 30
0.0
  0
VERTEX
  5
3CBD
  8
L1
 10
-50.829096643909338
 20
24.222515936563521
 30
0.0
  0
VERTEX
  5
3CBE
  8
L1
 10
-50.904906570862408
 20
24.239290622920411
 30
0.0
  0
VERTEX
  5
3CBF
  8
L1
 10
-50.976091252715257
 20
24.237084613486381
 30
0.0
  0
VERTEX
  5
3CC0
  8
L1
 10
-51.051522375905961
 20
24.21529237179282
 30
0.0
  0
VERTEX
  5
3CC1
  8
L1
 10
-51.110468916369882
 20
24.181036322656091
 30
0.0
  0
SEQEND
  5
3CC2
  8
L1
  0
LINE
  5
2DC2
  8
L1
 10
-49.949358107518833
 20
23.508163384265799
 30
0.0
 11
-50.738388551548383
 21
24.170238538838749
 31
0.0
  0
POLYLINE
  5
2DC3
  8
L1
 66
     1
 10
0.0
 20
0.0
 30
0.0
  0
VERTEX
  5
3CC3
  8
L1
 10
-49.556995055326858
 20
23.81437579457161
 30
0.0
  0
VERTEX
  5
3CC4
  8
L1
 10
-49.756033631138848
 20
23.726795248333762
 30
0.0
  0
VERTEX
  5
3CC5
  8
L1
 10
-49.961947952636137
 20
23.796695169241559
 30
0.0
  0
SEQEND
  5
3CC6
  8
L1
  0
ARC
  5
2DC4
  8
L1
 10
-49.756521824612832
 20
23.73797671720148
 30
0.0
 40
0.3
 50
229.99999999999929
 51
314.99999999999829
  0
POLYLINE
  5
2DC5
  8
L1
 66
     1
 10
0.0
 20
0.0
 30
0.0
  0
VERTEX
  5
3CC7
  8
L1
 10
-49.181036322656162
 20
26.110468916369879
 30
0.0
  0
VERTEX
  5
3CC8
  8
L1
 10
-49.206534419984102
 20
26.069822874747501
 30
0.0
  0
VERTEX
  5
3CC9
  8
L1
 10
-49.228582275394842
 20
26.014817212370641
 30
0.0
  0
VERTEX
  5
3CCA
  8
L1
 10
-49.239384776926379
 20
25.956550108959728
 30
0.0
  0
VERTEX
  5
3CCB
  8
L1
 10
-49.227223424032672
 20
25.84317080870278
 30
0.0
  0
VERTEX
  5
3CCC
  8
L1
 10
-49.176477154620777
 20
25.74607750519414
 30
0.0
  0
VERTEX
  5
3CCD
  8
L1
 10
-49.170238538838817
 20
25.738388551548439
 30
0.0
  0
SEQEND
  5
3CCE
  8
L1
  0
POLYLINE
  5
2DC6
  8
L1
 66
     1
 10
0.0
 20
0.0
 30
0.0
  0
VERTEX
  5
3CCF
  8
L1
 10
-49.723178268028278
 20
26.066087514093109
 30
0.0
  0
VERTEX
  5
3CD0
  8
L1
 10
-49.774211756682462
 20
26.153424502115449
 30
0.0
  0
VERTEX
  5
3CD1
  8
L1
 10
-49.793327380957287
 20
26.265170263561171
 30
0.0
  0
VERTEX
  5
3CD2
  8
L1
 10
-49.786195653967752
 20
26.324279541652398
 30
0.0
  0
VERTEX
  5
3CD3
  8
L1
 10
-49.767529075808959
 20
26.38081540596562
 30
0.0
  0
VERTEX
  5
3CD4
  8
L1
 10
-49.732638610900381
 20
26.43994923425651
 30
0.0
  0
SEQEND
  5
3CD5
  8
L1
  0
ARC
  5
2DC7
  8
L1
 10
-47.149999999999977
 20
35.250000000000171
 30
0.0
 40
3.1999999999999429
 50
90.0
 51
129.51794668407609
  0
ARC
  5
2DC8
  8
L1
 10
-47.149999999999977
 20
35.250000000000171
 30
0.0
 40
2.1999999999999198
 50
90.0
 51
180.0000000000008
  0
LINE
  5
2DC9
  8
L1
 10
-49.349999999999909
 20
35.250000000000171
 30
0.0
 11
-49.349999999999909
 21
31.75
 31
0.0
  0
LINE
  5
2DCA
  8
L1
 10
-50.349999999999909
 20
34.550000000000068
 30
0.0
 11
-50.349999999999909
 21
35.250000000000171
 31
0.0
  0
LINE
  5
2DCB
  8
L1
 10
-53.61828008194118
 20
37.789906242087447
 30
0.0
 11
-50.69141597134535
 21
34.863042131491682
 31
0.0
  0
POLYLINE
  5
2DCC
  8
L1
 66
     1
 10
0.0
 20
0.0
 30
0.0
  0
VERTEX
  5
3CD6
  8
L1
 10
-50.35172487659122
 20
34.978267430490803
 30
0.0
  0
VERTEX
  5
3CD7
  8
L1
 10
-50.395447093853143
 20
34.877531411093337
 30
0.0
  0
VERTEX
  5
3CD8
  8
L1
 10
-50.485758637301842
 20
34.8150634044041
 30
0.0
  0
VERTEX
  5
3CD9
  8
L1
 10
-50.595435470450177
 20
34.809694129381739
 30
0.0
  0
VERTEX
  5
3CDA
  8
L1
 10
-50.69141597134535
 20
34.863042131491682
 30
0.0
  0
SEQEND
  5
3CDB
  8
L1
  0
LINE
  5
2DCD
  8
L1
 10
-51.774005986015709
 20
31.980171017933959
 30
0.0
 11
-56.519828982065967
 21
36.725994013984227
 31
0.0
  0
LINE
  5
2DCE
  8
L1
 10
-50.349999999999909
 20
31.75000000000006
 30
0.0
 11
-50.349999999999909
 21
34.550000000000118
 31
0.0
  0
POLYLINE
  5
2DCF
  8
L1
 66
     1
 10
0.0
 20
0.0
 30
0.0
  0
VERTEX
  5
3CDC
  8
L1
 10
-53.483129510805952
 20
38.133909811786452
 30
0.0
  0
VERTEX
  5
3CDD
  8
L1
 10
-53.561089097254808
 20
38.116342631582881
 30
0.0
  0
VERTEX
  5
3CDE
  8
L1
 10
-53.62988764947886
 20
38.063683269662363
 30
0.0
  0
VERTEX
  5
3CDF
  8
L1
 10
-53.66382198210033
 20
38.005798971456841
 30
0.0
  0
VERTEX
  5
3CE0
  8
L1
 10
-53.673840761308043
 20
37.969761065231751
 30
0.0
  0
VERTEX
  5
3CE1
  8
L1
 10
-53.677215039595922
 20
37.931449190202727
 30
0.0
  0
VERTEX
  5
3CE2
  8
L1
 10
-53.67349345691661
 20
37.894425336578422
 30
0.0
  0
VERTEX
  5
3CE3
  8
L1
 10
-53.662503182329488
 20
37.856870092389208
 30
0.0
  0
VERTEX
  5
3CE4
  8
L1
 10
-53.651538606451588
 20
37.833921234867198
 30
0.0
  0
SEQEND
  5
3CE5
  8
L1
  0
POLYLINE
  5
2DD0
  8
L1
 66
     1
 10
0.0
 20
0.0
 30
0.0
  0
VERTEX
  5
3CE6
  8
L1
 10
-53.61828008194118
 20
37.789906242087397
 30
0.0
  0
VERTEX
  5
3CE7
  8
L1
 10
-53.636434023737017
 20
37.810762206798181
 30
0.0
  0
VERTEX
  5
3CE8
  8
L1
 10
-53.651538606451588
 20
37.833921234867198
 30
0.0
  0
SEQEND
  5
3CE9
  8
L1
  0
POLYLINE
  5
2DD1
  8
L1
 66
     1
 10
0.0
 20
0.0
 30
0.0
  0
VERTEX
  5
3CEA
  8
L1
 10
-49.377091896450231
 20
38.25
 30
0.0
  0
VERTEX
  5
3CEB
  8
L1
 10
-49.327853836645197
 20
38.245932012691412
 30
0.0
  0
VERTEX
  5
3CEC
  8
L1
 10
-49.246911951984771
 20
38.220284577506277
 30
0.0
  0
VERTEX
  5
3CED
  8
L1
 10
-49.174312047636931
 20
38.171089692069302
 30
0.0
  0
VERTEX
  5
3CEE
  8
L1
 10
-49.108995180096599
 20
38.084619140797201
 30
0.0
  0
VERTEX
  5
3CEF
  8
L1
 10
-49.078307164097168
 20
37.976870956421799
 30
0.0
  0
VERTEX
  5
3CF0
  8
L1
 10
-49.078802642561747
 20
37.918126392707279
 30
0.0
  0
VERTEX
  5
3CF1
  8
L1
 10
-49.090736040443289
 20
37.86060445565294
 30
0.0
  0
VERTEX
  5
3CF2
  8
L1
 10
-49.11439994727391
 20
37.805141473147437
 30
0.0
  0
VERTEX
  5
3CF3
  8
L1
 10
-49.175639443355067
 20
37.727714453787598
 30
0.0
  0
VERTEX
  5
3CF4
  8
L1
 10
-49.18622362897986
 20
37.7185609842142
 30
0.0
  0
SEQEND
  5
3CF5
  8
L1
  0
ARC
  5
2DD2
  8
L1
 10
-47.149999999999977
 20
35.250000000000171
 30
0.0
 40
3.1999999999999429
 50
129.5179466840755
 51
180.0
  0
LINE
  5
2DD3
  8
L1
 10
-47.950000000000038
 20
31.75000000000006
 30
0.0
 11
-47.950000000000038
 21
36.950102802507381
 31
0.0
  0
LINE
  5
2DD4
  8
L1
 10
-47.311063513711808
 20
36.311166316219207
 30
0.0
 11
-47.311063513711808
 21
31.75000000000006
 31
0.0
  0
POLYLINE
  5
2DD5
  8
L1
 66
     1
 10
0.0
 20
0.0
 30
0.0
  0
VERTEX
  5
3CF6
  8
L1
 10
-47.01116631621926
 20
36.61106351371194
 30
0.0
  0
VERTEX
  5
3CF7
  8
L1
 10
-47.011320366176733
 20
36.611063434647967
 30
0.0
  0
VERTEX
  5
3CF8
  8
L1
 10
-47.011474337029767
 20
36.61106319745619
 30
0.0
  0
SEQEND
  5
3CF9
  8
L1
  0
POLYLINE
  5
2DD6
  8
L1
 66
     1
 10
0.0
 20
0.0
 30
0.0
  0
VERTEX
  5
3CFA
  8
L1
 10
-47.311063197456058
 20
36.311474337029658
 30
0.0
  0
VERTEX
  5
3CFB
  8
L1
 10
-47.223110731772863
 20
36.523110731772761
 30
0.0
  0
VERTEX
  5
3CFC
  8
L1
 10
-47.011474337029647
 20
36.611063197456069
 30
0.0
  0
SEQEND
  5
3CFD
  8
L1
  0
POLYLINE
  5
2DD7
  8
L1
 66
     1
 10
0.0
 20
0.0
 30
0.0
  0
VERTEX
  5
3CFE
  8
L1
 10
-47.311063197456058
 20
36.311474337029658
 30
0.0
  0
VERTEX
  5
3CFF
  8
L1
 10
-47.311063434647849
 20
36.31132036617668
 30
0.0
  0
VERTEX
  5
3D00
  8
L1
 10
-47.311063513711808
 20
36.311166316219207
 30
0.0
  0
SEQEND
  5
3D01
  8
L1
  0
POLYLINE
  5
2DD8
  8
L1
 66
     1
 10
0.0
 20
0.0
 30
0.0
  0
VERTEX
  5
3D02
  8
L1
 10
-47.950000000000038
 20
36.950102802507381
 30
0.0
  0
VERTEX
  5
3D03
  8
L1
 10
-47.862174606235719
 20
37.16217460623573
 30
0.0
  0
VERTEX
  5
3D04
  8
L1
 10
-47.650102802507369
 20
37.25
 30
0.0
  0
SEQEND
  5
3D05
  8
L1
  0
POLYLINE
  5
2DD9
  8
L1
 66
     1
 10
0.0
 20
0.0
 30
0.0
  0
VERTEX
  5
3D06
  8
L1
 10
65.012088437774196
 20
36.557000000000073
 30
0.0
  0
VERTEX
  5
3D07
  8
L1
 10
64.941714390114484
 20
37.218787602445438
 30
0.0
  0
VERTEX
  5
3D08
  8
L1
 10
64.739585002002514
 20
37.873772386241107
 30
0.0
  0
VERTEX
  5
3D09
  8
L1
 10
64.413440750186169
 20
38.476619230896119
 30
0.0
  0
VERTEX
  5
3D0A
  8
L1
 10
63.989929119073743
 20
38.989929119073679
 30
0.0
  0
VERTEX
  5
3D0B
  8
L1
 10
63.476619230896169
 20
39.413440750186169
 30
0.0
  0
VERTEX
  5
3D0C
  8
L1
 10
62.873772386241058
 20
39.739585002002507
 30
0.0
  0
VERTEX
  5
3D0D
  8
L1
 10
62.218787602445332
 20
39.941714390114441
 30
0.0
  0
VERTEX
  5
3D0E
  8
L1
 10
61.55700000000013
 20
40.012088437774139
 30
0.0
  0
SEQEND
  5
3D0F
  8
L1
  0
ARC
  5
2DDA
  8
L1
 10
61.55700000000013
 20
36.557000000000009
 30
0.0
 40
2.736024100224733
 50
359.9999999999992
 51
90.0
  0
ARC
  5
2DDB
  8
L1
 10
47.150000000000091
 20
35.250000000000171
 30
0.0
 40
3.1999999999999429
 50
50.482053315923828
 51
90.0
  0
ARC
  5
2DDC
  8
L1
 10
47.150000000000091
 20
35.250000000000171
 30
0.0
 40
2.1999999999999198
 50
359.9999999999992
 51
90.0
  0
ARC
  5
2DDD
  8
L1
 10
56.750000000000107
 20
31.75000000000006
 30
0.0
 40
9.4389364862881635
 50
180.0
 51
216.6892900524436
  0
ARC
  5
2DDE
  8
L1
 10
52.711063513712013
 20
27.711063513711849
 30
0.0
 40
5.3999999999999986
 50
180.0
 51
270.0
  0
ARC
  5
2DDF
  8
L1
 10
56.750000000000107
 20
31.75000000000006
 30
0.0
 40
7.4000000000000741
 50
180.0000000000008
 51
270.0
  0
ARC
  5
2DE0
  8
L1
 10
56.750000000000107
 20
31.75000000000006
 30
0.0
 40
8.8000000000000007
 50
180.0
 51
217.11486245507359
  0
LINE
  5
2DE1
  8
L1
 10
47.311063513711929
 20
27.711063513711849
 30
0.0
 11
47.311063513711929
 21
31.75000000000006
 31
0.0
  0
LINE
  5
2DE2
  8
L1
 10
47.950000000000152
 20
31.75000000000006
 30
0.0
 11
47.950000000000152
 21
36.950102802507381
 31
0.0
  0
LINE
  5
2DE3
  8
L1
 10
47.311063513711929
 20
36.311166316219207
 30
0.0
 11
47.311063513711929
 21
31.75000000000006
 31
0.0
  0
POLYLINE
  5
2DE4
  8
L1
 66
     1
 10
0.0
 20
0.0
 30
0.0
  0
VERTEX
  5
3D10
  8
L1
 10
47.950000000000152
 20
36.950102802507381
 30
0.0
  0
VERTEX
  5
3D11
  8
L1
 10
47.86217460623584
 20
37.16217460623573
 30
0.0
  0
VERTEX
  5
3D12
  8
L1
 10
47.65010280250749
 20
37.25
 30
0.0
  0
SEQEND
  5
3D13
  8
L1
  0
POLYLINE
  5
2DE5
  8
L1
 66
     1
 10
0.0
 20
0.0
 30
0.0
  0
VERTEX
  5
3D14
  8
L1
 10
47.311063197456178
 20
36.311474337029658
 30
0.0
  0
VERTEX
  5
3D15
  8
L1
 10
47.223110731772969
 20
36.523110731772761
 30
0.0
  0
VERTEX
  5
3D16
  8
L1
 10
47.011474337029767
 20
36.611063197456069
 30
0.0
  0
SEQEND
  5
3D17
  8
L1
  0
POLYLINE
  5
2DE6
  8
L1
 66
     1
 10
0.0
 20
0.0
 30
0.0
  0
VERTEX
  5
3D18
  8
L1
 10
47.311063197456178
 20
36.311474337029658
 30
0.0
  0
VERTEX
  5
3D19
  8
L1
 10
47.311063434647963
 20
36.31132036617668
 30
0.0
  0
VERTEX
  5
3D1A
  8
L1
 10
47.311063513711929
 20
36.311166316219207
 30
0.0
  0
SEQEND
  5
3D1B
  8
L1
  0
POLYLINE
  5
2DE7
  8
L1
 66
     1
 10
0.0
 20
0.0
 30
0.0
  0
VERTEX
  5
3D1C
  8
L1
 10
47.011166316219366
 20
36.61106351371194
 30
0.0
  0
VERTEX
  5
3D1D
  8
L1
 10
47.011320366176847
 20
36.611063434647967
 30
0.0
  0
VERTEX
  5
3D1E
  8
L1
 10
47.011474337029867
 20
36.61106319745619
 30
0.0
  0
SEQEND
  5
3D1F
  8
L1
  0
LINE
  5
2DE8
  8
L1
 10
61.725994013984291
 20
31.519828982065921
 30
0.0
 11
56.98017101793414
 21
26.774005986015759
 31
0.0
  0
ARC
  5
2DE9
  8
L1
 10
56.750000000000107
 20
31.75000000000006
 30
0.0
 40
4.981314598045679
 50
177.35159765871191
 51
272.64840234128792
  0
ARC
  5
2DEA
  8
L1
 10
56.750000000000107
 20
31.75000000000006
 30
0.0
 40
6.4000000000000501
 50
180.0
 51
270.0
  0
LINE
  5
2DEB
  8
L1
 10
63.250000000000107
 20
24.37709189645016
 30
0.0
 11
63.250000000000107
 21
35.650000000000027
 31
0.0
  0
LINE
  5
2DEC
  8
L1
 10
61.950102802507452
 20
22.950000000000038
 30
0.0
 11
56.750000000000107
 21
22.950000000000038
 31
0.0
  0
LINE
  5
2DED
  8
L1
 10
56.750000000000107
 20
24.349999999999959
 30
0.0
 11
60.250000000000107
 21
24.349999999999959
 31
0.0
  0
LINE
  5
2DEE
  8
L1
 10
56.750000000000107
 20
22.311063513711868
 30
0.0
 11
61.311166316219321
 21
22.311063513711868
 31
0.0
  0
LINE
  5
2DEF
  8
L1
 10
59.550000000000068
 20
25.349999999999959
 30
0.0
 11
56.750000000000107
 21
25.349999999999959
 31
0.0
  0
LINE
  5
2DF0
  8
L1
 10
49.170238538838817
 20
25.738388551548439
 30
0.0
 11
48.508163384265913
 21
24.949358107518741
 31
0.0
  0
LINE
  5
2DF1
  8
L1
 10
49.723178268028391
 20
26.066087514093109
 30
0.0
 11
48.79669516924173
 21
24.961947952636191
 31
0.0
  0
LINE
  5
2DF2
  8
L1
 10
56.750000000000107
 20
22.311063513711868
 30
0.0
 11
52.711063513712013
 21
22.311063513711868
 31
0.0
  0
ARC
  5
2DF3
  8
L1
 10
56.750000000000107
 20
31.75000000000006
 30
0.0
 40
8.8000000000000007
 50
232.88513754492629
 51
270.0
  0
ARC
  5
2DF4
  8
L1
 10
56.750000000000107
 20
31.75000000000006
 30
0.0
 40
9.4389364862881635
 50
233.31070994755689
 51
270.0
  0
LINE
  5
2DF5
  8
L1
 10
49.94935810751894
 20
23.508163384265799
 30
0.0
 11
50.738388551548503
 21
24.170238538838749
 31
0.0
  0
LINE
  5
2DF6
  8
L1
 10
49.961947952636251
 20
23.796695169241609
 30
0.0
 11
51.066087514093169
 21
24.723178268028331
 31
0.0
  0
POLYLINE
  5
2DF7
  8
L1
 66
     1
 10
0.0
 20
0.0
 30
0.0
  0
VERTEX
  5
3D20
  8
L1
 10
51.439949234256687
 20
24.73263861090032
 30
0.0
  0
VERTEX
  5
3D21
  8
L1
 10
51.379236183846039
 20
24.768225715399179
 30
0.0
  0
VERTEX
  5
3D22
  8
L1
 10
51.299527368618662
 20
24.790637306143761
 30
0.0
  0
VERTEX
  5
3D23
  8
L1
 10
51.225242765889682
 20
24.791489127163629
 30
0.0
  0
VERTEX
  5
3D24
  8
L1
 10
51.146384881686693
 20
24.771464521769762
 30
0.0
  0
VERTEX
  5
3D25
  8
L1
 10
51.066087514093169
 20
24.723178268028331
 30
0.0
  0
SEQEND
  5
3D26
  8
L1
  0
POLYLINE
  5
2DF8
  8
L1
 66
     1
 10
0.0
 20
0.0
 30
0.0
  0
VERTEX
  5
3D27
  8
L1
 10
50.738388551548503
 20
24.170238538838749
 30
0.0
  0
VERTEX
  5
3D28
  8
L1
 10
50.740114986458252
 20
24.171676214358971
 30
0.0
  0
VERTEX
  5
3D29
  8
L1
 10
50.829096643909452
 20
24.222515936563521
 30
0.0
  0
VERTEX
  5
3D2A
  8
L1
 10
50.904906570862522
 20
24.239290622920411
 30
0.0
  0
VERTEX
  5
3D2B
  8
L1
 10
50.976091252715378
 20
24.237084613486381
 30
0.0
  0
VERTEX
  5
3D2C
  8
L1
 10
51.051522375906067
 20
24.21529237179282
 30
0.0
  0
VERTEX
  5
3D2D
  8
L1
 10
51.110468916369989
 20
24.181036322656091
 30
0.0
  0
SEQEND
  5
3D2E
  8
L1
  0
ARC
  5
2DF9
  8
L1
 10
49.756521824612953
 20
23.73797671720148
 30
0.0
 40
0.3
 50
225.00000000000171
 51
310.00000000000068
  0
POLYLINE
  5
2DFA
  8
L1
 66
     1
 10
0.0
 20
0.0
 30
0.0
  0
VERTEX
  5
3D2F
  8
L1
 10
49.556995055326979
 20
23.81437579457161
 30
0.0
  0
VERTEX
  5
3D30
  8
L1
 10
49.756033631138962
 20
23.726795248333762
 30
0.0
  0
VERTEX
  5
3D31
  8
L1
 10
49.961947952636251
 20
23.796695169241559
 30
0.0
  0
SEQEND
  5
3D32
  8
L1
  0
ARC
  5
2DFB
  8
L1
 10
48.737976717201597
 20
24.7565218246128
 30
0.0
 40
0.3
 50
140.00000000000099
 51
225.0000000000023
  0
POLYLINE
  5
2DFC
  8
L1
 66
     1
 10
0.0
 20
0.0
 30
0.0
  0
VERTEX
  5
3D33
  8
L1
 10
48.79669516924173
 20
24.961947952636191
 30
0.0
  0
VERTEX
  5
3D34
  8
L1
 10
48.726795248333929
 20
24.756033631138902
 30
0.0
  0
VERTEX
  5
3D35
  8
L1
 10
48.814375794571788
 20
24.556995055326919
 30
0.0
  0
SEQEND
  5
3D36
  8
L1
  0
LINE
  5
2DFD
  8
L1
 10
48.525844682845673
 20
24.54438979025684
 30
0.0
 11
49.544389790257007
 21
23.525844682845531
 31
0.0
  0
LINE
  5
2DFE
  8
L1
 10
48.814375794571788
 20
24.556995055326919
 30
0.0
 11
49.556995055327093
 21
23.814375794571671
 31
0.0
  0
POLYLINE
  5
2DFF
  8
L1
 66
     1
 10
0.0
 20
0.0
 30
0.0
  0
VERTEX
  5
3D37
  8
L1
 10
49.723178268028391
 20
26.066087514093109
 30
0.0
  0
VERTEX
  5
3D38
  8
L1
 10
49.774211756682583
 20
26.153424502115449
 30
0.0
  0
VERTEX
  5
3D39
  8
L1
 10
49.793327380957408
 20
26.265170263561171
 30
0.0
  0
VERTEX
  5
3D3A
  8
L1
 10
49.786195653967873
 20
26.324279541652398
 30
0.0
  0
VERTEX
  5
3D3B
  8
L1
 10
49.76752907580908
 20
26.38081540596562
 30
0.0
  0
VERTEX
  5
3D3C
  8
L1
 10
49.732638610900501
 20
26.43994923425651
 30
0.0
  0
SEQEND
  5
3D3D
  8
L1
  0
POLYLINE
  5
2E00
  8
L1
 66
     1
 10
0.0
 20
0.0
 30
0.0
  0
VERTEX
  5
3D3E
  8
L1
 10
49.181036322656261
 20
26.110468916369879
 30
0.0
  0
VERTEX
  5
3D3F
  8
L1
 10
49.206534419984223
 20
26.069822874747501
 30
0.0
  0
VERTEX
  5
3D40
  8
L1
 10
49.228582275394963
 20
26.014817212370641
 30
0.0
  0
VERTEX
  5
3D41
  8
L1
 10
49.239384776926499
 20
25.956550108959728
 30
0.0
  0
VERTEX
  5
3D42
  8
L1
 10
49.227223424032793
 20
25.84317080870278
 30
0.0
  0
VERTEX
  5
3D43
  8
L1
 10
49.176477154620898
 20
25.74607750519414
 30
0.0
  0
VERTEX
  5
3D44
  8
L1
 10
49.17023853883893
 20
25.738388551548439
 30
0.0
  0
SEQEND
  5
3D45
  8
L1
  0
ARC
  5
2E01
  8
L1
 10
60.250000000000107
 20
22.150000000000031
 30
0.0
 40
3.1999999999999429
 50
39.517946684072108
 51
90.0
  0
POLYLINE
  5
2E02
  8
L1
 66
     1
 10
0.0
 20
0.0
 30
0.0
  0
VERTEX
  5
3D46
  8
L1
 10
61.611063197456019
 20
22.01147433702948
 30
0.0
  0
VERTEX
  5
3D47
  8
L1
 10
61.523110731772697
 20
22.223110731772689
 30
0.0
  0
VERTEX
  5
3D48
  8
L1
 10
61.311474337029487
 20
22.311063197455951
 30
0.0
  0
SEQEND
  5
3D49
  8
L1
  0
ARC
  5
2E03
  8
L1
 10
60.250000000000107
 20
22.150000000000031
 30
0.0
 40
2.1999999999999198
 50
359.9999999999992
 51
90.0
  0
POLYLINE
  5
2E04
  8
L1
 66
     1
 10
0.0
 20
0.0
 30
0.0
  0
VERTEX
  5
3D4A
  8
L1
 10
61.311166316219207
 20
22.311063513711812
 30
0.0
  0
VERTEX
  5
3D4B
  8
L1
 10
61.311320366176801
 20
22.311063434647899
 30
0.0
  0
VERTEX
  5
3D4C
  8
L1
 10
61.311474337029722
 20
22.311063197456061
 30
0.0
  0
SEQEND
  5
3D4D
  8
L1
  0
POLYLINE
  5
2E05
  8
L1
 66
     1
 10
0.0
 20
0.0
 30
0.0
  0
VERTEX
  5
3D4E
  8
L1
 10
62.718560984214371
 20
24.186223628979739
 30
0.0
  0
VERTEX
  5
3D4F
  8
L1
 10
62.72832836355451
 20
24.174964228796789
 30
0.0
  0
VERTEX
  5
3D50
  8
L1
 10
62.816397581963997
 20
24.108500430630102
 30
0.0
  0
VERTEX
  5
3D51
  8
L1
 10
62.894770114985128
 20
24.08223338030313
 30
0.0
  0
VERTEX
  5
3D52
  8
L1
 10
62.969342954088802
 20
24.07772597707628
 30
0.0
  0
VERTEX
  5
3D53
  8
L1
 10
63.046544182151479
 20
24.093056538992069
 30
0.0
  0
VERTEX
  5
3D54
  8
L1
 10
63.13492764249883
 20
24.14086875450732
 30
0.0
  0
VERTEX
  5
3D55
  8
L1
 10
63.177843012775163
 20
24.181930715518661
 30
0.0
  0
VERTEX
  5
3D56
  8
L1
 10
63.211827010204964
 20
24.230643189592449
 30
0.0
  0
VERTEX
  5
3D57
  8
L1
 10
63.247225979339639
 20
24.336387854964642
 30
0.0
  0
VERTEX
  5
3D58
  8
L1
 10
63.250000000000107
 20
24.37709189645016
 30
0.0
  0
SEQEND
  5
3D59
  8
L1
  0
POLYLINE
  5
2E06
  8
L1
 66
     1
 10
0.0
 20
0.0
 30
0.0
  0
VERTEX
  5
3D5A
  8
L1
 10
61.611063197456239
 20
22.011474337029711
 30
0.0
  0
VERTEX
  5
3D5B
  8
L1
 10
61.611063434648031
 20
22.011320366176729
 30
0.0
  0
VERTEX
  5
3D5C
  8
L1
 10
61.61106351371199
 20
22.0111663162192
 30
0.0
  0
SEQEND
  5
3D5D
  8
L1
  0
POLYLINE
  5
2E07
  8
L1
 66
     1
 10
0.0
 20
0.0
 30
0.0
  0
VERTEX
  5
3D5E
  8
L1
 10
62.250000000000121
 20
22.65010280250732
 30
0.0
  0
VERTEX
  5
3D5F
  8
L1
 10
62.162174606235908
 20
22.862174606235779
 30
0.0
  0
VERTEX
  5
3D60
  8
L1
 10
61.950102802507452
 20
22.949999999999989
 30
0.0
  0
SEQEND
  5
3D61
  8
L1
  0
ARC
  5
2E08
  8
L1
 10
60.250000000000107
 20
22.150000000000031
 30
0.0
 40
3.1999999999999429
 50
0.0
 51
39.517946684073252
  0
LINE
  5
2E09
  8
L1
 10
59.863042131491618
 20
25.69141597134541
 30
0.0
 11
62.789906242087561
 21
28.61828008194135
 31
0.0
  0
LINE
  5
2E0A
  8
L1
 10
60.250000000000107
 20
25.349999999999959
 30
0.0
 11
59.550000000000068
 21
25.349999999999959
 31
0.0
  0
POLYLINE
  5
2E0B
  8
L1
 66
     1
 10
0.0
 20
0.0
 30
0.0
  0
VERTEX
  5
3D62
  8
L1
 10
59.863042131491618
 20
25.69141597134541
 30
0.0
  0
VERTEX
  5
3D63
  8
L1
 10
59.808306534080543
 20
25.589012462699252
 30
0.0
  0
VERTEX
  5
3D64
  8
L1
 10
59.81969112190189
 20
25.473459795757659
 30
0.0
  0
VERTEX
  5
3D65
  8
L1
 10
59.89335871737115
 20
25.383705019846559
 30
0.0
  0
VERTEX
  5
3D66
  8
L1
 10
60.004479642814772
 20
25.350000000000019
 30
0.0
  0
SEQEND
  5
3D67
  8
L1
  0
POLYLINE
  5
2E0C
  8
L1
 66
     1
 10
0.0
 20
0.0
 30
0.0
  0
VERTEX
  5
3D68
  8
L1
 10
62.833921234867383
 20
28.651538606451759
 30
0.0
  0
VERTEX
  5
3D69
  8
L1
 10
62.810762206798252
 20
28.636434023737191
 30
0.0
  0
VERTEX
  5
3D6A
  8
L1
 10
62.789906242087561
 20
28.61828008194135
 30
0.0
  0
SEQEND
  5
3D6B
  8
L1
  0
POLYLINE
  5
2E0D
  8
L1
 66
     1
 10
0.0
 20
0.0
 30
0.0
  0
VERTEX
  5
3D6C
  8
L1
 10
62.833921234867383
 20
28.651538606451759
 30
0.0
  0
VERTEX
  5
3D6D
  8
L1
 10
62.856637063754647
 20
28.662409190467031
 30
0.0
  0
VERTEX
  5
3D6E
  8
L1
 10
62.894303154891411
 20
28.673469501606181
 30
0.0
  0
VERTEX
  5
3D6F
  8
L1
 10
62.931449190202891
 20
28.677215039596032
 30
0.0
  0
VERTEX
  5
3D70
  8
L1
 10
62.969983570547463
 20
28.673799774059709
 30
0.0
  0
VERTEX
  5
3D71
  8
L1
 10
63.006197510124473
 20
28.663669620354192
 30
0.0
  0
VERTEX
  5
3D72
  8
L1
 10
63.064268041043867
 20
28.62939587154403
 30
0.0
  0
VERTEX
  5
3D73
  8
L1
 10
63.116484789525089
 20
28.56077901756106
 30
0.0
  0
VERTEX
  5
3D74
  8
L1
 10
63.133909811786559
 20
28.483129510806119
 30
0.0
  0
SEQEND
  5
3D75
  8
L1
  0
ARC
  5
2E0E
  8
L1
 10
56.750000000000107
 20
31.75000000000006
 30
0.0
 40
4.981314598045679
 50
67.189698820281578
 51
92.648402341288815
  0
LINE
  5
2E0F
  8
L1
 10
60.650000000000091
 20
38.25
 30
0.0
 11
49.377091896450331
 21
38.25
 31
0.0
  0
LINE
  5
2E10
  8
L1
 10
53.618280081941293
 20
37.789906242087447
 30
0.0
 11
50.691415971345457
 21
34.863042131491682
 31
0.0
  0
POLYLINE
  5
2E11
  8
L1
 66
     1
 10
0.0
 20
0.0
 30
0.0
  0
VERTEX
  5
3D76
  8
L1
 10
50.351724876591327
 20
34.978267430490803
 30
0.0
  0
VERTEX
  5
3D77
  8
L1
 10
50.395447093853242
 20
34.877531411093337
 30
0.0
  0
VERTEX
  5
3D78
  8
L1
 10
50.485758637301963
 20
34.8150634044041
 30
0.0
  0
VERTEX
  5
3D79
  8
L1
 10
50.595435470450298
 20
34.809694129381739
 30
0.0
  0
VERTEX
  5
3D7A
  8
L1
 10
50.691415971345457
 20
34.863042131491682
 30
0.0
  0
SEQEND
  5
3D7B
  8
L1
  0
LINE
  5
2E12
  8
L1
 10
50.350000000000023
 20
34.550000000000068
 30
0.0
 11
50.350000000000023
 21
35.250000000000171
 31
0.0
  0
LINE
  5
2E13
  8
L1
 10
51.774005986015823
 20
31.980171017933959
 30
0.0
 11
56.51982898206608
 21
36.725994013984227
 31
0.0
  0
LINE
  5
2E14
  8
L1
 10
49.350000000000023
 20
35.250000000000171
 30
0.0
 11
49.350000000000023
 21
31.75
 31
0.0
  0
LINE
  5
2E15
  8
L1
 10
50.350000000000023
 20
31.75000000000006
 30
0.0
 11
50.350000000000023
 21
34.550000000000118
 31
0.0
  0
ARC
  5
2E16
  8
L1
 10
47.150000000000091
 20
35.250000000000171
 30
0.0
 40
3.1999999999999429
 50
0.0
 51
50.482053315924453
  0
POLYLINE
  5
2E17
  8
L1
 66
     1
 10
0.0
 20
0.0
 30
0.0
  0
VERTEX
  5
3D7C
  8
L1
 10
49.377091896450331
 20
38.25
 30
0.0
  0
VERTEX
  5
3D7D
  8
L1
 10
49.327853836645318
 20
38.245932012691412
 30
0.0
  0
VERTEX
  5
3D7E
  8
L1
 10
49.246911951984877
 20
38.220284577506277
 30
0.0
  0
VERTEX
  5
3D7F
  8
L1
 10
49.174312047637052
 20
38.171089692069302
 30
0.0
  0
VERTEX
  5
3D80
  8
L1
 10
49.108995180096713
 20
38.084619140797201
 30
0.0
  0
VERTEX
  5
3D81
  8
L1
 10
49.078307164097282
 20
37.976870956421799
 30
0.0
  0
VERTEX
  5
3D82
  8
L1
 10
49.078802642561868
 20
37.918126392707279
 30
0.0
  0
VERTEX
  5
3D83
  8
L1
 10
49.09073604044341
 20
37.86060445565294
 30
0.0
  0
VERTEX
  5
3D84
  8
L1
 10
49.114399947274023
 20
37.805141473147437
 30
0.0
  0
VERTEX
  5
3D85
  8
L1
 10
49.17563944335518
 20
37.727714453787598
 30
0.0
  0
VERTEX
  5
3D86
  8
L1
 10
49.186223628979967
 20
37.7185609842142
 30
0.0
  0
SEQEND
  5
3D87
  8
L1
  0
POLYLINE
  5
2E18
  8
L1
 66
     1
 10
0.0
 20
0.0
 30
0.0
  0
VERTEX
  5
3D88
  8
L1
 10
53.483129510806073
 20
38.133909811786452
 30
0.0
  0
VERTEX
  5
3D89
  8
L1
 10
53.561089097254921
 20
38.116342631582881
 30
0.0
  0
VERTEX
  5
3D8A
  8
L1
 10
53.629887649478967
 20
38.063683269662363
 30
0.0
  0
VERTEX
  5
3D8B
  8
L1
 10
53.663821982100437
 20
38.005798971456841
 30
0.0
  0
VERTEX
  5
3D8C
  8
L1
 10
53.673840761308149
 20
37.969761065231751
 30
0.0
  0
VERTEX
  5
3D8D
  8
L1
 10
53.677215039596042
 20
37.931449190202727
 30
0.0
  0
VERTEX
  5
3D8E
  8
L1
 10
53.673493456916731
 20
37.894425336578422
 30
0.0
  0
VERTEX
  5
3D8F
  8
L1
 10
53.662503182329601
 20
37.856870092389208
 30
0.0
  0
VERTEX
  5
3D90
  8
L1
 10
53.651538606451709
 20
37.833921234867198
 30
0.0
  0
SEQEND
  5
3D91
  8
L1
  0
POLYLINE
  5
2E19
  8
L1
 66
     1
 10
0.0
 20
0.0
 30
0.0
  0
VERTEX
  5
3D92
  8
L1
 10
53.618280081941293
 20
37.789906242087397
 30
0.0
  0
VERTEX
  5
3D93
  8
L1
 10
53.636434023737138
 20
37.810762206798181
 30
0.0
  0
VERTEX
  5
3D94
  8
L1
 10
53.651538606451709
 20
37.833921234867198
 30
0.0
  0
SEQEND
  5
3D95
  8
L1
  0
ARC
  5
2E1A
  8
L1
 10
56.750000000000107
 20
31.75000000000006
 30
0.0
 40
5.7825462644184809
 50
27.016522809640371
 51
62.98347719036073
  0
LINE
  5
2E1B
  8
L1
 10
61.34174324585387
 20
33.68116262620719
 30
0.0
 11
62.833921234867383
 21
35.173340615220631
 31
0.0
  0
LINE
  5
2E1C
  8
L1
 10
63.035319052347397
 20
35.510496635354677
 30
0.0
 11
61.901529179287877
 21
34.3767067622951
 31
0.0
  0
ARC
  5
2E1D
  8
L1
 10
56.750000000000107
 20
31.75000000000006
 30
0.0
 40
4.981314598045679
 50
357.35159765871032
 51
22.810301179718419
  0
POLYLINE
  5
2E1E
  8
L1
 66
     1
 10
0.0
 20
0.0
 30
0.0
  0
VERTEX
  5
3D96
  8
L1
 10
61.901529179287877
 20
34.37670676229515
 30
0.0
  0
VERTEX
  5
3D97
  8
L1
 10
61.875210216835619
 20
34.214629597188832
 30
0.0
  0
SEQEND
  5
3D98
  8
L1
  0
ARC
  5
2E1F
  8
L1
 10
60.650000000000091
 20
35.650000000000027
 30
0.0
 40
2.6000000000000001
 50
0.0
 51
90.00000000000081
  0
ARC
  5
2E20
  8
L1
 10
60.650000000000091
 20
35.650000000000027
 30
0.0
 40
2.3853190523473331
 50
359.9999999999992
 51
90.0
  0
LINE
  5
2E21
  8
L1
 10
60.173340615220582
 20
37.833921234867198
 30
0.0
 11
58.681162626207197
 21
36.34174324585387
 31
0.0
  0
LINE
  5
2E22
  8
L1
 10
59.37670676229515
 20
36.90152917928782
 30
0.0
 11
60.510496635354691
 21
38.03531905234734
 31
0.0
  0
POLYLINE
  5
2E23
  8
L1
 66
     1
 10
0.0
 20
0.0
 30
0.0
  0
VERTEX
  5
3D99
  8
L1
 10
59.214629597188718
 20
36.875210216835448
 30
0.0
  0
VERTEX
  5
3D9A
  8
L1
 10
59.37670676229515
 20
36.90152917928782
 30
0.0
  0
SEQEND
  5
3D9B
  8
L1
  0
POLYLINE
  5
2E24
  8
L1
 66
     1
 10
0.0
 20
0.0
 30
0.0
  0
VERTEX
  5
3D9C
  8
L1
 10
60.582353278431242
 20
38.249999999999972
 30
0.0
  0
VERTEX
  5
3D9D
  8
L1
 10
60.383471994943527
 20
38.045125652203971
 30
0.0
  0
VERTEX
  5
3D9E
  8
L1
 10
60.173340615220582
 20
37.833921234867198
 30
0.0
  0
SEQEND
  5
3D9F
  8
L1
  0
LINE
  5
2E25
  8
L1
 10
60.469659005670337
 20
38.133909811786452
 30
0.0
 11
60.510496635354691
 21
38.03531905234734
 31
0.0
  0
LINE
  5
2E26
  8
L1
 10
60.510496635354691
 20
38.03531905234734
 30
0.0
 11
60.650000000000091
 21
38.03531905234734
 31
0.0
  0
POLYLINE
  5
2E27
  8
L1
 66
     1
 10
0.0
 20
0.0
 30
0.0
  0
VERTEX
  5
3DA0
  8
L1
 10
65.012304130909342
 20
36.517100759268203
 30
0.0
  0
VERTEX
  5
3DA1
  8
L1
 10
65.012250207189027
 20
36.537048032038278
 30
0.0
  0
VERTEX
  5
3DA2
  8
L1
 10
65.012088437774196
 20
36.557000000000073
 30
0.0
  0
SEQEND
  5
3DA3
  8
L1
  0
POLYLINE
  5
2E28
  8
L1
 66
     1
 10
0.0
 20
0.0
 30
0.0
  0
VERTEX
  5
3DA4
  8
L1
 10
62.833921234867383
 20
35.173340615220631
 30
0.0
  0
VERTEX
  5
3DA5
  8
L1
 10
63.045125652204092
 20
35.383471994943591
 30
0.0
  0
VERTEX
  5
3DA6
  8
L1
 10
63.250000000000107
 20
35.582353278431412
 30
0.0
  0
SEQEND
  5
3DA7
  8
L1
  0
LINE
  5
2E29
  8
L1
 10
63.035319052347397
 20
35.650000000000027
 30
0.0
 11
63.035319052347397
 21
35.510496635354741
 31
0.0
  0
LINE
  5
2E2A
  8
L1
 10
63.133909811786559
 20
35.46965900567033
 30
0.0
 11
63.035319052347397
 21
35.510496635354677
 31
0.0
  0
POLYLINE
  5
2E2B
  8
L1
 66
     1
 10
0.0
 20
0.0
 30
0.0
  0
VERTEX
  5
3DA8
  8
L1
 10
61.55700000000013
 20
40.012088437774139
 30
0.0
  0
VERTEX
  5
3DA9
  8
L1
 10
61.537048032038342
 20
40.012250207188913
 30
0.0
  0
VERTEX
  5
3DAA
  8
L1
 10
61.51710075926826
 20
40.012304130909222
 30
0.0
  0
SEQEND
  5
3DAB
  8
L1
  0
ENDBLK
  5
2CC5
  8
0
  0
BLOCK
  8
0
  2
T
 70
     0
 10
0.0
 20
0.0
 30
0.0
  3
T
  1

  0
LINE
  5
2E30
  8
L1
 10
65.012304130909214
 20
-36.517100759268168
 30
0.0
 11
65.012304130909214
 21
36.517100759268168
 31
0.0
  0
LINE
  5
2E31
  8
L1
 10
63.665886064679
 20
-35.170682693038032
 30
0.0
 11
63.665886064679
 21
35.170682693038032
 31
0.0
  0
LINE
  5
2E32
  8
L1
 10
63.04602007746314
 20
21.942807936882922
 30
0.0
 11
63.04602007746314
 21
-21.9428079368829
 31
0.0
  0
LINE
  5
2E33
  8
L1
 10
61.85105329936021
 20
-20.747841158779941
 30
0.0
 11
61.85105329936021
 21
20.747841158779998
 31
0.0
  0
LINE
  5
2E34
  8
L1
 10
59.73385858899502
 20
19.374643532981821
 30
0.0
 11
59.73385858899502
 21
-19.374682106857051
 31
0.0
  0
LINE
  5
2E35
  8
L1
 10
46.012304130909229
 20
19.012304130909168
 30
0.0
 11
46.012304130909229
 21
-19.012304130909168
 31
0.0
  0
LINE
  5
2E36
  8
L1
 10
-46.012304130909278
 20
-19.012304130909229
 30
0.0
 11
-46.012304130909278
 21
19.01230413090914
 31
0.0
  0
LINE
  5
2E37
  8
L6
 10
0.0
 20
43.040943119744782
 30
0.0
 11
0.0
 21
-43.403266520848597
 31
0.0
  0
LINE
  5
2E38
  8
L1
 10
-65.012304130909214
 20
36.517100759268111
 30
0.0
 11
-65.012304130909214
 21
-36.517100759268203
 31
0.0
  0
LINE
  5
2E39
  8
L1
 10
-63.665886064679057
 20
35.170682693037968
 30
0.0
 11
-63.665886064679057
 21
-35.17068269303806
 31
0.0
  0
LINE
  5
2E3A
  8
L1
 10
-63.04602007746314
 20
-21.94280793688295
 30
0.0
 11
-63.046020077463197
 21
21.9428079368829
 31
0.0
  0
LINE
  5
2E3B
  8
L1
 10
-61.85105329936021
 20
20.74784115877997
 30
0.0
 11
-61.85105329936021
 21
-20.74784115878003
 31
0.0
  0
LINE
  5
2E3C
  8
L1
 10
-59.733858588995083
 20
-19.374643532981761
 30
0.0
 11
-59.733858588995133
 21
19.374682106859382
 31
0.0
  0
POLYLINE
  5
2E3D
  8
L1
 66
     1
 10
0.0
 20
0.0
 30
0.0
  0
VERTEX
  5
3DAD
  8
L1
 10
63.04602007746314
 20
-21.9428079368829
 30
0.0
  0
VERTEX
  5
3DAE
  8
L1
 10
63.037554526128417
 20
-22.127300639676889
 30
0.0
  0
VERTEX
  5
3DAF
  8
L1
 10
63.012129068291422
 20
-22.310173494203319
 30
0.0
  0
VERTEX
  5
3DB0
  8
L1
 10
62.969959869682782
 20
-22.48987172632803
 30
0.0
  0
VERTEX
  5
3DB1
  8
L1
 10
62.911405450321297
 20
-22.664867552367781
 30
0.0
  0
VERTEX
  5
3DB2
  8
L1
 10
62.836963636398309
 20
-22.83367316821613
 30
0.0
  0
VERTEX
  5
3DB3
  8
L1
 10
62.747267327788911
 20
-22.994853398565649
 30
0.0
  0
VERTEX
  5
3DB4
  8
L1
 10
62.6430791171748
 20
-23.147037898682949
 30
0.0
  0
VERTEX
  5
3DB5
  8
L1
 10
62.52528480652682
 20
-23.28893280499809
 30
0.0
  0
VERTEX
  5
3DB6
  8
L1
 10
62.394885876069168
 20
-23.419331735455749
 30
0.0
  0
VERTEX
  5
3DB7
  8
L1
 10
62.252990969754023
 20
-23.53712604610368
 30
0.0
  0
VERTEX
  5
3DB8
  8
L1
 10
62.100806469636723
 20
-23.64131425671777
 30
0.0
  0
VERTEX
  5
3DB9
  8
L1
 10
61.939626239287229
 20
-23.73101056532721
 30
0.0
  0
VERTEX
  5
3DBA
  8
L1
 10
61.770820623438851
 20
-23.80545237925022
 30
0.0
  0
VERTEX
  5
3DBB
  8
L1
 10
61.595824797399189
 20
-23.86400679861168
 30
0.0
  0
VERTEX
  5
3DBC
  8
L1
 10
61.41612656527446
 20
-23.906175997220341
 30
0.0
  0
VERTEX
  5
3DBD
  8
L1
 10
61.233253710747981
 20
-23.931601455057312
 30
0.0
  0
VERTEX
  5
3DBE
  8
L1
 10
61.048761007953999
 20
-23.940067006392042
 30
0.0
  0
SEQEND
  5
3DBF
  8
L1
  0
POLYLINE
  5
2E3E
  8
L1
 66
     1
 10
0.0
 20
0.0
 30
0.0
  0
VERTEX
  5
3DC0
  8
L1
 10
60.170682693037982
 20
-38.66588606467905
 30
0.0
  0
VERTEX
  5
3DC1
  8
L1
 10
60.311531105414929
 20
-38.663032019461554
 30
0.0
  0
VERTEX
  5
3DC2
  8
L1
 10
60.452137227030853
 20
-38.65451847608437
 30
0.0
  0
VERTEX
  5
3DC3
  8
L1
 10
60.592273788807859
 20
-38.640359195435849
 30
0.0
  0
VERTEX
  5
3DC4
  8
L1
 10
60.73171428064245
 20
-38.620577063906921
 30
0.0
  0
VERTEX
  5
3DC5
  8
L1
 10
60.87023331752539
 20
-38.595204056398302
 30
0.0
  0
VERTEX
  5
3DC6
  8
L1
 10
61.007607003843759
 20
-38.564281184638133
 30
0.0
  0
VERTEX
  5
3DC7
  8
L1
 10
61.143613295275031
 20
-38.527858430892223
 30
0.0
  0
VERTEX
  5
3DC8
  8
L1
 10
61.278032357688971
 20
-38.48599466717527
 30
0.0
  0
VERTEX
  5
3DC9
  8
L1
 10
61.410646922477383
 20
-38.438757560092853
 30
0.0
  0
VERTEX
  5
3DCA
  8
L1
 10
61.541242637736332
 20
-38.386223461468433
 30
0.0
  0
VERTEX
  5
3DCB
  8
L1
 10
61.669608414734789
 20
-38.328477284931772
 30
0.0
  0
VERTEX
  5
3DCC
  8
L1
 10
61.79553676910848
 20
-38.26561236866857
 30
0.0
  0
VERTEX
  5
3DCD
  8
L1
 10
61.918824156227508
 20
-38.197730324553127
 30
0.0
  0
VERTEX
  5
3DCE
  8
L1
 10
62.039271300196333
 20
-38.124940873907597
 30
0.0
  0
VERTEX
  5
3DCF
  8
L1
 10
62.156683515954221
 20
-38.047361670153798
 30
0.0
  0
VERTEX
  5
3DD0
  8
L1
 10
62.270871023954498
 20
-37.965118108643587
 30
0.0
  0
VERTEX
  5
3DD1
  8
L1
 10
62.38164925691553
 20
-37.878343123976009
 30
0.0
  0
VERTEX
  5
3DD2
  8
L1
 10
62.488839158146391
 20
-37.787176975127778
 30
0.0
  0
VERTEX
  5
3DD3
  8
L1
 10
62.59226747096573
 20
-37.691767018745622
 30
0.0
  0
VERTEX
  5
3DD4
  8
L1
 10
62.691767018745558
 20
-37.592267470965787
 30
0.0
  0
VERTEX
  5
3DD5
  8
L1
 10
62.787176975127693
 20
-37.488839158146469
 30
0.0
  0
VERTEX
  5
3DD6
  8
L1
 10
62.878343123975981
 20
-37.381649256915608
 30
0.0
  0
VERTEX
  5
3DD7
  8
L1
 10
62.965118108643587
 20
-37.270871023954548
 30
0.0
  0
VERTEX
  5
3DD8
  8
L1
 10
63.047361670153691
 20
-37.156683515954278
 30
0.0
  0
VERTEX
  5
3DD9
  8
L1
 10
63.124940873907569
 20
-37.039271300196411
 30
0.0
  0
VERTEX
  5
3DDA
  8
L1
 10
63.197730324553049
 20
-36.918824156227537
 30
0.0
  0
VERTEX
  5
3DDB
  8
L1
 10
63.265612368668478
 20
-36.795536769108558
 30
0.0
  0
VERTEX
  5
3DDC
  8
L1
 10
63.328477284931687
 20
-36.669608414734881
 30
0.0
  0
VERTEX
  5
3DDD
  8
L1
 10
63.386223461468383
 20
-36.541242637736381
 30
0.0
  0
VERTEX
  5
3DDE
  8
L1
 10
63.438757560092817
 20
-36.410646922477412
 30
0.0
  0
VERTEX
  5
3DDF
  8
L1
 10
63.485994667175191
 20
-36.27803235768905
 30
0.0
  0
VERTEX
  5
3DE0
  8
L1
 10
63.527858430892138
 20
-36.14361329527506
 30
0.0
  0
VERTEX
  5
3DE1
  8
L1
 10
63.564281184638048
 20
-36.007607003843788
 30
0.0
  0
VERTEX
  5
3DE2
  8
L1
 10
63.595204056398302
 20
-35.87023331752544
 30
0.0
  0
VERTEX
  5
3DE3
  8
L1
 10
63.620577063906808
 20
-35.731714280642528
 30
0.0
  0
VERTEX
  5
3DE4
  8
L1
 10
63.640359195435792
 20
-35.592273788807972
 30
0.0
  0
VERTEX
  5
3DE5
  8
L1
 10
63.65451847608432
 20
-35.452137227030903
 30
0.0
  0
VERTEX
  5
3DE6
  8
L1
 10
63.663032019461518
 20
-35.31153110541495
 30
0.0
  0
VERTEX
  5
3DE7
  8
L1
 10
63.665886064678944
 20
-35.170682693038032
 30
0.0
  0
SEQEND
  5
3DE8
  8
L1
  0
POLYLINE
  5
2E3F
  8
L1
 66
     1
 10
0.0
 20
0.0
 30
0.0
  0
VERTEX
  5
3DE9
  8
L1
 10
61.556999999999952
 20
-40.012088437774111
 30
0.0
  0
VERTEX
  5
3DEA
  8
L1
 10
61.88563056863228
 20
-39.993014072386011
 30
0.0
  0
VERTEX
  5
3DEB
  8
L1
 10
62.218787602445211
 20
-39.941714390114441
 30
0.0
  0
VERTEX
  5
3DEC
  8
L1
 10
62.55015194317383
 20
-39.857024460342977
 30
0.0
  0
VERTEX
  5
3DED
  8
L1
 10
62.873772386241001
 20
-39.73958500200245
 30
0.0
  0
VERTEX
  5
3DEE
  8
L1
 10
63.184196702883412
 20
-39.59075649900057
 30
0.0
  0
VERTEX
  5
3DEF
  8
L1
 10
63.476619230896119
 20
-39.413440750186169
 30
0.0
  0
VERTEX
  5
3DF0
  8
L1
 10
63.74639901824434
 20
-39.211400615580253
 30
0.0
  0
VERTEX
  5
3DF1
  8
L1
 10
63.989929119073679
 20
-38.989929119073651
 30
0.0
  0
VERTEX
  5
3DF2
  8
L1
 10
64.211400615580317
 20
-38.74639901824434
 30
0.0
  0
VERTEX
  5
3DF3
  8
L1
 10
64.413440750186169
 20
-38.476619230896119
 30
0.0
  0
VERTEX
  5
3DF4
  8
L1
 10
64.590756499000634
 20
-38.184196702883348
 30
0.0
  0
VERTEX
  5
3DF5
  8
L1
 10
64.739585002002514
 20
-37.873772386241022
 30
0.0
  0
VERTEX
  5
3DF6
  8
L1
 10
64.857024460342984
 20
-37.550151943173937
 30
0.0
  0
VERTEX
  5
3DF7
  8
L1
 10
64.941714390114385
 20
-37.218787602445332
 30
0.0
  0
VERTEX
  5
3DF8
  8
L1
 10
64.993014072386003
 20
-36.88563056863233
 30
0.0
  0
VERTEX
  5
3DF9
  8
L1
 10
65.012088437774139
 20
-36.556999999999988
 30
0.0
  0
SEQEND
  5
3DFA
  8
L1
  0
CIRCLE
  5
2E40
  8
L1
 10
56.75
 20
-31.75
 30
0.0
 40
6.097393363178492
  0
LINE
  5
2E41
  8
L6
 10
-67.930407311933635
 20
0.0
 30
0.0
 11
69.262265835070252
 21
0.0
 31
0.0
  0
LINE
  5
2E42
  8
L1
 10
-45.747841158780091
 20
-36.851053299360238
 30
0.0
 11
45.747841158779913
 21
-36.851053299360188
 31
0.0
  0
LINE
  5
2E43
  8
L1
 10
46.9428079368829
 20
-38.04602007746314
 30
0.0
 11
-46.94280793688295
 21
-38.046020077463197
 31
0.0
  0
LINE
  5
2E44
  8
L1
 10
44.012304130909172
 20
-21.0123041309092
 30
0.0
 11
-44.012304130909229
 21
-21.01230413090925
 31
0.0
  0
LINE
  5
2E45
  8
L1
 10
44.374643532980713
 20
-34.73385858899502
 30
0.0
 11
-44.37468210685779
 21
-34.733858588995069
 31
0.0
  0
LINE
  5
2E46
  8
L1
 10
-61.517100759268203
 20
-40.012304130909172
 30
0.0
 11
61.517100759268203
 21
-40.012304130909172
 31
0.0
  0
LINE
  5
2E47
  8
L1
 10
-60.170682693038032
 20
-38.665886064679029
 30
0.0
 11
60.170682693037982
 21
-38.665886064679029
 31
0.0
  0
POLYLINE
  5
2E48
  8
L1
 66
     1
 10
0.0
 20
0.0
 30
0.0
  0
VERTEX
  5
3DFB
  8
L1
 10
-65.012088437774139
 20
-36.557000000000038
 30
0.0
  0
VERTEX
  5
3DFC
  8
L1
 10
-64.993014072386075
 20
-36.885630568632394
 30
0.0
  0
VERTEX
  5
3DFD
  8
L1
 10
-64.941714390114441
 20
-37.218787602445438
 30
0.0
  0
VERTEX
  5
3DFE
  8
L1
 10
-64.857024460343041
 20
-37.55015194317405
 30
0.0
  0
VERTEX
  5
3DFF
  8
L1
 10
-64.739585002002457
 20
-37.873772386241107
 30
0.0
  0
VERTEX
  5
3E00
  8
L1
 10
-64.590756499000577
 20
-38.184196702883469
 30
0.0
  0
VERTEX
  5
3E01
  8
L1
 10
-64.413440750186112
 20
-38.476619230896141
 30
0.0
  0
VERTEX
  5
3E02
  8
L1
 10
-64.211400615580203
 20
-38.746399018244396
 30
0.0
  0
VERTEX
  5
3E03
  8
L1
 10
-63.989929119073622
 20
-38.9899291190737
 30
0.0
  0
VERTEX
  5
3E04
  8
L1
 10
-63.74639901824434
 20
-39.21140061558031
 30
0.0
  0
VERTEX
  5
3E05
  8
L1
 10
-63.476619230896063
 20
-39.413440750186169
 30
0.0
  0
VERTEX
  5
3E06
  8
L1
 10
-63.184196702883348
 20
-39.590756499000634
 30
0.0
  0
VERTEX
  5
3E07
  8
L1
 10
-62.873772386241001
 20
-39.739585002002507
 30
0.0
  0
VERTEX
  5
3E08
  8
L1
 10
-62.550151943173937
 20
-39.857024460343041
 30
0.0
  0
VERTEX
  5
3E09
  8
L1
 10
-62.218787602445282
 20
-39.941714390114441
 30
0.0
  0
VERTEX
  5
3E0A
  8
L1
 10
-61.885630568632337
 20
-39.993014072386131
 30
0.0
  0
VERTEX
  5
3E0B
  8
L1
 10
-61.557000000000023
 20
-40.01208843777416
 30
0.0
  0
SEQEND
  5
3E0C
  8
L1
  0
POLYLINE
  5
2E49
  8
L1
 66
     1
 10
0.0
 20
0.0
 30
0.0
  0
VERTEX
  5
3E0D
  8
L1
 10
-63.665886064679
 20
-35.17068269303806
 30
0.0
  0
VERTEX
  5
3E0E
  8
L1
 10
-63.663032019461582
 20
-35.311531105414979
 30
0.0
  0
VERTEX
  5
3E0F
  8
L1
 10
-63.65451847608432
 20
-35.452137227030931
 30
0.0
  0
VERTEX
  5
3E10
  8
L1
 10
-63.640359195435849
 20
-35.592273788807972
 30
0.0
  0
VERTEX
  5
3E11
  8
L1
 10
-63.620577063906858
 20
-35.731714280642528
 30
0.0
  0
VERTEX
  5
3E12
  8
L1
 10
-63.595204056398359
 20
-35.870233317525468
 30
0.0
  0
VERTEX
  5
3E13
  8
L1
 10
-63.564281184638098
 20
-36.007607003843837
 30
0.0
  0
VERTEX
  5
3E14
  8
L1
 10
-63.527858430892188
 20
-36.143613295275081
 30
0.0
  0
VERTEX
  5
3E15
  8
L1
 10
-63.485994667175248
 20
-36.278032357689078
 30
0.0
  0
VERTEX
  5
3E16
  8
L1
 10
-63.438757560092817
 20
-36.410646922477468
 30
0.0
  0
VERTEX
  5
3E17
  8
L1
 10
-63.386223461468433
 20
-36.541242637736381
 30
0.0
  0
VERTEX
  5
3E18
  8
L1
 10
-63.328477284931751
 20
-36.66960841473491
 30
0.0
  0
VERTEX
  5
3E19
  8
L1
 10
-63.265612368668542
 20
-36.795536769108558
 30
0.0
  0
VERTEX
  5
3E1A
  8
L1
 10
-63.197730324553099
 20
-36.918824156227572
 30
0.0
  0
VERTEX
  5
3E1B
  8
L1
 10
-63.12494087390764
 20
-37.039271300196411
 30
0.0
  0
VERTEX
  5
3E1C
  8
L1
 10
-63.047361670153812
 20
-37.156683515954278
 30
0.0
  0
VERTEX
  5
3E1D
  8
L1
 10
-62.965118108643587
 20
-37.270871023954548
 30
0.0
  0
VERTEX
  5
3E1E
  8
L1
 10
-62.878343123975981
 20
-37.381649256915608
 30
0.0
  0
VERTEX
  5
3E1F
  8
L1
 10
-62.787176975127807
 20
-37.488839158146469
 30
0.0
  0
VERTEX
  5
3E20
  8
L1
 10
-62.691767018745622
 20
-37.592267470965787
 30
0.0
  0
VERTEX
  5
3E21
  8
L1
 10
-62.592267470965801
 20
-37.691767018745622
 30
0.0
  0
VERTEX
  5
3E22
  8
L1
 10
-62.48883915814644
 20
-37.787176975127799
 30
0.0
  0
VERTEX
  5
3E23
  8
L1
 10
-62.38164925691553
 20
-37.878343123976009
 30
0.0
  0
VERTEX
  5
3E24
  8
L1
 10
-62.270871023954498
 20
-37.965118108643622
 30
0.0
  0
VERTEX
  5
3E25
  8
L1
 10
-62.156683515954292
 20
-38.047361670153798
 30
0.0
  0
VERTEX
  5
3E26
  8
L1
 10
-62.03927130019639
 20
-38.124940873907597
 30
0.0
  0
VERTEX
  5
3E27
  8
L1
 10
-61.918824156227572
 20
-38.197730324553127
 30
0.0
  0
VERTEX
  5
3E28
  8
L1
 10
-61.79553676910853
 20
-38.26561236866857
 30
0.0
  0
VERTEX
  5
3E29
  8
L1
 10
-61.66960841473491
 20
-38.328477284931772
 30
0.0
  0
VERTEX
  5
3E2A
  8
L1
 10
-61.541242637736381
 20
-38.386223461468461
 30
0.0
  0
VERTEX
  5
3E2B
  8
L1
 10
-61.410646922477383
 20
-38.438757560092853
 30
0.0
  0
VERTEX
  5
3E2C
  8
L1
 10
-61.278032357689028
 20
-38.48599466717527
 30
0.0
  0
VERTEX
  5
3E2D
  8
L1
 10
-61.143613295275081
 20
-38.527858430892223
 30
0.0
  0
VERTEX
  5
3E2E
  8
L1
 10
-61.007607003843809
 20
-38.564281184638162
 30
0.0
  0
VERTEX
  5
3E2F
  8
L1
 10
-60.87023331752544
 20
-38.59520405639833
 30
0.0
  0
VERTEX
  5
3E30
  8
L1
 10
-60.731714280642507
 20
-38.620577063906921
 30
0.0
  0
VERTEX
  5
3E31
  8
L1
 10
-60.592273788807972
 20
-38.640359195435849
 30
0.0
  0
VERTEX
  5
3E32
  8
L1
 10
-60.452137227030903
 20
-38.65451847608437
 30
0.0
  0
VERTEX
  5
3E33
  8
L1
 10
-60.311531105414993
 20
-38.663032019461582
 30
0.0
  0
VERTEX
  5
3E34
  8
L1
 10
-60.170682693038032
 20
-38.66588606467905
 30
0.0
  0
SEQEND
  5
3E35
  8
L1
  0
POLYLINE
  5
2E4A
  8
L1
 66
     1
 10
0.0
 20
0.0
 30
0.0
  0
VERTEX
  5
3E36
  8
L1
 10
-61.557000000000023
 20
-40.012088437774139
 30
0.0
  0
VERTEX
  5
3E37
  8
L1
 10
-61.537048032038292
 20
-40.012250207188913
 30
0.0
  0
VERTEX
  5
3E38
  8
L1
 10
-61.517100759268203
 20
-40.012304130909222
 30
0.0
  0
SEQEND
  5
3E39
  8
L1
  0
POLYLINE
  5
2E4B
  8
L1
 66
     1
 10
0.0
 20
0.0
 30
0.0
  0
VERTEX
  5
3E3A
  8
L1
 10
-61.697073088947207
 20
-21.491233016057318
 30
0.0
  0
VERTEX
  5
3E3B
  8
L1
 10
-61.586257410709948
 20
-21.709186851637782
 30
0.0
  0
VERTEX
  5
3E3C
  8
L1
 10
-61.446843118683091
 20
-21.917362679660609
 30
0.0
  0
VERTEX
  5
3E3D
  8
L1
 10
-61.212661423407042
 20
-22.176712330546451
 30
0.0
  0
VERTEX
  5
3E3E
  8
L1
 10
-60.935192761055021
 20
-22.39546261586872
 30
0.0
  0
VERTEX
  5
3E3F
  8
L1
 10
-60.776472028358228
 20
-22.490198012588049
 30
0.0
  0
VERTEX
  5
3E40
  8
L1
 10
-60.610822161094291
 20
-22.569986725547889
 30
0.0
  0
VERTEX
  5
3E41
  8
L1
 10
-60.262771699553632
 20
-22.68317815407087
 30
0.0
  0
VERTEX
  5
3E42
  8
L1
 10
-60.209532526953581
 20
-22.694571369592211
 30
0.0
  0
SEQEND
  5
3E43
  8
L1
  0
LINE
  5
2E4C
  8
L1
 10
-56.529651470526858
 20
-23.94006700639207
 30
0.0
 11
-61.048761007954049
 21
-23.94006700639207
 31
0.0
  0
LINE
  5
2E4D
  8
L1
 10
-61.70029913768672
 20
-31.531159070128599
 30
0.0
 11
-56.968840929871362
 21
-26.799700862313241
 31
0.0
  0
CIRCLE
  5
2E4E
  8
L1
 10
-56.750000000000057
 20
-31.750000000000021
 30
0.0
 40
6.097393363178492
  0
CIRCLE
  5
2E4F
  8
L1
 10
-56.750000000000057
 20
-31.750000000000021
 30
0.0
 40
5.797404786259249
  0
ARC
  5
2E50
  8
L1
 10
-56.750000000000057
 20
-31.75000000000006
 30
0.0
 40
4.9551339946734032
 50
177.4687382067064
 51
203.01361607239249
  0
POLYLINE
  5
2E51
  8
L1
 66
     1
 10
0.0
 20
0.0
 30
0.0
  0
VERTEX
  5
3E44
  8
L1
 10
-65.012304130909214
 20
-36.517100759268203
 30
0.0
  0
VERTEX
  5
3E45
  8
L1
 10
-65.012250207188913
 20
-36.53704803203825
 30
0.0
  0
VERTEX
  5
3E46
  8
L1
 10
-65.012088437774139
 20
-36.557000000000038
 30
0.0
  0
SEQEND
  5
3E47
  8
L1
  0
POLYLINE
  5
2E52
  8
L1
 66
     1
 10
0.0
 20
0.0
 30
0.0
  0
VERTEX
  5
3E48
  8
L1
 10
-61.883099641752267
 20
-34.263214172935221
 30
0.0
  0
VERTEX
  5
3E49
  8
L1
 10
-61.878765071482292
 20
-34.258187265245709
 30
0.0
  0
VERTEX
  5
3E4A
  8
L1
 10
-61.867206662007902
 20
-34.245965950157938
 30
0.0
  0
VERTEX
  5
3E4B
  8
L1
 10
-61.846862727420053
 20
-34.224983031468582
 30
0.0
  0
VERTEX
  5
3E4C
  8
L1
 10
-61.820028179014741
 20
-34.19758740517198
 30
0.0
  0
VERTEX
  5
3E4D
  8
L1
 10
-61.78586227759893
 20
-34.162953301975563
 30
0.0
  0
VERTEX
  5
3E4E
  8
L1
 10
-61.747342135618901
 20
-34.12408104712577
 30
0.0
  0
VERTEX
  5
3E4F
  8
L1
 10
-61.704116422292373
 20
-34.080639129592377
 30
0.0
  0
VERTEX
  5
3E50
  8
L1
 10
-61.659302189691459
 20
-34.035746534405028
 30
0.0
  0
SEQEND
  5
3E51
  8
L1
  0
LINE
  5
2E53
  8
L1
 10
-61.659302189691459
 20
-34.035746534405028
 30
0.0
 11
-61.31076465179131
 21
-33.687208996504857
 31
0.0
  0
POLYLINE
  5
2E54
  8
L1
 66
     1
 10
0.0
 20
0.0
 30
0.0
  0
VERTEX
  5
3E52
  8
L1
 10
-61.90152917928782
 20
-34.37670676229515
 30
0.0
  0
VERTEX
  5
3E53
  8
L1
 10
-61.892416041710078
 20
-34.319858836587279
 30
0.0
  0
VERTEX
  5
3E54
  8
L1
 10
-61.88309964175221
 20
-34.263214172935221
 30
0.0
  0
SEQEND
  5
3E55
  8
L1
  0
POLYLINE
  5
2E55
  8
L1
 66
     1
 10
0.0
 20
0.0
 30
0.0
  0
VERTEX
  5
3E56
  8
L1
 10
-61.048761007954049
 20
-23.940067006392091
 30
0.0
  0
VERTEX
  5
3E57
  8
L1
 10
-61.233253710747981
 20
-23.931601455057368
 30
0.0
  0
VERTEX
  5
3E58
  8
L1
 10
-61.41612656527446
 20
-23.906175997220402
 30
0.0
  0
VERTEX
  5
3E59
  8
L1
 10
-61.595824797399189
 20
-23.86400679861174
 30
0.0
  0
VERTEX
  5
3E5A
  8
L1
 10
-61.770820623438908
 20
-23.80545237925028
 30
0.0
  0
VERTEX
  5
3E5B
  8
L1
 10
-61.939626239287293
 20
-23.73101056532726
 30
0.0
  0
VERTEX
  5
3E5C
  8
L1
 10
-62.10080646963678
 20
-23.64131425671783
 30
0.0
  0
VERTEX
  5
3E5D
  8
L1
 10
-62.25299096975408
 20
-23.537126046103729
 30
0.0
  0
VERTEX
  5
3E5E
  8
L1
 10
-62.394885876069218
 20
-23.41933173545581
 30
0.0
  0
VERTEX
  5
3E5F
  8
L1
 10
-62.525284806526891
 20
-23.288932804998151
 30
0.0
  0
VERTEX
  5
3E60
  8
L1
 10
-62.6430791171748
 20
-23.14703789868301
 30
0.0
  0
VERTEX
  5
3E61
  8
L1
 10
-62.747267327788911
 20
-22.994853398565709
 30
0.0
  0
VERTEX
  5
3E62
  8
L1
 10
-62.836963636398373
 20
-22.83367316821619
 30
0.0
  0
VERTEX
  5
3E63
  8
L1
 10
-62.911405450321347
 20
-22.664867552367831
 30
0.0
  0
VERTEX
  5
3E64
  8
L1
 10
-62.969959869682782
 20
-22.48987172632809
 30
0.0
  0
VERTEX
  5
3E65
  8
L1
 10
-63.012129068291472
 20
-22.310173494203379
 30
0.0
  0
VERTEX
  5
3E66
  8
L1
 10
-63.037554526128417
 20
-22.127300639676939
 30
0.0
  0
VERTEX
  5
3E67
  8
L1
 10
-63.046020077463197
 20
-21.94280793688295
 30
0.0
  0
SEQEND
  5
3E68
  8
L1
  0
POLYLINE
  5
2E56
  8
L1
 66
     1
 10
0.0
 20
0.0
 30
0.0
  0
VERTEX
  5
3E69
  8
L1
 10
-61.697073088947207
 20
-21.491233016057318
 30
0.0
  0
VERTEX
  5
3E6A
  8
L1
 10
-61.812200114655809
 20
-21.128589660902321
 30
0.0
  0
VERTEX
  5
3E6B
  8
L1
 10
-61.85105329936021
 20
-20.74784115878003
 30
0.0
  0
SEQEND
  5
3E6C
  8
L1
  0
POLYLINE
  5
2E57
  8
L1
 66
     1
 10
0.0
 20
0.0
 30
0.0
  0
VERTEX
  5
3E6D
  8
L1
 10
-55.320782384950739
 20
-22.731197920815951
 30
0.0
  0
VERTEX
  5
3E6E
  8
L1
 10
-55.274528509900563
 20
-22.73134011044521
 30
0.0
  0
VERTEX
  5
3E6F
  8
L1
 10
-55.079716260797511
 20
-22.735147577404689
 30
0.0
  0
VERTEX
  5
3E70
  8
L1
 10
-54.654345306800963
 20
-22.761489579967161
 30
0.0
  0
VERTEX
  5
3E71
  8
L1
 10
-54.44364832093629
 20
-22.78362636872529
 30
0.0
  0
VERTEX
  5
3E72
  8
L1
 10
-54.190406214035931
 20
-22.81825394084893
 30
0.0
  0
VERTEX
  5
3E73
  8
L1
 10
-53.899137393657732
 20
-22.868982863105082
 30
0.0
  0
VERTEX
  5
3E74
  8
L1
 10
-53.574360267359388
 20
-22.93942370226074
 30
0.0
  0
VERTEX
  5
3E75
  8
L1
 10
-53.102463247976232
 20
-23.06872034137961
 30
0.0
  0
VERTEX
  5
3E76
  8
L1
 10
-52.64018403156075
 20
-23.22796121795437
 30
0.0
  0
VERTEX
  5
3E77
  8
L1
 10
-52.189007119823422
 20
-23.41660058823884
 30
0.0
  0
VERTEX
  5
3E78
  8
L1
 10
-51.750417014474628
 20
-23.634092708487
 30
0.0
  0
VERTEX
  5
3E79
  8
L1
 10
-51.121594719333871
 20
-24.011544102014959
 30
0.0
  0
VERTEX
  5
3E7A
  8
L1
 10
-50.531802437313161
 20
-24.447658529264121
 30
0.0
  0
VERTEX
  5
3E7B
  8
L1
 10
-50.245629700028474
 20
-24.693377756152529
 30
0.0
  0
VERTEX
  5
3E7C
  8
L1
 10
-49.972111510276079
 20
-24.95280016501502
 30
0.0
  0
VERTEX
  5
3E7D
  8
L1
 10
-49.711745060095318
 20
-25.225434652232281
 30
0.0
  0
VERTEX
  5
3E7E
  8
L1
 10
-49.465027541525608
 20
-25.510790114184971
 30
0.0
  0
VERTEX
  5
3E7F
  8
L1
 10
-49.067174693359391
 20
-26.03986746272539
 30
0.0
  0
VERTEX
  5
3E80
  8
L1
 10
-48.716588350428587
 20
-26.60146537926391
 30
0.0
  0
VERTEX
  5
3E81
  8
L1
 10
-48.421805056137721
 20
-27.178491634761311
 30
0.0
  0
VERTEX
  5
3E82
  8
L1
 10
-48.177157460256751
 20
-27.77842016279169
 30
0.0
  0
VERTEX
  5
3E83
  8
L1
 10
-48.047708141626337
 20
-28.17257223064734
 30
0.0
  0
VERTEX
  5
3E84
  8
L1
 10
-47.940298242192391
 20
-28.571620269529369
 30
0.0
  0
VERTEX
  5
3E85
  8
L1
 10
-47.8549339649798
 20
-28.974601815335632
 30
0.0
  0
VERTEX
  5
3E86
  8
L1
 10
-47.791621513013013
 20
-29.380554403963679
 30
0.0
  0
VERTEX
  5
3E87
  8
L1
 10
-47.751411519126627
 20
-29.776877032315092
 30
0.0
  0
VERTEX
  5
3E88
  8
L1
 10
-47.733445334633082
 20
-30.138591197587601
 30
0.0
  0
VERTEX
  5
3E89
  8
L1
 10
-47.731182753319501
 20
-30.311836795033681
 30
0.0
  0
VERTEX
  5
3E8A
  8
L1
 10
-47.731177419503581
 20
-30.32076188363834
 30
0.0
  0
SEQEND
  5
3E8B
  8
L1
  0
POLYLINE
  5
2E58
  8
L1
 66
     1
 10
0.0
 20
0.0
 30
0.0
  0
VERTEX
  5
3E8C
  8
L1
 10
-48.940067006392091
 20
-31.529651470526861
 30
0.0
  0
VERTEX
  5
3E8D
  8
L1
 10
-48.942595199914358
 20
-31.33406189555572
 30
0.0
  0
VERTEX
  5
3E8E
  8
L1
 10
-48.950149987680042
 20
-31.138614968522031
 30
0.0
  0
VERTEX
  5
3E8F
  8
L1
 10
-48.962726377827778
 20
-30.94343983190009
 30
0.0
  0
VERTEX
  5
3E90
  8
L1
 10
-48.980316060448729
 20
-30.74866544857732
 30
0.0
  0
VERTEX
  5
3E91
  8
L1
 10
-49.002907413077601
 20
-30.554420516641581
 30
0.0
  0
VERTEX
  5
3E92
  8
L1
 10
-49.03048550837201
 20
-30.36083338434312
 30
0.0
  0
VERTEX
  5
3E93
  8
L1
 10
-49.063032123976143
 20
-30.168031965288179
 30
0.0
  0
VERTEX
  5
3E94
  8
L1
 10
-49.100525754561033
 20
-29.976143653919081
 30
0.0
  0
VERTEX
  5
3E95
  8
L1
 10
-49.142941626034307
 20
-29.78529524133813
 30
0.0
  0
VERTEX
  5
3E96
  8
L1
 10
-49.190251711909802
 20
-29.595612831529529
 30
0.0
  0
VERTEX
  5
3E97
  8
L1
 10
-49.24242475182627
 20
-29.40722175803571
 30
0.0
  0
VERTEX
  5
3E98
  8
L1
 10
-49.299426272202773
 20
-29.220246501142611
 30
0.0
  0
VERTEX
  5
3E99
  8
L1
 10
-49.361218609017207
 20
-29.034810605628589
 30
0.0
  0
VERTEX
  5
3E9A
  8
L1
 10
-49.427760932693047
 20
-28.851036599131898
 30
0.0
  0
VERTEX
  5
3E9B
  8
L1
 10
-49.49900927507764
 20
-28.66904591118967
 30
0.0
  0
VERTEX
  5
3E9C
  8
L1
 10
-49.574916558494351
 20
-28.488958793003061
 30
0.0
  0
VERTEX
  5
3E9D
  8
L1
 10
-49.655432626849517
 20
-28.310894237980559
 30
0.0
  0
VERTEX
  5
3E9E
  8
L1
 10
-49.74050427877313
 20
-28.134969903112449
 30
0.0
  0
VERTEX
  5
3E9F
  8
L1
 10
-49.830075302771952
 20
-27.961302031228652
 30
0.0
  0
VERTEX
  5
3EA0
  8
L1
 10
-49.924086514371481
 20
-27.790005374190422
 30
0.0
  0
VERTEX
  5
3EA1
  8
L1
 10
-50.022475795222469
 20
-27.621193117067829
 30
0.0
  0
VERTEX
  5
3EA2
  8
L1
 10
-50.125178134145983
 20
-27.454976803351961
 30
0.0
  0
VERTEX
  5
3EA3
  8
L1
 10
-50.232125670089488
 20
-27.291466261252129
 30
0.0
  0
VERTEX
  5
3EA4
  8
L1
 10
-50.343247736966759
 20
-27.130769531126361
 30
0.0
  0
VERTEX
  5
3EA5
  8
L1
 10
-50.458470910350741
 20
-26.97299279409318
 30
0.0
  0
VERTEX
  5
3EA6
  8
L1
 10
-50.577719055988659
 20
-26.818240301871999
 30
0.0
  0
VERTEX
  5
3EA7
  8
L1
 10
-50.700913380108943
 20
-26.666614307898332
 30
0.0
  0
VERTEX
  5
3EA8
  8
L1
 10
-50.827972481483641
 20
-26.518214999759149
 30
0.0
  0
VERTEX
  5
3EA9
  8
L1
 10
-50.958812405215269
 20
-26.3731404329938
 30
0.0
  0
VERTEX
  5
3EAA
  8
L1
 10
-51.093346698210269
 20
-26.231486466303089
 30
0.0
  0
VERTEX
  5
3EAB
  8
L1
 10
-51.231486466303117
 20
-26.09334669821024
 30
0.0
  0
VERTEX
  5
3EAC
  8
L1
 10
-51.3731404329938
 20
-25.958812405215269
 30
0.0
  0
VERTEX
  5
3EAD
  8
L1
 10
-51.518214999759209
 20
-25.827972481483609
 30
0.0
  0
VERTEX
  5
3EAE
  8
L1
 10
-51.666614307898328
 20
-25.70091338010894
 30
0.0
  0
VERTEX
  5
3EAF
  8
L1
 10
-51.818240301871981
 20
-25.577719055988691
 30
0.0
  0
VERTEX
  5
3EB0
  8
L1
 10
-51.972992794093159
 20
-25.458470910350709
 30
0.0
  0
VERTEX
  5
3EB1
  8
L1
 10
-52.130769531126361
 20
-25.343247736966759
 30
0.0
  0
VERTEX
  5
3EB2
  8
L1
 10
-52.291466261252133
 20
-25.232125670089491
 30
0.0
  0
VERTEX
  5
3EB3
  8
L1
 10
-52.45497680335194
 20
-25.125178134145951
 30
0.0
  0
VERTEX
  5
3EB4
  8
L1
 10
-52.621193117067833
 20
-25.022475795222469
 30
0.0
  0
VERTEX
  5
3EB5
  8
L1
 10
-52.790005374190457
 20
-24.924086514371449
 30
0.0
  0
VERTEX
  5
3EB6
  8
L1
 10
-52.961302031228627
 20
-24.83007530277191
 30
0.0
  0
VERTEX
  5
3EB7
  8
L1
 10
-53.134969903112449
 20
-24.74050427877313
 30
0.0
  0
VERTEX
  5
3EB8
  8
L1
 10
-53.310894237980563
 20
-24.65543262684951
 30
0.0
  0
VERTEX
  5
3EB9
  8
L1
 10
-53.488958793003057
 20
-24.574916558494351
 30
0.0
  0
VERTEX
  5
3EBA
  8
L1
 10
-53.669045911189698
 20
-24.499009275077579
 30
0.0
  0
VERTEX
  5
3EBB
  8
L1
 10
-53.851036599131881
 20
-24.427760932693008
 30
0.0
  0
VERTEX
  5
3EBC
  8
L1
 10
-54.034810605628593
 20
-24.361218609017179
 30
0.0
  0
VERTEX
  5
3EBD
  8
L1
 10
-54.22024650114264
 20
-24.29942627220279
 30
0.0
  0
VERTEX
  5
3EBE
  8
L1
 10
-54.407221758035753
 20
-24.24242475182626
 30
0.0
  0
VERTEX
  5
3EBF
  8
L1
 10
-54.595612831529543
 20
-24.190251711909799
 30
0.0
  0
VERTEX
  5
3EC0
  8
L1
 10
-54.785295241338133
 20
-24.142941626034311
 30
0.0
  0
VERTEX
  5
3EC1
  8
L1
 10
-54.976143653919102
 20
-24.100525754561058
 30
0.0
  0
VERTEX
  5
3EC2
  8
L1
 10
-55.168031965288208
 20
-24.063032123976171
 30
0.0
  0
VERTEX
  5
3EC3
  8
L1
 10
-55.360833384343152
 20
-24.030485508372031
 30
0.0
  0
VERTEX
  5
3EC4
  8
L1
 10
-55.554420516641578
 20
-24.00290741307759
 30
0.0
  0
VERTEX
  5
3EC5
  8
L1
 10
-55.748665448577349
 20
-23.98031606044875
 30
0.0
  0
VERTEX
  5
3EC6
  8
L1
 10
-55.943439831900093
 20
-23.962726377827771
 30
0.0
  0
VERTEX
  5
3EC7
  8
L1
 10
-56.138614968522063
 20
-23.950149987680081
 30
0.0
  0
VERTEX
  5
3EC8
  8
L1
 10
-56.334061895555749
 20
-23.942595199914329
 30
0.0
  0
VERTEX
  5
3EC9
  8
L1
 10
-56.529651470526858
 20
-23.940067006392091
 30
0.0
  0
SEQEND
  5
3ECA
  8
L1
  0
POLYLINE
  5
2E59
  8
L1
 66
     1
 10
0.0
 20
0.0
 30
0.0
  0
VERTEX
  5
3ECB
  8
L1
 10
-45.753531830061377
 20
-33.410487068577368
 30
0.0
  0
VERTEX
  5
3ECC
  8
L1
 10
-45.753386949587821
 20
-31.423991029967329
 30
0.0
  0
VERTEX
  5
3ECD
  8
L1
 10
-45.753308802340356
 20
-30.48693711904059
 30
0.0
  0
VERTEX
  5
3ECE
  8
L1
 10
-45.753270391387268
 20
-30.047120365505261
 30
0.0
  0
VERTEX
  5
3ECF
  8
L1
 10
-45.75323321818518
 20
-29.632029146525099
 30
0.0
  0
VERTEX
  5
3ED0
  8
L1
 10
-45.753197879712452
 20
-29.245852512052569
 30
0.0
  0
VERTEX
  5
3ED1
  8
L1
 10
-45.753164972946763
 20
-28.892779512040072
 30
0.0
  0
VERTEX
  5
3ED2
  8
L1
 10
-45.753135094866543
 20
-28.576999196440109
 30
0.0
  0
VERTEX
  5
3ED3
  8
L1
 10
-45.753108842449819
 20
-28.302700615204969
 30
0.0
  0
VERTEX
  5
3ED4
  8
L1
 10
-45.753086812674383
 20
-28.074072818287021
 30
0.0
  0
VERTEX
  5
3ED5
  8
L1
 10
-45.753069602518572
 20
-27.895304855638809
 30
0.0
  0
VERTEX
  5
3ED6
  8
L1
 10
-45.75305780896025
 20
-27.770585777212631
 30
0.0
  0
VERTEX
  5
3ED7
  8
L1
 10
-45.75305202897777
 20
-27.704104632961052
 30
0.0
  0
VERTEX
  5
3ED8
  8
L1
 10
-45.75317749093864
 20
-27.078435495879258
 30
0.0
  0
VERTEX
  5
3ED9
  8
L1
 10
-45.753970669161781
 20
-26.41084012626078
 30
0.0
  0
VERTEX
  5
3EDA
  8
L1
 10
-45.755930804383347
 20
-25.755739465874001
 30
0.0
  0
VERTEX
  5
3EDB
  8
L1
 10
-45.75750449359856
 20
-25.449881195945089
 30
0.0
  0
VERTEX
  5
3EDC
  8
L1
 10
-45.759557137339527
 20
-25.16755445648726
 30
0.0
  0
VERTEX
  5
3EDD
  8
L1
 10
-45.761354509336279
 20
-24.983590748330379
 30
0.0
  0
VERTEX
  5
3EDE
  8
L1
 10
-45.763331734842261
 20
-24.820395008791358
 30
0.0
  0
VERTEX
  5
3EDF
  8
L1
 10
-45.767556941202081
 20
-24.54294631203339
 30
0.0
  0
VERTEX
  5
3EE0
  8
L1
 10
-45.775208739054442
 20
-24.090292183063411
 30
0.0
  0
VERTEX
  5
3EE1
  8
L1
 10
-45.777422806771817
 20
-23.902149720399791
 30
0.0
  0
VERTEX
  5
3EE2
  8
L1
 10
-45.778661902398483
 20
-23.742226557052241
 30
0.0
  0
VERTEX
  5
3EE3
  8
L1
 10
-45.779570466699852
 20
-23.486937790660701
 30
0.0
  0
VERTEX
  5
3EE4
  8
L1
 10
-45.784596112733588
 20
-23.093888135578052
 30
0.0
  0
VERTEX
  5
3EE5
  8
L1
 10
-45.80000089675405
 20
-22.807944369642339
 30
0.0
  0
VERTEX
  5
3EE6
  8
L1
 10
-45.828910317223801
 20
-22.557521191278958
 30
0.0
  0
VERTEX
  5
3EE7
  8
L1
 10
-45.874680984635972
 20
-22.33349336820282
 30
0.0
  0
VERTEX
  5
3EE8
  8
L1
 10
-45.940669509483541
 20
-22.12673566812898
 30
0.0
  0
VERTEX
  5
3EE9
  8
L1
 10
-46.021374214973427
 20
-21.94523410920851
 30
0.0
  0
VERTEX
  5
3EEA
  8
L1
 10
-46.11777280481499
 20
-21.77559508452088
 30
0.0
  0
VERTEX
  5
3EEB
  8
L1
 10
-46.343970524002032
 20
-21.479027409989211
 30
0.0
  0
VERTEX
  5
3EEC
  8
L1
 10
-46.511679950709834
 20
-21.315153183443162
 30
0.0
  0
VERTEX
  5
3EED
  8
L1
 10
-46.677113429580167
 20
-21.185203646436229
 30
0.0
  0
VERTEX
  5
3EEE
  8
L1
 10
-46.832691337874451
 20
-21.085419029083361
 30
0.0
  0
VERTEX
  5
3EEF
  8
L1
 10
-46.970834052854229
 20
-21.0120395614993
 30
0.0
  0
VERTEX
  5
3EF0
  8
L1
 10
-47.307320465737412
 20
-20.88668554828865
 30
0.0
  0
VERTEX
  5
3EF1
  8
L1
 10
-47.674827855130552
 20
-20.818959189569931
 30
0.0
  0
VERTEX
  5
3EF2
  8
L1
 10
-48.263806848837298
 20
-20.785612395773391
 30
0.0
  0
VERTEX
  5
3EF3
  8
L1
 10
-48.43364914750498
 20
-20.784139720973929
 30
0.0
  0
VERTEX
  5
3EF4
  8
L1
 10
-48.625468070789111
 20
-20.783302075953419
 30
0.0
  0
VERTEX
  5
3EF5
  8
L1
 10
-48.845732420949673
 20
-20.782044170871441
 30
0.0
  0
VERTEX
  5
3EF6
  8
L1
 10
-49.10091100024686
 20
-20.779310715887469
 30
0.0
  0
VERTEX
  5
3EF7
  8
L1
 10
-49.351784352061081
 20
-20.77507500994852
 30
0.0
  0
VERTEX
  5
3EF8
  8
L1
 10
-49.622497816142577
 20
-20.769919033467509
 30
0.0
  0
VERTEX
  5
3EF9
  8
L1
 10
-49.948657699083292
 20
-20.764617475388661
 30
0.0
  0
VERTEX
  5
3EFA
  8
L1
 10
-50.143657018435931
 20
-20.762154193545001
 30
0.0
  0
VERTEX
  5
3EFB
  8
L1
 10
-50.365870307475397
 20
-20.759945024655959
 30
0.0
  0
VERTEX
  5
3EFC
  8
L1
 10
-50.785695413549369
 20
-20.756888959774528
 30
0.0
  0
VERTEX
  5
3EFD
  8
L1
 10
-51.009562659651692
 20
-20.755734793054781
 30
0.0
  0
VERTEX
  5
3EFE
  8
L1
 10
-51.252743836246452
 20
-20.754802609542249
 30
0.0
  0
VERTEX
  5
3EFF
  8
L1
 10
-51.522747044670602
 20
-20.754071963782021
 30
0.0
  0
VERTEX
  5
3F00
  8
L1
 10
-51.827080386260882
 20
-20.753522410319022
 30
0.0
  0
VERTEX
  5
3F01
  8
L1
 10
-52.173251962354129
 20
-20.753133503698329
 30
0.0
  0
VERTEX
  5
3F02
  8
L1
 10
-52.568769874287057
 20
-20.75288479846483
 30
0.0
  0
VERTEX
  5
3F03
  8
L1
 10
-53.02114222339651
 20
-20.75275584916357
 30
0.0
  0
VERTEX
  5
3F04
  8
L1
 10
-53.537877111019213
 20
-20.752726210339599
 30
0.0
  0
VERTEX
  5
3F05
  8
L1
 10
-53.822726788440832
 20
-20.752742243151879
 30
0.0
  0
VERTEX
  5
3F06
  8
L1
 10
-54.126482638492057
 20
-20.752775436537831
 30
0.0
  0
VERTEX
  5
3F07
  8
L1
 10
-54.450083173840142
 20
-20.752823234815668
 30
0.0
  0
VERTEX
  5
3F08
  8
L1
 10
-54.794466907151843
 20
-20.752883082303299
 30
0.0
  0
VERTEX
  5
3F09
  8
L1
 10
-55.160572351094572
 20
-20.752952423319009
 30
0.0
  0
VERTEX
  5
3F0A
  8
L1
 10
-55.54933801833527
 20
-20.753028702180981
 30
0.0
  0
VERTEX
  5
3F0B
  8
L1
 10
-55.961702421541133
 20
-20.75310936320718
 30
0.0
  0
VERTEX
  5
3F0C
  8
L1
 10
-56.398604073379197
 20
-20.75319185071589
 30
0.0
  0
VERTEX
  5
3F0D
  8
L1
 10
-56.86098148651655
 20
-20.753273609025079
 30
0.0
  0
VERTEX
  5
3F0E
  8
L1
 10
-57.349773173620463
 20
-20.75335208245297
 30
0.0
  0
VERTEX
  5
3F0F
  8
L1
 10
-57.865917647357662
 20
-20.753424715317632
 30
0.0
  0
VERTEX
  5
3F10
  8
L1
 10
-58.410353420395673
 20
-20.753488951937271
 30
0.0
  0
SEQEND
  5
3F11
  8
L1
  0
ARC
  5
2E5A
  8
L1
 10
-56.750000000000057
 20
-31.75000000000006
 30
0.0
 40
4.9551339946734032
 50
357.46873820670879
 51
92.531261793291137
  0
LINE
  5
2E5B
  8
L1
 10
-51.799700862313209
 20
-31.968840929871359
 30
0.0
 11
-56.531159070128581
 21
-36.70029913768672
 31
0.0
  0
ARC
  5
2E5C
  8
L1
 10
-56.750000000000057
 20
-31.75000000000006
 30
0.0
 40
4.9551339946734032
 50
246.98638392760779
 51
272.53126179329098
  0
LINE
  5
2E5D
  8
L1
 10
-58.6872089965048
 20
-36.310764651791366
 30
0.0
 11
-59.03574653440495
 21
-36.659302189691537
 31
0.0
  0
POLYLINE
  5
2E5E
  8
L1
 66
     1
 10
0.0
 20
0.0
 30
0.0
  0
VERTEX
  5
3F12
  8
L1
 10
-59.035746534405
 20
-36.659302189691537
 30
0.0
  0
VERTEX
  5
3F13
  8
L1
 10
-59.080639129592392
 20
-36.704116422292451
 30
0.0
  0
VERTEX
  5
3F14
  8
L1
 10
-59.124081047125678
 20
-36.747342135618958
 30
0.0
  0
VERTEX
  5
3F15
  8
L1
 10
-59.162953301975563
 20
-36.785862277598987
 30
0.0
  0
VERTEX
  5
3F16
  8
L1
 10
-59.19758740517193
 20
-36.820028179014741
 30
0.0
  0
VERTEX
  5
3F17
  8
L1
 10
-59.224983031468518
 20
-36.846862727420067
 30
0.0
  0
VERTEX
  5
3F18
  8
L1
 10
-59.245965950157817
 20
-36.867206662007959
 30
0.0
  0
VERTEX
  5
3F19
  8
L1
 10
-59.258187265245567
 20
-36.878765071482292
 30
0.0
  0
VERTEX
  5
3F1A
  8
L1
 10
-59.263214172935193
 20
-36.883099641752267
 30
0.0
  0
SEQEND
  5
3F1B
  8
L1
  0
POLYLINE
  5
2E5F
  8
L1
 66
     1
 10
0.0
 20
0.0
 30
0.0
  0
VERTEX
  5
3F1C
  8
L1
 10
-59.263214172935072
 20
-36.883099641752267
 30
0.0
  0
VERTEX
  5
3F1D
  8
L1
 10
-59.319858836588928
 20
-36.892416041710391
 30
0.0
  0
VERTEX
  5
3F1E
  8
L1
 10
-59.3767067622951
 20
-36.901529179287841
 30
0.0
  0
SEQEND
  5
3F1F
  8
L1
  0
POLYLINE
  5
2E60
  8
L1
 66
     1
 10
0.0
 20
0.0
 30
0.0
  0
VERTEX
  5
3F20
  8
L1
 10
-44.37468210685779
 20
-34.733858588995069
 30
0.0
  0
VERTEX
  5
3F21
  8
L1
 10
-44.395494719181151
 20
-34.7337604705979
 30
0.0
  0
VERTEX
  5
3F22
  8
L1
 10
-44.615749261232402
 20
-34.71985628699121
 30
0.0
  0
VERTEX
  5
3F23
  8
L1
 10
-44.83243731633393
 20
-34.679573353904907
 30
0.0
  0
VERTEX
  5
3F24
  8
L1
 10
-45.022177789598743
 20
-34.616630050254969
 30
0.0
  0
VERTEX
  5
3F25
  8
L1
 10
-45.200008418013397
 20
-34.525932300114903
 30
0.0
  0
VERTEX
  5
3F26
  8
L1
 10
-45.373740074375569
 20
-34.39382981482899
 30
0.0
  0
VERTEX
  5
3F27
  8
L1
 10
-45.517849753458727
 20
-34.230073238944328
 30
0.0
  0
VERTEX
  5
3F28
  8
L1
 10
-45.633007707784422
 20
-34.028356123826988
 30
0.0
  0
VERTEX
  5
3F29
  8
L1
 10
-45.707964051676193
 20
-33.807995021499828
 30
0.0
  0
VERTEX
  5
3F2A
  8
L1
 10
-45.742697607646853
 20
-33.610980211792189
 30
0.0
  0
VERTEX
  5
3F2B
  8
L1
 10
-45.753531830061377
 20
-33.410487068577368
 30
0.0
  0
SEQEND
  5
3F2C
  8
L1
  0
LINE
  5
2E61
  8
L1
 10
-48.940067006392091
 20
-36.048761007954049
 30
0.0
 11
-48.940067006392091
 21
-31.529651470526861
 31
0.0
  0
POLYLINE
  5
2E62
  8
L1
 66
     1
 10
0.0
 20
0.0
 30
0.0
  0
VERTEX
  5
3F2D
  8
L1
 10
-47.731177419503581
 20
-30.32076188363834
 30
0.0
  0
VERTEX
  5
3F2E
  8
L1
 10
-47.731067602106059
 20
-30.954164661864318
 30
0.0
  0
VERTEX
  5
3F2F
  8
L1
 10
-47.731025240094873
 20
-31.131103641322909
 30
0.0
  0
VERTEX
  5
3F30
  8
L1
 10
-47.73099276929355
 20
-31.287221051490889
 30
0.0
  0
VERTEX
  5
3F31
  8
L1
 10
-47.730953684686192
 20
-31.55252694179088
 30
0.0
  0
VERTEX
  5
3F32
  8
L1
 10
-47.730952227016068
 20
-32.004173447097997
 30
0.0
  0
VERTEX
  5
3F33
  8
L1
 10
-47.730974587417563
 20
-32.252657173448313
 30
0.0
  0
VERTEX
  5
3F34
  8
L1
 10
-47.731002162952898
 20
-32.557676623158578
 30
0.0
  0
VERTEX
  5
3F35
  8
L1
 10
-47.731015520999613
 20
-32.741097105421112
 30
0.0
  0
VERTEX
  5
3F36
  8
L1
 10
-47.731027320354322
 20
-32.950303351900573
 30
0.0
  0
VERTEX
  5
3F37
  8
L1
 10
-47.731036606858588
 20
-33.189179307055781
 30
0.0
  0
VERTEX
  5
3F38
  8
L1
 10
-47.731042426354001
 20
-33.461608915345828
 30
0.0
  0
VERTEX
  5
3F39
  8
L1
 10
-47.731027276929012
 20
-34.839721278490941
 30
0.0
  0
SEQEND
  5
3F3A
  8
L1
  0
POLYLINE
  5
2E63
  8
L1
 66
     1
 10
0.0
 20
0.0
 30
0.0
  0
VERTEX
  5
3F3B
  8
L1
 10
-47.69457501266038
 20
-35.209448876169631
 30
0.0
  0
VERTEX
  5
3F3C
  8
L1
 10
-47.626007983334318
 20
-35.464535144500871
 30
0.0
  0
VERTEX
  5
3F3D
  8
L1
 10
-47.485917573837582
 20
-35.784367549343948
 30
0.0
  0
VERTEX
  5
3F3E
  8
L1
 10
-47.29339414067811
 20
-36.076768347591688
 30
0.0
  0
VERTEX
  5
3F3F
  8
L1
 10
-47.049744370743433
 20
-36.337170861387278
 30
0.0
  0
VERTEX
  5
3F40
  8
L1
 10
-46.770281225121828
 20
-36.54906159164463
 30
0.0
  0
VERTEX
  5
3F41
  8
L1
 10
-46.491390218655852
 20
-36.697004589372028
 30
0.0
  0
SEQEND
  5
3F42
  8
L1
  0
POLYLINE
  5
2E64
  8
L1
 66
     1
 10
0.0
 20
0.0
 30
0.0
  0
VERTEX
  5
3F43
  8
L1
 10
-46.94280793688295
 20
-38.046020077463197
 30
0.0
  0
VERTEX
  5
3F44
  8
L1
 10
-47.127300639677003
 20
-38.037554526128439
 30
0.0
  0
VERTEX
  5
3F45
  8
L1
 10
-47.310173494203411
 20
-38.0121290682915
 30
0.0
  0
VERTEX
  5
3F46
  8
L1
 10
-47.489871726328147
 20
-37.969959869682832
 30
0.0
  0
VERTEX
  5
3F47
  8
L1
 10
-47.664867552367859
 20
-37.911405450321347
 30
0.0
  0
VERTEX
  5
3F48
  8
L1
 10
-47.833673168216187
 20
-37.836963636398359
 30
0.0
  0
VERTEX
  5
3F49
  8
L1
 10
-47.994853398565681
 20
-37.747267327788933
 30
0.0
  0
VERTEX
  5
3F4A
  8
L1
 10
-48.147037898682981
 20
-37.643079117174828
 30
0.0
  0
VERTEX
  5
3F4B
  8
L1
 10
-48.288932804998183
 20
-37.525284806526876
 30
0.0
  0
VERTEX
  5
3F4C
  8
L1
 10
-48.419331735455842
 20
-37.394885876069253
 30
0.0
  0
VERTEX
  5
3F4D
  8
L1
 10
-48.537126046103758
 20
-37.25299096975408
 30
0.0
  0
VERTEX
  5
3F4E
  8
L1
 10
-48.641314256717862
 20
-37.10080646963678
 30
0.0
  0
VERTEX
  5
3F4F
  8
L1
 10
-48.731010565327267
 20
-36.939626239287293
 30
0.0
  0
VERTEX
  5
3F50
  8
L1
 10
-48.805452379250312
 20
-36.770820623438901
 30
0.0
  0
VERTEX
  5
3F51
  8
L1
 10
-48.86400679861174
 20
-36.595824797399189
 30
0.0
  0
VERTEX
  5
3F52
  8
L1
 10
-48.90617599722038
 20
-36.416126565274482
 30
0.0
  0
VERTEX
  5
3F53
  8
L1
 10
-48.931601455057383
 20
-36.233253710748073
 30
0.0
  0
VERTEX
  5
3F54
  8
L1
 10
-48.940067006392091
 20
-36.048761007954049
 30
0.0
  0
SEQEND
  5
3F55
  8
L1
  0
POLYLINE
  5
2E65
  8
L1
 66
     1
 10
0.0
 20
0.0
 30
0.0
  0
VERTEX
  5
3F56
  8
L1
 10
-47.731027276929012
 20
-34.839721278490941
 30
0.0
  0
VERTEX
  5
3F57
  8
L1
 10
-47.730987362880171
 20
-34.852019347894718
 30
0.0
  0
VERTEX
  5
3F58
  8
L1
 10
-47.730363746640421
 20
-34.889984285008353
 30
0.0
  0
VERTEX
  5
3F59
  8
L1
 10
-47.727123269312358
 20
-34.961550990670702
 30
0.0
  0
VERTEX
  5
3F5A
  8
L1
 10
-47.711362534823529
 20
-35.112162891609749
 30
0.0
  0
VERTEX
  5
3F5B
  8
L1
 10
-47.69457501266038
 20
-35.209448876169631
 30
0.0
  0
SEQEND
  5
3F5C
  8
L1
  0
POLYLINE
  5
2E66
  8
L1
 66
     1
 10
0.0
 20
0.0
 30
0.0
  0
VERTEX
  5
3F5D
  8
L1
 10
-45.747841158780091
 20
-36.851053299360238
 30
0.0
  0
VERTEX
  5
3F5E
  8
L1
 10
-46.12867388045759
 20
-36.812182668059251
 30
0.0
  0
VERTEX
  5
3F5F
  8
L1
 10
-46.491390218655852
 20
-36.697004589372028
 30
0.0
  0
SEQEND
  5
3F60
  8
L1
  0
POLYLINE
  5
2E67
  8
L1
 66
     1
 10
0.0
 20
0.0
 30
0.0
  0
VERTEX
  5
3F61
  8
L1
 10
-59.839732262174778
 20
-22.731038260612809
 30
0.0
  0
VERTEX
  5
3F62
  8
L1
 10
-58.083973469469527
 20
-22.731027259837841
 30
0.0
  0
VERTEX
  5
3F63
  8
L1
 10
-57.850819874234851
 20
-22.73101335683603
 30
0.0
  0
VERTEX
  5
3F64
  8
L1
 10
-57.64449645611495
 20
-22.730998303025611
 30
0.0
  0
VERTEX
  5
3F65
  8
L1
 10
-57.288650164230887
 20
-22.730970725166969
 30
0.0
  0
VERTEX
  5
3F66
  8
L1
 10
-56.638329848963679
 20
-22.730967563813039
 30
0.0
  0
VERTEX
  5
3F67
  8
L1
 10
-56.41891358425147
 20
-22.730992933396859
 30
0.0
  0
VERTEX
  5
3F68
  8
L1
 10
-56.224854588926682
 20
-22.73102900569824
 30
0.0
  0
VERTEX
  5
3F69
  8
L1
 10
-55.89336405721366
 20
-22.73111381018537
 30
0.0
  0
VERTEX
  5
3F6A
  8
L1
 10
-55.320782384950739
 20
-22.731197920815951
 30
0.0
  0
SEQEND
  5
3F6B
  8
L1
  0
POLYLINE
  5
2E68
  8
L1
 66
     1
 10
0.0
 20
0.0
 30
0.0
  0
VERTEX
  5
3F6C
  8
L1
 10
-60.209532526953581
 20
-22.694571369592211
 30
0.0
  0
VERTEX
  5
3F6D
  8
L1
 10
-60.121389640016957
 20
-22.710009078187731
 30
0.0
  0
VERTEX
  5
3F6E
  8
L1
 10
-60.002066213371172
 20
-22.724096145796551
 30
0.0
  0
VERTEX
  5
3F6F
  8
L1
 10
-59.929904212389992
 20
-22.728901756516731
 30
0.0
  0
VERTEX
  5
3F70
  8
L1
 10
-59.875669993170561
 20
-22.730699008117899
 30
0.0
  0
VERTEX
  5
3F71
  8
L1
 10
-59.84127813984901
 20
-22.7310375987831
 30
0.0
  0
VERTEX
  5
3F72
  8
L1
 10
-59.839732262174778
 20
-22.731038260612809
 30
0.0
  0
SEQEND
  5
3F73
  8
L1
  0
POLYLINE
  5
2E69
  8
L1
 66
     1
 10
0.0
 20
0.0
 30
0.0
  0
VERTEX
  5
3F74
  8
L1
 10
-58.410353420395673
 20
-20.753488951937271
 30
0.0
  0
VERTEX
  5
3F75
  8
L1
 10
-58.607742141414228
 20
-20.74300291057525
 30
0.0
  0
VERTEX
  5
3F76
  8
L1
 10
-58.802278364478809
 20
-20.70930591942669
 30
0.0
  0
VERTEX
  5
3F77
  8
L1
 10
-58.977256333186567
 20
-20.654353742409899
 30
0.0
  0
VERTEX
  5
3F78
  8
L1
 10
-59.142221863956991
 20
-20.574665383987838
 30
0.0
  0
VERTEX
  5
3F79
  8
L1
 10
-59.318196014270427
 20
-20.447540242254739
 30
0.0
  0
VERTEX
  5
3F7A
  8
L1
 10
-59.465540961120723
 20
-20.288160228852568
 30
0.0
  0
VERTEX
  5
3F7B
  8
L1
 10
-59.588400881583929
 20
-20.085470839578932
 30
0.0
  0
VERTEX
  5
3F7C
  8
L1
 10
-59.671398452494202
 20
-19.862872035331971
 30
0.0
  0
VERTEX
  5
3F7D
  8
L1
 10
-59.719162040178219
 20
-19.621458758797811
 30
0.0
  0
VERTEX
  5
3F7E
  8
L1
 10
-59.733858588995083
 20
-19.374643532981761
 30
0.0
  0
SEQEND
  5
3F7F
  8
L1
  0
ARC
  5
2E6A
  8
L1
 10
-44.012304130909229
 20
-19.012304130909229
 30
0.0
 40
2.0
 50
179.99999999999909
 51
270.0
  0
POLYLINE
  5
2E6B
  8
L1
 66
     1
 10
0.0
 20
0.0
 30
0.0
  0
VERTEX
  5
3F80
  8
L1
 10
61.517100759268203
 20
-40.0123041309092
 30
0.0
  0
VERTEX
  5
3F81
  8
L1
 10
61.537048032038221
 20
-40.012250207188877
 30
0.0
  0
VERTEX
  5
3F82
  8
L1
 10
61.556999999999952
 20
-40.012088437774111
 30
0.0
  0
SEQEND
  5
3F83
  8
L1
  0
ARC
  5
2E6C
  8
L1
 10
44.012304130909172
 20
-19.012304130909168
 30
0.0
 40
2.0
 50
270.0
 51
0.0
  0
POLYLINE
  5
2E6D
  8
L1
 66
     1
 10
0.0
 20
0.0
 30
0.0
  0
VERTEX
  5
3F84
  8
L1
 10
45.753488951937243
 20
-33.41035342039558
 30
0.0
  0
VERTEX
  5
3F85
  8
L1
 10
45.750320427898878
 20
-33.520366069488198
 30
0.0
  0
VERTEX
  5
3F86
  8
L1
 10
45.719753808438163
 20
-33.755726214887432
 30
0.0
  0
VERTEX
  5
3F87
  8
L1
 10
45.652197469385158
 20
-33.982703019469739
 30
0.0
  0
VERTEX
  5
3F88
  8
L1
 10
45.564256544173702
 20
-34.159707163729649
 30
0.0
  0
VERTEX
  5
3F89
  8
L1
 10
45.447122317353603
 20
-34.318667289037649
 30
0.0
  0
VERTEX
  5
3F8A
  8
L1
 10
45.28247351589124
 20
-34.469815689400633
 30
0.0
  0
VERTEX
  5
3F8B
  8
L1
 10
45.091033450087878
 20
-34.585716923646373
 30
0.0
  0
VERTEX
  5
3F8C
  8
L1
 10
44.91281855629245
 20
-34.656489461989821
 30
0.0
  0
VERTEX
  5
3F8D
  8
L1
 10
44.726537987639396
 20
-34.702941954314781
 30
0.0
  0
VERTEX
  5
3F8E
  8
L1
 10
44.374643532980713
 20
-34.73385858899502
 30
0.0
  0
SEQEND
  5
3F8F
  8
L1
  0
POLYLINE
  5
2E6E
  8
L1
 66
     1
 10
0.0
 20
0.0
 30
0.0
  0
VERTEX
  5
3F90
  8
L1
 10
56.529651470526801
 20
-23.94006700639207
 30
0.0
  0
VERTEX
  5
3F91
  8
L1
 10
56.334061895555642
 20
-23.94259519991428
 30
0.0
  0
VERTEX
  5
3F92
  8
L1
 10
56.138614968521942
 20
-23.950149987680021
 30
0.0
  0
VERTEX
  5
3F93
  8
L1
 10
55.943439831900037
 20
-23.96272637782775
 30
0.0
  0
VERTEX
  5
3F94
  8
L1
 10
55.748665448577242
 20
-23.980316060448722
 30
0.0
  0
VERTEX
  5
3F95
  8
L1
 10
55.554420516641528
 20
-24.00290741307753
 30
0.0
  0
VERTEX
  5
3F96
  8
L1
 10
55.360833384343039
 20
-24.03048550837201
 30
0.0
  0
VERTEX
  5
3F97
  8
L1
 10
55.168031965288087
 20
-24.063032123976139
 30
0.0
  0
VERTEX
  5
3F98
  8
L1
 10
54.976143653919003
 20
-24.10052575456103
 30
0.0
  0
VERTEX
  5
3F99
  8
L1
 10
54.785295241338083
 20
-24.142941626034279
 30
0.0
  0
VERTEX
  5
3F9A
  8
L1
 10
54.595612831529479
 20
-24.190251711909781
 30
0.0
  0
VERTEX
  5
3F9B
  8
L1
 10
54.407221758035632
 20
-24.242424751826231
 30
0.0
  0
VERTEX
  5
3F9C
  8
L1
 10
54.220246501142519
 20
-24.299426272202759
 30
0.0
  0
VERTEX
  5
3F9D
  8
L1
 10
54.034810605628593
 20
-24.361218609017161
 30
0.0
  0
VERTEX
  5
3F9E
  8
L1
 10
53.85103659913181
 20
-24.427760932692959
 30
0.0
  0
VERTEX
  5
3F9F
  8
L1
 10
53.669045911189642
 20
-24.499009275077551
 30
0.0
  0
VERTEX
  5
3FA0
  8
L1
 10
53.488958793003
 20
-24.574916558494291
 30
0.0
  0
VERTEX
  5
3FA1
  8
L1
 10
53.310894237980513
 20
-24.655432626849489
 30
0.0
  0
VERTEX
  5
3FA2
  8
L1
 10
53.134969903112392
 20
-24.740504278773098
 30
0.0
  0
VERTEX
  5
3FA3
  8
L1
 10
52.961302031228563
 20
-24.830075302771888
 30
0.0
  0
VERTEX
  5
3FA4
  8
L1
 10
52.7900053741904
 20
-24.924086514371421
 30
0.0
  0
VERTEX
  5
3FA5
  8
L1
 10
52.621193117067833
 20
-25.022475795222419
 30
0.0
  0
VERTEX
  5
3FA6
  8
L1
 10
52.45497680335194
 20
-25.125178134145891
 30
0.0
  0
VERTEX
  5
3FA7
  8
L1
 10
52.291466261252083
 20
-25.232125670089431
 30
0.0
  0
VERTEX
  5
3FA8
  8
L1
 10
52.130769531126361
 20
-25.343247736966731
 30
0.0
  0
VERTEX
  5
3FA9
  8
L1
 10
51.972992794093102
 20
-25.458470910350648
 30
0.0
  0
VERTEX
  5
3FAA
  8
L1
 10
51.818240301871981
 20
-25.577719055988659
 30
0.0
  0
VERTEX
  5
3FAB
  8
L1
 10
51.666614307898271
 20
-25.700913380108911
 30
0.0
  0
VERTEX
  5
3FAC
  8
L1
 10
51.518214999759088
 20
-25.827972481483581
 30
0.0
  0
VERTEX
  5
3FAD
  8
L1
 10
51.3731404329938
 20
-25.958812405215209
 30
0.0
  0
VERTEX
  5
3FAE
  8
L1
 10
51.231486466303068
 20
-26.09334669821018
 30
0.0
  0
VERTEX
  5
3FAF
  8
L1
 10
51.093346698210212
 20
-26.231486466303071
 30
0.0
  0
VERTEX
  5
3FB0
  8
L1
 10
50.958812405215269
 20
-26.373140432993779
 30
0.0
  0
VERTEX
  5
3FB1
  8
L1
 10
50.827972481483577
 20
-26.51821499975912
 30
0.0
  0
VERTEX
  5
3FB2
  8
L1
 10
50.700913380108886
 20
-26.666614307898271
 30
0.0
  0
VERTEX
  5
3FB3
  8
L1
 10
50.577719055988659
 20
-26.818240301871949
 30
0.0
  0
VERTEX
  5
3FB4
  8
L1
 10
50.458470910350627
 20
-26.972992794093159
 30
0.0
  0
VERTEX
  5
3FB5
  8
L1
 10
50.343247736966759
 20
-27.130769531126301
 30
0.0
  0
VERTEX
  5
3FB6
  8
L1
 10
50.232125670089431
 20
-27.291466261252111
 30
0.0
  0
VERTEX
  5
3FB7
  8
L1
 10
50.125178134145933
 20
-27.45497680335194
 30
0.0
  0
VERTEX
  5
3FB8
  8
L1
 10
50.022475795222469
 20
-27.621193117067829
 30
0.0
  0
VERTEX
  5
3FB9
  8
L1
 10
49.924086514371417
 20
-27.790005374190368
 30
0.0
  0
VERTEX
  5
3FBA
  8
L1
 10
49.830075302771832
 20
-27.961302031228598
 30
0.0
  0
VERTEX
  5
3FBB
  8
L1
 10
49.74050427877313
 20
-28.134969903112388
 30
0.0
  0
VERTEX
  5
3FBC
  8
L1
 10
49.655432626849517
 20
-28.310894237980499
 30
0.0
  0
VERTEX
  5
3FBD
  8
L1
 10
49.574916558494287
 20
-28.488958793003029
 30
0.0
  0
VERTEX
  5
3FBE
  8
L1
 10
49.49900927507759
 20
-28.669045911189642
 30
0.0
  0
VERTEX
  5
3FBF
  8
L1
 10
49.427760932692927
 20
-28.851036599131842
 30
0.0
  0
VERTEX
  5
3FC0
  8
L1
 10
49.361218609017158
 20
-29.034810605628561
 30
0.0
  0
VERTEX
  5
3FC1
  8
L1
 10
49.299426272202702
 20
-29.220246501142551
 30
0.0
  0
VERTEX
  5
3FC2
  8
L1
 10
49.24242475182627
 20
-29.407221758035689
 30
0.0
  0
VERTEX
  5
3FC3
  8
L1
 10
49.190251711909752
 20
-29.5956128315295
 30
0.0
  0
VERTEX
  5
3FC4
  8
L1
 10
49.142941626034307
 20
-29.785295241338101
 30
0.0
  0
VERTEX
  5
3FC5
  8
L1
 10
49.100525754561033
 20
-29.976143653919049
 30
0.0
  0
VERTEX
  5
3FC6
  8
L1
 10
49.0630321239762
 20
-30.16803196528809
 30
0.0
  0
VERTEX
  5
3FC7
  8
L1
 10
49.03048550837201
 20
-30.36083338434306
 30
0.0
  0
VERTEX
  5
3FC8
  8
L1
 10
49.00290741307753
 20
-30.554420516641532
 30
0.0
  0
VERTEX
  5
3FC9
  8
L1
 10
48.980316060448729
 20
-30.74866544857727
 30
0.0
  0
VERTEX
  5
3FCA
  8
L1
 10
48.962726377827778
 20
-30.943439831900029
 30
0.0
  0
VERTEX
  5
3FCB
  8
L1
 10
48.950149987679993
 20
-31.138614968521981
 30
0.0
  0
VERTEX
  5
3FCC
  8
L1
 10
48.942595199914308
 20
-31.334061895555632
 30
0.0
  0
VERTEX
  5
3FCD
  8
L1
 10
48.940067006392091
 20
-31.529651470526801
 30
0.0
  0
SEQEND
  5
3FCE
  8
L1
  0
ARC
  5
2E6F
  8
L1
 10
56.75
 20
-31.75
 30
0.0
 40
4.9551339946734032
 50
87.468738206708878
 51
182.53126179329271
  0
POLYLINE
  5
2E70
  8
L1
 66
     1
 10
0.0
 20
0.0
 30
0.0
  0
VERTEX
  5
3FCF
  8
L1
 10
47.73119792081593
 20
-30.320782384950661
 30
0.0
  0
VERTEX
  5
3FD0
  8
L1
 10
47.731331658786132
 20
-30.275904986460709
 30
0.0
  0
VERTEX
  5
3FD1
  8
L1
 10
47.735077539360532
 20
-30.08185746900693
 30
0.0
  0
VERTEX
  5
3FD2
  8
L1
 10
47.764307703493159
 20
-29.624053933838599
 30
0.0
  0
VERTEX
  5
3FD3
  8
L1
 10
47.791802589821479
 20
-29.377178464863022
 30
0.0
  0
VERTEX
  5
3FD4
  8
L1
 10
47.835835718162343
 20
-29.080716908334349
 30
0.0
  0
VERTEX
  5
3FD5
  8
L1
 10
47.901608557515537
 20
-28.73971318801253
 30
0.0
  0
VERTEX
  5
3FD6
  8
L1
 10
47.994322576881068
 20
-28.35921122765771
 30
0.0
  0
VERTEX
  5
3FD7
  8
L1
 10
48.129634752789848
 20
-27.913969351403551
 30
0.0
  0
VERTEX
  5
3FD8
  8
L1
 10
48.291781992075812
 20
-27.478191630789919
 30
0.0
  0
VERTEX
  5
3FD9
  8
L1
 10
48.480257234864382
 20
-27.053110367859851
 30
0.0
  0
VERTEX
  5
3FDA
  8
L1
 10
48.694553421280553
 20
-26.63995786465642
 30
0.0
  0
VERTEX
  5
3FDB
  8
L1
 10
49.05894561067992
 20
-26.051442485682571
 30
0.0
  0
VERTEX
  5
3FDC
  8
L1
 10
49.475164461854597
 20
-25.49831129321387
 30
0.0
  0
VERTEX
  5
3FDD
  8
L1
 10
49.723002627387977
 20
-25.212995773780051
 30
0.0
  0
VERTEX
  5
3FDE
  8
L1
 10
49.984522634379907
 20
-24.940466216752661
 30
0.0
  0
VERTEX
  5
3FDF
  8
L1
 10
50.259226172169342
 20
-24.681219501311599
 30
0.0
  0
VERTEX
  5
3FE0
  8
L1
 10
50.546614930094727
 20
-24.43575250663698
 30
0.0
  0
VERTEX
  5
3FE1
  8
L1
 10
51.080363354214853
 20
-24.03957614510702
 30
0.0
  0
VERTEX
  5
3FE2
  8
L1
 10
51.646598410907067
 20
-23.69126083305332
 30
0.0
  0
VERTEX
  5
3FE3
  8
L1
 10
52.251818008731838
 20
-23.388666110772469
 30
0.0
  0
VERTEX
  5
3FE4
  8
L1
 10
52.881469664512167
 20
-23.141006083888829
 30
0.0
  0
VERTEX
  5
3FE5
  8
L1
 10
53.522916762929128
 20
-22.952201084104932
 30
0.0
  0
VERTEX
  5
3FE6
  8
L1
 10
54.178782457462603
 20
-22.820300749606051
 30
0.0
  0
VERTEX
  5
3FE7
  8
L1
 10
54.56335852775095
 20
-22.77040780483463
 30
0.0
  0
VERTEX
  5
3FE8
  8
L1
 10
54.951646279777037
 20
-22.740494340492031
 30
0.0
  0
VERTEX
  5
3FE9
  8
L1
 10
55.2046751698877
 20
-22.73209779806313
 30
0.0
  0
VERTEX
  5
3FEA
  8
L1
 10
55.320761883638284
 20
-22.731177419503489
 30
0.0
  0
SEQEND
  5
3FEB
  8
L1
  0
CIRCLE
  5
2E71
  8
L1
 10
56.75
 20
-31.75
 30
0.0
 40
5.7974047862592784
  0
POLYLINE
  5
2E72
  8
L1
 66
     1
 10
0.0
 20
0.0
 30
0.0
  0
VERTEX
  5
3FEC
  8
L1
 10
58.410487068577311
 20
-20.75353183006137
 30
0.0
  0
VERTEX
  5
3FED
  8
L1
 10
56.424021300754191
 20
-20.753386951465181
 30
0.0
  0
VERTEX
  5
3FEE
  8
L1
 10
55.486980514369918
 20
-20.753308805002568
 30
0.0
  0
VERTEX
  5
3FEF
  8
L1
 10
55.047168711973882
 20
-20.753270394338379
 30
0.0
  0
VERTEX
  5
3FF0
  8
L1
 10
54.632080947789689
 20
-20.753233221331719
 30
0.0
  0
VERTEX
  5
3FF1
  8
L1
 10
54.245905955079081
 20
-20.75319788294194
 30
0.0
  0
VERTEX
  5
3FF2
  8
L1
 10
53.892832467102998
 20
-20.753164976128652
 30
0.0
  0
VERTEX
  5
3FF3
  8
L1
 10
53.577049217122578
 20
-20.753135097851381
 30
0.0
  0
VERTEX
  5
3FF4
  8
L1
 10
53.302744938398803
 20
-20.753108845069669
 30
0.0
  0
VERTEX
  5
3FF5
  8
L1
 10
53.074108364193187
 20
-20.753086814742879
 30
0.0
  0
VERTEX
  5
3FF6
  8
L1
 10
52.895328227766697
 20
-20.753069603830681
 30
0.0
  0
VERTEX
  5
3FF7
  8
L1
 10
52.77059326238043
 20
-20.75305780929255
 30
0.0
  0
VERTEX
  5
3FF8
  8
L1
 10
52.70409220129568
 20
-20.753052028088
 30
0.0
  0
VERTEX
  5
3FF9
  8
L1
 10
52.07843916050598
 20
-20.753177493511711
 30
0.0
  0
VERTEX
  5
3FFA
  8
L1
 10
51.41084102958115
 20
-20.753970683622999
 30
0.0
  0
VERTEX
  5
3FFB
  8
L1
 10
50.75572992364124
 20
-20.755930858838351
 30
0.0
  0
VERTEX
  5
3FFC
  8
L1
 10
50.449867041015409
 20
-20.757504584740161
 30
0.0
  0
VERTEX
  5
3FFD
  8
L1
 10
50.167537957805727
 20
-20.759557279574089
 30
0.0
  0
VERTEX
  5
3FFE
  8
L1
 10
49.983576060737903
 20
-20.761354671923439
 30
0.0
  0
VERTEX
  5
3FFF
  8
L1
 10
49.820381750511331
 20
-20.76333191569551
 30
0.0
  0
VERTEX
  5
4000
  8
L1
 10
49.542934380332383
 20
-20.767557152568031
 30
0.0
  0
VERTEX
  5
4001
  8
L1
 10
49.090274069320508
 20
-20.775208989047311
 30
0.0
  0
VERTEX
  5
4002
  8
L1
 10
48.902135187549277
 20
-20.777422936760068
 30
0.0
  0
VERTEX
  5
4003
  8
L1
 10
48.742213781245987
 20
-20.77866195389154
 30
0.0
  0
VERTEX
  5
4004
  8
L1
 10
48.486924575445407
 20
-20.77957049730318
 30
0.0
  0
VERTEX
  5
4005
  8
L1
 10
48.093868853877488
 20
-20.784596726971809
 30
0.0
  0
VERTEX
  5
4006
  8
L1
 10
47.807927090751541
 20
-20.80000230318381
 30
0.0
  0
VERTEX
  5
4007
  8
L1
 10
47.55750479399137
 20
-20.828912900257329
 30
0.0
  0
VERTEX
  5
4008
  8
L1
 10
47.33347692332535
 20
-20.87468525972718
 30
0.0
  0
VERTEX
  5
4009
  8
L1
 10
47.12671843848193
 20
-20.94067612312795
 30
0.0
  0
VERTEX
  5
400A
  8
L1
 10
46.94522503888885
 20
-21.021378892292201
 30
0.0
  0
VERTEX
  5
400B
  8
L1
 10
46.775589248989029
 20
-21.117776606512638
 30
0.0
  0
VERTEX
  5
400C
  8
L1
 10
46.479016132173733
 20
-21.34398082523651
 30
0.0
  0
VERTEX
  5
400D
  8
L1
 10
46.31514528416573
 20
-21.511689137114839
 30
0.0
  0
VERTEX
  5
400E
  8
L1
 10
46.185197645125122
 20
-21.677122137333129
 30
0.0
  0
VERTEX
  5
400F
  8
L1
 10
46.085413911445762
 20
-21.832700258002859
 30
0.0
  0
VERTEX
  5
4010
  8
L1
 10
46.012034779521791
 20
-21.970843931235489
 30
0.0
  0
VERTEX
  5
4011
  8
L1
 10
45.886683237356628
 20
-22.307328989209331
 30
0.0
  0
VERTEX
  5
4012
  8
L1
 10
45.818958255433188
 20
-22.67483597267741
 30
0.0
  0
VERTEX
  5
4013
  8
L1
 10
45.785612304908739
 20
-23.263811991732151
 30
0.0
  0
VERTEX
  5
4014
  8
L1
 10
45.784139746593091
 20
-23.433655375595059
 30
0.0
  0
VERTEX
  5
4015
  8
L1
 10
45.78330210456437
 20
-23.625478491052942
 30
0.0
  0
VERTEX
  5
4016
  8
L1
 10
45.782044051102552
 20
-23.845751328083448
 30
0.0
  0
VERTEX
  5
4017
  8
L1
 10
45.779310258487897
 20
-24.100943876664381
 30
0.0
  0
VERTEX
  5
4018
  8
L1
 10
45.775074556517829
 20
-24.35180803403582
 30
0.0
  0
VERTEX
  5
4019
  8
L1
 10
45.769918605008058
 20
-24.622519651661431
 30
0.0
  0
VERTEX
  5
401A
  8
L1
 10
45.764617095480673
 20
-24.948683822675491
 30
0.0
  0
VERTEX
  5
401B
  8
L1
 10
45.76215384756113
 20
-25.143687207307771
 30
0.0
  0
VERTEX
  5
401C
  8
L1
 10
45.759944719458247
 20
-25.3659056402125
 30
0.0
  0
VERTEX
  5
401D
  8
L1
 10
45.756888827257853
 20
-25.785732839937051
 30
0.0
  0
VERTEX
  5
401E
  8
L1
 10
45.755734723036312
 20
-26.009605402409331
 30
0.0
  0
VERTEX
  5
401F
  8
L1
 10
45.754802588061303
 20
-26.252793722850949
 30
0.0
  0
VERTEX
  5
4020
  8
L1
 10
45.75407197832817
 20
-26.52280513843408
 30
0.0
  0
VERTEX
  5
4021
  8
L1
 10
45.753522449832637
 20
-26.827146986330678
 30
0.0
  0
VERTEX
  5
4022
  8
L1
 10
45.753133558569907
 20
-27.173326603712891
 30
0.0
  0
VERTEX
  5
4023
  8
L1
 10
45.75288486053546
 20
-27.568851327752778
 30
0.0
  0
VERTEX
  5
4024
  8
L1
 10
45.752755911724933
 20
-28.021228495622381
 30
0.0
  0
VERTEX
  5
4025
  8
L1
 10
45.752726268133529
 20
-28.5379654444938
 30
0.0
  0
VERTEX
  5
4026
  8
L1
 10
45.75274229704376
 20
-28.822814879671391
 30
0.0
  0
VERTEX
  5
4027
  8
L1
 10
45.752775485757013
 20
-29.126569511539032
 30
0.0
  0
VERTEX
  5
4028
  8
L1
 10
45.752823278772837
 20
-29.45016775724315
 30
0.0
  0
VERTEX
  5
4029
  8
L1
 10
45.752883120590752
 20
-29.794548033930202
 30
0.0
  0
VERTEX
  5
402A
  8
L1
 10
45.75295245570998
 20
-30.160648758746792
 30
0.0
  0
VERTEX
  5
402B
  8
L1
 10
45.75302872863017
 20
-30.549408348839361
 30
0.0
  0
VERTEX
  5
402C
  8
L1
 10
45.753109383850408
 20
-30.96176522135454
 30
0.0
  0
VERTEX
  5
402D
  8
L1
 10
45.753191865870683
 20
-31.398657793438641
 30
0.0
  0
VERTEX
  5
402E
  8
L1
 10
45.753273619189997
 20
-31.861024482238289
 30
0.0
  0
VERTEX
  5
402F
  8
L1
 10
45.753352088307849
 20
-32.349803704900012
 30
0.0
  0
VERTEX
  5
4030
  8
L1
 10
45.753424717723817
 20
-32.865933878570267
 30
0.0
  0
VERTEX
  5
4031
  8
L1
 10
45.753488951937243
 20
-33.41035342039558
 30
0.0
  0
SEQEND
  5
4032
  8
L1
  0
LINE
  5
2E73
  8
L1
 10
56.968840929871298
 20
-26.799700862313269
 30
0.0
 11
61.700299137686777
 21
-31.531159070128751
 31
0.0
  0
LINE
  5
2E74
  8
L1
 10
56.531159070128581
 20
-36.70029913768672
 30
0.0
 11
51.79970086231333
 21
-31.96884092987144
 31
0.0
  0
LINE
  5
2E75
  8
L1
 10
48.940067006392042
 20
-31.529651470526801
 30
0.0
 11
48.940067006392042
 21
-36.048761007954027
 31
0.0
  0
POLYLINE
  5
2E76
  8
L1
 66
     1
 10
0.0
 20
0.0
 30
0.0
  0
VERTEX
  5
4033
  8
L1
 10
47.731038260612763
 20
-34.839732262174721
 30
0.0
  0
VERTEX
  5
4034
  8
L1
 10
47.731027259837838
 20
-33.08397346946952
 30
0.0
  0
VERTEX
  5
4035
  8
L1
 10
47.731013356836002
 20
-32.850819874233821
 30
0.0
  0
VERTEX
  5
4036
  8
L1
 10
47.730998303025551
 20
-32.644496456113579
 30
0.0
  0
VERTEX
  5
4037
  8
L1
 10
47.730970725166969
 20
-32.288650164230063
 30
0.0
  0
VERTEX
  5
4038
  8
L1
 10
47.73096756381301
 20
-31.638329848963501
 30
0.0
  0
VERTEX
  5
4039
  8
L1
 10
47.730992933396749
 20
-31.418913584251548
 30
0.0
  0
VERTEX
  5
403A
  8
L1
 10
47.73102900569824
 20
-31.224854588927059
 30
0.0
  0
VERTEX
  5
403B
  8
L1
 10
47.73111381018537
 20
-30.893364057214391
 30
0.0
  0
VERTEX
  5
403C
  8
L1
 10
47.73119792081593
 20
-30.320782384950661
 30
0.0
  0
SEQEND
  5
403D
  8
L1
  0
POLYLINE
  5
2E77
  8
L1
 66
     1
 10
0.0
 20
0.0
 30
0.0
  0
VERTEX
  5
403E
  8
L1
 10
48.940067006392042
 20
-36.048761007954027
 30
0.0
  0
VERTEX
  5
403F
  8
L1
 10
48.931601455057312
 20
-36.233253710748038
 30
0.0
  0
VERTEX
  5
4040
  8
L1
 10
48.906175997220309
 20
-36.416126565274453
 30
0.0
  0
VERTEX
  5
4041
  8
L1
 10
48.864006798611683
 20
-36.59582479739916
 30
0.0
  0
VERTEX
  5
4042
  8
L1
 10
48.805452379250191
 20
-36.770820623438901
 30
0.0
  0
VERTEX
  5
4043
  8
L1
 10
48.73101056532721
 20
-36.939626239287229
 30
0.0
  0
VERTEX
  5
4044
  8
L1
 10
48.641314256717749
 20
-37.100806469636751
 30
0.0
  0
VERTEX
  5
4045
  8
L1
 10
48.537126046103708
 20
-37.252990969754052
 30
0.0
  0
VERTEX
  5
4046
  8
L1
 10
48.419331735455728
 20
-37.394885876069189
 30
0.0
  0
VERTEX
  5
4047
  8
L1
 10
48.288932804998069
 20
-37.525284806526848
 30
0.0
  0
VERTEX
  5
4048
  8
L1
 10
48.147037898682932
 20
-37.6430791171748
 30
0.0
  0
VERTEX
  5
4049
  8
L1
 10
47.994853398565617
 20
-37.747267327788897
 30
0.0
  0
VERTEX
  5
404A
  8
L1
 10
47.83367316821613
 20
-37.83696363639833
 30
0.0
  0
VERTEX
  5
404B
  8
L1
 10
47.664867552367753
 20
-37.911405450321318
 30
0.0
  0
VERTEX
  5
404C
  8
L1
 10
47.489871726328033
 20
-37.96995986968281
 30
0.0
  0
VERTEX
  5
404D
  8
L1
 10
47.310173494203291
 20
-38.012129068291443
 30
0.0
  0
VERTEX
  5
404E
  8
L1
 10
47.127300639676889
 20
-38.037554526128417
 30
0.0
  0
VERTEX
  5
404F
  8
L1
 10
46.9428079368829
 20
-38.04602007746314
 30
0.0
  0
SEQEND
  5
4050
  8
L1
  0
POLYLINE
  5
2E78
  8
L1
 66
     1
 10
0.0
 20
0.0
 30
0.0
  0
VERTEX
  5
4051
  8
L1
 10
46.491233016057258
 20
-36.697073088947178
 30
0.0
  0
VERTEX
  5
4052
  8
L1
 10
46.128589660902257
 20
-36.812200114655809
 30
0.0
  0
VERTEX
  5
4053
  8
L1
 10
45.747841158779977
 20
-36.85105329936021
 30
0.0
  0
SEQEND
  5
4054
  8
L1
  0
POLYLINE
  5
2E79
  8
L1
 66
     1
 10
0.0
 20
0.0
 30
0.0
  0
VERTEX
  5
4055
  8
L1
 10
46.491233016057258
 20
-36.697073088947178
 30
0.0
  0
VERTEX
  5
4056
  8
L1
 10
46.709186851637583
 20
-36.586257410709997
 30
0.0
  0
VERTEX
  5
4057
  8
L1
 10
46.91736267966035
 20
-36.446843118683141
 30
0.0
  0
VERTEX
  5
4058
  8
L1
 10
47.176712330546252
 20
-36.212661423407177
 30
0.0
  0
VERTEX
  5
4059
  8
L1
 10
47.395462615868553
 20
-35.935192761055163
 30
0.0
  0
VERTEX
  5
405A
  8
L1
 10
47.490198012587882
 20
-35.776472028358342
 30
0.0
  0
VERTEX
  5
405B
  8
L1
 10
47.569986725547722
 20
-35.610822161094511
 30
0.0
  0
VERTEX
  5
405C
  8
L1
 10
47.683178154070788
 20
-35.262771699553689
 30
0.0
  0
VERTEX
  5
405D
  8
L1
 10
47.694571369592197
 20
-35.209532526953609
 30
0.0
  0
SEQEND
  5
405E
  8
L1
  0
POLYLINE
  5
2E7A
  8
L1
 66
     1
 10
0.0
 20
0.0
 30
0.0
  0
VERTEX
  5
405F
  8
L1
 10
47.694571369592197
 20
-35.209532526953609
 30
0.0
  0
VERTEX
  5
4060
  8
L1
 10
47.710009078187618
 20
-35.121389640016901
 30
0.0
  0
VERTEX
  5
4061
  8
L1
 10
47.724096145796523
 20
-35.00206621337076
 30
0.0
  0
VERTEX
  5
4062
  8
L1
 10
47.728901756516791
 20
-34.92990421238872
 30
0.0
  0
VERTEX
  5
4063
  8
L1
 10
47.730699008117931
 20
-34.875669993169907
 30
0.0
  0
VERTEX
  5
4064
  8
L1
 10
47.731037598783018
 20
-34.841278139848441
 30
0.0
  0
VERTEX
  5
4065
  8
L1
 10
47.731038260612763
 20
-34.839732262174721
 30
0.0
  0
SEQEND
  5
4066
  8
L1
  0
ARC
  5
2E7B
  8
L1
 10
56.75
 20
-31.75
 30
0.0
 40
4.9551339946734032
 50
336.98638392760819
 51
2.5312617932911539
  0
ARC
  5
2E7C
  8
L1
 10
56.75
 20
-31.75
 30
0.0
 40
4.9551339946734032
 50
267.46873820670891
 51
293.01361607239221
  0
LINE
  5
2E7D
  8
L1
 10
61.31076465179131
 20
-33.687208996504751
 30
0.0
 11
61.659302189691509
 21
-34.03574653440495
 31
0.0
  0
POLYLINE
  5
2E7E
  8
L1
 66
     1
 10
0.0
 20
0.0
 30
0.0
  0
VERTEX
  5
4067
  8
L1
 10
61.659302189691459
 20
-34.035746534404979
 30
0.0
  0
VERTEX
  5
4068
  8
L1
 10
61.704116422292252
 20
-34.080639129592377
 30
0.0
  0
VERTEX
  5
4069
  8
L1
 10
61.747342135618901
 20
-34.124081047125713
 30
0.0
  0
VERTEX
  5
406A
  8
L1
 10
61.78586227759893
 20
-34.162953301975499
 30
0.0
  0
VERTEX
  5
406B
  8
L1
 10
61.820028179014621
 20
-34.19758740517193
 30
0.0
  0
VERTEX
  5
406C
  8
L1
 10
61.846862727420053
 20
-34.22498303146849
 30
0.0
  0
VERTEX
  5
406D
  8
L1
 10
61.867206662007902
 20
-34.245965950157817
 30
0.0
  0
VERTEX
  5
406E
  8
L1
 10
61.878765071482242
 20
-34.258187265245589
 30
0.0
  0
VERTEX
  5
406F
  8
L1
 10
61.88309964175221
 20
-34.263214172935157
 30
0.0
  0
SEQEND
  5
4070
  8
L1
  0
POLYLINE
  5
2E7F
  8
L1
 66
     1
 10
0.0
 20
0.0
 30
0.0
  0
VERTEX
  5
4071
  8
L1
 10
61.88309964175221
 20
-34.263214172935157
 30
0.0
  0
VERTEX
  5
4072
  8
L1
 10
61.892416041709957
 20
-34.31985883658686
 30
0.0
  0
VERTEX
  5
4073
  8
L1
 10
61.901529179287763
 20
-34.3767067622951
 30
0.0
  0
SEQEND
  5
4074
  8
L1
  0
POLYLINE
  5
2E80
  8
L1
 66
     1
 10
0.0
 20
0.0
 30
0.0
  0
VERTEX
  5
4075
  8
L1
 10
59.263214172935193
 20
-36.88309964175221
 30
0.0
  0
VERTEX
  5
4076
  8
L1
 10
59.258187265245617
 20
-36.878765071482228
 30
0.0
  0
VERTEX
  5
4077
  8
L1
 10
59.245965950157881
 20
-36.867206662007902
 30
0.0
  0
VERTEX
  5
4078
  8
L1
 10
59.224983031468518
 20
-36.846862727420017
 30
0.0
  0
VERTEX
  5
4079
  8
L1
 10
59.197587405171987
 20
-36.820028179014678
 30
0.0
  0
VERTEX
  5
407A
  8
L1
 10
59.162953301975499
 20
-36.78586227759893
 30
0.0
  0
VERTEX
  5
407B
  8
L1
 10
59.124081047125742
 20
-36.747342135618901
 30
0.0
  0
VERTEX
  5
407C
  8
L1
 10
59.080639129592392
 20
-36.704116422292373
 30
0.0
  0
VERTEX
  5
407D
  8
L1
 10
59.035746534405
 20
-36.659302189691481
 30
0.0
  0
SEQEND
  5
407E
  8
L1
  0
LINE
  5
2E81
  8
L1
 10
59.035746534405
 20
-36.659302189691459
 30
0.0
 11
58.687208996504872
 21
-36.310764651791288
 31
0.0
  0
POLYLINE
  5
2E82
  8
L1
 66
     1
 10
0.0
 20
0.0
 30
0.0
  0
VERTEX
  5
407F
  8
L1
 10
59.37670676229515
 20
-36.901529179287728
 30
0.0
  0
VERTEX
  5
4080
  8
L1
 10
59.31985883658853
 20
-36.89241604171022
 30
0.0
  0
VERTEX
  5
4081
  8
L1
 10
59.263214172935193
 20
-36.883099641752182
 30
0.0
  0
SEQEND
  5
4082
  8
L1
  0
LINE
  5
2E83
  8
L1
 10
61.048761007953999
 20
-23.940067006392042
 30
0.0
 11
56.529651470526801
 21
-23.940067006392042
 31
0.0
  0
POLYLINE
  5
2E84
  8
L1
 66
     1
 10
0.0
 20
0.0
 30
0.0
  0
VERTEX
  5
4083
  8
L1
 10
55.320761883638284
 20
-22.731177419503489
 30
0.0
  0
VERTEX
  5
4084
  8
L1
 10
55.954164661864347
 20
-22.731067602105949
 30
0.0
  0
VERTEX
  5
4085
  8
L1
 10
56.131103641323143
 20
-22.731025240094791
 30
0.0
  0
VERTEX
  5
4086
  8
L1
 10
56.287221051491258
 20
-22.730992769293429
 30
0.0
  0
VERTEX
  5
4087
  8
L1
 10
56.552526941791541
 20
-22.730953684686199
 30
0.0
  0
VERTEX
  5
4088
  8
L1
 10
57.004173447098481
 20
-22.730952227016068
 30
0.0
  0
VERTEX
  5
4089
  8
L1
 10
57.252657173448767
 20
-22.730974587417439
 30
0.0
  0
VERTEX
  5
408A
  8
L1
 10
57.557676623158891
 20
-22.731002162952791
 30
0.0
  0
VERTEX
  5
408B
  8
L1
 10
57.741097105421382
 20
-22.731015520999481
 30
0.0
  0
VERTEX
  5
408C
  8
L1
 10
57.950303351900573
 20
-22.731027320354251
 30
0.0
  0
VERTEX
  5
408D
  8
L1
 10
58.189179307055781
 20
-22.731036606858531
 30
0.0
  0
VERTEX
  5
408E
  8
L1
 10
58.461608915345771
 20
-22.731042426353891
 30
0.0
  0
VERTEX
  5
408F
  8
L1
 10
59.839721278490913
 20
-22.73102727692892
 30
0.0
  0
SEQEND
  5
4090
  8
L1
  0
POLYLINE
  5
2E85
  8
L1
 66
     1
 10
0.0
 20
0.0
 30
0.0
  0
VERTEX
  5
4091
  8
L1
 10
59.839721278490913
 20
-22.73102727692892
 30
0.0
  0
VERTEX
  5
4092
  8
L1
 10
59.849618074194552
 20
-22.731001380695801
 30
0.0
  0
VERTEX
  5
4093
  8
L1
 10
59.886552948854273
 20
-22.730451230834881
 30
0.0
  0
VERTEX
  5
4094
  8
L1
 10
59.925404019348719
 20
-22.729098289545611
 30
0.0
  0
VERTEX
  5
4095
  8
L1
 10
60.036223733195293
 20
-22.720839110099941
 30
0.0
  0
VERTEX
  5
4096
  8
L1
 10
60.205864582817121
 20
-22.695287780611721
 30
0.0
  0
VERTEX
  5
4097
  8
L1
 10
60.209448876169517
 20
-22.694575012660319
 30
0.0
  0
SEQEND
  5
4098
  8
L1
  0
POLYLINE
  5
2E86
  8
L1
 66
     1
 10
0.0
 20
0.0
 30
0.0
  0
VERTEX
  5
4099
  8
L1
 10
60.209448876169517
 20
-22.694575012660319
 30
0.0
  0
VERTEX
  5
409A
  8
L1
 10
60.445005156450009
 20
-22.632536004241409
 30
0.0
  0
VERTEX
  5
409B
  8
L1
 10
60.76627794198356
 20
-22.495631662336841
 30
0.0
  0
VERTEX
  5
409C
  8
L1
 10
61.060731846416672
 20
-22.305882583285211
 30
0.0
  0
VERTEX
  5
409D
  8
L1
 10
61.323207477969561
 20
-22.065098806032719
 30
0.0
  0
VERTEX
  5
409E
  8
L1
 10
61.537775668586562
 20
-21.787917676934281
 30
0.0
  0
VERTEX
  5
409F
  8
L1
 10
61.697004589372057
 20
-21.491390218655791
 30
0.0
  0
SEQEND
  5
40A0
  8
L1
  0
POLYLINE
  5
2E87
  8
L1
 66
     1
 10
0.0
 20
0.0
 30
0.0
  0
VERTEX
  5
40A1
  8
L1
 10
59.73385858899502
 20
-19.374682106857051
 30
0.0
  0
VERTEX
  5
40A2
  8
L1
 10
59.733598110543433
 20
-19.408535280607278
 30
0.0
  0
VERTEX
  5
40A3
  8
L1
 10
59.711496624238578
 20
-19.67646865143865
 30
0.0
  0
VERTEX
  5
40A4
  8
L1
 10
59.648532976621198
 20
-19.937124391716679
 30
0.0
  0
VERTEX
  5
40A5
  8
L1
 10
59.568256477226733
 20
-20.12573937263334
 30
0.0
  0
VERTEX
  5
40A6
  8
L1
 10
59.457940080272181
 20
-20.298154573760989
 30
0.0
  0
VERTEX
  5
40A7
  8
L1
 10
59.308156357018163
 20
-20.456381144554481
 30
0.0
  0
VERTEX
  5
40A8
  8
L1
 10
59.12992585838338
 20
-20.581794059325659
 30
0.0
  0
VERTEX
  5
40A9
  8
L1
 10
58.961475948776361
 20
-20.660488085172432
 30
0.0
  0
VERTEX
  5
40AA
  8
L1
 10
58.783148824912637
 20
-20.713843528978941
 30
0.0
  0
VERTEX
  5
40AB
  8
L1
 10
58.598044604163931
 20
-20.744085028652702
 30
0.0
  0
VERTEX
  5
40AC
  8
L1
 10
58.410487068577311
 20
-20.75353183006137
 30
0.0
  0
SEQEND
  5
40AD
  8
L1
  0
POLYLINE
  5
2E88
  8
L1
 66
     1
 10
0.0
 20
0.0
 30
0.0
  0
VERTEX
  5
40AE
  8
L1
 10
61.85105329936021
 20
-20.74784115877997
 30
0.0
  0
VERTEX
  5
40AF
  8
L1
 10
61.812182668059222
 20
-21.128673880457509
 30
0.0
  0
VERTEX
  5
40B0
  8
L1
 10
61.697004589372057
 20
-21.491390218655791
 30
0.0
  0
SEQEND
  5
40B1
  8
L1
  0
POLYLINE
  5
2E89
  8
L1
 66
     1
 10
0.0
 20
0.0
 30
0.0
  0
VERTEX
  5
40B2
  8
L1
 10
65.012088437774139
 20
-36.556999999999988
 30
0.0
  0
VERTEX
  5
40B3
  8
L1
 10
65.012250207188856
 20
-36.537048032038221
 30
0.0
  0
VERTEX
  5
40B4
  8
L1
 10
65.012304130909214
 20
-36.517100759268168
 30
0.0
  0
SEQEND
  5
40B5
  8
L1
  0
POLYLINE
  5
2E8A
  8
L1
 66
     1
 10
0.0
 20
0.0
 30
0.0
  0
VERTEX
  5
40B6
  8
L1
 10
63.665886064679057
 20
35.170682693038032
 30
0.0
  0
VERTEX
  5
40B7
  8
L1
 10
63.663032019461518
 20
35.311531105414979
 30
0.0
  0
VERTEX
  5
40B8
  8
L1
 10
63.65451847608432
 20
35.452137227030903
 30
0.0
  0
VERTEX
  5
40B9
  8
L1
 10
63.640359195435849
 20
35.592273788807937
 30
0.0
  0
VERTEX
  5
40BA
  8
L1
 10
63.620577063906808
 20
35.731714280642507
 30
0.0
  0
VERTEX
  5
40BB
  8
L1
 10
63.595204056398302
 20
35.870233317525418
 30
0.0
  0
VERTEX
  5
40BC
  8
L1
 10
63.564281184638098
 20
36.007607003843809
 30
0.0
  0
VERTEX
  5
40BD
  8
L1
 10
63.527858430892188
 20
36.14361329527506
 30
0.0
  0
VERTEX
  5
40BE
  8
L1
 10
63.485994667175191
 20
36.27803235768905
 30
0.0
  0
VERTEX
  5
40BF
  8
L1
 10
63.438757560092817
 20
36.410646922477412
 30
0.0
  0
VERTEX
  5
40C0
  8
L1
 10
63.386223461468383
 20
36.54124263773636
 30
0.0
  0
VERTEX
  5
40C1
  8
L1
 10
63.328477284931687
 20
36.669608414734881
 30
0.0
  0
VERTEX
  5
40C2
  8
L1
 10
63.265612368668478
 20
36.79553676910853
 30
0.0
  0
VERTEX
  5
40C3
  8
L1
 10
63.197730324553099
 20
36.918824156227537
 30
0.0
  0
VERTEX
  5
40C4
  8
L1
 10
63.124940873907569
 20
37.03927130019639
 30
0.0
  0
VERTEX
  5
40C5
  8
L1
 10
63.047361670153741
 20
37.156683515954249
 30
0.0
  0
VERTEX
  5
40C6
  8
L1
 10
62.965118108643587
 20
37.270871023954527
 30
0.0
  0
VERTEX
  5
40C7
  8
L1
 10
62.878343123975981
 20
37.381649256915551
 30
0.0
  0
VERTEX
  5
40C8
  8
L1
 10
62.787176975127693
 20
37.48883915814644
 30
0.0
  0
VERTEX
  5
40C9
  8
L1
 10
62.691767018745558
 20
37.592267470965758
 30
0.0
  0
VERTEX
  5
40CA
  8
L1
 10
62.59226747096573
 20
37.691767018745587
 30
0.0
  0
VERTEX
  5
40CB
  8
L1
 10
62.488839158146391
 20
37.787176975127778
 30
0.0
  0
VERTEX
  5
40CC
  8
L1
 10
62.38164925691558
 20
37.878343123976009
 30
0.0
  0
VERTEX
  5
40CD
  8
L1
 10
62.270871023954548
 20
37.965118108643587
 30
0.0
  0
VERTEX
  5
40CE
  8
L1
 10
62.156683515954292
 20
38.047361670153769
 30
0.0
  0
VERTEX
  5
40CF
  8
L1
 10
62.03927130019639
 20
38.124940873907569
 30
0.0
  0
VERTEX
  5
40D0
  8
L1
 10
61.918824156227508
 20
38.197730324553099
 30
0.0
  0
VERTEX
  5
40D1
  8
L1
 10
61.79553676910853
 20
38.265612368668542
 30
0.0
  0
VERTEX
  5
40D2
  8
L1
 10
61.66960841473491
 20
38.328477284931751
 30
0.0
  0
VERTEX
  5
40D3
  8
L1
 10
61.541242637736332
 20
38.386223461468433
 30
0.0
  0
VERTEX
  5
40D4
  8
L1
 10
61.41064692247744
 20
38.438757560092853
 30
0.0
  0
VERTEX
  5
40D5
  8
L1
 10
61.278032357689078
 20
38.485994667175248
 30
0.0
  0
VERTEX
  5
40D6
  8
L1
 10
61.143613295275031
 20
38.527858430892223
 30
0.0
  0
VERTEX
  5
40D7
  8
L1
 10
61.007607003843809
 20
38.564281184638133
 30
0.0
  0
VERTEX
  5
40D8
  8
L1
 10
60.87023331752544
 20
38.59520405639833
 30
0.0
  0
VERTEX
  5
40D9
  8
L1
 10
60.731714280642507
 20
38.620577063906921
 30
0.0
  0
VERTEX
  5
40DA
  8
L1
 10
60.592273788807972
 20
38.640359195435849
 30
0.0
  0
VERTEX
  5
40DB
  8
L1
 10
60.452137227030903
 20
38.65451847608437
 30
0.0
  0
VERTEX
  5
40DC
  8
L1
 10
60.311531105414929
 20
38.663032019461582
 30
0.0
  0
VERTEX
  5
40DD
  8
L1
 10
60.170682693038032
 20
38.66588606467905
 30
0.0
  0
SEQEND
  5
40DE
  8
L1
  0
POLYLINE
  5
2E8B
  8
L1
 66
     1
 10
0.0
 20
0.0
 30
0.0
  0
VERTEX
  5
40DF
  8
L1
 10
65.012088437774139
 20
36.556999999999952
 30
0.0
  0
VERTEX
  5
40E0
  8
L1
 10
64.993014072386075
 20
36.88563056863228
 30
0.0
  0
VERTEX
  5
40E1
  8
L1
 10
64.941714390114441
 20
37.218787602445268
 30
0.0
  0
VERTEX
  5
40E2
  8
L1
 10
64.857024460342984
 20
37.550151943173908
 30
0.0
  0
VERTEX
  5
40E3
  8
L1
 10
64.739585002002514
 20
37.873772386241001
 30
0.0
  0
VERTEX
  5
40E4
  8
L1
 10
64.590756499000634
 20
38.184196702883348
 30
0.0
  0
VERTEX
  5
40E5
  8
L1
 10
64.413440750186169
 20
38.476619230896063
 30
0.0
  0
VERTEX
  5
40E6
  8
L1
 10
64.21140061558026
 20
38.74639901824434
 30
0.0
  0
VERTEX
  5
40E7
  8
L1
 10
63.989929119073679
 20
38.989929119073679
 30
0.0
  0
VERTEX
  5
40E8
  8
L1
 10
63.746399018244411
 20
39.211400615580253
 30
0.0
  0
VERTEX
  5
40E9
  8
L1
 10
63.476619230896119
 20
39.413440750186112
 30
0.0
  0
VERTEX
  5
40EA
  8
L1
 10
63.184196702883412
 20
39.59075649900057
 30
0.0
  0
VERTEX
  5
40EB
  8
L1
 10
62.873772386241001
 20
39.739585002002507
 30
0.0
  0
VERTEX
  5
40EC
  8
L1
 10
62.55015194317383
 20
39.857024460342977
 30
0.0
  0
VERTEX
  5
40ED
  8
L1
 10
62.218787602445282
 20
39.941714390114377
 30
0.0
  0
VERTEX
  5
40EE
  8
L1
 10
61.885630568632394
 20
39.993014072386011
 30
0.0
  0
VERTEX
  5
40EF
  8
L1
 10
61.557000000000023
 20
40.012088437774111
 30
0.0
  0
SEQEND
  5
40F0
  8
L1
  0
POLYLINE
  5
2E8C
  8
L1
 66
     1
 10
0.0
 20
0.0
 30
0.0
  0
VERTEX
  5
40F1
  8
L1
 10
61.048761007953999
 20
23.940067006392042
 30
0.0
  0
VERTEX
  5
40F2
  8
L1
 10
61.233253710747981
 20
23.931601455057312
 30
0.0
  0
VERTEX
  5
40F3
  8
L1
 10
61.41612656527446
 20
23.906175997220341
 30
0.0
  0
VERTEX
  5
40F4
  8
L1
 10
61.595824797399189
 20
23.86400679861168
 30
0.0
  0
VERTEX
  5
40F5
  8
L1
 10
61.770820623438851
 20
23.80545237925022
 30
0.0
  0
VERTEX
  5
40F6
  8
L1
 10
61.939626239287229
 20
23.73101056532721
 30
0.0
  0
VERTEX
  5
40F7
  8
L1
 10
62.100806469636723
 20
23.64131425671777
 30
0.0
  0
VERTEX
  5
40F8
  8
L1
 10
62.252990969754023
 20
23.537126046103701
 30
0.0
  0
VERTEX
  5
40F9
  8
L1
 10
62.394885876069168
 20
23.419331735455749
 30
0.0
  0
VERTEX
  5
40FA
  8
L1
 10
62.52528480652682
 20
23.28893280499809
 30
0.0
  0
VERTEX
  5
40FB
  8
L1
 10
62.6430791171748
 20
23.147037898682949
 30
0.0
  0
VERTEX
  5
40FC
  8
L1
 10
62.74726732778884
 20
22.994853398565649
 30
0.0
  0
VERTEX
  5
40FD
  8
L1
 10
62.836963636398309
 20
22.83367316821613
 30
0.0
  0
VERTEX
  5
40FE
  8
L1
 10
62.911405450321297
 20
22.664867552367809
 30
0.0
  0
VERTEX
  5
40FF
  8
L1
 10
62.969959869682782
 20
22.48987172632809
 30
0.0
  0
VERTEX
  5
4100
  8
L1
 10
63.012129068291422
 20
22.310173494203351
 30
0.0
  0
VERTEX
  5
4101
  8
L1
 10
63.037554526128417
 20
22.127300639676911
 30
0.0
  0
VERTEX
  5
4102
  8
L1
 10
63.04602007746314
 20
21.942807936882922
 30
0.0
  0
SEQEND
  5
4103
  8
L1
  0
CIRCLE
  5
2E8D
  8
L1
 10
56.749999999999943
 20
31.75
 30
0.0
 40
6.097393363178492
  0
LINE
  5
2E8E
  8
L1
 10
-46.94280793688295
 20
38.046020077463112
 30
0.0
 11
46.9428079368829
 21
38.04602007746314
 31
0.0
  0
LINE
  5
2E8F
  8
L1
 10
45.747841158779977
 20
36.851053299360238
 30
0.0
 11
-45.747841158780091
 21
36.85105329936021
 31
0.0
  0
LINE
  5
2E90
  8
L1
 10
-44.012304130909278
 20
21.01230413090914
 30
0.0
 11
44.012304130909172
 21
21.0123041309092
 31
0.0
  0
LINE
  5
2E91
  8
L1
 10
-44.37464353298418
 20
34.733858588995041
 30
0.0
 11
44.374682106857733
 21
34.733858588995069
 31
0.0
  0
LINE
  5
2E92
  8
L1
 10
61.517100759268203
 20
40.0123041309092
 30
0.0
 11
-61.517100759268203
 21
40.012304130909143
 31
0.0
  0
LINE
  5
2E93
  8
L1
 10
60.170682693038032
 20
38.665886064679029
 30
0.0
 11
-60.170682693038032
 21
38.665886064679
 31
0.0
  0
POLYLINE
  5
2E94
  8
L1
 66
     1
 10
0.0
 20
0.0
 30
0.0
  0
VERTEX
  5
4104
  8
L1
 10
-61.557000000000023
 20
40.012088437774047
 30
0.0
  0
VERTEX
  5
4105
  8
L1
 10
-61.885630568632337
 20
39.993014072385961
 30
0.0
  0
VERTEX
  5
4106
  8
L1
 10
-62.218787602445332
 20
39.941714390114349
 30
0.0
  0
VERTEX
  5
4107
  8
L1
 10
-62.550151943173937
 20
39.85702446034292
 30
0.0
  0
VERTEX
  5
4108
  8
L1
 10
-62.873772386241001
 20
39.739585002002393
 30
0.0
  0
VERTEX
  5
4109
  8
L1
 10
-63.184196702883348
 20
39.59075649900052
 30
0.0
  0
VERTEX
  5
410A
  8
L1
 10
-63.476619230896119
 20
39.413440750186084
 30
0.0
  0
VERTEX
  5
410B
  8
L1
 10
-63.74639901824434
 20
39.211400615580231
 30
0.0
  0
VERTEX
  5
410C
  8
L1
 10
-63.989929119073679
 20
38.989929119073679
 30
0.0
  0
VERTEX
  5
410D
  8
L1
 10
-64.211400615580317
 20
38.746399018244283
 30
0.0
  0
VERTEX
  5
410E
  8
L1
 10
-64.413440750186112
 20
38.476619230896091
 30
0.0
  0
VERTEX
  5
410F
  8
L1
 10
-64.590756499000577
 20
38.184196702883348
 30
0.0
  0
VERTEX
  5
4110
  8
L1
 10
-64.739585002002514
 20
37.873772386241022
 30
0.0
  0
VERTEX
  5
4111
  8
L1
 10
-64.857024460343041
 20
37.550151943173908
 30
0.0
  0
VERTEX
  5
4112
  8
L1
 10
-64.941714390114441
 20
37.218787602445268
 30
0.0
  0
VERTEX
  5
4113
  8
L1
 10
-64.993014072386131
 20
36.88563056863228
 30
0.0
  0
VERTEX
  5
4114
  8
L1
 10
-65.012088437774139
 20
36.556999999999952
 30
0.0
  0
SEQEND
  5
4115
  8
L1
  0
ARC
  5
2E95
  8
L1
 10
-44.012304130909278
 20
19.01230413090914
 30
0.0
 40
2.0
 50
90.0
 51
180.0
  0
POLYLINE
  5
2E96
  8
L1
 66
     1
 10
0.0
 20
0.0
 30
0.0
  0
VERTEX
  5
4116
  8
L1
 10
-59.733858588995133
 20
19.374682106859382
 30
0.0
  0
VERTEX
  5
4117
  8
L1
 10
-59.733598139057158
 20
19.40853343584444
 30
0.0
  0
VERTEX
  5
4118
  8
L1
 10
-59.711496863045909
 20
19.676467114826291
 30
0.0
  0
VERTEX
  5
4119
  8
L1
 10
-59.648533382148401
 20
19.937123191849128
 30
0.0
  0
VERTEX
  5
411A
  8
L1
 10
-59.568257016478121
 20
20.125738343187891
 30
0.0
  0
VERTEX
  5
411B
  8
L1
 10
-59.457940728073481
 20
20.298153736696062
 30
0.0
  0
VERTEX
  5
411C
  8
L1
 10
-59.308157166269893
 20
20.456380445420759
 30
0.0
  0
VERTEX
  5
411D
  8
L1
 10
-59.129926799364569
 20
20.581793525942569
 30
0.0
  0
VERTEX
  5
411E
  8
L1
 10
-58.961476866409548
 20
20.660487738721141
 30
0.0
  0
VERTEX
  5
411F
  8
L1
 10
-58.7831496827921
 20
20.713843333975429
 30
0.0
  0
VERTEX
  5
4120
  8
L1
 10
-58.598045041821187
 20
20.7440849832659
 30
0.0
  0
VERTEX
  5
4121
  8
L1
 10
-58.410487068577417
 20
20.75353183006132
 30
0.0
  0
SEQEND
  5
4122
  8
L1
  0
POLYLINE
  5
2E97
  8
L1
 66
     1
 10
0.0
 20
0.0
 30
0.0
  0
VERTEX
  5
4123
  8
L1
 10
-60.170682693038032
 20
38.665886064679
 30
0.0
  0
VERTEX
  5
4124
  8
L1
 10
-60.311531105414993
 20
38.663032019461518
 30
0.0
  0
VERTEX
  5
4125
  8
L1
 10
-60.452137227030953
 20
38.654518476084313
 30
0.0
  0
VERTEX
  5
4126
  8
L1
 10
-60.592273788807972
 20
38.640359195435821
 30
0.0
  0
VERTEX
  5
4127
  8
L1
 10
-60.731714280642557
 20
38.620577063906858
 30
0.0
  0
VERTEX
  5
4128
  8
L1
 10
-60.87023331752544
 20
38.595204056398273
 30
0.0
  0
VERTEX
  5
4129
  8
L1
 10
-61.007607003843809
 20
38.56428118463807
 30
0.0
  0
VERTEX
  5
412A
  8
L1
 10
-61.143613295275081
 20
38.527858430892167
 30
0.0
  0
VERTEX
  5
412B
  8
L1
 10
-61.278032357689142
 20
38.485994667175213
 30
0.0
  0
VERTEX
  5
412C
  8
L1
 10
-61.41064692247744
 20
38.438757560092789
 30
0.0
  0
VERTEX
  5
412D
  8
L1
 10
-61.541242637736381
 20
38.386223461468397
 30
0.0
  0
VERTEX
  5
412E
  8
L1
 10
-61.66960841473491
 20
38.328477284931722
 30
0.0
  0
VERTEX
  5
412F
  8
L1
 10
-61.795536769108601
 20
38.265612368668513
 30
0.0
  0
VERTEX
  5
4130
  8
L1
 10
-61.918824156227572
 20
38.197730324553071
 30
0.0
  0
VERTEX
  5
4131
  8
L1
 10
-62.039271300196447
 20
38.124940873907548
 30
0.0
  0
VERTEX
  5
4132
  8
L1
 10
-62.156683515954292
 20
38.047361670153741
 30
0.0
  0
VERTEX
  5
4133
  8
L1
 10
-62.270871023954612
 20
37.965118108643537
 30
0.0
  0
VERTEX
  5
4134
  8
L1
 10
-62.38164925691563
 20
37.878343123975952
 30
0.0
  0
VERTEX
  5
4135
  8
L1
 10
-62.488839158146497
 20
37.787176975127721
 30
0.0
  0
VERTEX
  5
4136
  8
L1
 10
-62.592267470965851
 20
37.691767018745558
 30
0.0
  0
VERTEX
  5
4137
  8
L1
 10
-62.691767018745679
 20
37.59226747096573
 30
0.0
  0
VERTEX
  5
4138
  8
L1
 10
-62.787176975127807
 20
37.488839158146419
 30
0.0
  0
VERTEX
  5
4139
  8
L1
 10
-62.87834312397603
 20
37.381649256915551
 30
0.0
  0
VERTEX
  5
413A
  8
L1
 10
-62.965118108643587
 20
37.270871023954491
 30
0.0
  0
VERTEX
  5
413B
  8
L1
 10
-63.047361670153862
 20
37.156683515954221
 30
0.0
  0
VERTEX
  5
413C
  8
L1
 10
-63.12494087390764
 20
37.039271300196361
 30
0.0
  0
VERTEX
  5
413D
  8
L1
 10
-63.197730324553099
 20
36.91882415622748
 30
0.0
  0
VERTEX
  5
413E
  8
L1
 10
-63.265612368668599
 20
36.795536769108509
 30
0.0
  0
VERTEX
  5
413F
  8
L1
 10
-63.328477284931807
 20
36.669608414734817
 30
0.0
  0
VERTEX
  5
4140
  8
L1
 10
-63.386223461468433
 20
36.541242637736332
 30
0.0
  0
VERTEX
  5
4141
  8
L1
 10
-63.438757560092817
 20
36.410646922477348
 30
0.0
  0
VERTEX
  5
4142
  8
L1
 10
-63.485994667175248
 20
36.278032357689
 30
0.0
  0
VERTEX
  5
4143
  8
L1
 10
-63.527858430892188
 20
36.143613295275003
 30
0.0
  0
VERTEX
  5
4144
  8
L1
 10
-63.564281184638098
 20
36.007607003843759
 30
0.0
  0
VERTEX
  5
4145
  8
L1
 10
-63.595204056398359
 20
35.87023331752539
 30
0.0
  0
VERTEX
  5
4146
  8
L1
 10
-63.620577063906921
 20
35.73171428064245
 30
0.0
  0
VERTEX
  5
4147
  8
L1
 10
-63.640359195435899
 20
35.592273788807908
 30
0.0
  0
VERTEX
  5
4148
  8
L1
 10
-63.65451847608437
 20
35.452137227030839
 30
0.0
  0
VERTEX
  5
4149
  8
L1
 10
-63.663032019461582
 20
35.311531105414929
 30
0.0
  0
VERTEX
  5
414A
  8
L1
 10
-63.665886064679057
 20
35.170682693037968
 30
0.0
  0
SEQEND
  5
414B
  8
L1
  0
LINE
  5
2E98
  8
L1
 10
-56.968840929871298
 20
26.799700862313159
 30
0.0
 11
-61.700299137686841
 21
31.531159070128691
 31
0.0
  0
LINE
  5
2E99
  8
L1
 10
-61.048761007954049
 20
23.940067006392042
 30
0.0
 11
-56.529651470526908
 21
23.940067006392042
 31
0.0
  0
POLYLINE
  5
2E9A
  8
L1
 66
     1
 10
0.0
 20
0.0
 30
0.0
  0
VERTEX
  5
414C
  8
L1
 10
-60.209448876169631
 20
22.694575012660351
 30
0.0
  0
VERTEX
  5
414D
  8
L1
 10
-60.464533943839399
 20
22.62600839141092
 30
0.0
  0
VERTEX
  5
414E
  8
L1
 10
-60.784366438222207
 20
22.485918177635419
 30
0.0
  0
VERTEX
  5
414F
  8
L1
 10
-61.076767363685349
 20
22.293394914636451
 30
0.0
  0
VERTEX
  5
4150
  8
L1
 10
-61.337170008312107
 20
22.049745318235288
 30
0.0
  0
VERTEX
  5
4151
  8
L1
 10
-61.549060905523618
 20
21.77028230934215
 30
0.0
  0
VERTEX
  5
4152
  8
L1
 10
-61.697004589372057
 20
21.491390218655759
 30
0.0
  0
SEQEND
  5
4153
  8
L1
  0
CIRCLE
  5
2E9B
  8
L1
 10
-56.750000000000057
 20
31.749999999999972
 30
0.0
 40
6.097393363178492
  0
CIRCLE
  5
2E9C
  8
L1
 10
-56.750000000000057
 20
31.749999999999972
 30
0.0
 40
5.797404786259249
  0
POLYLINE
  5
2E9D
  8
L1
 66
     1
 10
0.0
 20
0.0
 30
0.0
  0
VERTEX
  5
4154
  8
L1
 10
-61.851053299360267
 20
20.74784115877997
 30
0.0
  0
VERTEX
  5
4155
  8
L1
 10
-61.812182668059272
 20
21.128673880457541
 30
0.0
  0
VERTEX
  5
4156
  8
L1
 10
-61.697004589372057
 20
21.491390218655759
 30
0.0
  0
SEQEND
  5
4157
  8
L1
  0
POLYLINE
  5
2E9E
  8
L1
 66
     1
 10
0.0
 20
0.0
 30
0.0
  0
VERTEX
  5
4158
  8
L1
 10
-63.046020077463197
 20
21.9428079368829
 30
0.0
  0
VERTEX
  5
4159
  8
L1
 10
-63.037554526128417
 20
22.127300639676889
 30
0.0
  0
VERTEX
  5
415A
  8
L1
 10
-63.012129068291472
 20
22.310173494203319
 30
0.0
  0
VERTEX
  5
415B
  8
L1
 10
-62.969959869682782
 20
22.48987172632803
 30
0.0
  0
VERTEX
  5
415C
  8
L1
 10
-62.911405450321347
 20
22.664867552367781
 30
0.0
  0
VERTEX
  5
415D
  8
L1
 10
-62.836963636398373
 20
22.83367316821613
 30
0.0
  0
VERTEX
  5
415E
  8
L1
 10
-62.747267327788911
 20
22.994853398565649
 30
0.0
  0
VERTEX
  5
415F
  8
L1
 10
-62.6430791171748
 20
23.147037898682949
 30
0.0
  0
VERTEX
  5
4160
  8
L1
 10
-62.525284806526891
 20
23.28893280499809
 30
0.0
  0
VERTEX
  5
4161
  8
L1
 10
-62.394885876069218
 20
23.419331735455749
 30
0.0
  0
VERTEX
  5
4162
  8
L1
 10
-62.25299096975408
 20
23.53712604610368
 30
0.0
  0
VERTEX
  5
4163
  8
L1
 10
-62.10080646963678
 20
23.64131425671777
 30
0.0
  0
VERTEX
  5
4164
  8
L1
 10
-61.939626239287293
 20
23.73101056532721
 30
0.0
  0
VERTEX
  5
4165
  8
L1
 10
-61.770820623438908
 20
23.80545237925022
 30
0.0
  0
VERTEX
  5
4166
  8
L1
 10
-61.595824797399189
 20
23.86400679861168
 30
0.0
  0
VERTEX
  5
4167
  8
L1
 10
-61.41612656527446
 20
23.906175997220341
 30
0.0
  0
VERTEX
  5
4168
  8
L1
 10
-61.233253710747981
 20
23.931601455057312
 30
0.0
  0
VERTEX
  5
4169
  8
L1
 10
-61.048761007954049
 20
23.940067006392042
 30
0.0
  0
SEQEND
  5
416A
  8
L1
  0
ARC
  5
2E9F
  8
L1
 10
-56.750000000000057
 20
31.74999999999994
 30
0.0
 40
4.9551339946734032
 50
156.98638392760739
 51
182.5312617932903
  0
LINE
  5
2EA0
  8
L1
 10
-61.31076465179131
 20
33.687208996504751
 30
0.0
 11
-61.659302189691573
 21
34.035746534404979
 31
0.0
  0
POLYLINE
  5
2EA1
  8
L1
 66
     1
 10
0.0
 20
0.0
 30
0.0
  0
VERTEX
  5
416B
  8
L1
 10
-61.659302189691573
 20
34.03574653440495
 30
0.0
  0
VERTEX
  5
416C
  8
L1
 10
-61.704116422292429
 20
34.080639129592321
 30
0.0
  0
VERTEX
  5
416D
  8
L1
 10
-61.747342135619022
 20
34.124081047125678
 30
0.0
  0
VERTEX
  5
416E
  8
L1
 10
-61.785862277598987
 20
34.16295330197547
 30
0.0
  0
VERTEX
  5
416F
  8
L1
 10
-61.820028179014741
 20
34.197587405171902
 30
0.0
  0
VERTEX
  5
4170
  8
L1
 10
-61.846862727420103
 20
34.224983031468469
 30
0.0
  0
VERTEX
  5
4171
  8
L1
 10
-61.867206662007959
 20
34.24596595015776
 30
0.0
  0
VERTEX
  5
4172
  8
L1
 10
-61.878765071482292
 20
34.258187265245532
 30
0.0
  0
VERTEX
  5
4173
  8
L1
 10
-61.883099641752267
 20
34.263214172935108
 30
0.0
  0
SEQEND
  5
4174
  8
L1
  0
POLYLINE
  5
2EA2
  8
L1
 66
     1
 10
0.0
 20
0.0
 30
0.0
  0
VERTEX
  5
4175
  8
L1
 10
-61.883099641752267
 20
34.263214172935072
 30
0.0
  0
VERTEX
  5
4176
  8
L1
 10
-61.892416041710128
 20
34.319858836587031
 30
0.0
  0
VERTEX
  5
4177
  8
L1
 10
-61.901529179287877
 20
34.376706762295008
 30
0.0
  0
SEQEND
  5
4178
  8
L1
  0
POLYLINE
  5
2EA3
  8
L1
 66
     1
 10
0.0
 20
0.0
 30
0.0
  0
VERTEX
  5
4179
  8
L1
 10
-65.012088437774139
 20
36.556999999999952
 30
0.0
  0
VERTEX
  5
417A
  8
L1
 10
-65.01225020718897
 20
36.537048032038172
 30
0.0
  0
VERTEX
  5
417B
  8
L1
 10
-65.012304130909286
 20
36.517100759268111
 30
0.0
  0
SEQEND
  5
417C
  8
L1
  0
POLYLINE
  5
2EA4
  8
L1
 66
     1
 10
0.0
 20
0.0
 30
0.0
  0
VERTEX
  5
417D
  8
L1
 10
-47.73119792081598
 20
30.320782384950689
 30
0.0
  0
VERTEX
  5
417E
  8
L1
 10
-47.73134011044521
 20
30.2745285099003
 30
0.0
  0
VERTEX
  5
417F
  8
L1
 10
-47.735147577404803
 20
30.07971626079711
 30
0.0
  0
VERTEX
  5
4180
  8
L1
 10
-47.76148957996724
 20
29.65434530680022
 30
0.0
  0
VERTEX
  5
4181
  8
L1
 10
-47.783626368725599
 20
29.443648320933931
 30
0.0
  0
VERTEX
  5
4182
  8
L1
 10
-47.818253940849488
 20
29.190406214032631
 30
0.0
  0
VERTEX
  5
4183
  8
L1
 10
-47.868982863105877
 20
28.89913739365408
 30
0.0
  0
VERTEX
  5
4184
  8
L1
 10
-47.939423702261593
 20
28.574360267355981
 30
0.0
  0
VERTEX
  5
4185
  8
L1
 10
-48.068720341380583
 20
28.102463247973329
 30
0.0
  0
VERTEX
  5
4186
  8
L1
 10
-48.227961217955283
 20
27.640184031558359
 30
0.0
  0
VERTEX
  5
4187
  8
L1
 10
-48.416600588239703
 20
27.18900711982155
 30
0.0
  0
VERTEX
  5
4188
  8
L1
 10
-48.634092708487692
 20
26.750417014473349
 30
0.0
  0
VERTEX
  5
4189
  8
L1
 10
-49.011544102015421
 20
26.12159471933316
 30
0.0
  0
VERTEX
  5
418A
  8
L1
 10
-49.447658529264338
 20
25.531802437312869
 30
0.0
  0
VERTEX
  5
418B
  8
L1
 10
-49.693377756152813
 20
25.245629700028161
 30
0.0
  0
VERTEX
  5
418C
  8
L1
 10
-49.952800165015383
 20
24.972111510275681
 30
0.0
  0
VERTEX
  5
418D
  8
L1
 10
-50.225434652232821
 20
24.711745060094749
 30
0.0
  0
VERTEX
  5
418E
  8
L1
 10
-50.510790114185852
 20
24.465027541524812
 30
0.0
  0
VERTEX
  5
418F
  8
L1
 10
-51.042093674501587
 20
24.065647524671562
 30
0.0
  0
VERTEX
  5
4190
  8
L1
 10
-51.606167470230552
 20
23.713930872882401
 30
0.0
  0
VERTEX
  5
4191
  8
L1
 10
-52.186023013525983
 20
23.418358227207531
 30
0.0
  0
VERTEX
  5
4192
  8
L1
 10
-52.78893389120509
 20
23.17339280696353
 30
0.0
  0
VERTEX
  5
4193
  8
L1
 10
-53.275410070637861
 20
23.017642363475598
 30
0.0
  0
VERTEX
  5
4194
  8
L1
 10
-53.713902935417138
 20
22.90725436081339
 30
0.0
  0
VERTEX
  5
4195
  8
L1
 10
-54.095945040031211
 20
22.83346678633086
 30
0.0
  0
VERTEX
  5
4196
  8
L1
 10
-54.413068938968081
 20
22.787517627381991
 30
0.0
  0
VERTEX
  5
4197
  8
L1
 10
-54.80466828278287
 20
22.749395916046549
 30
0.0
  0
VERTEX
  5
4198
  8
L1
 10
-55.14707812058095
 20
22.733238830100099
 30
0.0
  0
VERTEX
  5
4199
  8
L1
 10
-55.317786475224352
 20
22.731177986682582
 30
0.0
  0
VERTEX
  5
419A
  8
L1
 10
-55.32076188363834
 20
22.731177419503521
 30
0.0
  0
SEQEND
  5
419B
  8
L1
  0
POLYLINE
  5
2EA5
  8
L1
 66
     1
 10
0.0
 20
0.0
 30
0.0
  0
VERTEX
  5
419C
  8
L1
 10
-56.529651470526858
 20
23.940067006392042
 30
0.0
  0
VERTEX
  5
419D
  8
L1
 10
-56.334061895555749
 20
23.942595199914301
 30
0.0
  0
VERTEX
  5
419E
  8
L1
 10
-56.138614968522063
 20
23.950149987680021
 30
0.0
  0
VERTEX
  5
419F
  8
L1
 10
-55.943439831900093
 20
23.962726377827771
 30
0.0
  0
VERTEX
  5
41A0
  8
L1
 10
-55.748665448577349
 20
23.9803160604487
 30
0.0
  0
VERTEX
  5
41A1
  8
L1
 10
-55.554420516641642
 20
24.002907413077558
 30
0.0
  0
VERTEX
  5
41A2
  8
L1
 10
-55.360833384343152
 20
24.030485508371981
 30
0.0
  0
VERTEX
  5
41A3
  8
L1
 10
-55.168031965288208
 20
24.063032123976139
 30
0.0
  0
VERTEX
  5
41A4
  8
L1
 10
-54.976143653919102
 20
24.100525754561001
 30
0.0
  0
VERTEX
  5
41A5
  8
L1
 10
-54.785295241338133
 20
24.142941626034251
 30
0.0
  0
VERTEX
  5
41A6
  8
L1
 10
-54.595612831529543
 20
24.190251711909749
 30
0.0
  0
VERTEX
  5
41A7
  8
L1
 10
-54.407221758035753
 20
24.242424751826231
 30
0.0
  0
VERTEX
  5
41A8
  8
L1
 10
-54.22024650114264
 20
24.29942627220273
 30
0.0
  0
VERTEX
  5
41A9
  8
L1
 10
-54.03481060562865
 20
24.361218609017161
 30
0.0
  0
VERTEX
  5
41AA
  8
L1
 10
-53.85103659913193
 20
24.427760932692959
 30
0.0
  0
VERTEX
  5
41AB
  8
L1
 10
-53.669045911189698
 20
24.499009275077551
 30
0.0
  0
VERTEX
  5
41AC
  8
L1
 10
-53.488958793003121
 20
24.574916558494291
 30
0.0
  0
VERTEX
  5
41AD
  8
L1
 10
-53.310894237980563
 20
24.655432626849461
 30
0.0
  0
VERTEX
  5
41AE
  8
L1
 10
-53.134969903112449
 20
24.74050427877307
 30
0.0
  0
VERTEX
  5
41AF
  8
L1
 10
-52.961302031228684
 20
24.830075302771888
 30
0.0
  0
VERTEX
  5
41B0
  8
L1
 10
-52.790005374190457
 20
24.924086514371389
 30
0.0
  0
VERTEX
  5
41B1
  8
L1
 10
-52.621193117067889
 20
25.022475795222419
 30
0.0
  0
VERTEX
  5
41B2
  8
L1
 10
-52.454976803351997
 20
25.125178134145891
 30
0.0
  0
VERTEX
  5
41B3
  8
L1
 10
-52.291466261252197
 20
25.232125670089431
 30
0.0
  0
VERTEX
  5
41B4
  8
L1
 10
-52.130769531126418
 20
25.343247736966699
 30
0.0
  0
VERTEX
  5
41B5
  8
L1
 10
-51.972992794093209
 20
25.458470910350648
 30
0.0
  0
VERTEX
  5
41B6
  8
L1
 10
-51.818240301872038
 20
25.577719055988641
 30
0.0
  0
VERTEX
  5
41B7
  8
L1
 10
-51.666614307898328
 20
25.700913380108879
 30
0.0
  0
VERTEX
  5
41B8
  8
L1
 10
-51.518214999759209
 20
25.827972481483581
 30
0.0
  0
VERTEX
  5
41B9
  8
L1
 10
-51.3731404329938
 20
25.958812405215209
 30
0.0
  0
VERTEX
  5
41BA
  8
L1
 10
-51.231486466303117
 20
26.09334669821018
 30
0.0
  0
VERTEX
  5
41BB
  8
L1
 10
-51.093346698210269
 20
26.231486466303039
 30
0.0
  0
VERTEX
  5
41BC
  8
L1
 10
-50.958812405215269
 20
26.373140432993779
 30
0.0
  0
VERTEX
  5
41BD
  8
L1
 10
-50.827972481483641
 20
26.51821499975912
 30
0.0
  0
VERTEX
  5
41BE
  8
L1
 10
-50.700913380108943
 20
26.666614307898271
 30
0.0
  0
VERTEX
  5
41BF
  8
L1
 10
-50.57771905598873
 20
26.818240301871949
 30
0.0
  0
VERTEX
  5
41C0
  8
L1
 10
-50.458470910350741
 20
26.97299279409313
 30
0.0
  0
VERTEX
  5
41C1
  8
L1
 10
-50.343247736966809
 20
27.130769531126301
 30
0.0
  0
VERTEX
  5
41C2
  8
L1
 10
-50.232125670089488
 20
27.291466261252079
 30
0.0
  0
VERTEX
  5
41C3
  8
L1
 10
-50.125178134145983
 20
27.454976803351911
 30
0.0
  0
VERTEX
  5
41C4
  8
L1
 10
-50.022475795222469
 20
27.621193117067769
 30
0.0
  0
VERTEX
  5
41C5
  8
L1
 10
-49.924086514371481
 20
27.790005374190368
 30
0.0
  0
VERTEX
  5
41C6
  8
L1
 10
-49.830075302771952
 20
27.961302031228598
 30
0.0
  0
VERTEX
  5
41C7
  8
L1
 10
-49.74050427877313
 20
28.134969903112388
 30
0.0
  0
VERTEX
  5
41C8
  8
L1
 10
-49.655432626849517
 20
28.310894237980499
 30
0.0
  0
VERTEX
  5
41C9
  8
L1
 10
-49.574916558494351
 20
28.488958793003
 30
0.0
  0
VERTEX
  5
41CA
  8
L1
 10
-49.49900927507764
 20
28.66904591118961
 30
0.0
  0
VERTEX
  5
41CB
  8
L1
 10
-49.427760932693047
 20
28.851036599131842
 30
0.0
  0
VERTEX
  5
41CC
  8
L1
 10
-49.361218609017207
 20
29.034810605628529
 30
0.0
  0
VERTEX
  5
41CD
  8
L1
 10
-49.299426272202773
 20
29.220246501142551
 30
0.0
  0
VERTEX
  5
41CE
  8
L1
 10
-49.24242475182627
 20
29.407221758035689
 30
0.0
  0
VERTEX
  5
41CF
  8
L1
 10
-49.190251711909873
 20
29.5956128315295
 30
0.0
  0
VERTEX
  5
41D0
  8
L1
 10
-49.142941626034307
 20
29.785295241338069
 30
0.0
  0
VERTEX
  5
41D1
  8
L1
 10
-49.10052575456109
 20
29.976143653919049
 30
0.0
  0
VERTEX
  5
41D2
  8
L1
 10
-49.0630321239762
 20
30.16803196528809
 30
0.0
  0
VERTEX
  5
41D3
  8
L1
 10
-49.03048550837201
 20
30.36083338434306
 30
0.0
  0
VERTEX
  5
41D4
  8
L1
 10
-49.002907413077601
 20
30.554420516641532
 30
0.0
  0
VERTEX
  5
41D5
  8
L1
 10
-48.980316060448779
 20
30.74866544857727
 30
0.0
  0
VERTEX
  5
41D6
  8
L1
 10
-48.962726377827778
 20
30.943439831900029
 30
0.0
  0
VERTEX
  5
41D7
  8
L1
 10
-48.950149987680042
 20
31.138614968521981
 30
0.0
  0
VERTEX
  5
41D8
  8
L1
 10
-48.942595199914358
 20
31.334061895555632
 30
0.0
  0
VERTEX
  5
41D9
  8
L1
 10
-48.940067006392091
 20
31.529651470526801
 30
0.0
  0
SEQEND
  5
41DA
  8
L1
  0
POLYLINE
  5
2EA6
  8
L1
 66
     1
 10
0.0
 20
0.0
 30
0.0
  0
VERTEX
  5
41DB
  8
L1
 10
-58.410487068577417
 20
20.75353183006132
 30
0.0
  0
VERTEX
  5
41DC
  8
L1
 10
-56.423801351579471
 20
20.753386937743951
 30
0.0
  0
VERTEX
  5
41DD
  8
L1
 10
-55.486674172442861
 20
20.75330878608121
 30
0.0
  0
VERTEX
  5
41DE
  8
L1
 10
-55.046831425734752
 20
20.75327037360346
 30
0.0
  0
VERTEX
  5
41DF
  8
L1
 10
-54.631723306845679
 20
20.753233199448971
 30
0.0
  0
VERTEX
  5
41E0
  8
L1
 10
-54.245540365210097
 20
20.753197860683251
 30
0.0
  0
VERTEX
  5
41E1
  8
L1
 10
-53.892473150261992
 20
20.753164954371979
 30
0.0
  0
VERTEX
  5
41E2
  8
L1
 10
-53.576712211435449
 20
20.75313507758079
 30
0.0
  0
VERTEX
  5
41E3
  8
L1
 10
-53.302448098165087
 20
20.753108827375168
 30
0.0
  0
VERTEX
  5
41E4
  8
L1
 10
-53.07387135988472
 20
20.753086800820711
 30
0.0
  0
VERTEX
  5
41E5
  8
L1
 10
-52.895172546028668
 20
20.753069594983199
 30
0.0
  0
VERTEX
  5
41E6
  8
L1
 10
-52.77054220603128
 20
20.753057806928091
 30
0.0
  0
VERTEX
  5
41E7
  8
L1
 10
-52.70417088932664
 20
20.753052033720991
 30
0.0
  0
VERTEX
  5
41E8
  8
L1
 10
-52.078440127055963
 20
20.753177472215299
 30
0.0
  0
VERTEX
  5
41E9
  8
L1
 10
-51.410847669429131
 20
20.753970598165601
 30
0.0
  0
VERTEX
  5
41EA
  8
L1
 10
-50.755776702746509
 20
20.755930597203839
 30
0.0
  0
VERTEX
  5
41EB
  8
L1
 10
-50.449931524228191
 20
20.757504169640828
 30
0.0
  0
VERTEX
  5
41EC
  8
L1
 10
-50.16761041330858
 20
20.759556654961671
 30
0.0
  0
VERTEX
  5
41ED
  8
L1
 10
-49.983639005252662
 20
20.761353974994019
 30
0.0
  0
VERTEX
  5
41EE
  8
L1
 10
-49.820437152639947
 20
20.76333115875277
 30
0.0
  0
VERTEX
  5
41EF
  8
L1
 10
-49.542981894958757
 20
20.767556305257472
 30
0.0
  0
VERTEX
  5
41F0
  8
L1
 10
-49.090343638280217
 20
20.7752080288694
 30
0.0
  0
VERTEX
  5
41F1
  8
L1
 10
-48.902189466891677
 20
20.777422453035619
 30
0.0
  0
VERTEX
  5
41F2
  8
L1
 10
-48.742259966359249
 20
20.778661777799151
 30
0.0
  0
VERTEX
  5
41F3
  8
L1
 10
-48.486970247065592
 20
20.779570413890809
 30
0.0
  0
VERTEX
  5
41F4
  8
L1
 10
-48.093934819980802
 20
20.7845946257438
 30
0.0
  0
VERTEX
  5
41F5
  8
L1
 10
-47.807986206770522
 20
20.799997491662079
 30
0.0
  0
VERTEX
  5
41F6
  8
L1
 10
-47.557560894945418
 20
20.828904063189039
 30
0.0
  0
VERTEX
  5
41F7
  8
L1
 10
-47.333533187549449
 20
20.874670633596899
 30
0.0
  0
VERTEX
  5
41F8
  8
L1
 10
-47.126777387626532
 20
20.94065349615823
 30
0.0
  0
VERTEX
  5
41F9
  8
L1
 10
-46.945256067247954
 20
21.02136289187785
 30
0.0
  0
VERTEX
  5
41FA
  8
L1
 10
-46.775609208244639
 20
21.11776360331077
 30
0.0
  0
VERTEX
  5
41FB
  8
L1
 10
-46.479054716335547
 20
21.343945582835602
 30
0.0
  0
VERTEX
  5
41FC
  8
L1
 10
-46.315177597937058
 20
21.51165163861134
 30
0.0
  0
VERTEX
  5
41FD
  8
L1
 10
-46.185224790666723
 20
21.67708299966057
 30
0.0
  0
VERTEX
  5
41FE
  8
L1
 10
-46.08543605218869
 20
21.83266179028174
 30
0.0
  0
VERTEX
  5
41FF
  8
L1
 10
-46.012051140167159
 20
21.970810134773441
 30
0.0
  0
VERTEX
  5
4200
  8
L1
 10
-45.886691143649557
 20
22.307299828869329
 30
0.0
  0
VERTEX
  5
4201
  8
L1
 10
-45.818961451477492
 20
22.67480820010033
 30
0.0
  0
VERTEX
  5
4202
  8
L1
 10
-45.785612615863151
 20
23.2637943923778
 30
0.0
  0
VERTEX
  5
4203
  8
L1
 10
-45.784139659013249
 20
23.43363406293815
 30
0.0
  0
VERTEX
  5
4204
  8
L1
 10
-45.783302006716099
 20
23.62544283639539
 30
0.0
  0
VERTEX
  5
4205
  8
L1
 10
-45.782044460837092
 20
23.8456866396998
 30
0.0
  0
VERTEX
  5
4206
  8
L1
 10
-45.779311823241699
 20
24.100831399801621
 30
0.0
  0
VERTEX
  5
4207
  8
L1
 10
-45.775076090390819
 20
24.351727421652949
 30
0.0
  0
VERTEX
  5
4208
  8
L1
 10
-45.769920012464752
 20
24.622447356404049
 30
0.0
  0
VERTEX
  5
4209
  8
L1
 10
-45.764618293894038
 20
24.948601257166469
 30
0.0
  0
VERTEX
  5
420A
  8
L1
 10
-45.762154914501593
 20
25.143594086399158
 30
0.0
  0
VERTEX
  5
420B
  8
L1
 10
-45.759945639109503
 20
25.365799177051539
 30
0.0
  0
VERTEX
  5
420C
  8
L1
 10
-45.756889218876672
 20
25.78561685655524
 30
0.0
  0
VERTEX
  5
420D
  8
L1
 10
-45.755734923730813
 20
26.009469232533121
 30
0.0
  0
VERTEX
  5
420E
  8
L1
 10
-45.754802640644641
 20
26.252630748327821
 30
0.0
  0
VERTEX
  5
420F
  8
L1
 10
-45.75407192117774
 20
26.522611490688689
 30
0.0
  0
VERTEX
  5
4210
  8
L1
 10
-45.753522316889587
 20
26.82692154636544
 30
0.0
  0
VERTEX
  5
4211
  8
L1
 10
-45.753133379339651
 20
27.173071002107491
 30
0.0
  0
VERTEX
  5
4212
  8
L1
 10
-45.752884660087659
 20
27.568569944664311
 30
0.0
  0
VERTEX
  5
4213
  8
L1
 10
-45.752755710693002
 20
28.020928460785559
 30
0.0
  0
VERTEX
  5
4214
  8
L1
 10
-45.752726082715348
 20
28.53765663722066
 30
0.0
  0
VERTEX
  5
4215
  8
L1
 10
-45.752742124120182
 20
28.82250625016507
 30
0.0
  0
VERTEX
  5
4216
  8
L1
 10
-45.752775327714062
 20
29.126264560719051
 30
0.0
  0
VERTEX
  5
4217
  8
L1
 10
-45.752823137441908
 20
29.449870329726309
 30
0.0
  0
VERTEX
  5
4218
  8
L1
 10
-45.752882997248662
 20
29.794262318030459
 30
0.0
  0
VERTEX
  5
4219
  8
L1
 10
-45.752952351079273
 20
30.16037928647529
 30
0.0
  0
VERTEX
  5
421A
  8
L1
 10
-45.753028642878803
 20
30.54915999590429
 30
0.0
  0
VERTEX
  5
421B
  8
L1
 10
-45.753109316591967
 20
30.96154320716138
 30
0.0
  0
VERTEX
  5
421C
  8
L1
 10
-45.753191816163898
 20
31.39846768109015
 30
0.0
  0
VERTEX
  5
421D
  8
L1
 10
-45.753273585539432
 20
31.86087217853423
 30
0.0
  0
VERTEX
  5
421E
  8
L1
 10
-45.753352068663553
 20
32.349695460337408
 30
0.0
  0
VERTEX
  5
421F
  8
L1
 10
-45.753424709481287
 20
32.865876287343212
 30
0.0
  0
VERTEX
  5
4220
  8
L1
 10
-45.753488951937349
 20
33.41035342039563
 30
0.0
  0
SEQEND
  5
4221
  8
L1
  0
ARC
  5
2EA7
  8
L1
 10
-56.750000000000057
 20
31.74999999999994
 30
0.0
 40
4.9551339946734032
 50
267.46873820670891
 51
2.5312617932911539
  0
POLYLINE
  5
2EA8
  8
L1
 66
     1
 10
0.0
 20
0.0
 30
0.0
  0
VERTEX
  5
4222
  8
L1
 10
-55.32076188363834
 20
22.731177419503521
 30
0.0
  0
VERTEX
  5
4223
  8
L1
 10
-55.9541646618652
 20
22.731067602105998
 30
0.0
  0
VERTEX
  5
4224
  8
L1
 10
-56.131103641323932
 20
22.731025240094869
 30
0.0
  0
VERTEX
  5
4225
  8
L1
 10
-56.287221051492622
 20
22.73099276929349
 30
0.0
  0
VERTEX
  5
4226
  8
L1
 10
-56.552526941795463
 20
22.730953684686249
 30
0.0
  0
VERTEX
  5
4227
  8
L1
 10
-57.004173447109387
 20
22.730952227016019
 30
0.0
  0
VERTEX
  5
4228
  8
L1
 10
-57.252657173461607
 20
22.730974587417439
 30
0.0
  0
VERTEX
  5
4229
  8
L1
 10
-57.557676623171403
 20
22.731002162952901
 30
0.0
  0
VERTEX
  5
422A
  8
L1
 10
-57.741097105432509
 20
22.731015520999559
 30
0.0
  0
VERTEX
  5
422B
  8
L1
 10
-57.95030335190944
 20
22.731027320354279
 30
0.0
  0
VERTEX
  5
422C
  8
L1
 10
-58.18917930706106
 20
22.731036606858591
 30
0.0
  0
VERTEX
  5
422D
  8
L1
 10
-58.461608915346233
 20
22.731042426353952
 30
0.0
  0
VERTEX
  5
422E
  8
L1
 10
-59.839721278490913
 20
22.73102727692898
 30
0.0
  0
SEQEND
  5
422F
  8
L1
  0
POLYLINE
  5
2EA9
  8
L1
 66
     1
 10
0.0
 20
0.0
 30
0.0
  0
VERTEX
  5
4230
  8
L1
 10
-59.839721278490913
 20
22.73102727692898
 30
0.0
  0
VERTEX
  5
4231
  8
L1
 10
-59.849885051648698
 20
22.73099997145513
 30
0.0
  0
VERTEX
  5
4232
  8
L1
 10
-59.886929555738163
 20
22.730441931503179
 30
0.0
  0
VERTEX
  5
4233
  8
L1
 10
-59.954243085244279
 20
22.727578429362211
 30
0.0
  0
VERTEX
  5
4234
  8
L1
 10
-60.094023274751237
 20
22.713912094915429
 30
0.0
  0
VERTEX
  5
4235
  8
L1
 10
-60.209448876169631
 20
22.694575012660351
 30
0.0
  0
SEQEND
  5
4236
  8
L1
  0
LINE
  5
2EAA
  8
L1
 10
-56.531159070128581
 20
36.700299137686642
 30
0.0
 11
-51.799700862313209
 21
31.968840929871281
 31
0.0
  0
ARC
  5
2EAB
  8
L1
 10
-56.750000000000057
 20
31.74999999999994
 30
0.0
 40
4.9551339946734032
 50
87.468738206708878
 51
113.0136160723922
  0
POLYLINE
  5
2EAC
  8
L1
 66
     1
 10
0.0
 20
0.0
 30
0.0
  0
VERTEX
  5
4237
  8
L1
 10
-59.26321417293525
 20
36.883099641752182
 30
0.0
  0
VERTEX
  5
4238
  8
L1
 10
-59.258187265245681
 20
36.878765071482171
 30
0.0
  0
VERTEX
  5
4239
  8
L1
 10
-59.245965950157881
 20
36.867206662007838
 30
0.0
  0
VERTEX
  5
423A
  8
L1
 10
-59.224983031468582
 20
36.84686272741996
 30
0.0
  0
VERTEX
  5
423B
  8
L1
 10
-59.197587405171987
 20
36.820028179014621
 30
0.0
  0
VERTEX
  5
423C
  8
L1
 10
-59.16295330197562
 20
36.785862277598881
 30
0.0
  0
VERTEX
  5
423D
  8
L1
 10
-59.124081047125799
 20
36.747342135618901
 30
0.0
  0
VERTEX
  5
423E
  8
L1
 10
-59.080639129592441
 20
36.704116422292337
 30
0.0
  0
VERTEX
  5
423F
  8
L1
 10
-59.035746534405057
 20
36.659302189691431
 30
0.0
  0
SEQEND
  5
4240
  8
L1
  0
LINE
  5
2EAD
  8
L1
 10
-59.035746534405057
 20
36.659302189691459
 30
0.0
 11
-58.687208996504872
 21
36.310764651791231
 31
0.0
  0
POLYLINE
  5
2EAE
  8
L1
 66
     1
 10
0.0
 20
0.0
 30
0.0
  0
VERTEX
  5
4241
  8
L1
 10
-59.3767067622951
 20
36.901529179287728
 30
0.0
  0
VERTEX
  5
4242
  8
L1
 10
-59.319858836583883
 20
36.892416041709481
 30
0.0
  0
VERTEX
  5
4243
  8
L1
 10
-59.263214172935193
 20
36.883099641752153
 30
0.0
  0
SEQEND
  5
4244
  8
L1
  0
POLYLINE
  5
2EAF
  8
L1
 66
     1
 10
0.0
 20
0.0
 30
0.0
  0
VERTEX
  5
4245
  8
L1
 10
-47.694571369592268
 20
35.20953252695363
 30
0.0
  0
VERTEX
  5
4246
  8
L1
 10
-47.710009078187802
 20
35.121389640016837
 30
0.0
  0
VERTEX
  5
4247
  8
L1
 10
-47.724096145796643
 20
35.002066213370938
 30
0.0
  0
VERTEX
  5
4248
  8
L1
 10
-47.729918285639663
 20
34.90503519818423
 30
0.0
  0
VERTEX
  5
4249
  8
L1
 10
-47.730911186794799
 20
34.861714048434457
 30
0.0
  0
VERTEX
  5
424A
  8
L1
 10
-47.73103826061287
 20
34.83973226217477
 30
0.0
  0
SEQEND
  5
424B
  8
L1
  0
LINE
  5
2EB0
  8
L1
 10
-48.940067006392091
 20
31.529651470526801
 30
0.0
 11
-48.940067006392091
 21
36.048761007954027
 31
0.0
  0
POLYLINE
  5
2EB1
  8
L1
 66
     1
 10
0.0
 20
0.0
 30
0.0
  0
VERTEX
  5
424C
  8
L1
 10
-47.73103826061287
 20
34.83973226217477
 30
0.0
  0
VERTEX
  5
424D
  8
L1
 10
-47.731027259837902
 20
33.083973469469498
 30
0.0
  0
VERTEX
  5
424E
  8
L1
 10
-47.731013356836051
 20
32.850819874239981
 30
0.0
  0
VERTEX
  5
424F
  8
L1
 10
-47.730998303025622
 20
32.644496456122653
 30
0.0
  0
VERTEX
  5
4250
  8
L1
 10
-47.730970725166969
 20
32.288650164237993
 30
0.0
  0
VERTEX
  5
4251
  8
L1
 10
-47.73096756381306
 20
31.63832984896359
 30
0.0
  0
VERTEX
  5
4252
  8
L1
 10
-47.730992933396863
 20
31.4189135842513
 30
0.0
  0
VERTEX
  5
4253
  8
L1
 10
-47.731029005698304
 20
31.224854588926458
 30
0.0
  0
VERTEX
  5
4254
  8
L1
 10
-47.731113810185491
 20
30.893364057213368
 30
0.0
  0
VERTEX
  5
4255
  8
L1
 10
-47.73119792081598
 20
30.320782384950689
 30
0.0
  0
SEQEND
  5
4256
  8
L1
  0
POLYLINE
  5
2EB2
  8
L1
 66
     1
 10
0.0
 20
0.0
 30
0.0
  0
VERTEX
  5
4257
  8
L1
 10
-45.753488951937349
 20
33.41035342039563
 30
0.0
  0
VERTEX
  5
4258
  8
L1
 10
-45.740321579451063
 20
33.630755727079361
 30
0.0
  0
VERTEX
  5
4259
  8
L1
 10
-45.697765001714629
 20
33.846835704945903
 30
0.0
  0
VERTEX
  5
425A
  8
L1
 10
-45.628114729776087
 20
34.039064565105718
 30
0.0
  0
VERTEX
  5
425B
  8
L1
 10
-45.527289558532281
 20
34.216600131532459
 30
0.0
  0
VERTEX
  5
425C
  8
L1
 10
-45.385402174847002
 20
34.382778005340519
 30
0.0
  0
VERTEX
  5
425D
  8
L1
 10
-45.21329052584673
 20
34.517556559773169
 30
0.0
  0
VERTEX
  5
425E
  8
L1
 10
-45.03626155353146
 20
34.610679359821681
 30
0.0
  0
VERTEX
  5
425F
  8
L1
 10
-44.846823523573953
 20
34.675786851693033
 30
0.0
  0
VERTEX
  5
4260
  8
L1
 10
-44.632463317382467
 20
34.717758672231923
 30
0.0
  0
VERTEX
  5
4261
  8
L1
 10
-44.414311597691437
 20
34.733500375494543
 30
0.0
  0
VERTEX
  5
4262
  8
L1
 10
-44.37464353298418
 20
34.733858588995041
 30
0.0
  0
SEQEND
  5
4263
  8
L1
  0
POLYLINE
  5
2EB3
  8
L1
 66
     1
 10
0.0
 20
0.0
 30
0.0
  0
VERTEX
  5
4264
  8
L1
 10
-46.491233016057379
 20
36.697073088947199
 30
0.0
  0
VERTEX
  5
4265
  8
L1
 10
-46.709186851637689
 20
36.586257410710033
 30
0.0
  0
VERTEX
  5
4266
  8
L1
 10
-46.91736267966035
 20
36.44684311868329
 30
0.0
  0
VERTEX
  5
4267
  8
L1
 10
-47.176712330546302
 20
36.212661423407319
 30
0.0
  0
VERTEX
  5
4268
  8
L1
 10
-47.395462615868553
 20
35.935192761055362
 30
0.0
  0
VERTEX
  5
4269
  8
L1
 10
-47.490198012587882
 20
35.77647202835859
 30
0.0
  0
VERTEX
  5
426A
  8
L1
 10
-47.569986725547778
 20
35.610822161094681
 30
0.0
  0
VERTEX
  5
426B
  8
L1
 10
-47.683178154070838
 20
35.26277169955398
 30
0.0
  0
VERTEX
  5
426C
  8
L1
 10
-47.694571369592268
 20
35.20953252695363
 30
0.0
  0
SEQEND
  5
426D
  8
L1
  0
POLYLINE
  5
2EB4
  8
L1
 66
     1
 10
0.0
 20
0.0
 30
0.0
  0
VERTEX
  5
426E
  8
L1
 10
-48.940067006392091
 20
36.048761007954027
 30
0.0
  0
VERTEX
  5
426F
  8
L1
 10
-48.931601455057432
 20
36.233253710748038
 30
0.0
  0
VERTEX
  5
4270
  8
L1
 10
-48.90617599722043
 20
36.416126565274453
 30
0.0
  0
VERTEX
  5
4271
  8
L1
 10
-48.86400679861179
 20
36.595824797399189
 30
0.0
  0
VERTEX
  5
4272
  8
L1
 10
-48.805452379250312
 20
36.770820623438901
 30
0.0
  0
VERTEX
  5
4273
  8
L1
 10
-48.731010565327267
 20
36.939626239287229
 30
0.0
  0
VERTEX
  5
4274
  8
L1
 10
-48.641314256717862
 20
37.100806469636751
 30
0.0
  0
VERTEX
  5
4275
  8
L1
 10
-48.537126046103758
 20
37.252990969754052
 30
0.0
  0
VERTEX
  5
4276
  8
L1
 10
-48.419331735455842
 20
37.394885876069218
 30
0.0
  0
VERTEX
  5
4277
  8
L1
 10
-48.288932804998183
 20
37.525284806526848
 30
0.0
  0
VERTEX
  5
4278
  8
L1
 10
-48.147037898682981
 20
37.6430791171748
 30
0.0
  0
VERTEX
  5
4279
  8
L1
 10
-47.994853398565681
 20
37.747267327788897
 30
0.0
  0
VERTEX
  5
427A
  8
L1
 10
-47.833673168216187
 20
37.83696363639833
 30
0.0
  0
VERTEX
  5
427B
  8
L1
 10
-47.664867552367859
 20
37.911405450321318
 30
0.0
  0
VERTEX
  5
427C
  8
L1
 10
-47.48987172632809
 20
37.969959869682782
 30
0.0
  0
VERTEX
  5
427D
  8
L1
 10
-47.310173494203411
 20
38.012129068291443
 30
0.0
  0
VERTEX
  5
427E
  8
L1
 10
-47.127300639677003
 20
38.037554526128417
 30
0.0
  0
VERTEX
  5
427F
  8
L1
 10
-46.94280793688295
 20
38.046020077463162
 30
0.0
  0
SEQEND
  5
4280
  8
L1
  0
POLYLINE
  5
2EB5
  8
L1
 66
     1
 10
0.0
 20
0.0
 30
0.0
  0
VERTEX
  5
4281
  8
L1
 10
-46.491233016057379
 20
36.697073088947199
 30
0.0
  0
VERTEX
  5
4282
  8
L1
 10
-46.128589660902378
 20
36.812200114655859
 30
0.0
  0
VERTEX
  5
4283
  8
L1
 10
-45.747841158780091
 20
36.851053299360267
 30
0.0
  0
SEQEND
  5
4284
  8
L1
  0
POLYLINE
  5
2EB6
  8
L1
 66
     1
 10
0.0
 20
0.0
 30
0.0
  0
VERTEX
  5
4285
  8
L1
 10
-61.517100759268203
 20
40.012304130909143
 30
0.0
  0
VERTEX
  5
4286
  8
L1
 10
-61.537048032038292
 20
40.012250207188828
 30
0.0
  0
VERTEX
  5
4287
  8
L1
 10
-61.557000000000023
 20
40.012088437774047
 30
0.0
  0
SEQEND
  5
4288
  8
L1
  0
POLYLINE
  5
2EB7
  8
L1
 66
     1
 10
0.0
 20
0.0
 30
0.0
  0
VERTEX
  5
4289
  8
L1
 10
58.410353420395431
 20
20.753488951937179
 30
0.0
  0
VERTEX
  5
428A
  8
L1
 10
58.604552643308978
 20
20.743349461675869
 30
0.0
  0
VERTEX
  5
428B
  8
L1
 10
58.7960347615562
 20
20.710800289106821
 30
0.0
  0
VERTEX
  5
428C
  8
L1
 10
58.974272752081959
 20
20.655521835365331
 30
0.0
  0
VERTEX
  5
428D
  8
L1
 10
59.142221864376161
 20
20.574665383743309
 30
0.0
  0
VERTEX
  5
428E
  8
L1
 10
59.318196014538607
 20
20.447540242016991
 30
0.0
  0
VERTEX
  5
428F
  8
L1
 10
59.465540961260842
 20
20.288160228667198
 30
0.0
  0
VERTEX
  5
4290
  8
L1
 10
59.588400881514701
 20
20.08547083972331
 30
0.0
  0
VERTEX
  5
4291
  8
L1
 10
59.671398452344476
 20
19.862872035867319
 30
0.0
  0
VERTEX
  5
4292
  8
L1
 10
59.71916204014434
 20
19.621458759071711
 30
0.0
  0
VERTEX
  5
4293
  8
L1
 10
59.73385858899502
 20
19.374643532981821
 30
0.0
  0
SEQEND
  5
4294
  8
L1
  0
ARC
  5
2EB8
  8
L1
 10
44.012304130909172
 20
19.012304130909168
 30
0.0
 40
2.0
 50
0.0
 51
90.0
  0
POLYLINE
  5
2EB9
  8
L1
 66
     1
 10
0.0
 20
0.0
 30
0.0
  0
VERTEX
  5
4295
  8
L1
 10
44.374682106857733
 20
34.733858588995069
 30
0.0
  0
VERTEX
  5
4296
  8
L1
 10
44.395494735064737
 20
34.733760470447827
 30
0.0
  0
VERTEX
  5
4297
  8
L1
 10
44.615749270682898
 20
34.719856285852551
 30
0.0
  0
VERTEX
  5
4298
  8
L1
 10
44.832437319411547
 20
34.67957335311371
 30
0.0
  0
VERTEX
  5
4299
  8
L1
 10
45.02217779094957
 20
34.616630049695509
 30
0.0
  0
VERTEX
  5
429A
  8
L1
 10
45.200008417804888
 20
34.52593230024388
 30
0.0
  0
VERTEX
  5
429B
  8
L1
 10
45.37374007412302
 20
34.393829815063611
 30
0.0
  0
VERTEX
  5
429C
  8
L1
 10
45.517849753199528
 20
34.230073239306137
 30
0.0
  0
VERTEX
  5
429D
  8
L1
 10
45.633007707456549
 20
34.028356124562521
 30
0.0
  0
VERTEX
  5
429E
  8
L1
 10
45.707964051397141
 20
33.807995022633968
 30
0.0
  0
VERTEX
  5
429F
  8
L1
 10
45.742697607582151
 20
33.610980212372283
 30
0.0
  0
VERTEX
  5
42A0
  8
L1
 10
45.753531830061313
 20
33.410487068577368
 30
0.0
  0
SEQEND
  5
42A1
  8
L1
  0
POLYLINE
  5
2EBA
  8
L1
 66
     1
 10
0.0
 20
0.0
 30
0.0
  0
VERTEX
  5
42A2
  8
L1
 10
48.940067006392042
 20
31.529651470526819
 30
0.0
  0
VERTEX
  5
42A3
  8
L1
 10
48.942595199914308
 20
31.33406189555566
 30
0.0
  0
VERTEX
  5
42A4
  8
L1
 10
48.950149987679993
 20
31.138614968521999
 30
0.0
  0
VERTEX
  5
42A5
  8
L1
 10
48.962726377827778
 20
30.943439831900061
 30
0.0
  0
VERTEX
  5
42A6
  8
L1
 10
48.980316060448729
 20
30.74866544857732
 30
0.0
  0
VERTEX
  5
42A7
  8
L1
 10
49.00290741307753
 20
30.554420516641532
 30
0.0
  0
VERTEX
  5
42A8
  8
L1
 10
49.03048550837201
 20
30.360833384343088
 30
0.0
  0
VERTEX
  5
42A9
  8
L1
 10
49.063032123976143
 20
30.168031965288151
 30
0.0
  0
VERTEX
  5
42AA
  8
L1
 10
49.100525754561033
 20
29.976143653919081
 30
0.0
  0
VERTEX
  5
42AB
  8
L1
 10
49.142941626034251
 20
29.78529524133813
 30
0.0
  0
VERTEX
  5
42AC
  8
L1
 10
49.190251711909752
 20
29.595612831529529
 30
0.0
  0
VERTEX
  5
42AD
  8
L1
 10
49.24242475182627
 20
29.40722175803571
 30
0.0
  0
VERTEX
  5
42AE
  8
L1
 10
49.299426272202773
 20
29.220246501142579
 30
0.0
  0
VERTEX
  5
42AF
  8
L1
 10
49.361218609017158
 20
29.034810605628561
 30
0.0
  0
VERTEX
  5
42B0
  8
L1
 10
49.427760932692927
 20
28.851036599131842
 30
0.0
  0
VERTEX
  5
42B1
  8
L1
 10
49.499009275077519
 20
28.669045911189642
 30
0.0
  0
VERTEX
  5
42B2
  8
L1
 10
49.574916558494287
 20
28.488958793003029
 30
0.0
  0
VERTEX
  5
42B3
  8
L1
 10
49.655432626849517
 20
28.310894237980499
 30
0.0
  0
VERTEX
  5
42B4
  8
L1
 10
49.740504278773066
 20
28.13496990311242
 30
0.0
  0
VERTEX
  5
42B5
  8
L1
 10
49.830075302771888
 20
27.961302031228598
 30
0.0
  0
VERTEX
  5
42B6
  8
L1
 10
49.924086514371368
 20
27.7900053741904
 30
0.0
  0
VERTEX
  5
42B7
  8
L1
 10
50.022475795222419
 20
27.621193117067829
 30
0.0
  0
VERTEX
  5
42B8
  8
L1
 10
50.125178134145933
 20
27.454976803351961
 30
0.0
  0
VERTEX
  5
42B9
  8
L1
 10
50.232125670089431
 20
27.291466261252111
 30
0.0
  0
VERTEX
  5
42BA
  8
L1
 10
50.343247736966759
 20
27.130769531126329
 30
0.0
  0
VERTEX
  5
42BB
  8
L1
 10
50.458470910350627
 20
26.972992794093159
 30
0.0
  0
VERTEX
  5
42BC
  8
L1
 10
50.577719055988659
 20
26.818240301871981
 30
0.0
  0
VERTEX
  5
42BD
  8
L1
 10
50.700913380108886
 20
26.666614307898289
 30
0.0
  0
VERTEX
  5
42BE
  8
L1
 10
50.827972481483577
 20
26.51821499975912
 30
0.0
  0
VERTEX
  5
42BF
  8
L1
 10
50.958812405215212
 20
26.373140432993779
 30
0.0
  0
VERTEX
  5
42C0
  8
L1
 10
51.093346698210212
 20
26.231486466303071
 30
0.0
  0
VERTEX
  5
42C1
  8
L1
 10
51.231486466303068
 20
26.093346698210208
 30
0.0
  0
VERTEX
  5
42C2
  8
L1
 10
51.3731404329938
 20
25.958812405215209
 30
0.0
  0
VERTEX
  5
42C3
  8
L1
 10
51.518214999759088
 20
25.827972481483581
 30
0.0
  0
VERTEX
  5
42C4
  8
L1
 10
51.666614307898271
 20
25.700913380108911
 30
0.0
  0
VERTEX
  5
42C5
  8
L1
 10
51.818240301871981
 20
25.577719055988659
 30
0.0
  0
VERTEX
  5
42C6
  8
L1
 10
51.972992794093102
 20
25.45847091035068
 30
0.0
  0
VERTEX
  5
42C7
  8
L1
 10
52.130769531126361
 20
25.343247736966731
 30
0.0
  0
VERTEX
  5
42C8
  8
L1
 10
52.291466261252083
 20
25.232125670089431
 30
0.0
  0
VERTEX
  5
42C9
  8
L1
 10
52.45497680335194
 20
25.125178134145891
 30
0.0
  0
VERTEX
  5
42CA
  8
L1
 10
52.621193117067833
 20
25.022475795222419
 30
0.0
  0
VERTEX
  5
42CB
  8
L1
 10
52.7900053741904
 20
24.924086514371421
 30
0.0
  0
VERTEX
  5
42CC
  8
L1
 10
52.961302031228563
 20
24.830075302771888
 30
0.0
  0
VERTEX
  5
42CD
  8
L1
 10
53.134969903112392
 20
24.740504278773098
 30
0.0
  0
VERTEX
  5
42CE
  8
L1
 10
53.310894237980513
 20
24.655432626849489
 30
0.0
  0
VERTEX
  5
42CF
  8
L1
 10
53.488958793003
 20
24.574916558494291
 30
0.0
  0
VERTEX
  5
42D0
  8
L1
 10
53.669045911189642
 20
24.499009275077519
 30
0.0
  0
VERTEX
  5
42D1
  8
L1
 10
53.85103659913181
 20
24.427760932692959
 30
0.0
  0
VERTEX
  5
42D2
  8
L1
 10
54.034810605628593
 20
24.361218609017161
 30
0.0
  0
VERTEX
  5
42D3
  8
L1
 10
54.220246501142519
 20
24.299426272202702
 30
0.0
  0
VERTEX
  5
42D4
  8
L1
 10
54.407221758035689
 20
24.242424751826231
 30
0.0
  0
VERTEX
  5
42D5
  8
L1
 10
54.595612831529479
 20
24.190251711909781
 30
0.0
  0
VERTEX
  5
42D6
  8
L1
 10
54.785295241338083
 20
24.142941626034279
 30
0.0
  0
VERTEX
  5
42D7
  8
L1
 10
54.976143653919003
 20
24.10052575456103
 30
0.0
  0
VERTEX
  5
42D8
  8
L1
 10
55.168031965288087
 20
24.063032123976139
 30
0.0
  0
VERTEX
  5
42D9
  8
L1
 10
55.360833384343088
 20
24.030485508371981
 30
0.0
  0
VERTEX
  5
42DA
  8
L1
 10
55.554420516641471
 20
24.00290741307753
 30
0.0
  0
VERTEX
  5
42DB
  8
L1
 10
55.748665448577242
 20
23.980316060448722
 30
0.0
  0
VERTEX
  5
42DC
  8
L1
 10
55.943439831900037
 20
23.96272637782775
 30
0.0
  0
VERTEX
  5
42DD
  8
L1
 10
56.138614968522013
 20
23.950149987679989
 30
0.0
  0
VERTEX
  5
42DE
  8
L1
 10
56.334061895555642
 20
23.94259519991428
 30
0.0
  0
VERTEX
  5
42DF
  8
L1
 10
56.529651470526801
 20
23.94006700639207
 30
0.0
  0
SEQEND
  5
42E0
  8
L1
  0
POLYLINE
  5
2EBB
  8
L1
 66
     1
 10
0.0
 20
0.0
 30
0.0
  0
VERTEX
  5
42E1
  8
L1
 10
55.320782384950689
 20
22.73119792081593
 30
0.0
  0
VERTEX
  5
42E2
  8
L1
 10
55.275904986460262
 20
22.731331658786068
 30
0.0
  0
VERTEX
  5
42E3
  8
L1
 10
55.08185746900579
 20
22.7350775393605
 30
0.0
  0
VERTEX
  5
42E4
  8
L1
 10
54.624053933833409
 20
22.764307703493699
 30
0.0
  0
VERTEX
  5
42E5
  8
L1
 10
54.377178464850431
 20
22.79180258982316
 30
0.0
  0
VERTEX
  5
42E6
  8
L1
 10
54.080716908313029
 20
22.835835718165981
 30
0.0
  0
VERTEX
  5
42E7
  8
L1
 10
53.739713187981401
 20
22.90160855752233
 30
0.0
  0
VERTEX
  5
42E8
  8
L1
 10
53.359211227615958
 20
22.99432257689244
 30
0.0
  0
VERTEX
  5
42E9
  8
L1
 10
52.913969351367712
 20
23.129634752801898
 30
0.0
  0
VERTEX
  5
42EA
  8
L1
 10
52.478191630759802
 20
23.29178199208809
 30
0.0
  0
VERTEX
  5
42EB
  8
L1
 10
52.053110367835359
 20
23.480257234876088
 30
0.0
  0
VERTEX
  5
42EC
  8
L1
 10
51.639957864637211
 20
23.694553421291229
 30
0.0
  0
VERTEX
  5
42ED
  8
L1
 10
51.035043761180241
 20
24.070188369847919
 30
0.0
  0
VERTEX
  5
42EE
  8
L1
 10
50.467723891433756
 20
24.50056581400343
 30
0.0
  0
VERTEX
  5
42EF
  8
L1
 10
49.931743249769852
 20
24.9933316671383
 30
0.0
  0
VERTEX
  5
42F0
  8
L1
 10
49.445204530996527
 20
25.53499961657522
 30
0.0
  0
VERTEX
  5
42F1
  8
L1
 10
49.048062589389581
 20
26.06785148450621
 30
0.0
  0
VERTEX
  5
42F2
  8
L1
 10
48.69869819952374
 20
26.633270738257831
 30
0.0
  0
VERTEX
  5
42F3
  8
L1
 10
48.398465593760932
 20
27.22991852617394
 30
0.0
  0
VERTEX
  5
42F4
  8
L1
 10
48.151685022438251
 20
27.85053230780704
 30
0.0
  0
VERTEX
  5
42F5
  8
L1
 10
47.949175892425551
 20
28.53512590792192
 30
0.0
  0
VERTEX
  5
42F6
  8
L1
 10
47.811647597799038
 20
29.235717617770518
 30
0.0
  0
VERTEX
  5
42F7
  8
L1
 10
47.76322180782671
 20
29.636332779389761
 30
0.0
  0
VERTEX
  5
42F8
  8
L1
 10
47.736451687754943
 20
30.043009917491361
 30
0.0
  0
VERTEX
  5
42F9
  8
L1
 10
47.73150260188288
 20
30.251720919513271
 30
0.0
  0
VERTEX
  5
42FA
  8
L1
 10
47.731177419503517
 20
30.320761883638308
 30
0.0
  0
SEQEND
  5
42FB
  8
L1
  0
ARC
  5
2EBC
  8
L1
 10
56.749999999999943
 20
31.75
 30
0.0
 40
4.9551339946734032
 50
177.468738206708
 51
272.53126179329098
  0
CIRCLE
  5
2EBD
  8
L1
 10
56.749999999999943
 20
31.75
 30
0.0
 40
5.7974047862592784
  0
POLYLINE
  5
2EBE
  8
L1
 66
     1
 10
0.0
 20
0.0
 30
0.0
  0
VERTEX
  5
42FC
  8
L1
 10
45.753531830061313
 20
33.410487068577368
 30
0.0
  0
VERTEX
  5
42FD
  8
L1
 10
45.753386946084497
 20
31.42393510446686
 30
0.0
  0
VERTEX
  5
42FE
  8
L1
 10
45.753308797621791
 20
30.486861101761288
 30
0.0
  0
VERTEX
  5
42FF
  8
L1
 10
45.753270386268298
 20
30.0470375323697
 30
0.0
  0
VERTEX
  5
4300
  8
L1
 10
45.753233212832008
 20
29.6319421317612
 30
0.0
  0
VERTEX
  5
4301
  8
L1
 10
45.753197874312093
 20
29.245764310542619
 30
0.0
  0
VERTEX
  5
4302
  8
L1
 10
45.753164967707157
 20
28.89269347932062
 30
0.0
  0
VERTEX
  5
4303
  8
L1
 10
45.753135090016428
 20
28.576919048702049
 30
0.0
  0
VERTEX
  5
4304
  8
L1
 10
45.753108838239022
 20
28.302630429293679
 30
0.0
  0
VERTEX
  5
4305
  8
L1
 10
45.753086809373769
 20
28.074017031702368
 30
0.0
  0
VERTEX
  5
4306
  8
L1
 10
45.753069600419622
 20
27.895268266534622
 30
0.0
  0
VERTEX
  5
4307
  8
L1
 10
45.753057808375551
 20
27.77057354439739
 30
0.0
  0
VERTEX
  5
4308
  8
L1
 10
45.753052030240603
 20
27.704122275897468
 30
0.0
  0
VERTEX
  5
4309
  8
L1
 10
45.753177484965128
 20
27.078441496088029
 30
0.0
  0
VERTEX
  5
430A
  8
L1
 10
45.753970651454829
 20
26.41084457361108
 30
0.0
  0
VERTEX
  5
430B
  8
L1
 10
45.755930765589021
 20
25.755746696071778
 30
0.0
  0
VERTEX
  5
430C
  8
L1
 10
45.757504439235099
 20
25.44988964528028
 30
0.0
  0
VERTEX
  5
430D
  8
L1
 10
45.75955706324708
 20
25.167563051075089
 30
0.0
  0
VERTEX
  5
430E
  8
L1
 10
45.761354432544572
 20
24.983597678230488
 30
0.0
  0
VERTEX
  5
430F
  8
L1
 10
45.763331657893438
 20
24.820400608162512
 30
0.0
  0
VERTEX
  5
4310
  8
L1
 10
45.767556868573188
 20
24.542950265474779
 30
0.0
  0
VERTEX
  5
4311
  8
L1
 10
45.775208672659971
 20
24.090296993720809
 30
0.0
  0
VERTEX
  5
4312
  8
L1
 10
45.777422779453609
 20
23.902152868081849
 30
0.0
  0
VERTEX
  5
4313
  8
L1
 10
45.778661898775908
 20
23.742228614321469
 30
0.0
  0
VERTEX
  5
4314
  8
L1
 10
45.779570474379682
 20
23.48693894430459
 30
0.0
  0
VERTEX
  5
4315
  8
L1
 10
45.784596069035778
 20
23.093889507359389
 30
0.0
  0
VERTEX
  5
4316
  8
L1
 10
45.800000796695763
 20
22.807945598952351
 30
0.0
  0
VERTEX
  5
4317
  8
L1
 10
45.828910133455388
 20
22.557522357877641
 30
0.0
  0
VERTEX
  5
4318
  8
L1
 10
45.874680680485248
 20
22.33349453819158
 30
0.0
  0
VERTEX
  5
4319
  8
L1
 10
45.940669038956173
 20
22.126736893950461
 30
0.0
  0
VERTEX
  5
431A
  8
L1
 10
46.021373882222399
 20
21.94523475448494
 30
0.0
  0
VERTEX
  5
431B
  8
L1
 10
46.117772534373159
 20
21.775595499640009
 30
0.0
  0
VERTEX
  5
431C
  8
L1
 10
46.343969791128018
 20
21.479028212347771
 30
0.0
  0
VERTEX
  5
431D
  8
L1
 10
46.511679297100997
 20
21.315153745477449
 30
0.0
  0
VERTEX
  5
431E
  8
L1
 10
46.677112809997702
 20
21.185204073451072
 30
0.0
  0
VERTEX
  5
431F
  8
L1
 10
46.832690703191872
 20
21.085419393214949
 30
0.0
  0
VERTEX
  5
4320
  8
L1
 10
46.970833350056921
 20
21.012039901715632
 30
0.0
  0
VERTEX
  5
4321
  8
L1
 10
47.307319859341078
 20
20.88668571269983
 30
0.0
  0
VERTEX
  5
4322
  8
L1
 10
47.674827277603747
 20
20.818959256030318
 30
0.0
  0
VERTEX
  5
4323
  8
L1
 10
48.263806482907448
 20
20.785612402238758
 30
0.0
  0
VERTEX
  5
4324
  8
L1
 10
48.43364870436352
 20
20.784139719151931
 30
0.0
  0
VERTEX
  5
4325
  8
L1
 10
48.625467329399783
 20
20.783302073918261
 30
0.0
  0
VERTEX
  5
4326
  8
L1
 10
48.845731075780058
 20
20.78204417939212
 30
0.0
  0
VERTEX
  5
4327
  8
L1
 10
49.10090866126864
 20
20.779310748427999
 30
0.0
  0
VERTEX
  5
4328
  8
L1
 10
49.351782860211927
 20
20.775075034091881
 30
0.0
  0
VERTEX
  5
4329
  8
L1
 10
49.622497383180018
 20
20.769919036816471
 30
0.0
  0
VERTEX
  5
432A
  8
L1
 10
49.948658998844913
 20
20.764617455402231
 30
0.0
  0
VERTEX
  5
432B
  8
L1
 10
50.143659581648699
 20
20.762154164018082
 30
0.0
  0
VERTEX
  5
432C
  8
L1
 10
50.365874475878741
 20
20.759944988649291
 30
0.0
  0
VERTEX
  5
432D
  8
L1
 10
50.785698340797978
 20
20.756888940579501
 30
0.0
  0
VERTEX
  5
432E
  8
L1
 10
51.009564283281293
 20
20.755734780030281
 30
0.0
  0
VERTEX
  5
432F
  8
L1
 10
51.252743856833597
 20
20.754802601386071
 30
0.0
  0
VERTEX
  5
4330
  8
L1
 10
51.522745279744917
 20
20.754071959332801
 30
0.0
  0
VERTEX
  5
4331
  8
L1
 10
51.827076770305268
 20
20.753522408556559
 30
0.0
  0
VERTEX
  5
4332
  8
L1
 10
52.173246546804592
 20
20.753133503743179
 30
0.0
  0
VERTEX
  5
4333
  8
L1
 10
52.568762827532787
 20
20.75288479957868
 30
0.0
  0
VERTEX
  5
4334
  8
L1
 10
53.021133830779938
 20
20.75275585074899
 30
0.0
  0
VERTEX
  5
4335
  8
L1
 10
53.537867774835952
 20
20.752726211940171
 30
0.0
  0
VERTEX
  5
4336
  8
L1
 10
53.822717167882779
 20
20.752742244632881
 30
0.0
  0
VERTEX
  5
4337
  8
L1
 10
54.126472877990643
 20
20.752775437838011
 30
0.0
  0
VERTEX
  5
4338
  8
L1
 10
54.450073432445663
 20
20.75282323589132
 30
0.0
  0
VERTEX
  5
4339
  8
L1
 10
54.794457358534203
 20
20.752883083128548
 30
0.0
  0
VERTEX
  5
433A
  8
L1
 10
55.160563183542422
 20
20.752952423885521
 30
0.0
  0
VERTEX
  5
433B
  8
L1
 10
55.54932943475648
 20
20.753028702497851
 30
0.0
  0
VERTEX
  5
433C
  8
L1
 10
55.961694639462792
 20
20.75310936330132
 30
0.0
  0
VERTEX
  5
433D
  8
L1
 10
56.398597324947502
 20
20.75319185063173
 30
0.0
  0
VERTEX
  5
433E
  8
L1
 10
56.860976018496899
 20
20.75327360882476
 30
0.0
  0
VERTEX
  5
433F
  8
L1
 10
57.349769247397091
 20
20.753352082216189
 30
0.0
  0
VERTEX
  5
4340
  8
L1
 10
57.86591553893458
 20
20.753424715141701
 30
0.0
  0
VERTEX
  5
4341
  8
L1
 10
58.410353420395431
 20
20.753488951937179
 30
0.0
  0
SEQEND
  5
4342
  8
L1
  0
LINE
  5
2EBF
  8
L1
 10
61.700299137686549
 20
31.531159070128581
 30
0.0
 11
56.968840929871298
 21
26.799700862313379
 31
0.0
  0
LINE
  5
2EC0
  8
L1
 10
56.529651470526801
 20
23.940067006392042
 30
0.0
 11
61.048761007953999
 21
23.940067006392042
 31
0.0
  0
POLYLINE
  5
2EC1
  8
L1
 66
     1
 10
0.0
 20
0.0
 30
0.0
  0
VERTEX
  5
4343
  8
L1
 10
59.839732262174721
 20
22.731038260612809
 30
0.0
  0
VERTEX
  5
4344
  8
L1
 10
58.083973469469413
 20
22.731027259837809
 30
0.0
  0
VERTEX
  5
4345
  8
L1
 10
57.85081987424423
 20
22.731013356835941
 30
0.0
  0
VERTEX
  5
4346
  8
L1
 10
57.64449645612865
 20
22.730998303025551
 30
0.0
  0
VERTEX
  5
4347
  8
L1
 10
57.288650164242483
 20
22.730970725166909
 30
0.0
  0
VERTEX
  5
4348
  8
L1
 10
56.638329848963679
 20
22.730967563812978
 30
0.0
  0
VERTEX
  5
4349
  8
L1
 10
56.41891358425147
 20
22.73099293339672
 30
0.0
  0
VERTEX
  5
434A
  8
L1
 10
56.224854588926682
 20
22.731029005698161
 30
0.0
  0
VERTEX
  5
434B
  8
L1
 10
55.893364057213539
 20
22.73111381018537
 30
0.0
  0
VERTEX
  5
434C
  8
L1
 10
55.320782384950689
 20
22.73119792081593
 30
0.0
  0
SEQEND
  5
434D
  8
L1
  0
POLYLINE
  5
2EC2
  8
L1
 66
     1
 10
0.0
 20
0.0
 30
0.0
  0
VERTEX
  5
434E
  8
L1
 10
60.209532526953687
 20
22.694571369592211
 30
0.0
  0
VERTEX
  5
434F
  8
L1
 10
60.121389640016332
 20
22.71000907818776
 30
0.0
  0
VERTEX
  5
4350
  8
L1
 10
60.002066213371393
 20
22.724096145796459
 30
0.0
  0
VERTEX
  5
4351
  8
L1
 10
59.905035198184457
 20
22.729918285639592
 30
0.0
  0
VERTEX
  5
4352
  8
L1
 10
59.861714048434571
 20
22.730911186794739
 30
0.0
  0
VERTEX
  5
4353
  8
L1
 10
59.839732262174721
 20
22.731038260612809
 30
0.0
  0
SEQEND
  5
4354
  8
L1
  0
POLYLINE
  5
2EC3
  8
L1
 66
     1
 10
0.0
 20
0.0
 30
0.0
  0
VERTEX
  5
4355
  8
L1
 10
61.697073088947207
 20
21.49123301605729
 30
0.0
  0
VERTEX
  5
4356
  8
L1
 10
61.812200114655809
 20
21.128589660902289
 30
0.0
  0
VERTEX
  5
4357
  8
L1
 10
61.85105329936021
 20
20.747841158779998
 30
0.0
  0
SEQEND
  5
4358
  8
L1
  0
POLYLINE
  5
2EC4
  8
L1
 66
     1
 10
0.0
 20
0.0
 30
0.0
  0
VERTEX
  5
4359
  8
L1
 10
61.697073088947207
 20
21.49123301605729
 30
0.0
  0
VERTEX
  5
435A
  8
L1
 10
61.586257410709997
 20
21.709186851637689
 30
0.0
  0
VERTEX
  5
435B
  8
L1
 10
61.446843118683141
 20
21.91736267966041
 30
0.0
  0
VERTEX
  5
435C
  8
L1
 10
61.212661423407269
 20
22.176712330546192
 30
0.0
  0
VERTEX
  5
435D
  8
L1
 10
60.935192761055241
 20
22.395462615868581
 30
0.0
  0
VERTEX
  5
435E
  8
L1
 10
60.776472028358448
 20
22.490198012587939
 30
0.0
  0
VERTEX
  5
435F
  8
L1
 10
60.610822161094511
 20
22.569986725547771
 30
0.0
  0
VERTEX
  5
4360
  8
L1
 10
60.262771699553859
 20
22.683178154070781
 30
0.0
  0
VERTEX
  5
4361
  8
L1
 10
60.209532526953687
 20
22.694571369592211
 30
0.0
  0
SEQEND
  5
4362
  8
L1
  0
LINE
  5
2EC5
  8
L1
 10
51.799700862313159
 20
31.968840929871298
 30
0.0
 11
56.531159070128581
 21
36.700299137686748
 31
0.0
  0
POLYLINE
  5
2EC6
  8
L1
 66
     1
 10
0.0
 20
0.0
 30
0.0
  0
VERTEX
  5
4363
  8
L1
 10
47.731027276929012
 20
34.839721278490941
 30
0.0
  0
VERTEX
  5
4364
  8
L1
 10
47.73098736288005
 20
34.852019347894611
 30
0.0
  0
VERTEX
  5
4365
  8
L1
 10
47.7303637466403
 20
34.889984285008239
 30
0.0
  0
VERTEX
  5
4366
  8
L1
 10
47.728873144109002
 20
34.930261047848226
 30
0.0
  0
VERTEX
  5
4367
  8
L1
 10
47.719660326933869
 20
35.047224401864518
 30
0.0
  0
VERTEX
  5
4368
  8
L1
 10
47.694575012660323
 20
35.209448876169567
 30
0.0
  0
SEQEND
  5
4369
  8
L1
  0
LINE
  5
2EC7
  8
L1
 10
48.940067006392042
 20
36.048761007953992
 30
0.0
 11
48.940067006392042
 21
31.529651470526819
 31
0.0
  0
POLYLINE
  5
2EC8
  8
L1
 66
     1
 10
0.0
 20
0.0
 30
0.0
  0
VERTEX
  5
436A
  8
L1
 10
47.731177419503517
 20
30.320761883638308
 30
0.0
  0
VERTEX
  5
436B
  8
L1
 10
47.731067602106009
 20
30.95416466186089
 30
0.0
  0
VERTEX
  5
436C
  8
L1
 10
47.731025240094823
 20
31.131103641319871
 30
0.0
  0
VERTEX
  5
436D
  8
L1
 10
47.730992769293493
 20
31.287221051487929
 30
0.0
  0
VERTEX
  5
436E
  8
L1
 10
47.730953684686192
 20
31.552526941787409
 30
0.0
  0
VERTEX
  5
436F
  8
L1
 10
47.730952227016068
 20
32.004173447092029
 30
0.0
  0
VERTEX
  5
4370
  8
L1
 10
47.730974587417563
 20
32.252657173441463
 30
0.0
  0
VERTEX
  5
4371
  8
L1
 10
47.731002162952848
 20
32.557676623151842
 30
0.0
  0
VERTEX
  5
4372
  8
L1
 10
47.731015520999676
 20
32.741097105414923
 30
0.0
  0
VERTEX
  5
4373
  8
L1
 10
47.731027320354322
 20
32.950303351895307
 30
0.0
  0
VERTEX
  5
4374
  8
L1
 10
47.731036606858588
 20
33.189179307052001
 30
0.0
  0
VERTEX
  5
4375
  8
L1
 10
47.731042426354001
 20
33.461608915344037
 30
0.0
  0
VERTEX
  5
4376
  8
L1
 10
47.731027276929012
 20
34.839721278490941
 30
0.0
  0
SEQEND
  5
4377
  8
L1
  0
POLYLINE
  5
2EC9
  8
L1
 66
     1
 10
0.0
 20
0.0
 30
0.0
  0
VERTEX
  5
4378
  8
L1
 10
46.9428079368829
 20
38.046020077463218
 30
0.0
  0
VERTEX
  5
4379
  8
L1
 10
47.127300639676889
 20
38.037554526128439
 30
0.0
  0
VERTEX
  5
437A
  8
L1
 10
47.310173494203347
 20
38.012129068291472
 30
0.0
  0
VERTEX
  5
437B
  8
L1
 10
47.48987172632809
 20
37.969959869682832
 30
0.0
  0
VERTEX
  5
437C
  8
L1
 10
47.664867552367753
 20
37.911405450321347
 30
0.0
  0
VERTEX
  5
437D
  8
L1
 10
47.83367316821613
 20
37.836963636398359
 30
0.0
  0
VERTEX
  5
437E
  8
L1
 10
47.994853398565617
 20
37.747267327788897
 30
0.0
  0
VERTEX
  5
437F
  8
L1
 10
48.147037898682932
 20
37.6430791171748
 30
0.0
  0
VERTEX
  5
4380
  8
L1
 10
48.288932804998069
 20
37.525284806526876
 30
0.0
  0
VERTEX
  5
4381
  8
L1
 10
48.419331735455728
 20
37.394885876069218
 30
0.0
  0
VERTEX
  5
4382
  8
L1
 10
48.537126046103708
 20
37.252990969754052
 30
0.0
  0
VERTEX
  5
4383
  8
L1
 10
48.641314256717799
 20
37.100806469636751
 30
0.0
  0
VERTEX
  5
4384
  8
L1
 10
48.73101056532721
 20
36.939626239287229
 30
0.0
  0
VERTEX
  5
4385
  8
L1
 10
48.805452379250191
 20
36.77082062343888
 30
0.0
  0
VERTEX
  5
4386
  8
L1
 10
48.86400679861174
 20
36.595824797399132
 30
0.0
  0
VERTEX
  5
4387
  8
L1
 10
48.90617599722038
 20
36.416126565274418
 30
0.0
  0
VERTEX
  5
4388
  8
L1
 10
48.931601455057312
 20
36.233253710747981
 30
0.0
  0
VERTEX
  5
4389
  8
L1
 10
48.940067006392042
 20
36.048761007953992
 30
0.0
  0
SEQEND
  5
438A
  8
L1
  0
POLYLINE
  5
2ECA
  8
L1
 66
     1
 10
0.0
 20
0.0
 30
0.0
  0
VERTEX
  5
438B
  8
L1
 10
45.747841158779977
 20
36.851053299360267
 30
0.0
  0
VERTEX
  5
438C
  8
L1
 10
46.128673880457541
 20
36.812182668059272
 30
0.0
  0
VERTEX
  5
438D
  8
L1
 10
46.491390218655788
 20
36.69700458937205
 30
0.0
  0
SEQEND
  5
438E
  8
L1
  0
POLYLINE
  5
2ECB
  8
L1
 66
     1
 10
0.0
 20
0.0
 30
0.0
  0
VERTEX
  5
438F
  8
L1
 10
47.694575012660323
 20
35.209448876169567
 30
0.0
  0
VERTEX
  5
4390
  8
L1
 10
47.60906580091239
 20
35.512460527633827
 30
0.0
  0
VERTEX
  5
4391
  8
L1
 10
47.476771672403743
 20
35.800992302968893
 30
0.0
  0
VERTEX
  5
4392
  8
L1
 10
47.281042049374257
 20
36.092319400125973
 30
0.0
  0
VERTEX
  5
4393
  8
L1
 10
47.040860938982803
 20
36.345134792978079
 30
0.0
  0
VERTEX
  5
4394
  8
L1
 10
46.776266063568471
 20
36.545239101813252
 30
0.0
  0
VERTEX
  5
4395
  8
L1
 10
46.491390218655788
 20
36.69700458937205
 30
0.0
  0
SEQEND
  5
4396
  8
L1
  0
ARC
  5
2ECC
  8
L1
 10
56.749999999999943
 20
31.75
 30
0.0
 40
4.9551339946734032
 50
357.4687382067072
 51
23.013616072391791
  0
POLYLINE
  5
2ECD
  8
L1
 66
     1
 10
0.0
 20
0.0
 30
0.0
  0
VERTEX
  5
4397
  8
L1
 10
61.883099641752153
 20
34.263214172935129
 30
0.0
  0
VERTEX
  5
4398
  8
L1
 10
61.878765071482071
 20
34.25818726524551
 30
0.0
  0
VERTEX
  5
4399
  8
L1
 10
61.867206662007838
 20
34.245965950157817
 30
0.0
  0
VERTEX
  5
439A
  8
L1
 10
61.846862727419932
 20
34.22498303146844
 30
0.0
  0
VERTEX
  5
439B
  8
L1
 10
61.820028179014621
 20
34.19758740517193
 30
0.0
  0
VERTEX
  5
439C
  8
L1
 10
61.785862277598831
 20
34.16295330197547
 30
0.0
  0
VERTEX
  5
439D
  8
L1
 10
61.747342135618851
 20
34.124081047125678
 30
0.0
  0
VERTEX
  5
439E
  8
L1
 10
61.704116422292323
 20
34.080639129592321
 30
0.0
  0
VERTEX
  5
439F
  8
L1
 10
61.659302189691402
 20
34.035746534404979
 30
0.0
  0
SEQEND
  5
43A0
  8
L1
  0
LINE
  5
2ECE
  8
L1
 10
61.659302189691459
 20
34.03574653440495
 30
0.0
 11
61.31076465179126
 21
33.687208996504751
 31
0.0
  0
POLYLINE
  5
2ECF
  8
L1
 66
     1
 10
0.0
 20
0.0
 30
0.0
  0
VERTEX
  5
43A1
  8
L1
 10
61.901529179287763
 20
34.376706762295072
 30
0.0
  0
VERTEX
  5
43A2
  8
L1
 10
61.892416041710248
 20
34.319858836588558
 30
0.0
  0
VERTEX
  5
43A3
  8
L1
 10
61.88309964175221
 20
34.263214172935108
 30
0.0
  0
SEQEND
  5
43A4
  8
L1
  0
ARC
  5
2ED0
  8
L1
 10
56.749999999999943
 20
31.75
 30
0.0
 40
4.9551339946734032
 50
66.986383927607775
 51
92.531261793291137
  0
LINE
  5
2ED1
  8
L1
 10
58.687208996504751
 20
36.31076465179131
 30
0.0
 11
59.0357465344049
 21
36.659302189691459
 31
0.0
  0
POLYLINE
  5
2ED2
  8
L1
 66
     1
 10
0.0
 20
0.0
 30
0.0
  0
VERTEX
  5
43A5
  8
L1
 10
59.0357465344049
 20
36.659302189691481
 30
0.0
  0
VERTEX
  5
43A6
  8
L1
 10
59.080639129592207
 20
36.704116422292401
 30
0.0
  0
VERTEX
  5
43A7
  8
L1
 10
59.124081047125571
 20
36.747342135618901
 30
0.0
  0
VERTEX
  5
43A8
  8
L1
 10
59.162953301975342
 20
36.785862277598881
 30
0.0
  0
VERTEX
  5
43A9
  8
L1
 10
59.197587405171873
 20
36.820028179014678
 30
0.0
  0
VERTEX
  5
43AA
  8
L1
 10
59.224983031468412
 20
36.846862727420017
 30
0.0
  0
VERTEX
  5
43AB
  8
L1
 10
59.245965950157768
 20
36.867206662007902
 30
0.0
  0
VERTEX
  5
43AC
  8
L1
 10
59.258187265245567
 20
36.878765071482292
 30
0.0
  0
VERTEX
  5
43AD
  8
L1
 10
59.263214172935072
 20
36.883099641752231
 30
0.0
  0
SEQEND
  5
43AE
  8
L1
  0
POLYLINE
  5
2ED3
  8
L1
 66
     1
 10
0.0
 20
0.0
 30
0.0
  0
VERTEX
  5
43AF
  8
L1
 10
59.263214172935143
 20
36.883099641752182
 30
0.0
  0
VERTEX
  5
43B0
  8
L1
 10
59.319858836588651
 20
36.89241604171027
 30
0.0
  0
VERTEX
  5
43B1
  8
L1
 10
59.3767067622951
 20
36.901529179287763
 30
0.0
  0
SEQEND
  5
43B2
  8
L1
  0
POLYLINE
  5
2ED4
  8
L1
 66
     1
 10
0.0
 20
0.0
 30
0.0
  0
VERTEX
  5
43B3
  8
L1
 10
61.557000000000023
 20
40.012088437774111
 30
0.0
  0
VERTEX
  5
43B4
  8
L1
 10
61.537048032038292
 20
40.012250207188877
 30
0.0
  0
VERTEX
  5
43B5
  8
L1
 10
61.517100759268203
 20
40.0123041309092
 30
0.0
  0
SEQEND
  5
43B6
  8
L1
  0
POLYLINE
  5
2ED5
  8
L1
 66
     1
 10
0.0
 20
0.0
 30
0.0
  0
VERTEX
  5
43B7
  8
L1
 10
65.012304130909214
 20
36.517100759268168
 30
0.0
  0
VERTEX
  5
43B8
  8
L1
 10
65.012250207188856
 20
36.537048032038221
 30
0.0
  0
VERTEX
  5
43B9
  8
L1
 10
65.012088437774196
 20
36.556999999999952
 30
0.0
  0
SEQEND
  5
43BA
  8
L1
  0
ENDBLK
  5
2E2F
  8
0
  0
BLOCK
  8
0
  2
S1
 70
     0
 10
0.0
 20
0.0
 30
0.0
  3
S1
  1

  0
LINE
  5
2F95
  8
L2
 10
3.6601578107781161
 20
21.01230413090925
 30
0.0
 11
3.6601578107781161
 21
-21.01230413090925
 31
0.0
  0
LINE
  5
2F96
  8
L1
 10
5.169084878615819
 20
-36.851268992495278
 30
0.0
 11
5.169084878615763
 21
36.851268992495299
 31
0.0
  0
LINE
  5
2F97
  8
L2
 10
5.460157810778127
 20
19.577422181563431
 30
0.0
 11
5.4601578107780986
 21
-19.577422181563492
 31
0.0
  0
LINE
  5
2F98
  8
L1
 10
55.830792269782251
 20
37.950215693135021
 30
0.0
 11
55.830792269782272
 21
-37.950215693134957
 31
0.0
  0
LINE
  5
2F99
  8
L1
 10
28.160157810777971
 20
38.46616015772809
 30
0.0
 11
28.160157810778081
 21
-38.46616015772809
 31
0.0
  0
LINE
  5
2F9A
  8
L1
 10
54.040877780093552
 20
40.012304130909172
 30
0.0
 11
54.040877780093659
 21
-40.012304130909172
 31
0.0
  0
LINE
  5
2F9B
  8
L1
 10
54.760157810778111
 20
-39.29302410022472
 30
0.0
 11
54.760157810778111
 21
39.29302410022467
 31
0.0
  0
LINE
  5
2F9C
  8
L1
 10
3.1601578107780588
 20
-34.734301575269029
 30
0.0
 11
3.1601578107781161
 21
34.734301575269079
 31
0.0
  0
LINE
  5
2F9D
  8
L1
 10
55.524339570749497
 20
-38.315431798167481
 30
0.0
 11
54.763132094207982
 21
-38.44965321419874
 31
0.0
  0
LINE
  5
2F9E
  8
L1
 10
54.040877780093659
 20
-40.012304130909172
 30
0.0
 11
28.349690619529522
 21
-38.665886064679
 31
0.0
  0
ARC
  5
2F9F
  8
L1
 10
28.36015781077813
 20
-38.46616015772809
 30
0.0
 40
0.2
 50
180.0
 51
267.00000000000091
  0
LINE
  5
2FA0
  8
L1
 10
54.760157810778111
 20
-39.29302410022472
 30
0.0
 11
54.040877780093659
 21
-40.012304130909172
 31
0.0
  0
LINE
  5
2FA1
  8
L2
 10
54.760157810778111
 20
-22.95000000000001
 30
0.0
 11
30.36015781077813
 21
-22.31106351371184
 31
0.0
  0
LINE
  5
2FA2
  8
L6
 10
0.0
 20
0.0
 30
0.0
 11
59.097455156615972
 21
0.0000000000000284
 31
0.0
  0
LINE
  5
2FA3
  8
L1
 10
27.97040930889159
 20
-38.04623577059823
 30
0.0
 11
5.169084878615763
 21
-36.851268992495299
 31
0.0
  0
LINE
  5
2FA4
  8
L1
 10
5.169084878615819
 20
-22.745088924290911
 30
0.0
 11
27.970625002026761
 21
-23.94006700639207
 31
0.0
  0
LINE
  5
2FA5
  8
L2
 10
6.7816538764136851
 20
-21.075366483695351
 30
0.0
 11
30.36015781077813
 21
-22.31106351371184
 31
0.0
  0
LINE
  5
2FA6
  8
L1
 10
3.1601578107781161
 20
-34.734301575269079
 30
0.0
 11
5.169084878615763
 21
-36.851268992495299
 31
0.0
  0
ARC
  5
2FA7
  8
L2
 10
6.9601578107780986
 20
-19.577422181563492
 30
0.0
 40
1.5
 50
180.0
 51
266.9999999999992
  0
POLYLINE
  5
2FA8
  8
L1
 66
     1
 10
0.0
 20
0.0
 30
0.0
  0
VERTEX
  5
43BC
  8
L1
 10
3.159942117642998
 20
-20.753003738827601
 30
0.0
  0
VERTEX
  5
43BD
  8
L1
 10
3.159942117642998
 20
-20.75294360382577
 30
0.0
  0
VERTEX
  5
43BE
  8
L1
 10
3.159942117642998
 20
-20.752957346444411
 30
0.0
  0
VERTEX
  5
43BF
  8
L1
 10
3.159942117642998
 20
-20.75302913477082
 30
0.0
  0
VERTEX
  5
43C0
  8
L1
 10
3.159942117642998
 20
-20.75314313689233
 30
0.0
  0
VERTEX
  5
43C1
  8
L1
 10
3.159942117642998
 20
-20.753283520895931
 30
0.0
  0
VERTEX
  5
43C2
  8
L1
 10
3.159942117642998
 20
-20.753434454869069
 30
0.0
  0
VERTEX
  5
43C3
  8
L1
 10
3.159942117642998
 20
-20.75358010689888
 30
0.0
  0
VERTEX
  5
43C4
  8
L1
 10
3.159942117642998
 20
-20.753704645072439
 30
0.0
  0
SEQEND
  5
43C5
  8
L1
  0
LINE
  5
2FA9
  8
L1
 10
3.159942117642998
 20
-21.012519824044318
 30
0.0
 11
3.1601048686793831
 21
-21.012511294623891
 31
0.0
  0
POLYLINE
  5
2FAA
  8
L1
 66
     1
 10
0.0
 20
0.0
 30
0.0
  0
VERTEX
  5
43C6
  8
L1
 10
3.159942117950294
 20
-20.753318914029592
 30
0.0
  0
VERTEX
  5
43C7
  8
L1
 10
3.1612908786961209
 20
-20.754852641417521
 30
0.0
  0
SEQEND
  5
43C8
  8
L1
  0
POLYLINE
  5
2FAB
  8
L1
 66
     1
 10
0.0
 20
0.0
 30
0.0
  0
VERTEX
  5
43C9
  8
L1
 10
3.1614010756480582
 20
-20.754872691900282
 30
0.0
  0
VERTEX
  5
43CA
  8
L1
 10
3.1599421174868492
 20
-20.753217248205821
 30
0.0
  0
SEQEND
  5
43CB
  8
L1
  0
POLYLINE
  5
2FAC
  8
L1
 66
     1
 10
0.0
 20
0.0
 30
0.0
  0
VERTEX
  5
43CC
  8
L1
 10
3.164872295980643
 20
-20.75885858744493
 30
0.0
  0
VERTEX
  5
43CD
  8
L1
 10
3.1599421173920912
 20
-20.753263322456171
 30
0.0
  0
SEQEND
  5
43CE
  8
L1
  0
LINE
  5
2FAD
  8
L2
 10
3.6601578107781161
 20
-21.01230413090925
 30
0.0
 11
3.1601578107780881
 21
-21.01230413090925
 31
0.0
  0
POLYLINE
  5
2FAE
  8
L1
 66
     1
 10
0.0
 20
0.0
 30
0.0
  0
VERTEX
  5
43CF
  8
L1
 10
3.159942117642998
 20
-20.753003738827601
 30
0.0
  0
VERTEX
  5
43D0
  8
L1
 10
3.159942117642998
 20
-20.75294360382577
 30
0.0
  0
VERTEX
  5
43D1
  8
L1
 10
3.159942117642998
 20
-20.752957346444411
 30
0.0
  0
VERTEX
  5
43D2
  8
L1
 10
3.159942117642998
 20
-20.75302913477082
 30
0.0
  0
VERTEX
  5
43D3
  8
L1
 10
3.159942117642998
 20
-20.75314313689233
 30
0.0
  0
VERTEX
  5
43D4
  8
L1
 10
3.159942117642998
 20
-20.753283520895931
 30
0.0
  0
VERTEX
  5
43D5
  8
L1
 10
3.159942117642998
 20
-20.753434454869069
 30
0.0
  0
VERTEX
  5
43D6
  8
L1
 10
3.159942117642998
 20
-20.75358010689888
 30
0.0
  0
VERTEX
  5
43D7
  8
L1
 10
3.159942117642998
 20
-20.753704645072439
 30
0.0
  0
SEQEND
  5
43D8
  8
L1
  0
LINE
  5
2FAF
  8
L1
 10
3.159942117642998
 20
-21.012519824044318
 30
0.0
 11
3.1601048686793831
 21
-21.012511294623891
 31
0.0
  0
POLYLINE
  5
2FB0
  8
L1
 66
     1
 10
0.0
 20
0.0
 30
0.0
  0
VERTEX
  5
43D9
  8
L1
 10
3.159942117950294
 20
-20.753318914029592
 30
0.0
  0
VERTEX
  5
43DA
  8
L1
 10
3.1612908786961209
 20
-20.754852641417521
 30
0.0
  0
SEQEND
  5
43DB
  8
L1
  0
POLYLINE
  5
2FB1
  8
L1
 66
     1
 10
0.0
 20
0.0
 30
0.0
  0
VERTEX
  5
43DC
  8
L1
 10
3.1614010756480582
 20
-20.754872691900282
 30
0.0
  0
VERTEX
  5
43DD
  8
L1
 10
3.1599421174868492
 20
-20.753217248205821
 30
0.0
  0
SEQEND
  5
43DE
  8
L1
  0
POLYLINE
  5
2FB2
  8
L1
 66
     1
 10
0.0
 20
0.0
 30
0.0
  0
VERTEX
  5
43DF
  8
L1
 10
3.164872295980643
 20
-20.75885858744493
 30
0.0
  0
VERTEX
  5
43E0
  8
L1
 10
3.1599421173920912
 20
-20.753263322456171
 30
0.0
  0
SEQEND
  5
43E1
  8
L1
  0
LINE
  5
2FB3
  8
L1
 10
3.1601578107781729
 20
-20.628121507064691
 30
0.0
 11
5.169084878615819
 21
-22.745088924290911
 31
0.0
  0
POLYLINE
  5
2FB4
  8
L1
 66
     1
 10
0.0
 20
0.0
 30
0.0
  0
VERTEX
  5
43E2
  8
L1
 10
3.159942117642998
 20
-20.753003738827541
 30
0.0
  0
VERTEX
  5
43E3
  8
L1
 10
3.159942117642998
 20
-20.75294360382571
 30
0.0
  0
VERTEX
  5
43E4
  8
L1
 10
3.159942117642998
 20
-20.752957346444362
 30
0.0
  0
VERTEX
  5
43E5
  8
L1
 10
3.159942117642998
 20
-20.75302913477077
 30
0.0
  0
VERTEX
  5
43E6
  8
L1
 10
3.159942117642998
 20
-20.75314313689227
 30
0.0
  0
VERTEX
  5
43E7
  8
L1
 10
3.159942117642998
 20
-20.75328352089587
 30
0.0
  0
VERTEX
  5
43E8
  8
L1
 10
3.159942117642998
 20
-20.753434454869019
 30
0.0
  0
VERTEX
  5
43E9
  8
L1
 10
3.159942117642998
 20
-20.75358010689882
 30
0.0
  0
VERTEX
  5
43EA
  8
L1
 10
3.159942117642998
 20
-20.753704645072379
 30
0.0
  0
SEQEND
  5
43EB
  8
L1
  0
POLYLINE
  5
2FB5
  8
L1
 66
     1
 10
0.0
 20
0.0
 30
0.0
  0
VERTEX
  5
43EC
  8
L1
 10
3.159942117950294
 20
-20.753318914029531
 30
0.0
  0
VERTEX
  5
43ED
  8
L1
 10
3.1612908786961209
 20
-20.754852641417472
 30
0.0
  0
SEQEND
  5
43EE
  8
L1
  0
POLYLINE
  5
2FB6
  8
L1
 66
     1
 10
0.0
 20
0.0
 30
0.0
  0
VERTEX
  5
43EF
  8
L1
 10
3.1614010756480582
 20
-20.754872691900228
 30
0.0
  0
VERTEX
  5
43F0
  8
L1
 10
3.1599421174868492
 20
-20.753217248205772
 30
0.0
  0
SEQEND
  5
43F1
  8
L1
  0
POLYLINE
  5
2FB7
  8
L1
 66
     1
 10
0.0
 20
0.0
 30
0.0
  0
VERTEX
  5
43F2
  8
L1
 10
3.164872295980643
 20
-20.75885858744487
 30
0.0
  0
VERTEX
  5
43F3
  8
L1
 10
3.1599421173920912
 20
-20.753263322456121
 30
0.0
  0
SEQEND
  5
43F4
  8
L1
  0
ARC
  5
2FB8
  8
L1
 10
27.95994211764301
 20
-38.245961677549069
 30
0.0
 40
0.1999999999999993
 50
0.0
 51
86.999999999999304
  0
POLYLINE
  5
2FB9
  8
L1
 66
     1
 10
0.0
 20
0.0
 30
0.0
  0
VERTEX
  5
43F5
  8
L1
 10
28.160157810778081
 20
-24.118147833022391
 30
0.0
  0
VERTEX
  5
43F6
  8
L1
 10
28.160157810778081
 20
-24.13437498104426
 30
0.0
  0
VERTEX
  5
43F7
  8
L1
 10
28.160157810778081
 20
-24.139792913342969
 30
0.0
  0
SEQEND
  5
43F8
  8
L1
  0
ARC
  5
2FBA
  8
L1
 10
27.960157810778149
 20
-24.139792913342941
 30
0.0
 40
0.2
 50
0.0
 51
87.000000000000909
  0
ARC
  5
2FBB
  8
L1
 10
55.45994211764301
 20
-37.950215693134957
 30
0.0
 40
0.3708501521392529
 50
280.00000000000011
 51
0.0
  0
ARC
  5
2FBC
  8
L2
 10
55.45994211764301
 20
-37.950215693134957
 30
0.0
 40
0.3708501521392529
 50
0.0
 51
79.999999999999801
  0
LINE
  5
2FBD
  8
L2
 10
54.759942117642957
 20
-37.450215693134957
 30
0.0
 11
55.524339570749497
 21
-37.584999588102448
 31
0.0
  0
LINE
  5
2FBE
  8
L1
 10
54.040877780093552
 20
40.012304130909172
 30
0.0
 11
54.760157810778111
 21
39.29302410022467
 31
0.0
  0
LINE
  5
2FBF
  8
L1
 10
28.349690619529522
 20
38.665886064679
 30
0.0
 11
54.040877780093659
 21
40.012304130909172
 31
0.0
  0
LINE
  5
2FC0
  8
L2
 10
54.760157810778111
 20
22.95000000000001
 30
0.0
 11
30.36015781077813
 21
22.31106351371184
 31
0.0
  0
ARC
  5
2FC1
  8
L2
 10
6.960157810778127
 20
19.577422181563431
 30
0.0
 40
1.5
 50
93.000000000000711
 51
180.0
  0
LINE
  5
2FC2
  8
L1
 10
5.169084878615819
 20
22.745088924290911
 30
0.0
 11
27.970625002026761
 21
23.94006700639207
 31
0.0
  0
LINE
  5
2FC3
  8
L1
 10
27.97040930889159
 20
38.04623577059823
 30
0.0
 11
5.169084878615763
 21
36.851268992495299
 31
0.0
  0
LINE
  5
2FC4
  8
L2
 10
30.36015781077813
 20
22.31106351371178
 30
0.0
 11
6.7816538764136851
 21
21.075366483695291
 31
0.0
  0
LINE
  5
2FC5
  8
L2
 10
3.6601578107781161
 20
21.01230413090925
 30
0.0
 11
3.1601578107780881
 21
21.01230413090925
 31
0.0
  0
LINE
  5
2FC6
  8
L1
 10
3.1601578107781729
 20
20.628121507064691
 30
0.0
 11
5.169084878615819
 21
22.745088924290911
 31
0.0
  0
POLYLINE
  5
2FC7
  8
L1
 66
     1
 10
0.0
 20
0.0
 30
0.0
  0
VERTEX
  5
43F9
  8
L1
 10
3.164872295980643
 20
20.75885858744493
 30
0.0
  0
VERTEX
  5
43FA
  8
L1
 10
3.1599421173920912
 20
20.753263322456171
 30
0.0
  0
SEQEND
  5
43FB
  8
L1
  0
POLYLINE
  5
2FC8
  8
L1
 66
     1
 10
0.0
 20
0.0
 30
0.0
  0
VERTEX
  5
43FC
  8
L1
 10
3.1614010756480582
 20
20.754872691900282
 30
0.0
  0
VERTEX
  5
43FD
  8
L1
 10
3.1599421174868492
 20
20.753217248205821
 30
0.0
  0
SEQEND
  5
43FE
  8
L1
  0
POLYLINE
  5
2FC9
  8
L1
 66
     1
 10
0.0
 20
0.0
 30
0.0
  0
VERTEX
  5
43FF
  8
L1
 10
3.159942117950294
 20
20.753318914029592
 30
0.0
  0
VERTEX
  5
4400
  8
L1
 10
3.1612908786961209
 20
20.754852641417521
 30
0.0
  0
SEQEND
  5
4401
  8
L1
  0
LINE
  5
2FCA
  8
L1
 10
3.159942117642998
 20
21.012519824044318
 30
0.0
 11
3.1601048686793831
 21
21.012511294623891
 31
0.0
  0
POLYLINE
  5
2FCB
  8
L1
 66
     1
 10
0.0
 20
0.0
 30
0.0
  0
VERTEX
  5
4402
  8
L1
 10
3.159942117642998
 20
20.753003738827601
 30
0.0
  0
VERTEX
  5
4403
  8
L1
 10
3.159942117642998
 20
20.75294360382577
 30
0.0
  0
VERTEX
  5
4404
  8
L1
 10
3.159942117642998
 20
20.752957346444411
 30
0.0
  0
VERTEX
  5
4405
  8
L1
 10
3.159942117642998
 20
20.75302913477082
 30
0.0
  0
VERTEX
  5
4406
  8
L1
 10
3.159942117642998
 20
20.75314313689233
 30
0.0
  0
VERTEX
  5
4407
  8
L1
 10
3.159942117642998
 20
20.753283520895931
 30
0.0
  0
VERTEX
  5
4408
  8
L1
 10
3.159942117642998
 20
20.753434454869069
 30
0.0
  0
VERTEX
  5
4409
  8
L1
 10
3.159942117642998
 20
20.75358010689888
 30
0.0
  0
VERTEX
  5
440A
  8
L1
 10
3.159942117642998
 20
20.753704645072439
 30
0.0
  0
SEQEND
  5
440B
  8
L1
  0
LINE
  5
2FCC
  8
L1
 10
3.1601578107781161
 20
34.734301575269079
 30
0.0
 11
5.169084878615763
 21
36.851268992495299
 31
0.0
  0
POLYLINE
  5
2FCD
  8
L1
 66
     1
 10
0.0
 20
0.0
 30
0.0
  0
VERTEX
  5
440C
  8
L1
 10
28.160157810778081
 20
24.139792913342969
 30
0.0
  0
VERTEX
  5
440D
  8
L1
 10
28.160157810778081
 20
24.1341107648283
 30
0.0
  0
VERTEX
  5
440E
  8
L1
 10
28.160157810778081
 20
24.117093630705821
 30
0.0
  0
SEQEND
  5
440F
  8
L1
  0
ARC
  5
2FCE
  8
L1
 10
27.960157810778149
 20
24.139792913342969
 30
0.0
 40
0.2
 50
272.99999999999909
 51
0.0
  0
ARC
  5
2FCF
  8
L1
 10
28.36015781077813
 20
38.466160157728147
 30
0.0
 40
0.2
 50
92.999999999999105
 51
180.0
  0
ARC
  5
2FD0
  8
L1
 10
28.36015781077813
 20
38.46616015772809
 30
0.0
 40
0.2
 50
93.000000000000711
 51
180.0
  0
ARC
  5
2FD1
  8
L1
 10
27.95994211764301
 20
38.245961677549133
 30
0.0
 40
0.1999999999999993
 50
273.00000000000068
 51
0.0
  0
LINE
  5
2FD2
  8
L1
 10
55.524339570749497
 20
38.315431798167531
 30
0.0
 11
54.763132094207982
 21
38.449653214198797
 31
0.0
  0
ARC
  5
2FD3
  8
L1
 10
55.45994211764301
 20
37.950215693135021
 30
0.0
 40
0.3708501521392529
 50
0.0
 51
79.999999999999801
  0
ARC
  5
2FD4
  8
L2
 10
55.45994211764301
 20
37.950215693135021
 30
0.0
 40
0.3708501521392529
 50
280.00000000000011
 51
0.0
  0
LINE
  5
2FD5
  8
L2
 10
54.759942117642957
 20
37.450215693135021
 30
0.0
 11
55.524339570749497
 21
37.584999588102498
 31
0.0
  0
ENDBLK
  5
2F94
  8
0
  0
BLOCK
  8
0
  2
S2
 70
     0
 10
0.0
 20
0.0
 30
0.0
  3
S2
  1

  0
LINE
  5
2FDA
  8
L1
 10
-65.012088437774139
 20
-4.4148425858822398
 30
0.0
 11
65.012088437773969
 21
-4.4148425858822398
 31
0.0
  0
POLYLINE
  5
2FDB
  8
L1
 66
     1
 10
0.0
 20
0.0
 30
0.0
  0
VERTEX
  5
4411
  8
L1
 10
63.46616015772809
 20
-30.295778248332908
 30
0.0
  0
VERTEX
  5
4412
  8
L1
 10
-52.076507460590562
 20
-30.295778248332908
 30
0.0
  0
VERTEX
  5
4413
  8
L1
 10
-52.267620854614677
 20
-30.295778248332908
 30
0.0
  0
VERTEX
  5
4414
  8
L1
 10
-52.457412615970888
 20
-30.295778248332908
 30
0.0
  0
VERTEX
  5
4415
  8
L1
 10
-52.645242786473489
 20
-30.295778248332908
 30
0.0
  0
VERTEX
  5
4416
  8
L1
 10
-52.830478022218358
 20
-30.295778248332908
 30
0.0
  0
VERTEX
  5
4417
  8
L1
 10
-53.012493729152823
 20
-30.295778248332908
 30
0.0
  0
VERTEX
  5
4418
  8
L1
 10
-53.19067616914225
 20
-30.295778248332908
 30
0.0
  0
VERTEX
  5
4419
  8
L1
 10
-53.364424529431801
 20
-30.295778248332908
 30
0.0
  0
VERTEX
  5
441A
  8
L1
 10
-53.533152948524389
 20
-30.295778248332908
 30
0.0
  0
VERTEX
  5
441B
  8
L1
 10
-53.696292491645643
 20
-30.295778248332908
 30
0.0
  0
VERTEX
  5
441C
  8
L1
 10
-53.853293069132633
 20
-30.295778248332908
 30
0.0
  0
VERTEX
  5
441D
  8
L1
 10
-54.003625291279548
 20
-30.295778248332908
 30
0.0
  0
VERTEX
  5
441E
  8
L1
 10
-54.146782253384849
 20
-30.295778248332908
 30
0.0
  0
VERTEX
  5
441F
  8
L1
 10
-54.282281244981732
 20
-30.295778248332908
 30
0.0
  0
VERTEX
  5
4420
  8
L1
 10
-54.40966537748767
 20
-30.295778248332908
 30
0.0
  0
VERTEX
  5
4421
  8
L1
 10
-54.528505124785568
 20
-30.295778248332908
 30
0.0
  0
VERTEX
  5
4422
  8
L1
 10
-54.638399771541167
 20
-30.295778248332908
 30
0.0
  0
VERTEX
  5
4423
  8
L1
 10
-54.738978764374231
 20
-30.295778248332908
 30
0.0
  0
VERTEX
  5
4424
  8
L1
 10
-54.829902961325502
 20
-30.295778248332908
 30
0.0
  0
VERTEX
  5
4425
  8
L1
 10
-54.910865775408922
 20
-30.295778248332908
 30
0.0
  0
VERTEX
  5
4426
  8
L1
 10
-54.981594208390732
 20
-30.295778248332908
 30
0.0
  0
VERTEX
  5
4427
  8
L1
 10
-55.041849771311831
 20
-30.295778248332908
 30
0.0
  0
VERTEX
  5
4428
  8
L1
 10
-55.091429288647248
 20
-30.295778248332908
 30
0.0
  0
VERTEX
  5
4429
  8
L1
 10
-55.130165583393527
 20
-30.295778248332908
 30
0.0
  0
VERTEX
  5
442A
  8
L1
 10
-55.157928040771992
 20
-30.295778248332908
 30
0.0
  0
VERTEX
  5
442B
  8
L1
 10
-55.17462304864825
 20
-30.295778248332908
 30
0.0
  0
VERTEX
  5
442C
  8
L1
 10
-63.466160157728147
 20
-30.295778248332908
 30
0.0
  0
SEQEND
  5
442D
  8
L1
  0
LINE
  5
2FDC
  8
L1
 10
64.293024100224557
 20
-3.6957782483326578
 30
0.0
 11
-64.293024100224841
 21
-3.695778248332914
 31
0.0
  0
LINE
  5
2FDD
  8
L1
 10
-62.949999999999989
 20
-2.6249280961936559
 30
0.0
 11
62.949999999999868
 21
-2.624928096193627
 31
0.0
  0
LINE
  5
2FDE
  8
L1
 10
63.04602007746314
 20
-30.48531105708431
 30
0.0
 11
61.85105329936016
 21
-53.286635487360108
 31
0.0
  0
LINE
  5
2FDF
  8
L6
 10
0.0
 20
-58.109713183217544
 30
0.0
 11
0.0
 21
0.0
 31
0.0
  0
LINE
  5
2FE0
  8
L1
 10
-63.665886064679057
 20
-30.106245439581471
 30
0.0
 11
-65.012304130909214
 21
-4.4150582790173303
 31
0.0
  0
LINE
  5
2FE1
  8
L2
 10
-47.950000000000067
 20
-3.6957782483328852
 30
0.0
 11
-47.3110635137119
 21
-28.095778248332859
 31
0.0
  0
LINE
  5
2FE2
  8
L2
 10
47.950000000000038
 20
-3.6957782483328852
 30
0.0
 11
47.311063513711808
 21
-28.095778248332859
 31
0.0
  0
LINE
  5
2FE3
  8
L2
 10
44.577206488428317
 20
-52.99556255519775
 30
0.0
 11
-44.57720648842843
 21
-52.995562555197807
 31
0.0
  0
LINE
  5
2FE4
  8
L2
 10
46.012088437774132
 20
-54.795562555197812
 30
0.0
 11
-46.012088437774203
 21
-54.795562555197812
 31
0.0
  0
LINE
  5
2FE5
  8
L1
 10
-59.734085882133968
 20
-55.295562555197819
 30
0.0
 11
59.734085882133968
 21
-55.295562555197819
 31
0.0
  0
LINE
  5
2FE6
  8
L1
 10
-61.85105329936021
 20
-53.286635487360108
 30
0.0
 11
61.85105329936016
 21
-53.286635487360108
 31
0.0
  0
LINE
  5
2FE7
  8
L2
 10
-46.075366483695397
 20
-51.674282182697311
 30
0.0
 11
-47.3110635137119
 21
-28.095778248332859
 31
0.0
  0
LINE
  5
2FE8
  8
L2
 10
-46.075150790560308
 20
-51.674066489562222
 30
0.0
 11
-47.310847820576782
 21
-28.09556255519777
 31
0.0
  0
LINE
  5
2FE9
  8
L1
 10
-63.04602007746314
 20
-30.48531105708431
 30
0.0
 11
-61.851053299360267
 21
-53.286635487360108
 31
0.0
  0
LINE
  5
2FEA
  8
L1
 10
-47.74487323115585
 20
-53.286635487360108
 30
0.0
 11
-48.939851313257009
 21
-30.485095363949139
 31
0.0
  0
LINE
  5
2FEB
  8
L1
 10
-59.734085882134018
 20
-55.295562555197819
 30
0.0
 11
-61.851053299360267
 21
-53.286635487360108
 31
0.0
  0
LINE
  5
2FEC
  8
L1
 10
-45.627905813929601
 20
-55.295562555197712
 30
0.0
 11
-47.74487323115585
 21
-53.286635487360108
 31
0.0
  0
ARC
  5
2FED
  8
L2
 10
-44.577206488428367
 20
-51.4955625551978
 30
0.0
 40
1.5
 50
182.99999999999989
 51
270.0
  0
LINE
  5
2FEE
  8
L1
 10
-46.012304130909229
 20
-55.295778248332908
 30
0.0
 11
-46.012295601488859
 21
-55.295615497296531
 31
0.0
  0
LINE
  5
2FEF
  8
L2
 10
-46.012088437774203
 20
-54.795562555197812
 30
0.0
 11
-46.012088437774203
 21
-55.295562555197819
 31
0.0
  0
LINE
  5
2FF0
  8
L1
 10
-46.012304130909229
 20
-55.295778248332908
 30
0.0
 11
-46.012295601488859
 21
-55.295615497296531
 31
0.0
  0
POLYLINE
  5
2FF1
  8
L1
 66
     1
 10
0.0
 20
0.0
 30
0.0
  0
VERTEX
  5
442E
  8
L1
 10
-45.75864289430978
 20
-55.290848069995263
 30
0.0
  0
VERTEX
  5
442F
  8
L1
 10
-45.753047629321031
 20
-55.295778248583822
 30
0.0
  0
SEQEND
  5
4430
  8
L1
  0
POLYLINE
  5
2FF2
  8
L1
 66
     1
 10
0.0
 20
0.0
 30
0.0
  0
VERTEX
  5
4431
  8
L1
 10
-45.754656998765192
 20
-55.294319290327849
 30
0.0
  0
VERTEX
  5
4432
  8
L1
 10
-45.753001555070682
 20
-55.295778248489057
 30
0.0
  0
SEQEND
  5
4433
  8
L1
  0
POLYLINE
  5
2FF3
  8
L1
 66
     1
 10
0.0
 20
0.0
 30
0.0
  0
VERTEX
  5
4434
  8
L1
 10
-45.753103220894438
 20
-55.295778248025613
 30
0.0
  0
VERTEX
  5
4435
  8
L1
 10
-45.754636948282382
 20
-55.294429487279793
 30
0.0
  0
SEQEND
  5
4436
  8
L1
  0
POLYLINE
  5
2FF4
  8
L1
 66
     1
 10
0.0
 20
0.0
 30
0.0
  0
VERTEX
  5
4437
  8
L1
 10
-45.752788045692448
 20
-55.295778248332908
 30
0.0
  0
VERTEX
  5
4438
  8
L1
 10
-45.752727910690624
 20
-55.295778248332908
 30
0.0
  0
VERTEX
  5
4439
  8
L1
 10
-45.752741653309272
 20
-55.295778248332908
 30
0.0
  0
VERTEX
  5
443A
  8
L1
 10
-45.752813441635681
 20
-55.295778248332908
 30
0.0
  0
VERTEX
  5
443B
  8
L1
 10
-45.752927443757237
 20
-55.295778248332908
 30
0.0
  0
VERTEX
  5
443C
  8
L1
 10
-45.753067827760781
 20
-55.295778248332908
 30
0.0
  0
VERTEX
  5
443D
  8
L1
 10
-45.753218761733933
 20
-55.295778248332908
 30
0.0
  0
VERTEX
  5
443E
  8
L1
 10
-45.753364413763727
 20
-55.295778248332908
 30
0.0
  0
VERTEX
  5
443F
  8
L1
 10
-45.753488951937349
 20
-55.295778248332908
 30
0.0
  0
SEQEND
  5
4440
  8
L1
  0
POLYLINE
  5
2FF5
  8
L1
 66
     1
 10
0.0
 20
0.0
 30
0.0
  0
VERTEX
  5
4441
  8
L1
 10
-45.758642894309901
 20
-55.290848069995263
 30
0.0
  0
VERTEX
  5
4442
  8
L1
 10
-45.753047629321138
 20
-55.295778248583822
 30
0.0
  0
SEQEND
  5
4443
  8
L1
  0
POLYLINE
  5
2FF6
  8
L1
 66
     1
 10
0.0
 20
0.0
 30
0.0
  0
VERTEX
  5
4444
  8
L1
 10
-45.754656998765192
 20
-55.294319290327849
 30
0.0
  0
VERTEX
  5
4445
  8
L1
 10
-45.753001555070789
 20
-55.295778248489057
 30
0.0
  0
SEQEND
  5
4446
  8
L1
  0
POLYLINE
  5
2FF7
  8
L1
 66
     1
 10
0.0
 20
0.0
 30
0.0
  0
VERTEX
  5
4447
  8
L1
 10
-45.753103220894559
 20
-55.295778248025613
 30
0.0
  0
VERTEX
  5
4448
  8
L1
 10
-45.754636948282503
 20
-55.294429487279793
 30
0.0
  0
SEQEND
  5
4449
  8
L1
  0
POLYLINE
  5
2FF8
  8
L1
 66
     1
 10
0.0
 20
0.0
 30
0.0
  0
VERTEX
  5
444A
  8
L1
 10
-45.752788045692569
 20
-55.295778248332908
 30
0.0
  0
VERTEX
  5
444B
  8
L1
 10
-45.752727910690737
 20
-55.295778248332908
 30
0.0
  0
VERTEX
  5
444C
  8
L1
 10
-45.752741653309378
 20
-55.295778248332908
 30
0.0
  0
VERTEX
  5
444D
  8
L1
 10
-45.752813441635787
 20
-55.295778248332908
 30
0.0
  0
VERTEX
  5
444E
  8
L1
 10
-45.752927443757237
 20
-55.295778248332908
 30
0.0
  0
VERTEX
  5
444F
  8
L1
 10
-45.753067827760901
 20
-55.295778248332908
 30
0.0
  0
VERTEX
  5
4450
  8
L1
 10
-45.75321876173404
 20
-55.295778248332908
 30
0.0
  0
VERTEX
  5
4451
  8
L1
 10
-45.753364413763848
 20
-55.295778248332908
 30
0.0
  0
VERTEX
  5
4452
  8
L1
 10
-45.753488951937349
 20
-55.295778248332908
 30
0.0
  0
SEQEND
  5
4453
  8
L1
  0
POLYLINE
  5
2FF9
  8
L1
 66
     1
 10
0.0
 20
0.0
 30
0.0
  0
VERTEX
  5
4454
  8
L1
 10
-45.758642894309901
 20
-55.290848069995263
 30
0.0
  0
VERTEX
  5
4455
  8
L1
 10
-45.753047629321138
 20
-55.295778248583822
 30
0.0
  0
SEQEND
  5
4456
  8
L1
  0
POLYLINE
  5
2FFA
  8
L1
 66
     1
 10
0.0
 20
0.0
 30
0.0
  0
VERTEX
  5
4457
  8
L1
 10
-45.754656998765192
 20
-55.294319290327849
 30
0.0
  0
VERTEX
  5
4458
  8
L1
 10
-45.753001555070789
 20
-55.295778248489057
 30
0.0
  0
SEQEND
  5
4459
  8
L1
  0
POLYLINE
  5
2FFB
  8
L1
 66
     1
 10
0.0
 20
0.0
 30
0.0
  0
VERTEX
  5
445A
  8
L1
 10
-45.753103220894559
 20
-55.295778248025613
 30
0.0
  0
VERTEX
  5
445B
  8
L1
 10
-45.754636948282503
 20
-55.294429487279793
 30
0.0
  0
SEQEND
  5
445C
  8
L1
  0
POLYLINE
  5
2FFC
  8
L1
 66
     1
 10
0.0
 20
0.0
 30
0.0
  0
VERTEX
  5
445D
  8
L1
 10
-45.752788045692569
 20
-55.295778248332908
 30
0.0
  0
VERTEX
  5
445E
  8
L1
 10
-45.752727910690737
 20
-55.295778248332908
 30
0.0
  0
VERTEX
  5
445F
  8
L1
 10
-45.752741653309378
 20
-55.295778248332908
 30
0.0
  0
VERTEX
  5
4460
  8
L1
 10
-45.752813441635787
 20
-55.295778248332908
 30
0.0
  0
VERTEX
  5
4461
  8
L1
 10
-45.752927443757237
 20
-55.295778248332908
 30
0.0
  0
VERTEX
  5
4462
  8
L1
 10
-45.753067827760901
 20
-55.295778248332908
 30
0.0
  0
VERTEX
  5
4463
  8
L1
 10
-45.75321876173404
 20
-55.295778248332908
 30
0.0
  0
VERTEX
  5
4464
  8
L1
 10
-45.753364413763848
 20
-55.295778248332908
 30
0.0
  0
VERTEX
  5
4465
  8
L1
 10
-45.753488951937349
 20
-55.295778248332908
 30
0.0
  0
SEQEND
  5
4466
  8
L1
  0
ARC
  5
2FFD
  8
L1
 10
-63.24574598441405
 20
-30.49577824833289
 30
0.0
 40
0.1999999999999993
 50
3.0000000000007159
 51
90.0
  0
ARC
  5
2FFE
  8
L1
 10
-63.466160157728147
 20
-30.095778248332859
 30
0.0
 40
0.1999999999999879
 50
183.00000000000071
 51
270.0
  0
ARC
  5
2FFF
  8
L1
 10
-49.139792913343001
 20
-30.49577824833289
 30
0.0
 40
0.1999999999999957
 50
2.9999999999994951
 51
90.0
  0
LINE
  5
3000
  8
L2
 10
46.07536648369534
 20
-51.674282182697311
 30
0.0
 11
47.311063513711808
 21
-28.095778248332859
 31
0.0
  0
LINE
  5
3001
  8
L2
 10
47.310847820576662
 20
-28.09556255519777
 30
0.0
 11
46.075150790560201
 21
-51.674066489562222
 31
0.0
  0
LINE
  5
3002
  8
L1
 10
47.744873231155793
 20
-53.286635487360108
 30
0.0
 11
48.939851313256952
 21
-30.485095363949139
 31
0.0
  0
ARC
  5
3003
  8
L2
 10
44.577206488428367
 20
-51.49556255519775
 30
0.0
 40
1.5
 50
270.0
 51
356.9999999999996
  0
POLYLINE
  5
3004
  8
L1
 66
     1
 10
0.0
 20
0.0
 30
0.0
  0
VERTEX
  5
4467
  8
L1
 10
45.752788045692448
 20
-55.295778248332908
 30
0.0
  0
VERTEX
  5
4468
  8
L1
 10
45.752727910690624
 20
-55.295778248332908
 30
0.0
  0
VERTEX
  5
4469
  8
L1
 10
45.752741653309272
 20
-55.295778248332908
 30
0.0
  0
VERTEX
  5
446A
  8
L1
 10
45.752813441635681
 20
-55.295778248332908
 30
0.0
  0
VERTEX
  5
446B
  8
L1
 10
45.752927443757237
 20
-55.295778248332908
 30
0.0
  0
VERTEX
  5
446C
  8
L1
 10
45.753067827760781
 20
-55.295778248332908
 30
0.0
  0
VERTEX
  5
446D
  8
L1
 10
45.753218761733933
 20
-55.295778248332908
 30
0.0
  0
VERTEX
  5
446E
  8
L1
 10
45.753364413763727
 20
-55.295778248332908
 30
0.0
  0
VERTEX
  5
446F
  8
L1
 10
45.753488951937349
 20
-55.295778248332908
 30
0.0
  0
SEQEND
  5
4470
  8
L1
  0
LINE
  5
3005
  8
L1
 10
46.012304130909229
 20
-55.295778248332908
 30
0.0
 11
46.012295601488738
 21
-55.295615497296531
 31
0.0
  0
POLYLINE
  5
3006
  8
L1
 66
     1
 10
0.0
 20
0.0
 30
0.0
  0
VERTEX
  5
4471
  8
L1
 10
45.753103220894438
 20
-55.295778248025613
 30
0.0
  0
VERTEX
  5
4472
  8
L1
 10
45.754636948282382
 20
-55.294429487279793
 30
0.0
  0
SEQEND
  5
4473
  8
L1
  0
POLYLINE
  5
3007
  8
L1
 66
     1
 10
0.0
 20
0.0
 30
0.0
  0
VERTEX
  5
4474
  8
L1
 10
45.754656998765192
 20
-55.294319290327849
 30
0.0
  0
VERTEX
  5
4475
  8
L1
 10
45.753001555070682
 20
-55.295778248489057
 30
0.0
  0
SEQEND
  5
4476
  8
L1
  0
POLYLINE
  5
3008
  8
L1
 66
     1
 10
0.0
 20
0.0
 30
0.0
  0
VERTEX
  5
4477
  8
L1
 10
45.75864289430978
 20
-55.290848069995263
 30
0.0
  0
VERTEX
  5
4478
  8
L1
 10
45.753047629321031
 20
-55.295778248583822
 30
0.0
  0
SEQEND
  5
4479
  8
L1
  0
LINE
  5
3009
  8
L2
 10
46.012088437774132
 20
-54.795562555197812
 30
0.0
 11
46.012088437774132
 21
-55.295562555197819
 31
0.0
  0
LINE
  5
300A
  8
L1
 10
45.627905813929601
 20
-55.295562555197712
 30
0.0
 11
47.744873231155793
 21
-53.286635487360108
 31
0.0
  0
LINE
  5
300B
  8
L1
 10
59.734085882133968
 20
-55.295562555197819
 30
0.0
 11
61.85105329936016
 21
-53.286635487360108
 31
0.0
  0
ARC
  5
300C
  8
L1
 10
-62.949999999999989
 20
-2.9957782483328961
 30
0.0
 40
0.3708501521392529
 50
90.0
 51
169.99999999999969
  0
LINE
  5
300D
  8
L1
 10
-65.012088437774139
 20
-4.4148425858822398
 30
0.0
 11
-64.293024100224784
 21
-3.6957782483328852
 31
0.0
  0
POLYLINE
  5
300E
  8
L1
 66
     1
 10
0.0
 20
0.0
 30
0.0
  0
VERTEX
  5
447A
  8
L1
 10
-65.012304130909214
 20
-4.4150582790173303
 30
0.0
  0
VERTEX
  5
447B
  8
L1
 10
-65.012250207188913
 20
-4.4150043552970137
 30
0.0
  0
VERTEX
  5
447C
  8
L1
 10
-65.012088437774139
 20
-4.4148425858822398
 30
0.0
  0
SEQEND
  5
447D
  8
L1
  0
LINE
  5
300F
  8
L1
 10
-63.315216105032512
 20
-2.9313807952264019
 30
0.0
 11
-63.449437521063771
 21
-3.692588271767931
 31
0.0
  0
LINE
  5
3010
  8
L1
 10
65.012304130909214
 20
-4.4150582790174431
 30
0.0
 11
63.665886064679057
 21
-30.106245439581471
 31
0.0
  0
ARC
  5
3011
  8
L1
 10
63.24574598441405
 20
-30.49577824833289
 30
0.0
 40
0.1999999999999993
 50
90.0
 51
176.9999999999992
  0
ARC
  5
3012
  8
L1
 10
63.46616015772809
 20
-30.095778248332859
 30
0.0
 40
0.1999999999999881
 50
270.0
 51
357.00000000000051
  0
ARC
  5
3013
  8
L1
 10
62.949999999999761
 20
-2.9957782483328961
 30
0.0
 40
0.3708501521392529
 50
9.9999999999945999
 51
89.999999999983714
  0
POLYLINE
  5
3014
  8
L1
 66
     1
 10
0.0
 20
0.0
 30
0.0
  0
VERTEX
  5
447E
  8
L1
 10
65.012088437774139
 20
-4.4148425858823543
 30
0.0
  0
VERTEX
  5
447F
  8
L1
 10
65.012250207188856
 20
-4.4150043552970706
 30
0.0
  0
VERTEX
  5
4480
  8
L1
 10
65.012304130909214
 20
-4.4150582790174431
 30
0.0
  0
SEQEND
  5
4481
  8
L1
  0
LINE
  5
3015
  8
L1
 10
63.315216105032341
 20
-2.9313807952264019
 30
0.0
 11
63.449437655826159
 21
-3.6925890360443532
 31
0.0
  0
LINE
  5
3016
  8
L1
 10
65.012088437774139
 20
-4.4148425858823543
 30
0.0
 11
64.29302410022467
 21
-3.6957782483328852
 31
0.0
  0
ENDBLK
  5
2FD9
  8
0
  0
BLOCK
  8
0
  2
S3
 70
     0
 10
0.0
 20
0.0
 30
0.0
  3
S3
  1

  0
LINE
  5
301B
  8
L1
 10
55.937297345837919
 20
-34.73430157526905
 30
0.0
 11
55.937297345837813
 21
34.73430157526905
 31
0.0
  0
LINE
  5
301C
  8
L1
 10
4.3372973458378388
 20
-39.293024100224748
 30
0.0
 11
4.3372973458378388
 21
39.293024100224642
 31
0.0
  0
LINE
  5
301D
  8
L1
 10
5.056577376522398
 20
40.012304130909143
 30
0.0
 11
5.0565773765222843
 21
-40.0123041309092
 31
0.0
  0
LINE
  5
301E
  8
L1
 10
30.937297345837969
 20
38.466160157728069
 30
0.0
 11
30.937297345837859
 21
-38.466160157728119
 31
0.0
  0
LINE
  5
301F
  8
L1
 10
3.266662886833728
 20
37.950215693134993
 30
0.0
 11
3.2666628868336711
 21
-37.950215693134993
 31
0.0
  0
LINE
  5
3020
  8
L2
 10
53.637297345837851
 20
19.577422181563399
 30
0.0
 11
53.637297345837851
 21
-19.57742218156352
 31
0.0
  0
LINE
  5
3021
  8
L1
 10
53.928370278000102
 20
-36.851268992495299
 30
0.0
 11
53.928370278000209
 21
36.851268992495278
 31
0.0
  0
LINE
  5
3022
  8
L2
 10
55.437297345837813
 20
21.012304130909222
 30
0.0
 11
55.437297345837813
 21
-21.012304130909278
 31
0.0
  0
LINE
  5
3023
  8
L2
 10
52.315801280202258
 20
-21.075366483695369
 30
0.0
 11
28.73729734583781
 21
-22.311063513711868
 31
0.0
  0
LINE
  5
3024
  8
L1
 10
53.928370278000102
 20
-22.74508892429094
 30
0.0
 11
31.126830154589179
 21
-23.940067006392091
 31
0.0
  0
LINE
  5
3025
  8
L1
 10
31.127045847724389
 20
-38.046235770598258
 30
0.0
 11
53.928370278000209
 21
-36.851268992495328
 31
0.0
  0
LINE
  5
3026
  8
L6
 10
59.097455156615972
 20
-0.0000000000000284
 30
0.0
 11
0.0
 21
0.0
 31
0.0
  0
LINE
  5
3027
  8
L1
 10
3.5731155858664461
 20
-38.315431798167509
 30
0.0
 11
4.3343230624079752
 21
-38.449653214198769
 31
0.0
  0
LINE
  5
3028
  8
L1
 10
5.0565773765222843
 20
-40.0123041309092
 30
0.0
 11
30.747764537086422
 21
-38.665886064679029
 31
0.0
  0
LINE
  5
3029
  8
L1
 10
4.3372973458378388
 20
-39.293024100224748
 30
0.0
 11
5.0565773765222843
 21
-40.0123041309092
 31
0.0
  0
ARC
  5
302A
  8
L1
 10
30.73729734583781
 20
-38.466160157728119
 30
0.0
 40
0.2
 50
272.99999999999909
 51
0.0
  0
LINE
  5
302B
  8
L2
 10
4.3372973458378388
 20
-22.950000000000038
 30
0.0
 11
28.73729734583781
 21
-22.311063513711868
 31
0.0
  0
LINE
  5
302C
  8
L2
 10
4.3375130389729861
 20
-37.450215693134993
 30
0.0
 11
3.5731155858664461
 21
-37.58499958810247
 31
0.0
  0
ARC
  5
302D
  8
L2
 10
3.6375130389729402
 20
-37.950215693134993
 30
0.0
 40
0.3708501521392529
 50
100.00000000000171
 51
180.0
  0
ARC
  5
302E
  8
L1
 10
3.6375130389729402
 20
-37.950215693134993
 30
0.0
 40
0.3708501521392529
 50
180.0
 51
259.99999999999812
  0
ARC
  5
302F
  8
L1
 10
31.137513038972941
 20
-38.245961677549097
 30
0.0
 40
0.1999999999999993
 50
92.999999999999105
 51
180.0
  0
ARC
  5
3030
  8
L1
 10
31.137297345837791
 20
-24.139792913342969
 30
0.0
 40
0.2
 50
92.999999999999105
 51
180.0
  0
POLYLINE
  5
3031
  8
L1
 66
     1
 10
0.0
 20
0.0
 30
0.0
  0
VERTEX
  5
4483
  8
L1
 10
30.937297345837859
 20
-24.118147833022419
 30
0.0
  0
VERTEX
  5
4484
  8
L1
 10
30.937297345837859
 20
-24.134374981044282
 30
0.0
  0
VERTEX
  5
4485
  8
L1
 10
30.937297345837859
 20
-24.139792913343001
 30
0.0
  0
SEQEND
  5
4486
  8
L1
  0
LINE
  5
3032
  8
L1
 10
55.937297345837813
 20
-34.734301575269107
 30
0.0
 11
53.928370278000209
 21
-36.851268992495328
 31
0.0
  0
LINE
  5
3033
  8
L1
 10
55.937297345837813
 20
-20.628121507064709
 30
0.0
 11
53.928370278000102
 21
-22.74508892429094
 31
0.0
  0
ARC
  5
3034
  8
L2
 10
52.137297345837851
 20
-19.57742218156352
 30
0.0
 40
1.5
 50
272.99999999999909
 51
0.0
  0
POLYLINE
  5
3035
  8
L1
 66
     1
 10
0.0
 20
0.0
 30
0.0
  0
VERTEX
  5
4487
  8
L1
 10
55.9325828606353
 20
-20.758858587444902
 30
0.0
  0
VERTEX
  5
4488
  8
L1
 10
55.937513039223859
 20
-20.753263322456149
 30
0.0
  0
SEQEND
  5
4489
  8
L1
  0
POLYLINE
  5
3036
  8
L1
 66
     1
 10
0.0
 20
0.0
 30
0.0
  0
VERTEX
  5
448A
  8
L1
 10
55.936054080967892
 20
-20.75487269190026
 30
0.0
  0
VERTEX
  5
448B
  8
L1
 10
55.937513039129101
 20
-20.7532172482058
 30
0.0
  0
SEQEND
  5
448C
  8
L1
  0
POLYLINE
  5
3037
  8
L1
 66
     1
 10
0.0
 20
0.0
 30
0.0
  0
VERTEX
  5
448D
  8
L1
 10
55.937513038665649
 20
-20.75331891402956
 30
0.0
  0
VERTEX
  5
448E
  8
L1
 10
55.936164277919829
 20
-20.7548526414175
 30
0.0
  0
SEQEND
  5
448F
  8
L1
  0
POLYLINE
  5
3038
  8
L1
 66
     1
 10
0.0
 20
0.0
 30
0.0
  0
VERTEX
  5
4490
  8
L1
 10
55.937513038972952
 20
-20.753003738827569
 30
0.0
  0
VERTEX
  5
4491
  8
L1
 10
55.937513038972952
 20
-20.752943603825742
 30
0.0
  0
VERTEX
  5
4492
  8
L1
 10
55.937513038972952
 20
-20.75295734644439
 30
0.0
  0
VERTEX
  5
4493
  8
L1
 10
55.937513038972952
 20
-20.753029134770792
 30
0.0
  0
VERTEX
  5
4494
  8
L1
 10
55.937513038972952
 20
-20.753143136892302
 30
0.0
  0
VERTEX
  5
4495
  8
L1
 10
55.937513038972952
 20
-20.753283520895899
 30
0.0
  0
VERTEX
  5
4496
  8
L1
 10
55.937513038972952
 20
-20.753434454869051
 30
0.0
  0
VERTEX
  5
4497
  8
L1
 10
55.937513038972952
 20
-20.753580106898848
 30
0.0
  0
VERTEX
  5
4498
  8
L1
 10
55.937513038972952
 20
-20.753704645072411
 30
0.0
  0
SEQEND
  5
4499
  8
L1
  0
POLYLINE
  5
3039
  8
L1
 66
     1
 10
0.0
 20
0.0
 30
0.0
  0
VERTEX
  5
449A
  8
L1
 10
55.9325828606353
 20
-20.758858587444958
 30
0.0
  0
VERTEX
  5
449B
  8
L1
 10
55.937513039223859
 20
-20.753263322456199
 30
0.0
  0
SEQEND
  5
449C
  8
L1
  0
POLYLINE
  5
303A
  8
L1
 66
     1
 10
0.0
 20
0.0
 30
0.0
  0
VERTEX
  5
449D
  8
L1
 10
55.936054080967892
 20
-20.75487269190031
 30
0.0
  0
VERTEX
  5
449E
  8
L1
 10
55.937513039129101
 20
-20.75321724820585
 30
0.0
  0
SEQEND
  5
449F
  8
L1
  0
POLYLINE
  5
303B
  8
L1
 66
     1
 10
0.0
 20
0.0
 30
0.0
  0
VERTEX
  5
44A0
  8
L1
 10
55.937513038665649
 20
-20.753318914029609
 30
0.0
  0
VERTEX
  5
44A1
  8
L1
 10
55.936164277919829
 20
-20.75485264141755
 30
0.0
  0
SEQEND
  5
44A2
  8
L1
  0
LINE
  5
303C
  8
L1
 10
55.937513038972952
 20
-21.01251982404434
 30
0.0
 11
55.93735028793656
 21
-21.012511294623909
 31
0.0
  0
POLYLINE
  5
303D
  8
L1
 66
     1
 10
0.0
 20
0.0
 30
0.0
  0
VERTEX
  5
44A3
  8
L1
 10
55.937513038972952
 20
-20.753003738827619
 30
0.0
  0
VERTEX
  5
44A4
  8
L1
 10
55.937513038972952
 20
-20.752943603825791
 30
0.0
  0
VERTEX
  5
44A5
  8
L1
 10
55.937513038972952
 20
-20.75295734644444
 30
0.0
  0
VERTEX
  5
44A6
  8
L1
 10
55.937513038972952
 20
-20.753029134770848
 30
0.0
  0
VERTEX
  5
44A7
  8
L1
 10
55.937513038972952
 20
-20.753143136892358
 30
0.0
  0
VERTEX
  5
44A8
  8
L1
 10
55.937513038972952
 20
-20.753283520895959
 30
0.0
  0
VERTEX
  5
44A9
  8
L1
 10
55.937513038972952
 20
-20.753434454869112
 30
0.0
  0
VERTEX
  5
44AA
  8
L1
 10
55.937513038972952
 20
-20.753580106898902
 30
0.0
  0
VERTEX
  5
44AB
  8
L1
 10
55.937513038972952
 20
-20.753704645072471
 30
0.0
  0
SEQEND
  5
44AC
  8
L1
  0
LINE
  5
303E
  8
L2
 10
55.437297345837813
 20
-21.012304130909278
 30
0.0
 11
55.937297345837862
 21
-21.012304130909278
 31
0.0
  0
POLYLINE
  5
303F
  8
L1
 66
     1
 10
0.0
 20
0.0
 30
0.0
  0
VERTEX
  5
44AD
  8
L1
 10
55.9325828606353
 20
-20.758858587444958
 30
0.0
  0
VERTEX
  5
44AE
  8
L1
 10
55.937513039223859
 20
-20.753263322456199
 30
0.0
  0
SEQEND
  5
44AF
  8
L1
  0
POLYLINE
  5
3040
  8
L1
 66
     1
 10
0.0
 20
0.0
 30
0.0
  0
VERTEX
  5
44B0
  8
L1
 10
55.936054080967892
 20
-20.75487269190031
 30
0.0
  0
VERTEX
  5
44B1
  8
L1
 10
55.937513039129101
 20
-20.75321724820585
 30
0.0
  0
SEQEND
  5
44B2
  8
L1
  0
POLYLINE
  5
3041
  8
L1
 66
     1
 10
0.0
 20
0.0
 30
0.0
  0
VERTEX
  5
44B3
  8
L1
 10
55.937513038665649
 20
-20.753318914029609
 30
0.0
  0
VERTEX
  5
44B4
  8
L1
 10
55.936164277919829
 20
-20.75485264141755
 30
0.0
  0
SEQEND
  5
44B5
  8
L1
  0
LINE
  5
3042
  8
L1
 10
55.937513038972952
 20
-21.01251982404434
 30
0.0
 11
55.93735028793656
 21
-21.012511294623909
 31
0.0
  0
POLYLINE
  5
3043
  8
L1
 66
     1
 10
0.0
 20
0.0
 30
0.0
  0
VERTEX
  5
44B6
  8
L1
 10
55.937513038972952
 20
-20.753003738827619
 30
0.0
  0
VERTEX
  5
44B7
  8
L1
 10
55.937513038972952
 20
-20.752943603825791
 30
0.0
  0
VERTEX
  5
44B8
  8
L1
 10
55.937513038972952
 20
-20.75295734644444
 30
0.0
  0
VERTEX
  5
44B9
  8
L1
 10
55.937513038972952
 20
-20.753029134770848
 30
0.0
  0
VERTEX
  5
44BA
  8
L1
 10
55.937513038972952
 20
-20.753143136892358
 30
0.0
  0
VERTEX
  5
44BB
  8
L1
 10
55.937513038972952
 20
-20.753283520895959
 30
0.0
  0
VERTEX
  5
44BC
  8
L1
 10
55.937513038972952
 20
-20.753434454869112
 30
0.0
  0
VERTEX
  5
44BD
  8
L1
 10
55.937513038972952
 20
-20.753580106898902
 30
0.0
  0
VERTEX
  5
44BE
  8
L1
 10
55.937513038972952
 20
-20.753704645072471
 30
0.0
  0
SEQEND
  5
44BF
  8
L1
  0
LINE
  5
3044
  8
L2
 10
28.73729734583781
 20
22.311063513711751
 30
0.0
 11
52.315801280202258
 21
21.075366483695259
 31
0.0
  0
LINE
  5
3045
  8
L1
 10
31.127045847724389
 20
38.046235770598201
 30
0.0
 11
53.928370278000209
 21
36.851268992495278
 31
0.0
  0
LINE
  5
3046
  8
L1
 10
53.928370278000102
 20
22.745088924290879
 30
0.0
 11
31.126830154589179
 21
23.940067006392042
 31
0.0
  0
LINE
  5
3047
  8
L1
 10
30.747764537086422
 20
38.665886064678972
 30
0.0
 11
5.0565773765222843
 21
40.012304130909143
 31
0.0
  0
LINE
  5
3048
  8
L1
 10
5.056577376522398
 20
40.012304130909143
 30
0.0
 11
4.3372973458378388
 21
39.293024100224642
 31
0.0
  0
LINE
  5
3049
  8
L2
 10
4.3372973458378388
 20
22.949999999999989
 30
0.0
 11
28.73729734583781
 21
22.311063513711812
 31
0.0
  0
LINE
  5
304A
  8
L2
 10
4.3375130389729861
 20
37.450215693134993
 30
0.0
 11
3.5731155858664461
 21
37.58499958810247
 31
0.0
  0
ARC
  5
304B
  8
L2
 10
3.6375130389729402
 20
37.950215693134993
 30
0.0
 40
0.3708501521392529
 50
180.0
 51
260.00000000000131
  0
ARC
  5
304C
  8
L1
 10
3.6375130389729402
 20
37.950215693134993
 30
0.0
 40
0.3708501521392529
 50
100.00000000000171
 51
180.0
  0
LINE
  5
304D
  8
L1
 10
3.5731155858664461
 20
38.315431798167509
 30
0.0
 11
4.3343230624079752
 21
38.449653214198769
 31
0.0
  0
ARC
  5
304E
  8
L1
 10
31.137297345837791
 20
24.139792913342941
 30
0.0
 40
0.2
 50
180.0
 51
267.00000000000091
  0
POLYLINE
  5
304F
  8
L1
 66
     1
 10
0.0
 20
0.0
 30
0.0
  0
VERTEX
  5
44C0
  8
L1
 10
30.937297345837859
 20
24.139792913342941
 30
0.0
  0
VERTEX
  5
44C1
  8
L1
 10
30.937297345837859
 20
24.134110764828279
 30
0.0
  0
VERTEX
  5
44C2
  8
L1
 10
30.937297345837859
 20
24.117093630705789
 30
0.0
  0
SEQEND
  5
44C3
  8
L1
  0
ARC
  5
3050
  8
L1
 10
31.137513038972941
 20
38.245961677549097
 30
0.0
 40
0.1999999999999993
 50
180.0
 51
266.99999999999761
  0
ARC
  5
3051
  8
L1
 10
30.73729734583781
 20
38.466160157728069
 30
0.0
 40
0.2
 50
0.0
 51
87.000000000000909
  0
ARC
  5
3052
  8
L1
 10
30.73729734583781
 20
38.466160157728119
 30
0.0
 40
0.2
 50
0.0
 51
87.000000000000909
  0
ARC
  5
3053
  8
L2
 10
52.137297345837851
 20
19.577422181563399
 30
0.0
 40
1.5
 50
0.0
 51
87.000000000000909
  0
LINE
  5
3054
  8
L1
 10
55.937297345837813
 20
20.628121507064659
 30
0.0
 11
53.928370278000102
 21
22.745088924290879
 31
0.0
  0
POLYLINE
  5
3055
  8
L1
 66
     1
 10
0.0
 20
0.0
 30
0.0
  0
VERTEX
  5
44C4
  8
L1
 10
55.937513038972952
 20
20.753003738827569
 30
0.0
  0
VERTEX
  5
44C5
  8
L1
 10
55.937513038972952
 20
20.752943603825742
 30
0.0
  0
VERTEX
  5
44C6
  8
L1
 10
55.937513038972952
 20
20.75295734644439
 30
0.0
  0
VERTEX
  5
44C7
  8
L1
 10
55.937513038972952
 20
20.753029134770792
 30
0.0
  0
VERTEX
  5
44C8
  8
L1
 10
55.937513038972952
 20
20.753143136892302
 30
0.0
  0
VERTEX
  5
44C9
  8
L1
 10
55.937513038972952
 20
20.753283520895899
 30
0.0
  0
VERTEX
  5
44CA
  8
L1
 10
55.937513038972952
 20
20.753434454869051
 30
0.0
  0
VERTEX
  5
44CB
  8
L1
 10
55.937513038972952
 20
20.753580106898848
 30
0.0
  0
VERTEX
  5
44CC
  8
L1
 10
55.937513038972952
 20
20.753704645072411
 30
0.0
  0
SEQEND
  5
44CD
  8
L1
  0
LINE
  5
3056
  8
L1
 10
55.937513038972952
 20
21.012519824044279
 30
0.0
 11
55.93735028793656
 21
21.012511294623859
 31
0.0
  0
POLYLINE
  5
3057
  8
L1
 66
     1
 10
0.0
 20
0.0
 30
0.0
  0
VERTEX
  5
44CE
  8
L1
 10
55.937513038665649
 20
20.75331891402956
 30
0.0
  0
VERTEX
  5
44CF
  8
L1
 10
55.936164277919829
 20
20.7548526414175
 30
0.0
  0
SEQEND
  5
44D0
  8
L1
  0
POLYLINE
  5
3058
  8
L1
 66
     1
 10
0.0
 20
0.0
 30
0.0
  0
VERTEX
  5
44D1
  8
L1
 10
55.936054080967892
 20
20.75487269190026
 30
0.0
  0
VERTEX
  5
44D2
  8
L1
 10
55.937513039129101
 20
20.7532172482058
 30
0.0
  0
SEQEND
  5
44D3
  8
L1
  0
POLYLINE
  5
3059
  8
L1
 66
     1
 10
0.0
 20
0.0
 30
0.0
  0
VERTEX
  5
44D4
  8
L1
 10
55.9325828606353
 20
20.758858587444902
 30
0.0
  0
VERTEX
  5
44D5
  8
L1
 10
55.937513039223859
 20
20.753263322456149
 30
0.0
  0
SEQEND
  5
44D6
  8
L1
  0
LINE
  5
305A
  8
L2
 10
55.437297345837813
 20
21.012304130909222
 30
0.0
 11
55.937297345837862
 21
21.012304130909222
 31
0.0
  0
LINE
  5
305B
  8
L1
 10
55.937297345837813
 20
34.73430157526905
 30
0.0
 11
53.928370278000209
 21
36.851268992495278
 31
0.0
  0
ENDBLK
  5
301A
  8
0
  0
BLOCK
  8
0
  2
S4
 70
     0
 10
0.0
 20
0.0
 30
0.0
  3
S4
  1

  0
LINE
  5
3060
  8
L1
 10
63.04602007746314
 20
30.48531105708431
 30
0.0
 11
61.85105329936016
 21
53.286635487360108
 31
0.0
  0
LINE
  5
3061
  8
L1
 10
-62.949999999999989
 20
2.6249280961936559
 30
0.0
 11
62.949999999999868
 21
2.624928096193627
 31
0.0
  0
LINE
  5
3062
  8
L1
 10
64.293024100224557
 20
3.6957782483326578
 30
0.0
 11
-64.293024100224841
 21
3.695778248332914
 31
0.0
  0
POLYLINE
  5
3063
  8
L1
 66
     1
 10
0.0
 20
0.0
 30
0.0
  0
VERTEX
  5
44D8
  8
L1
 10
63.46616015772809
 20
30.295778248332908
 30
0.0
  0
VERTEX
  5
44D9
  8
L1
 10
-52.076507460590562
 20
30.295778248332908
 30
0.0
  0
VERTEX
  5
44DA
  8
L1
 10
-52.267620854614677
 20
30.295778248332908
 30
0.0
  0
VERTEX
  5
44DB
  8
L1
 10
-52.457412615970888
 20
30.295778248332908
 30
0.0
  0
VERTEX
  5
44DC
  8
L1
 10
-52.645242786473489
 20
30.295778248332908
 30
0.0
  0
VERTEX
  5
44DD
  8
L1
 10
-52.830478022218358
 20
30.295778248332908
 30
0.0
  0
VERTEX
  5
44DE
  8
L1
 10
-53.012493729152823
 20
30.295778248332908
 30
0.0
  0
VERTEX
  5
44DF
  8
L1
 10
-53.19067616914225
 20
30.295778248332908
 30
0.0
  0
VERTEX
  5
44E0
  8
L1
 10
-53.364424529431801
 20
30.295778248332908
 30
0.0
  0
VERTEX
  5
44E1
  8
L1
 10
-53.533152948524389
 20
30.295778248332908
 30
0.0
  0
VERTEX
  5
44E2
  8
L1
 10
-53.696292491645643
 20
30.295778248332908
 30
0.0
  0
VERTEX
  5
44E3
  8
L1
 10
-53.853293069132633
 20
30.295778248332908
 30
0.0
  0
VERTEX
  5
44E4
  8
L1
 10
-54.003625291279548
 20
30.295778248332908
 30
0.0
  0
VERTEX
  5
44E5
  8
L1
 10
-54.146782253384849
 20
30.295778248332908
 30
0.0
  0
VERTEX
  5
44E6
  8
L1
 10
-54.282281244981732
 20
30.295778248332908
 30
0.0
  0
VERTEX
  5
44E7
  8
L1
 10
-54.40966537748767
 20
30.295778248332908
 30
0.0
  0
VERTEX
  5
44E8
  8
L1
 10
-54.528505124785568
 20
30.295778248332908
 30
0.0
  0
VERTEX
  5
44E9
  8
L1
 10
-54.638399771541167
 20
30.295778248332908
 30
0.0
  0
VERTEX
  5
44EA
  8
L1
 10
-54.738978764374231
 20
30.295778248332908
 30
0.0
  0
VERTEX
  5
44EB
  8
L1
 10
-54.829902961325502
 20
30.295778248332908
 30
0.0
  0
VERTEX
  5
44EC
  8
L1
 10
-54.910865775408922
 20
30.295778248332908
 30
0.0
  0
VERTEX
  5
44ED
  8
L1
 10
-54.981594208390732
 20
30.295778248332908
 30
0.0
  0
VERTEX
  5
44EE
  8
L1
 10
-55.041849771311831
 20
30.295778248332908
 30
0.0
  0
VERTEX
  5
44EF
  8
L1
 10
-55.091429288647248
 20
30.295778248332908
 30
0.0
  0
VERTEX
  5
44F0
  8
L1
 10
-55.130165583393527
 20
30.295778248332908
 30
0.0
  0
VERTEX
  5
44F1
  8
L1
 10
-55.157928040771992
 20
30.295778248332908
 30
0.0
  0
VERTEX
  5
44F2
  8
L1
 10
-55.17462304864825
 20
30.295778248332908
 30
0.0
  0
VERTEX
  5
44F3
  8
L1
 10
-63.466160157728147
 20
30.295778248332908
 30
0.0
  0
SEQEND
  5
44F4
  8
L1
  0
LINE
  5
3064
  8
L1
 10
-65.012088437774139
 20
4.4148425858822398
 30
0.0
 11
65.012088437773969
 21
4.4148425858822398
 31
0.0
  0
LINE
  5
3065
  8
L2
 10
47.950000000000038
 20
3.6957782483328852
 30
0.0
 11
47.311063513711808
 21
28.095778248332859
 31
0.0
  0
LINE
  5
3066
  8
L2
 10
-47.950000000000067
 20
3.6957782483328852
 30
0.0
 11
-47.3110635137119
 21
28.095778248332859
 31
0.0
  0
LINE
  5
3067
  8
L1
 10
-63.665886064679057
 20
30.106245439581471
 30
0.0
 11
-65.012304130909214
 21
4.4150582790173303
 31
0.0
  0
LINE
  5
3068
  8
L6
 10
0.0
 20
58.109713183217544
 30
0.0
 11
0.0
 21
0.0
 31
0.0
  0
LINE
  5
3069
  8
L1
 10
-65.012088437774139
 20
4.4148425858822398
 30
0.0
 11
-64.293024100224784
 21
3.6957782483328852
 31
0.0
  0
LINE
  5
306A
  8
L1
 10
-63.315216105032512
 20
2.9313807952264019
 30
0.0
 11
-63.449437521063771
 21
3.692588271767931
 31
0.0
  0
ARC
  5
306B
  8
L1
 10
-62.949999999999989
 20
2.9957782483328961
 30
0.0
 40
0.3708501521392529
 50
190.0000000000002
 51
270.0
  0
POLYLINE
  5
306C
  8
L1
 66
     1
 10
0.0
 20
0.0
 30
0.0
  0
VERTEX
  5
44F5
  8
L1
 10
-65.012304130909214
 20
4.4150582790173303
 30
0.0
  0
VERTEX
  5
44F6
  8
L1
 10
-65.012250207188913
 20
4.4150043552970137
 30
0.0
  0
VERTEX
  5
44F7
  8
L1
 10
-65.012088437774139
 20
4.4148425858822398
 30
0.0
  0
SEQEND
  5
44F8
  8
L1
  0
LINE
  5
306D
  8
L1
 10
-61.85105329936021
 20
53.286635487360108
 30
0.0
 11
61.85105329936016
 21
53.286635487360108
 31
0.0
  0
LINE
  5
306E
  8
L1
 10
-59.734085882133968
 20
55.295562555197819
 30
0.0
 11
59.734085882133968
 21
55.295562555197819
 31
0.0
  0
LINE
  5
306F
  8
L2
 10
46.012088437774132
 20
54.795562555197812
 30
0.0
 11
-46.012088437774203
 21
54.795562555197812
 31
0.0
  0
LINE
  5
3070
  8
L2
 10
44.577206488428317
 20
52.99556255519775
 30
0.0
 11
-44.57720648842843
 21
52.995562555197807
 31
0.0
  0
ARC
  5
3071
  8
L2
 10
-44.577206488428367
 20
51.4955625551978
 30
0.0
 40
1.5
 50
90.0
 51
176.9999999999992
  0
LINE
  5
3072
  8
L1
 10
-47.74487323115585
 20
53.286635487360108
 30
0.0
 11
-48.939851313257009
 21
30.485095363949139
 31
0.0
  0
LINE
  5
3073
  8
L1
 10
-63.04602007746314
 20
30.48531105708431
 30
0.0
 11
-61.851053299360267
 21
53.286635487360108
 31
0.0
  0
LINE
  5
3074
  8
L2
 10
-46.075150790560308
 20
51.674066489562222
 30
0.0
 11
-47.310847820576782
 21
28.09556255519777
 31
0.0
  0
LINE
  5
3075
  8
L2
 10
-46.075366483695397
 20
51.674282182697311
 30
0.0
 11
-47.3110635137119
 21
28.095778248332859
 31
0.0
  0
ARC
  5
3076
  8
L1
 10
-63.466160157728147
 20
30.095778248332859
 30
0.0
 40
0.1999999999999879
 50
90.0
 51
176.9999999999992
  0
ARC
  5
3077
  8
L1
 10
-63.24574598441405
 20
30.49577824833289
 30
0.0
 40
0.1999999999999993
 50
270.0
 51
356.9999999999992
  0
ARC
  5
3078
  8
L1
 10
-49.139792913343001
 20
30.49577824833289
 30
0.0
 40
0.1999999999999957
 50
270.0
 51
357.00000000000091
  0
LINE
  5
3079
  8
L1
 10
-59.734085882134018
 20
55.295562555197819
 30
0.0
 11
-61.851053299360267
 21
53.286635487360108
 31
0.0
  0
LINE
  5
307A
  8
L1
 10
-45.627905813929601
 20
55.295562555197712
 30
0.0
 11
-47.74487323115585
 21
53.286635487360108
 31
0.0
  0
POLYLINE
  5
307B
  8
L1
 66
     1
 10
0.0
 20
0.0
 30
0.0
  0
VERTEX
  5
44F9
  8
L1
 10
-45.752788045692569
 20
55.295778248332908
 30
0.0
  0
VERTEX
  5
44FA
  8
L1
 10
-45.752727910690737
 20
55.295778248332908
 30
0.0
  0
VERTEX
  5
44FB
  8
L1
 10
-45.752741653309378
 20
55.295778248332908
 30
0.0
  0
VERTEX
  5
44FC
  8
L1
 10
-45.752813441635787
 20
55.295778248332908
 30
0.0
  0
VERTEX
  5
44FD
  8
L1
 10
-45.752927443757237
 20
55.295778248332908
 30
0.0
  0
VERTEX
  5
44FE
  8
L1
 10
-45.753067827760901
 20
55.295778248332908
 30
0.0
  0
VERTEX
  5
44FF
  8
L1
 10
-45.75321876173404
 20
55.295778248332908
 30
0.0
  0
VERTEX
  5
4500
  8
L1
 10
-45.753364413763848
 20
55.295778248332908
 30
0.0
  0
VERTEX
  5
4501
  8
L1
 10
-45.753488951937349
 20
55.295778248332908
 30
0.0
  0
SEQEND
  5
4502
  8
L1
  0
POLYLINE
  5
307C
  8
L1
 66
     1
 10
0.0
 20
0.0
 30
0.0
  0
VERTEX
  5
4503
  8
L1
 10
-45.753103220894559
 20
55.295778248025613
 30
0.0
  0
VERTEX
  5
4504
  8
L1
 10
-45.754636948282503
 20
55.294429487279793
 30
0.0
  0
SEQEND
  5
4505
  8
L1
  0
POLYLINE
  5
307D
  8
L1
 66
     1
 10
0.0
 20
0.0
 30
0.0
  0
VERTEX
  5
4506
  8
L1
 10
-45.754656998765192
 20
55.294319290327849
 30
0.0
  0
VERTEX
  5
4507
  8
L1
 10
-45.753001555070789
 20
55.295778248489057
 30
0.0
  0
SEQEND
  5
4508
  8
L1
  0
POLYLINE
  5
307E
  8
L1
 66
     1
 10
0.0
 20
0.0
 30
0.0
  0
VERTEX
  5
4509
  8
L1
 10
-45.758642894309901
 20
55.290848069995263
 30
0.0
  0
VERTEX
  5
450A
  8
L1
 10
-45.753047629321138
 20
55.295778248583822
 30
0.0
  0
SEQEND
  5
450B
  8
L1
  0
POLYLINE
  5
307F
  8
L1
 66
     1
 10
0.0
 20
0.0
 30
0.0
  0
VERTEX
  5
450C
  8
L1
 10
-45.752788045692569
 20
55.295778248332908
 30
0.0
  0
VERTEX
  5
450D
  8
L1
 10
-45.752727910690737
 20
55.295778248332908
 30
0.0
  0
VERTEX
  5
450E
  8
L1
 10
-45.752741653309378
 20
55.295778248332908
 30
0.0
  0
VERTEX
  5
450F
  8
L1
 10
-45.752813441635787
 20
55.295778248332908
 30
0.0
  0
VERTEX
  5
4510
  8
L1
 10
-45.752927443757237
 20
55.295778248332908
 30
0.0
  0
VERTEX
  5
4511
  8
L1
 10
-45.753067827760901
 20
55.295778248332908
 30
0.0
  0
VERTEX
  5
4512
  8
L1
 10
-45.75321876173404
 20
55.295778248332908
 30
0.0
  0
VERTEX
  5
4513
  8
L1
 10
-45.753364413763848
 20
55.295778248332908
 30
0.0
  0
VERTEX
  5
4514
  8
L1
 10
-45.753488951937349
 20
55.295778248332908
 30
0.0
  0
SEQEND
  5
4515
  8
L1
  0
POLYLINE
  5
3080
  8
L1
 66
     1
 10
0.0
 20
0.0
 30
0.0
  0
VERTEX
  5
4516
  8
L1
 10
-45.753103220894559
 20
55.295778248025613
 30
0.0
  0
VERTEX
  5
4517
  8
L1
 10
-45.754636948282503
 20
55.294429487279793
 30
0.0
  0
SEQEND
  5
4518
  8
L1
  0
POLYLINE
  5
3081
  8
L1
 66
     1
 10
0.0
 20
0.0
 30
0.0
  0
VERTEX
  5
4519
  8
L1
 10
-45.754656998765192
 20
55.294319290327849
 30
0.0
  0
VERTEX
  5
451A
  8
L1
 10
-45.753001555070789
 20
55.295778248489057
 30
0.0
  0
SEQEND
  5
451B
  8
L1
  0
POLYLINE
  5
3082
  8
L1
 66
     1
 10
0.0
 20
0.0
 30
0.0
  0
VERTEX
  5
451C
  8
L1
 10
-45.758642894309901
 20
55.290848069995263
 30
0.0
  0
VERTEX
  5
451D
  8
L1
 10
-45.753047629321138
 20
55.295778248583822
 30
0.0
  0
SEQEND
  5
451E
  8
L1
  0
POLYLINE
  5
3083
  8
L1
 66
     1
 10
0.0
 20
0.0
 30
0.0
  0
VERTEX
  5
451F
  8
L1
 10
-45.752788045692448
 20
55.295778248332908
 30
0.0
  0
VERTEX
  5
4520
  8
L1
 10
-45.752727910690624
 20
55.295778248332908
 30
0.0
  0
VERTEX
  5
4521
  8
L1
 10
-45.752741653309272
 20
55.295778248332908
 30
0.0
  0
VERTEX
  5
4522
  8
L1
 10
-45.752813441635681
 20
55.295778248332908
 30
0.0
  0
VERTEX
  5
4523
  8
L1
 10
-45.752927443757237
 20
55.295778248332908
 30
0.0
  0
VERTEX
  5
4524
  8
L1
 10
-45.753067827760781
 20
55.295778248332908
 30
0.0
  0
VERTEX
  5
4525
  8
L1
 10
-45.753218761733933
 20
55.295778248332908
 30
0.0
  0
VERTEX
  5
4526
  8
L1
 10
-45.753364413763727
 20
55.295778248332908
 30
0.0
  0
VERTEX
  5
4527
  8
L1
 10
-45.753488951937349
 20
55.295778248332908
 30
0.0
  0
SEQEND
  5
4528
  8
L1
  0
POLYLINE
  5
3084
  8
L1
 66
     1
 10
0.0
 20
0.0
 30
0.0
  0
VERTEX
  5
4529
  8
L1
 10
-45.753103220894438
 20
55.295778248025613
 30
0.0
  0
VERTEX
  5
452A
  8
L1
 10
-45.754636948282382
 20
55.294429487279793
 30
0.0
  0
SEQEND
  5
452B
  8
L1
  0
POLYLINE
  5
3085
  8
L1
 66
     1
 10
0.0
 20
0.0
 30
0.0
  0
VERTEX
  5
452C
  8
L1
 10
-45.754656998765192
 20
55.294319290327849
 30
0.0
  0
VERTEX
  5
452D
  8
L1
 10
-45.753001555070682
 20
55.295778248489057
 30
0.0
  0
SEQEND
  5
452E
  8
L1
  0
POLYLINE
  5
3086
  8
L1
 66
     1
 10
0.0
 20
0.0
 30
0.0
  0
VERTEX
  5
452F
  8
L1
 10
-45.75864289430978
 20
55.290848069995263
 30
0.0
  0
VERTEX
  5
4530
  8
L1
 10
-45.753047629321031
 20
55.295778248583822
 30
0.0
  0
SEQEND
  5
4531
  8
L1
  0
LINE
  5
3087
  8
L1
 10
-46.012304130909229
 20
55.295778248332908
 30
0.0
 11
-46.012295601488859
 21
55.295615497296531
 31
0.0
  0
LINE
  5
3088
  8
L2
 10
-46.012088437774203
 20
54.795562555197812
 30
0.0
 11
-46.012088437774203
 21
55.295562555197819
 31
0.0
  0
LINE
  5
3089
  8
L1
 10
-46.012304130909229
 20
55.295778248332908
 30
0.0
 11
-46.012295601488859
 21
55.295615497296531
 31
0.0
  0
ARC
  5
308A
  8
L2
 10
44.577206488428367
 20
51.49556255519775
 30
0.0
 40
1.5
 50
3.0000000000007159
 51
90.0
  0
LINE
  5
308B
  8
L1
 10
47.744873231155793
 20
53.286635487360108
 30
0.0
 11
48.939851313256952
 21
30.485095363949139
 31
0.0
  0
LINE
  5
308C
  8
L2
 10
47.310847820576662
 20
28.09556255519777
 30
0.0
 11
46.075150790560201
 21
51.674066489562222
 31
0.0
  0
LINE
  5
308D
  8
L2
 10
46.07536648369534
 20
51.674282182697311
 30
0.0
 11
47.311063513711808
 21
28.095778248332859
 31
0.0
  0
LINE
  5
308E
  8
L1
 10
45.627905813929601
 20
55.295562555197712
 30
0.0
 11
47.744873231155793
 21
53.286635487360108
 31
0.0
  0
LINE
  5
308F
  8
L2
 10
46.012088437774132
 20
54.795562555197812
 30
0.0
 11
46.012088437774132
 21
55.295562555197819
 31
0.0
  0
POLYLINE
  5
3090
  8
L1
 66
     1
 10
0.0
 20
0.0
 30
0.0
  0
VERTEX
  5
4532
  8
L1
 10
45.75864289430978
 20
55.290848069995263
 30
0.0
  0
VERTEX
  5
4533
  8
L1
 10
45.753047629321031
 20
55.295778248583822
 30
0.0
  0
SEQEND
  5
4534
  8
L1
  0
POLYLINE
  5
3091
  8
L1
 66
     1
 10
0.0
 20
0.0
 30
0.0
  0
VERTEX
  5
4535
  8
L1
 10
45.754656998765192
 20
55.294319290327849
 30
0.0
  0
VERTEX
  5
4536
  8
L1
 10
45.753001555070682
 20
55.295778248489057
 30
0.0
  0
SEQEND
  5
4537
  8
L1
  0
POLYLINE
  5
3092
  8
L1
 66
     1
 10
0.0
 20
0.0
 30
0.0
  0
VERTEX
  5
4538
  8
L1
 10
45.753103220894438
 20
55.295778248025613
 30
0.0
  0
VERTEX
  5
4539
  8
L1
 10
45.754636948282382
 20
55.294429487279793
 30
0.0
  0
SEQEND
  5
453A
  8
L1
  0
LINE
  5
3093
  8
L1
 10
46.012304130909229
 20
55.295778248332908
 30
0.0
 11
46.012295601488738
 21
55.295615497296531
 31
0.0
  0
POLYLINE
  5
3094
  8
L1
 66
     1
 10
0.0
 20
0.0
 30
0.0
  0
VERTEX
  5
453B
  8
L1
 10
45.752788045692448
 20
55.295778248332908
 30
0.0
  0
VERTEX
  5
453C
  8
L1
 10
45.752727910690624
 20
55.295778248332908
 30
0.0
  0
VERTEX
  5
453D
  8
L1
 10
45.752741653309272
 20
55.295778248332908
 30
0.0
  0
VERTEX
  5
453E
  8
L1
 10
45.752813441635681
 20
55.295778248332908
 30
0.0
  0
VERTEX
  5
453F
  8
L1
 10
45.752927443757237
 20
55.295778248332908
 30
0.0
  0
VERTEX
  5
4540
  8
L1
 10
45.753067827760781
 20
55.295778248332908
 30
0.0
  0
VERTEX
  5
4541
  8
L1
 10
45.753218761733933
 20
55.295778248332908
 30
0.0
  0
VERTEX
  5
4542
  8
L1
 10
45.753364413763727
 20
55.295778248332908
 30
0.0
  0
VERTEX
  5
4543
  8
L1
 10
45.753488951937349
 20
55.295778248332908
 30
0.0
  0
SEQEND
  5
4544
  8
L1
  0
LINE
  5
3095
  8
L1
 10
59.734085882133968
 20
55.295562555197819
 30
0.0
 11
61.85105329936016
 21
53.286635487360108
 31
0.0
  0
LINE
  5
3096
  8
L1
 10
65.012304130909214
 20
4.4150582790174431
 30
0.0
 11
63.665886064679057
 21
30.106245439581471
 31
0.0
  0
LINE
  5
3097
  8
L1
 10
65.012088437774139
 20
4.4148425858823543
 30
0.0
 11
64.29302410022467
 21
3.6957782483328852
 31
0.0
  0
LINE
  5
3098
  8
L1
 10
63.315216105032341
 20
2.9313807952264019
 30
0.0
 11
63.449437655826159
 21
3.6925890360443532
 31
0.0
  0
ARC
  5
3099
  8
L1
 10
62.949999999999761
 20
2.9957782483328961
 30
0.0
 40
0.3708501521392529
 50
270.0000000000162
 51
350.0000000000062
  0
POLYLINE
  5
309A
  8
L1
 66
     1
 10
0.0
 20
0.0
 30
0.0
  0
VERTEX
  5
4545
  8
L1
 10
65.012088437774139
 20
4.4148425858823543
 30
0.0
  0
VERTEX
  5
4546
  8
L1
 10
65.012250207188856
 20
4.4150043552970706
 30
0.0
  0
VERTEX
  5
4547
  8
L1
 10
65.012304130909214
 20
4.4150582790174431
 30
0.0
  0
SEQEND
  5
4548
  8
L1
  0
ARC
  5
309B
  8
L1
 10
63.46616015772809
 20
30.095778248332859
 30
0.0
 40
0.1999999999999881
 50
2.9999999999990901
 51
90.0
  0
ARC
  5
309C
  8
L1
 10
63.24574598441405
 20
30.49577824833289
 30
0.0
 40
0.1999999999999993
 50
183.00000000000071
 51
270.0
  0
ENDBLK
  5
305F
  8
0
  0
ENDSEC
  0
SECTION
  2
ENTITIES
  0
INSERT
  5
2E2C
  8
L1
  2
B
 10
71.244595219655196
 20
123.30241486282721
 30
0.0
  0
INSERT
  5
2ED6
  8
L1
  2
T
 10
303.2869628154084
 20
123.30241486282731
 30
0.0
  0
INSERT
  5
2FD6
  8
L1
  2
S1
 10
157.2099207547173
 20
123.30241486282731
 30
0.0
  0
INSERT
  5
3017
  8
L1
  2
S2
 10
303.2869628154084
 20
58.219857058447808
 30
0.0
  0
INSERT
  5
305C
  8
L1
  2
S3
 10
390.26654971948341
 20
123.30241486282731
 30
0.0
  0
INSERT
  5
309D
  8
L1
  2
S4
 10
303.2869628154084
 20
188.3849726672068
 30
0.0
  0
ENDSEC
  0
EOF
