  0
SECTION
  2
HEADER
  9
$ACADVER
  1
AC1009
  9
$INSBASE
 10
348.00013245684789
 20
11.82816735207882
 30
0.0
  9
$EXTMIN
 10
207.00013245684789
 20
-224.51511622215591
 30
0.0
  9
$EXTMAX
 10
489.00013245684801
 20
29.085841448464631
 30
0.0
  9
$LIMMIN
 10
0.0
 20
0.0
  9
$LIMMAX
 10
12.0
 20
9.0
  9
$ORTHOMODE
 70
     1
  9
$REGENMODE
 70
     1
  9
$FILLMODE
 70
     1
  9
$QTEXTMODE
 70
     0
  9
$MIRRTEXT
 70
     1
  9
$DRAGMODE
 70
     2
  9
$LTSCALE
 40
10.0
  9
$OSMODE
 70
    37
  9
$ATTMODE
 70
     1
  9
$TEXTSIZE
 40
5.0
  9
$TRACEWID
 40
0.05
  9
$TEXTSTYLE
  7
STANDARD
  9
$CLAYER
  8
L1
  9
$CELTYPE
  6
BYLAYER
  9
$CECOLOR
 62
   256
  9
$DIMSCALE
 40
1.0
  9
$DIMASZ
 40
5.0
  9
$DIMEXO
 40
0.1
  9
$DIMDLI
 40
0.38
  9
$DIMRND
 40
0.0
  9
$DIMDLE
 40
0.0
  9
$DIMEXE
 40
0.18
  9
$DIMTP
 40
0.0
  9
$DIMTM
 40
0.0
  9
$DIMTXT
 40
5.0
  9
$DIMCEN
 40
1.0
  9
$DIMTSZ
 40
0.0
  9
$DIMTOL
 70
     0
  9
$DIMLIM
 70
     0
  9
$DIMTIH
 70
     0
  9
$DIMTOH
 70
     0
  9
$DIMSE1
 70
     0
  9
$DIMSE2
 70
     0
  9
$DIMTAD
 70
     1
  9
$DIMZIN
 70
     8
  9
$DIMBLK
  1

  9
$DIMASO
 70
     1
  9
$DIMSHO
 70
     1
  9
$DIMPOST
  1

  9
$DIMAPOST
  1

  9
$DIMALT
 70
     0
  9
$DIMALTD
 70
     2
  9
$DIMALTF
 40
25.399999999999999
  9
$DIMLFAC
 40
1.0
  9
$DIMTOFL
 70
     1
  9
$DIMTVP
 40
0.0
  9
$DIMTIX
 70
     0
  9
$DIMSOXD
 70
     0
  9
$DIMSAH
 70
     0
  9
$DIMBLK1
  1

  9
$DIMBLK2
  1

  9
$DIMSTYLE
  2
FIBOX
  9
$DIMCLRD
 70
     1
  9
$DIMCLRE
 70
     1
  9
$DIMCLRT
 70
     3
  9
$DIMTFAC
 40
1.0
  9
$DIMGAP
 40
2.0
  9
$LUNITS
 70
     2
  9
$LUPREC
 70
     4
  9
$SKETCHINC
 40
0.1
  9
$FILLETRAD
 40
0.5
  9
$AUNITS
 70
     0
  9
$AUPREC
 70
     0
  9
$MENU
  1
acad
  9
$ELEVATION
 40
0.0
  9
$PELEVATION
 40
0.0
  9
$THICKNESS
 40
0.0
  9
$LIMCHECK
 70
     0
  9
$BLIPMODE
 70
     0
  9
$CHAMFERA
 40
0.5
  9
$CHAMFERB
 40
0.5
  9
$SKPOLY
 70
     0
  9
$TDCREATE
 40
2451087.5033424762
  9
$TDUPDATE
 40
2453686.6067935522
  9
$TDINDWG
 40
0.1686901273
  9
$TDUSRTIMER
 40
0.1686901273
  9
$USRTIMER
 70
     1
  9
$ANGBASE
 50
0.0
  9
$ANGDIR
 70
     0
  9
$PDMODE
 70
     0
  9
$PDSIZE
 40
0.0
  9
$PLINEWID
 40
0.0
  9
$COORDS
 70
     2
  9
$SPLFRAME
 70
     0
  9
$SPLINETYPE
 70
     6
  9
$SPLINESEGS
 70
     8
  9
$ATTDIA
 70
     0
  9
$ATTREQ
 70
     1
  9
$HANDLING
 70
-16383
  9
$HANDSEED
  5
88
  9
$SURFTAB1
 70
     6
  9
$SURFTAB2
 70
     6
  9
$SURFTYPE
 70
     6
  9
$SURFU
 70
     6
  9
$SURFV
 70
     6
  9
$UCSNAME
  2

  9
$UCSORG
 10
0.0
 20
0.0
 30
0.0
  9
$UCSXDIR
 10
1.0
 20
0.0
 30
0.0
  9
$UCSYDIR
 10
0.0
 20
1.0
 30
0.0
  9
$PUCSNAME
  2

  9
$PUCSORG
 10
0.0
 20
0.0
 30
0.0
  9
$PUCSXDIR
 10
1.0
 20
0.0
 30
0.0
  9
$PUCSYDIR
 10
0.0
 20
1.0
 30
0.0
  9
$USERI1
 70
     0
  9
$USERI2
 70
     0
  9
$USERI3
 70
     0
  9
$USERI4
 70
     0
  9
$USERI5
 70
     0
  9
$USERR1
 40
0.0
  9
$USERR2
 40
0.0
  9
$USERR3
 40
0.0
  9
$USERR4
 40
0.0
  9
$USERR5
 40
0.0
  9
$WORLDVIEW
 70
     1
  9
$SHADEDGE
 70
     3
  9
$SHADEDIF
 70
    70
  9
$TILEMODE
 70
     1
  9
$MAXACTVP
 70
    48
  9
$PLIMCHECK
 70
     0
  9
$PEXTMIN
 10
1.0000000000000000E+020
 20
1.0000000000000000E+020
 30
1.0000000000000000E+020
  9
$PEXTMAX
 10
-1.0000000000000000E+020
 20
-1.0000000000000000E+020
 30
-1.0000000000000000E+020
  9
$PLIMMIN
 10
0.0
 20
0.0
  9
$PLIMMAX
 10
12.0
 20
9.0
  9
$UNITMODE
 70
     0
  9
$VISRETAIN
 70
     1
  9
$PLINEGEN
 70
     0
  9
$PSLTSCALE
 70
     1
  0
ENDSEC
  0
SECTION
  2
TABLES
  0
TABLE
  2
VPORT
 70
     3
  0
VPORT
  2
*ACTIVE
 70
     0
 10
0.0
 20
0.0
 11
1.0
 21
1.0
 12
348.00013245684801
 22
-97.714637386845666
 13
0.0
 23
0.0
 14
0.5
 24
0.5
 15
0.5
 25
0.5
 16
0.0
 26
0.0
 36
1.0
 17
0.0
 27
0.0
 37
0.0
 40
255.12714196954099
 41
1.5552208835341359
 42
50.0
 43
0.0
 44
0.0
 50
0.0
 51
0.0
 71
     0
 72
   100
 73
     1
 74
     1
 75
     0
 76
     0
 77
     0
 78
     0
  0
ENDTAB
  0
TABLE
  2
LTYPE
 70
     2
  0
LTYPE
  2
CONTINUOUS
 70
     0
  3
Solid line
 72
    65
 73
     0
 40
0.0
  0
LTYPE
  2
CENTER
 70
     0
  3
____ _ ____ _ ____ _ ____ _ ____ _ ____ _ ____ 
 72
    65
 73
     4
 40
2.0
 49
1.25
 49
-0.25
 49
0.25
 49
-0.25
  0
ENDTAB
  0
TABLE
  2
LAYER
 70
     3
  0
LAYER
  2
0
 70
     0
 62
     7
  6
CONTINUOUS
  0
LAYER
  2
L1
 70
     0
 62
     2
  6
CONTINUOUS
  0
LAYER
  2
L6
 70
     0
 62
     1
  6
CENTER
  0
ENDTAB
  0
TABLE
  2
STYLE
 70
     2
  0
STYLE
  2
STANDARD
 70
     0
 40
0.0
 41
1.0
 50
0.0
 71
     0
 42
5.0
  3
txt
  4

  0
STYLE
  2
SIMPLEX
 70
     0
 40
0.0
 41
0.8
 50
0.0
 71
     0
 42
2.5
  3
simplex.shx
  4

  0
ENDTAB
  0
TABLE
  2
VIEW
 70
     0
  0
ENDTAB
  0
TABLE
  2
UCS
 70
     0
  0
ENDTAB
  0
TABLE
  2
APPID
 70
     1
  0
APPID
  2
ACAD
 70
     0
  0
ENDTAB
  0
TABLE
  2
DIMSTYLE
 70
     1
  0
DIMSTYLE
  2
FIBOX
 70
     0
  3

  4

  5

  6

  7

 40
1.0
 41
5.0
 42
0.1
 43
0.38
 44
0.18
 45
0.0
 46
0.0
 47
0.0
 48
0.0
140
5.0
141
1.0
142
0.0
143
25.399999999999999
144
1.0
145
0.0
146
1.0
147
2.0
 71
     0
 72
     0
 73
     0
 74
     0
 75
     0
 76
     0
 77
     1
 78
     8
170
     0
171
     2
172
     1
173
     0
174
     0
175
     0
176
     1
177
     1
178
     3
  0
ENDTAB
  0
ENDSEC
  0
SECTION
  2
BLOCKS
  0
BLOCK
  8
0
  2
$MODEL_SPACE
 70
     0
 10
0.0
 20
0.0
 30
0.0
  3
$MODEL_SPACE
  1

  0
ENDBLK
  5
9
  8
0
  0
BLOCK
 67
     1
  8
0
  2
$PAPER_SPACE
 70
     0
 10
0.0
 20
0.0
 30
0.0
  3
$PAPER_SPACE
  1

  0
ENDBLK
  5
E
 67
     1
  8
0
  0
ENDSEC
  0
SECTION
  2
ENTITIES
  0
TEXT
  5
26
  8
L1
 62
     3
 10
395.41858280882792
 20
-53.35615624730724
 30
0.0
 40
5.0
  1
s=1.5mm
 41
0.8
  7
SIMPLEX
  0
LINE
  5
27
  8
L6
 10
348.00013245684789
 20
29.085841448464631
 30
0.0
 11
348.00013245684789
 21
-224.51511622215591
 31
0.0
  0
LINE
  5
2A
  8
L1
 10
207.00013245684789
 20
-24.421832647921178
 30
0.0
 11
207.00013245684789
 21
-129.92183264792121
 31
0.0
  0
LINE
  5
2B
  8
L1
 10
489.00013245684789
 20
-24.421832647921178
 30
0.0
 11
489.00013245684801
 21
-129.92183264792121
 31
0.0
  0
LINE
  5
2C
  8
L1
 10
207.00013245684789
 20
-151.17183264792109
 30
0.0
 11
218.00013245684789
 21
-151.17183264792109
 31
0.0
  0
LINE
  5
2D
  8
L1
 10
207.00013245684789
 20
-134.42183264792121
 30
0.0
 11
207.00013245684789
 21
-151.17183264792109
 31
0.0
  0
LINE
  5
2E
  8
L1
 10
210.50013245684789
 20
-134.42183264792109
 30
0.0
 11
207.00013245684789
 21
-134.42183264792109
 31
0.0
  0
LINE
  5
2F
  8
L1
 10
210.50013245684789
 20
-129.92183264792109
 30
0.0
 11
207.00013245684789
 21
-129.92183264792109
 31
0.0
  0
ARC
  5
30
  8
L1
 10
210.50013245684789
 20
-132.17183264792109
 30
0.0
 40
2.25
 50
270.0
 51
90.0
  0
LINE
  5
31
  8
L6
 62
     1
 10
210.50013245684789
 20
-133.17183264792109
 30
0.0
 11
210.50013245684789
 21
-131.17183264792109
 31
0.0
  0
LINE
  5
32
  8
L6
 62
     1
 10
209.50013245684789
 20
-132.17183264792109
 30
0.0
 11
211.50013245684789
 21
-132.17183264792109
 31
0.0
  0
LINE
  5
33
  8
L1
 10
280.25013245684789
 20
-203.17183264792109
 30
0.0
 11
415.75013245684789
 21
-203.17183264792109
 31
0.0
  0
LINE
  5
34
  8
L1
 10
218.00013245684789
 20
-151.17183264792109
 30
0.0
 11
218.00013245684789
 21
-203.17183264792109
 31
0.0
  0
LINE
  5
35
  8
L1
 10
218.00013245684789
 20
-203.17183264792109
 30
0.0
 11
275.75013245684789
 21
-203.17183264792109
 31
0.0
  0
LINE
  5
36
  8
L1
 10
275.75013245684789
 20
-198.17183264792109
 30
0.0
 11
275.75013245684789
 21
-203.17183264792109
 31
0.0
  0
LINE
  5
37
  8
L1
 10
280.25013245684789
 20
-198.17183264792109
 30
0.0
 11
280.25013245684789
 21
-203.17183264792109
 31
0.0
  0
ARC
  5
38
  8
L1
 10
278.00013245684789
 20
-198.17183264792109
 30
0.0
 40
2.25
 50
0.000000000000007
 51
180.0
  0
LINE
  5
39
  8
L6
 62
     1
 10
277.00013245684789
 20
-198.17183264792109
 30
0.0
 11
279.00013245684789
 21
-198.17183264792109
 31
0.0
  0
LINE
  5
3A
  8
L6
 62
     1
 10
278.00013245684789
 20
-199.17183264792109
 30
0.0
 11
278.00013245684789
 21
-197.17183264792109
 31
0.0
  0
LINE
  5
3B
  8
L1
 10
478.00013245684801
 20
-151.17183264792109
 30
0.0
 11
478.00013245684801
 21
-203.17183264792109
 31
0.0
  0
LINE
  5
3C
  8
L1
 10
420.25013245684789
 20
-203.17183264792109
 30
0.0
 11
478.00013245684801
 21
-203.17183264792109
 31
0.0
  0
LINE
  5
3D
  8
L1
 10
420.25013245684789
 20
-198.17183264792109
 30
0.0
 11
420.25013245684789
 21
-203.17183264792109
 31
0.0
  0
LINE
  5
3E
  8
L1
 10
415.75013245684789
 20
-198.17183264792109
 30
0.0
 11
415.75013245684789
 21
-203.17183264792109
 31
0.0
  0
ARC
  5
3F
  8
L1
 10
418.00013245684789
 20
-198.17183264792109
 30
0.0
 40
2.25
 50
0.000000000000007
 51
180.0
  0
LINE
  5
40
  8
L6
 62
     1
 10
419.00013245684789
 20
-198.17183264792109
 30
0.0
 11
417.00013245684789
 21
-198.17183264792109
 31
0.0
  0
LINE
  5
41
  8
L6
 62
     1
 10
418.00013245684789
 20
-199.17183264792109
 30
0.0
 11
418.00013245684789
 21
-197.17183264792109
 31
0.0
  0
ARC
  5
42
  8
L1
 10
485.50013245684789
 20
-132.17183264792109
 30
0.0
 40
2.25
 50
90.0
 51
270.0
  0
LINE
  5
43
  8
L1
 10
478.00013245684801
 20
-151.17183264792121
 30
0.0
 11
489.00013245684801
 21
-151.17183264792109
 31
0.0
  0
LINE
  5
44
  8
L1
 10
489.00013245684801
 20
-134.42183264792121
 30
0.0
 11
489.00013245684789
 21
-151.17183264792109
 31
0.0
  0
LINE
  5
45
  8
L1
 10
485.50013245684789
 20
-134.42183264792109
 30
0.0
 11
489.00013245684789
 21
-134.42183264792109
 31
0.0
  0
LINE
  5
46
  8
L1
 10
485.50013245684789
 20
-129.92183264792109
 30
0.0
 11
489.00013245684789
 21
-129.92183264792109
 31
0.0
  0
LINE
  5
47
  8
L6
 62
     1
 10
485.50013245684789
 20
-133.17183264792109
 30
0.0
 11
485.50013245684789
 21
-131.17183264792109
 31
0.0
  0
LINE
  5
48
  8
L6
 62
     1
 10
486.50013245684801
 20
-132.17183264792109
 30
0.0
 11
484.50013245684789
 21
-132.17183264792109
 31
0.0
  0
LINE
  5
49
  8
L1
 10
207.00013245684789
 20
11.82816735207882
 30
0.0
 11
489.00013245684789
 21
11.82816735207882
 31
0.0
  0
LINE
  5
4A
  8
L1
 10
207.00013245684789
 20
11.82816735207882
 30
0.0
 11
207.00013245684789
 21
-19.921832647921171
 31
0.0
  0
ARC
  5
4B
  8
L1
 10
210.50013245684789
 20
-22.171832647921171
 30
0.0
 40
2.25
 50
270.0
 51
90.0
  0
LINE
  5
4C
  8
L1
 10
210.50013245684789
 20
-24.421832647921178
 30
0.0
 11
207.00013245684789
 21
-24.421832647921178
 31
0.0
  0
LINE
  5
4D
  8
L6
 62
     1
 10
209.50013245684789
 20
-22.171832647921171
 30
0.0
 11
211.50013245684789
 21
-22.171832647921171
 31
0.0
  0
LINE
  5
4E
  8
L1
 10
210.50013245684789
 20
-19.921832647921171
 30
0.0
 11
207.00013245684789
 21
-19.921832647921171
 31
0.0
  0
LINE
  5
4F
  8
L6
 62
     1
 10
210.50013245684789
 20
-23.171832647921178
 30
0.0
 11
210.50013245684789
 21
-21.171832647921171
 31
0.0
  0
LINE
  5
50
  8
L1
 10
489.00013245684801
 20
11.82816735207882
 30
0.0
 11
489.00013245684789
 21
-19.921832647921171
 31
0.0
  0
ARC
  5
51
  8
L1
 10
485.50013245684789
 20
-22.171832647921171
 30
0.0
 40
2.25
 50
90.0
 51
270.0
  0
LINE
  5
52
  8
L1
 10
485.50013245684789
 20
-19.921832647921171
 30
0.0
 11
489.00013245684789
 21
-19.921832647921171
 31
0.0
  0
LINE
  5
53
  8
L1
 10
485.50013245684789
 20
-24.421832647921178
 30
0.0
 11
489.00013245684789
 21
-24.421832647921178
 31
0.0
  0
LINE
  5
54
  8
L6
 62
     1
 10
486.50013245684801
 20
-22.171832647921171
 30
0.0
 11
484.50013245684789
 21
-22.171832647921171
 31
0.0
  0
LINE
  5
55
  8
L6
 62
     1
 10
485.50013245684789
 20
-23.171832647921178
 30
0.0
 11
485.50013245684789
 21
-21.171832647921171
 31
0.0
  0
ENDSEC
  0
EOF
