  0
SECTION
  2
HEADER
  9
$ACADVER
  1
AC1009
  9
$INSBASE
 10
0.0
 20
0.0
 30
0.0
  9
$EXTMIN
 10
-19.942929759788051
 20
-19.110167770309079
 30
-0.0000568891443704
  9
$EXTMAX
 10
247.940370372893
 20
188.53326473703291
 30
0.0000379318837522
  9
$LIMMIN
 10
0.0
 20
0.0
  9
$LIMMAX
 10
420.0
 20
297.0
  9
$ORTHOMODE
 70
     1
  9
$REGENMODE
 70
     1
  9
$FILLMODE
 70
     1
  9
$QTEXTMODE
 70
     0
  9
$MIRRTEXT
 70
     1
  9
$DRAGMODE
 70
     2
  9
$LTSCALE
 40
10.0
  9
$OSMODE
 70
    37
  9
$ATTMODE
 70
     1
  9
$TEXTSIZE
 40
2.5
  9
$TRACEWID
 40
1.0
  9
$TEXTSTYLE
  7
STANDARD
  9
$CLAYER
  8
L11
  9
$CELTYPE
  6
BYLAYER
  9
$CECOLOR
 62
   256
  9
$DIMSCALE
 40
1.0
  9
$DIMASZ
 40
3.5
  9
$DIMEXO
 40
0.1
  9
$DIMDLI
 40
0.38
  9
$DIMRND
 40
0.0
  9
$DIMDLE
 40
0.0
  9
$DIMEXE
 40
0.18
  9
$DIMTP
 40
0.0
  9
$DIMTM
 40
0.0
  9
$DIMTXT
 40
3.5
  9
$DIMCEN
 40
1.0
  9
$DIMTSZ
 40
0.0
  9
$DIMTOL
 70
     0
  9
$DIMLIM
 70
     0
  9
$DIMTIH
 70
     0
  9
$DIMTOH
 70
     0
  9
$DIMSE1
 70
     0
  9
$DIMSE2
 70
     0
  9
$DIMTAD
 70
     1
  9
$DIMZIN
 70
     8
  9
$DIMBLK
  1

  9
$DIMASO
 70
     1
  9
$DIMSHO
 70
     1
  9
$DIMPOST
  1

  9
$DIMAPOST
  1

  9
$DIMALT
 70
     0
  9
$DIMALTD
 70
     2
  9
$DIMALTF
 40
25.399999999999999
  9
$DIMLFAC
 40
1.0
  9
$DIMTOFL
 70
     1
  9
$DIMTVP
 40
0.0
  9
$DIMTIX
 70
     0
  9
$DIMSOXD
 70
     0
  9
$DIMSAH
 70
     0
  9
$DIMBLK1
  1

  9
$DIMBLK2
  1

  9
$DIMSTYLE
  2
FIBOX
  9
$DIMCLRD
 70
     1
  9
$DIMCLRE
 70
     1
  9
$DIMCLRT
 70
     3
  9
$DIMTFAC
 40
1.0
  9
$DIMGAP
 40
1.0
  9
$LUNITS
 70
     2
  9
$LUPREC
 70
     4
  9
$SKETCHINC
 40
1.0
  9
$FILLETRAD
 40
0.0
  9
$AUNITS
 70
     0
  9
$AUPREC
 70
     0
  9
$MENU
  1
.
  9
$ELEVATION
 40
0.0
  9
$PELEVATION
 40
0.0
  9
$THICKNESS
 40
0.0
  9
$LIMCHECK
 70
     0
  9
$BLIPMODE
 70
     0
  9
$CHAMFERA
 40
10.0
  9
$CHAMFERB
 40
10.0
  9
$SKPOLY
 70
     0
  9
$TDCREATE
 40
2453686.5695520248
  9
$TDUPDATE
 40
2453686.5937466319
  9
$TDINDWG
 40
0.0241951505
  9
$TDUSRTIMER
 40
0.0241949653
  9
$USRTIMER
 70
     1
  9
$ANGBASE
 50
0.0
  9
$ANGDIR
 70
     0
  9
$PDMODE
 70
     0
  9
$PDSIZE
 40
0.0
  9
$PLINEWID
 40
0.0
  9
$COORDS
 70
     2
  9
$SPLFRAME
 70
     0
  9
$SPLINETYPE
 70
     6
  9
$SPLINESEGS
 70
     8
  9
$ATTDIA
 70
     0
  9
$ATTREQ
 70
     1
  9
$HANDLING
 70
-16383
  9
$HANDSEED
  5
16C7
  9
$SURFTAB1
 70
     6
  9
$SURFTAB2
 70
     6
  9
$SURFTYPE
 70
     6
  9
$SURFU
 70
     6
  9
$SURFV
 70
     6
  9
$UCSNAME
  2

  9
$UCSORG
 10
0.0
 20
0.0
 30
0.0
  9
$UCSXDIR
 10
1.0
 20
0.0
 30
0.0
  9
$UCSYDIR
 10
0.0
 20
1.0
 30
0.0
  9
$PUCSNAME
  2

  9
$PUCSORG
 10
0.0
 20
0.0
 30
0.0
  9
$PUCSXDIR
 10
1.0
 20
0.0
 30
0.0
  9
$PUCSYDIR
 10
0.0
 20
1.0
 30
0.0
  9
$USERI1
 70
     0
  9
$USERI2
 70
     0
  9
$USERI3
 70
     0
  9
$USERI4
 70
     0
  9
$USERI5
 70
     0
  9
$USERR1
 40
0.0
  9
$USERR2
 40
0.0
  9
$USERR3
 40
0.0
  9
$USERR4
 40
0.0
  9
$USERR5
 40
0.0
  9
$WORLDVIEW
 70
     1
  9
$SHADEDGE
 70
     3
  9
$SHADEDIF
 70
    70
  9
$TILEMODE
 70
     1
  9
$MAXACTVP
 70
    16
  9
$PLIMCHECK
 70
     0
  9
$PEXTMIN
 10
-389.61488514078218
 20
2.43752800196728
 30
-1.242857142857152
  9
$PEXTMAX
 10
2.3851148592177931
 20
87.437528001967294
 30
0.0
  9
$PLIMMIN
 10
-396.52810620752888
 20
-5.8836410692703121
  9
$PLIMMAX
 10
11.64742579900695
 20
282.8769822328448
  9
$UNITMODE
 70
     0
  9
$VISRETAIN
 70
     0
  9
$PLINEGEN
 70
     0
  9
$PSLTSCALE
 70
     1
  0
ENDSEC
  0
SECTION
  2
TABLES
  0
TABLE
  2
VPORT
 70
     5
  0
VPORT
  2
*ACTIVE
 70
     0
 10
0.0
 20
0.0
 11
1.0
 21
1.0
 12
49.6992237227769
 22
-57.344497251053468
 13
0.0
 23
0.0
 14
10.0
 24
10.0
 15
10.0
 25
10.0
 16
0.0
 26
0.0
 36
1.0
 17
64.299496583775607
 27
142.05604573441531
 37
206.35554231819111
 40
208.89304193065601
 41
1.5552208835341359
 42
50.0
 43
0.0
 44
0.0
 50
0.0
 51
0.0
 71
     0
 72
  1000
 73
     1
 74
     1
 75
     0
 76
     0
 77
     0
 78
     0
  0
ENDTAB
  0
TABLE
  2
LTYPE
 70
    25
  0
LTYPE
  2
CONTINUOUS
 70
     0
  3
Solid line
 72
    65
 73
     0
 40
0.0
  0
LTYPE
  2
HIDDEN
 70
     0
  3
__ __ __ __ __ __ __ __ __ __ __ __ __ __ __ __
 72
    65
 73
     2
 40
0.375
 49
0.25
 49
-0.125
  0
LTYPE
  2
PHANTOM2
 70
     0
  3
___ _ _ ___ _ _ ___ _ _ ___ _ _ ___ _ _ ___ _ _
 72
    65
 73
     6
 40
1.25
 49
0.625
 49
-0.125
 49
0.125
 49
-0.125
 49
0.125
 49
-0.125
  0
LTYPE
  2
CENTER
 70
     0
  3
____ _ ____ _ ____ _ ____ _ ____ _ ____ _ ____ 
 72
    65
 73
     4
 40
2.0
 49
1.25
 49
-0.25
 49
0.25
 49
-0.25
  0
LTYPE
  2
ASULTYPE
 70
     0
  3
Solid line
 72
    65
 73
     2
 40
3.0
 49
2.5
 49
0.5
  0
LTYPE
  2
ASVLTYPE
 70
     0
  3
__ __ __ __ __ __ __ __ __ __ __ __ __ __ __ __ __ __ __ __ __
 72
    65
 73
     2
 40
0.75
 49
0.5
 49
-0.25
  0
LTYPE
  2
DASHED
 70
     0
  3
__ __ __ __ __ __ __ __ __ __ __ __ __ __ __ __
 72
    65
 73
     2
 40
0.75
 49
0.5
 49
-0.25
  0
LTYPE
  2
PHANTOM
 70
     0
  3
______  __  __  ______  __  __  ______  __  __ 
 72
    65
 73
     6
 40
2.5
 49
1.25
 49
-0.25
 49
0.25
 49
-0.25
 49
0.25
 49
-0.25
  0
LTYPE
  2
AM_ISO02W050
 70
     0
  3
__ __ __ __ __ __ __ __ __ __ __ __ __ __ __
 72
    65
 73
     2
 40
7.5
 49
6.0
 49
-1.5
  0
LTYPE
  2
AM_ISO08W050
 70
     0
  3
____ . ____ . ____ . ____ . ____ . ____ . ____
 72
    65
 73
     4
 40
18.0
 49
12.0
 49
-1.5
 49
3.0
 49
-1.5
  0
LTYPE
  2
AM_ISO09W050
 70
     0
  3
_____ . . _____ . . _____ . . ____ .. ____
 72
    65
 73
     6
 40
22.5
 49
12.0
 49
-1.5
 49
3.0
 49
-1.5
 49
3.0
 49
-1.5
  0
LTYPE
  2
AMCONSTR
 70
     0
  3
_______________________
 72
    65
 73
     2
 40
9999.0
 49
9999.0
 49
0.0
  0
LTYPE
  2
AM_ISO08W050X2
 70
     0
  3
__ . __ . __ . __ . __ . __
 72
    65
 73
     4
 40
9.0
 49
6.0
 49
-0.75
 49
1.5
 49
-0.75
  0
LTYPE
  2
AM_ISO02W050X2
 70
     0
  3
 _ _ _ _ _ _ _ _ _ _ _ _
 72
    65
 73
     2
 40
3.75
 49
3.0
 49
-0.75
  0
LTYPE
  2
AMZIGZAG
 70
     0
  3
/\/-/\/-/\/-/\/-/\/-/\/
 72
    65
 73
     2
 40
11.000099999999991
 49
0.0001
 49
-11.0
  0
LTYPE
  2
ACANSTGBM
 70
     0
  3
__ . . __ . .
 72
    65
 73
     6
 40
9.0
 49
4.0
 49
-1.0
 49
1.0
 49
-1.0
 49
1.0
 49
-1.0
  0
LTYPE
  2
ACANSTGLM
 70
     0
  3
_ _ _ _ _
 72
    65
 73
     2
 40
3.0
 49
2.0
 49
-1.0
  0
LTYPE
  2
ACISOWELD
 70
     0
  3
_ _ _ _ _
 72
    65
 73
     2
 40
2.0
 49
2.0
 49
-1.0
  0
LTYPE
  2
ACISOTGB
 70
     0
  3
__ . . __ . .
 72
    65
 73
     6
 40
9.0
 49
4.0
 49
-1.0
 49
1.0
 49
-1.0
 49
1.0
 49
-1.0
  0
LTYPE
  2
ACISOTGL
 70
     0
  3
_ _ _ _ _
 72
    65
 73
     2
 40
3.0
 49
2.0
 49
-1.0
  0
LTYPE
  2
CENTER2
 70
     0
  3
Center (.5x) ___ _ ___ _ ___ _ ___ _ ___ _ ___
 72
    65
 73
     4
 40
1.125
 49
0.75
 49
-0.125
 49
0.125
 49
-0.125
  0
LTYPE
  2
HIDDEN2
 70
     0
  3
Hidden (.5x) _ _ _ _ _ _ _ _ _ _ _ _ _ _ _ _ _
 72
    65
 73
     2
 40
0.1875
 49
0.125
 49
-0.0625
  0
LTYPE
  2
ACANSTGB
 70
     0
  3
__ . . __ . .
 72
    65
 73
     6
 40
0.35433070866
 49
0.15748031496
 49
-0.03937007874
 49
0.03937007874
 49
-0.03937007874
 49
0.03937007874
 49
-0.03937007874
  0
LTYPE
  2
ACANSTGL
 70
     0
  3
_ _ _ _ _
 72
    65
 73
     2
 40
0.11811023622
 49
0.07874015748
 49
-0.03937007874
  0
LTYPE
  2
DOTX2
 70
     0
  3
.  .  .  .  .  .  .  .  .  .  .  .  .  .  .  . 
 72
    65
 73
     2
 40
0.5
 49
0.0
 49
-0.5
  0
ENDTAB
  0
TABLE
  2
LAYER
 70
    15
  0
LAYER
  2
0
 70
     0
 62
     7
  6
CONTINUOUS
  0
LAYER
  2
L1
 70
     0
 62
     2
  6
CONTINUOUS
  0
LAYER
  2
L11
 70
     0
 62
     3
  6
CONTINUOUS
  0
LAYER
  2
L4
 70
     0
 62
     1
  6
DASHED
  0
LAYER
  2
L20
 70
     0
 62
     3
  6
CONTINUOUS
  0
LAYER
  2
L43
 70
     0
 62
     7
  6
CONTINUOUS
  0
LAYER
  2
L44
 70
     0
 62
     1
  6
CONTINUOUS
  0
LAYER
  2
L45
 70
     0
 62
     1
  6
CONTINUOUS
  0
LAYER
  2
L46
 70
     0
 62
     7
  6
CONTINUOUS
  0
LAYER
  2
LOGO
 70
     0
 62
    10
  6
CONTINUOUS
  0
LAYER
  2
DEFPOINTS
 70
     0
 62
     7
  6
CONTINUOUS
  0
LAYER
  2
L40
 70
     0
 62
     7
  6
CONTINUOUS
  0
LAYER
  2
L41
 70
     0
 62
     1
  6
CONTINUOUS
  0
LAYER
  2
L6
 70
     0
 62
     1
  6
CENTER
  0
LAYER
  2
AM_VIS
 70
     0
 62
     7
  6
CONTINUOUS
  0
ENDTAB
  0
TABLE
  2
STYLE
 70
     8
  0
STYLE
  2
STANDARD
 70
     0
 40
0.0
 41
1.0
 50
0.0
 71
     0
 42
2.5
  3
isocp.shx
  4

  0
STYLE
  2
SIMPLEX
 70
     0
 40
0.0
 41
0.8
 50
0.0
 71
     0
 42
2.5
  3
simplex.shx
  4

  0
STYLE
  2

 70
     1
 40
0.0
 41
1.0
 50
0.0
 71
     0
 42
2.5
  3
ltypeshp.shx
  4

  0
STYLE
  2
ACANSTS
 70
     0
 40
1.0
 41
1.0
 50
0.0
 71
     0
 42
2.5
  3
romans.shx
  4

  0
STYLE
  2
ACANSGDT
 70
     0
 40
0.0
 41
1.0
 50
0.0
 71
     0
 42
2.5
  3
amgdtans.shx
  4

  0
STYLE
  2
ACISOTS
 70
     0
 40
1.0
 41
1.0
 50
0.0
 71
     0
 42
2.5
  3
isocp.shx
  4

  0
STYLE
  2
ACISOGDT
 70
     0
 40
0.0
 41
1.0
 50
0.0
 71
     0
 42
2.5
  3
amgdt.shx
  4

  0
STYLE
  2
TKKISO
 70
     0
 40
0.0
 41
1.0
 50
0.0
 71
     0
 42
3.5
  3
C:\CAESAR\CAEISO.SHX
  4

  0
ENDTAB
  0
TABLE
  2
VIEW
 70
     0
  0
ENDTAB
  0
TABLE
  2
UCS
 70
     0
  0
ENDTAB
  0
TABLE
  2
APPID
 70
    17
  0
APPID
  2
ACAD
 70
     0
  0
APPID
  2
AD_DRAW
 70
     0
  0
APPID
  2
DESIGNERASSEMBLIES
 70
     0
  0
APPID
  2
MCAD_NO_VIS
 70
     0
  0
APPID
  2
ASURF_PCURVE_APPNAME
 70
     0
  0
APPID
  2
ACAD_TEMP_GRAPHIC
 70
     0
  0
APPID
  2
GENIUS_GENDIM_13
 70
     0
  0
APPID
  2
GENIUS_GENDTOL_13
 70
     0
  0
APPID
  2
GENIUS_GE3DTOL_13
 70
     0
  0
APPID
  2
ACATTRIBSERVICES
 70
     0
  0
APPID
  2
ACADM_DIM_EDIT
 70
     0
  0
APPID
  2
AD_SKETCHDIM
 70
     0
  0
APPID
  2
AVE_RENDER
 70
     0
  0
APPID
  2
AVE_ENTITY_MATERIAL
 70
     0
  0
APPID
  2
AVE_FINISH
 70
     0
  0
APPID
  2
AVE_MATERIAL
 70
     0
  0
APPID
  2
AVE_GLOBAL
 70
     0
  0
ENDTAB
  0
TABLE
  2
DIMSTYLE
 70
    16
  0
DIMSTYLE
  2
STANDARD
 70
     0
  3

  4

  5

  6

  7

 40
1.0
 41
0.18
 42
0.0625
 43
0.38
 44
0.18
 45
0.0
 46
0.0
 47
0.0
 48
0.0
140
0.18
141
0.09
142
0.0
143
25.399999999999999
144
1.0
145
0.0
146
1.0
147
0.09
 71
     0
 72
     0
 73
     1
 74
     1
 75
     0
 76
     0
 77
     0
 78
     0
170
     0
171
     2
172
     0
173
     0
174
     0
175
     0
176
     0
177
     0
178
     0
  0
DIMSTYLE
  2
FIBOX
 70
     0
  3

  4

  5

  6

  7

 40
1.0
 41
3.5
 42
0.1
 43
0.38
 44
0.18
 45
0.0
 46
0.0
 47
0.0
 48
0.0
140
3.5
141
1.0
142
0.0
143
25.399999999999999
144
1.0
145
0.0
146
1.0
147
1.0
 71
     0
 72
     0
 73
     0
 74
     0
 75
     0
 76
     0
 77
     1
 78
     8
170
     0
171
     2
172
     1
173
     0
174
     0
175
     0
176
     1
177
     1
178
     3
  0
DIMSTYLE
  2
FIBOX$0
 70
     0
  3

  4

  5

  6

  7

 40
1.0
 41
3.5
 42
1.0
 43
0.38
 44
0.18
 45
0.0
 46
0.0
 47
0.0
 48
0.0
140
3.5
141
0.09
142
0.0
143
25.399999999999999
144
1.0
145
0.0
146
1.0
147
1.0
 71
     0
 72
     0
 73
     0
 74
     0
 75
     0
 76
     0
 77
     1
 78
     8
170
     0
171
     2
172
     1
173
     0
174
     0
175
     0
176
     1
177
     1
178
     2
  0
DIMSTYLE
  2
FIBOX$4
 70
     0
  3

  4

  5

  6

  7

 40
1.0
 41
3.5
 42
0.0625
 43
0.38
 44
0.18
 45
0.0
 46
0.0
 47
0.0
 48
0.0
140
3.5
141
0.09
142
0.0
143
25.399999999999999
144
1.0
145
0.0
146
1.0
147
1.0
 71
     0
 72
     0
 73
     0
 74
     0
 75
     0
 76
     0
 77
     1
 78
     8
170
     0
171
     2
172
     1
173
     0
174
     0
175
     0
176
     1
177
     1
178
     2
  0
DIMSTYLE
  2
FIBOX$2
 70
     0
  3

  4

  5

  6

  7

 40
1.0
 41
3.5
 42
0.1
 43
0.38
 44
0.18
 45
0.0
 46
0.0
 47
0.0
 48
0.0
140
3.5
141
1.0
142
0.0
143
25.399999999999999
144
1.0
145
0.0
146
1.0
147
1.0
 71
     0
 72
     0
 73
     0
 74
     0
 75
     0
 76
     0
 77
     1
 78
     0
170
     0
171
     2
172
     1
173
     0
174
     0
175
     0
176
     1
177
     1
178
     2
  0
DIMSTYLE
  2
FIBOX$3
 70
     0
  3

  4

  5

  6

  7

 40
1.0
 41
3.5
 42
0.0625
 43
0.38
 44
0.18
 45
0.0
 46
0.0
 47
0.0
 48
0.0
140
3.5
141
1.0
142
0.0
143
25.399999999999999
144
1.0
145
0.0
146
1.0
147
1.0
 71
     0
 72
     0
 73
     0
 74
     0
 75
     0
 76
     0
 77
     1
 78
     8
170
     0
171
     2
172
     1
173
     0
174
     0
175
     0
176
     1
177
     1
178
     2
  0
DIMSTYLE
  2
FIBOX$6
 70
     0
  3

  4

  5

  6

  7

 40
1.0
 41
3.5
 42
0.1
 43
0.38
 44
0.18
 45
0.0
 46
0.0
 47
0.0
 48
0.0
140
3.5
141
0.09
142
0.0
143
25.399999999999999
144
1.0
145
0.0
146
1.0
147
1.0
 71
     0
 72
     0
 73
     0
 74
     0
 75
     0
 76
     0
 77
     1
 78
     8
170
     0
171
     2
172
     1
173
     0
174
     0
175
     0
176
     1
177
     1
178
     2
  0
DIMSTYLE
  2
FIBOX$7
 70
     0
  3

  4

  5

  6

  7

 40
1.0
 41
3.5
 42
0.0625
 43
0.38
 44
0.18
 45
0.0
 46
0.0
 47
0.0
 48
0.0
140
3.5
141
0.09
142
0.0
143
25.399999999999999
144
1.0
145
0.0
146
1.0
147
1.0
 71
     0
 72
     0
 73
     0
 74
     0
 75
     0
 76
     0
 77
     1
 78
     8
170
     0
171
     2
172
     1
173
     0
174
     0
175
     0
176
     1
177
     1
178
     2
  0
DIMSTYLE
  2
AM_ANSI
 70
     0
  3

  4
"
  5

  6

  7

 40
1.0
 41
2.5
 42
1.0
 43
10.0
 44
1.0
 45
0.0
 46
0.0
 47
0.1
 48
0.1
140
3.5
141
0.0
142
0.0
143
0.0393701
144
1.0
145
0.0
146
0.71
147
1.5
 71
     0
 72
     0
 73
     1
 74
     1
 75
     0
 76
     0
 77
     0
 78
     8
170
     0
171
     2
172
     0
173
     0
174
     0
175
     0
176
   256
177
   256
178
     2
  0
DIMSTYLE
  2
AM_ANSI$3
 70
     0
  3

  4
"
  5

  6

  7

 40
1.0
 41
2.5
 42
1.0
 43
10.0
 44
1.0
 45
0.0
 46
0.0
 47
0.1
 48
0.1
140
3.5
141
0.0
142
0.0
143
0.0393701
144
1.0
145
0.0
146
0.71
147
1.5
 71
     0
 72
     0
 73
     1
 74
     1
 75
     0
 76
     0
 77
     0
 78
     8
170
     0
171
     2
172
     0
173
     0
174
     0
175
     0
176
   256
177
   256
178
     2
  0
DIMSTYLE
  2
AM_ANSI$4
 70
     0
  3

  4
"
  5

  6

  7

 40
1.0
 41
2.5
 42
1.0
 43
10.0
 44
1.0
 45
0.0
 46
0.0
 47
0.1
 48
0.1
140
3.5
141
0.0
142
0.0
143
0.0393701
144
1.0
145
0.0
146
0.71
147
1.5
 71
     0
 72
     0
 73
     1
 74
     1
 75
     0
 76
     0
 77
     0
 78
     8
170
     0
171
     2
172
     0
173
     0
174
     0
175
     0
176
   256
177
   256
178
     2
  0
DIMSTYLE
  2
AM_ANSI$7
 70
     0
  3

  4
"
  5

  6

  7

 40
1.0
 41
2.5
 42
1.0
 43
10.0
 44
1.0
 45
0.0
 46
0.0
 47
0.1
 48
0.1
140
5.0
141
0.0
142
0.0
143
0.0393701
144
1.0
145
0.0
146
0.71
147
1.5
 71
     0
 72
     0
 73
     1
 74
     1
 75
     0
 76
     0
 77
     0
 78
     8
170
     0
171
     2
172
     0
173
     0
174
     0
175
     0
176
   256
177
   256
178
     2
  0
DIMSTYLE
  2
AM_ANSI$SF
 70
     0
  3

  4
"
  5

  6

  7

 40
1.0
 41
2.5
 42
1.0
 43
10.0
 44
1.0
 45
0.0
 46
0.0
 47
0.1
 48
0.1
140
3.5
141
0.0
142
0.0
143
0.0393701
144
1.0
145
0.0
146
0.71
147
1.5
 71
     0
 72
     0
 73
     1
 74
     1
 75
     1
 76
     1
 77
     0
 78
     8
170
     0
171
     2
172
     0
173
     0
174
     0
175
     0
176
   256
177
   256
178
     2
  0
DIMSTYLE
  2
AM_ANSI$SH
 70
     0
  3

  4
"
  5

  6
GENAXEH
  7

 40
1.0
 41
2.5
 42
1.0
 43
10.0
 44
1.0
 45
0.0
 46
0.0
 47
0.1
 48
0.1
140
3.5
141
0.0
142
0.0
143
0.0393701
144
1.0
145
0.0
146
0.71
147
1.5
 71
     0
 72
     0
 73
     1
 74
     1
 75
     1
 76
     1
 77
     0
 78
     8
170
     0
171
     2
172
     0
173
     1
174
     0
175
     0
176
   256
177
   256
178
     2
  0
DIMSTYLE
  2
FIBOX$SF
 70
     0
  3

  4

  5

  6

  7

 40
1.0
 41
3.5
 42
0.1
 43
0.38
 44
0.18
 45
0.0
 46
0.0
 47
0.0
 48
0.0
140
3.5
141
1.0
142
0.0
143
25.399999999999999
144
1.0
145
0.0
146
1.0
147
1.0
 71
     0
 72
     0
 73
     0
 74
     0
 75
     1
 76
     1
 77
     1
 78
     8
170
     0
171
     2
172
     1
173
     0
174
     0
175
     0
176
     1
177
     1
178
     3
  0
DIMSTYLE
  2
FIBOX$SH
 70
     0
  3

  4

  5

  6
GENAXEH
  7

 40
1.0
 41
3.5
 42
0.1
 43
0.38
 44
0.18
 45
0.0
 46
0.0
 47
0.0
 48
0.0
140
3.5
141
1.0
142
0.0
143
25.399999999999999
144
2.0
145
0.0
146
1.0
147
1.0
 71
     0
 72
     0
 73
     0
 74
     0
 75
     1
 76
     1
 77
     1
 78
     8
170
     0
171
     2
172
     1
173
     1
174
     0
175
     0
176
     1
177
     1
178
     3
  0
ENDTAB
  0
ENDSEC
  0
SECTION
  2
BLOCKS
  0
BLOCK
  8
0
  2
$MODEL_SPACE
 70
     0
 10
0.0
 20
0.0
 30
0.0
  3
$MODEL_SPACE
  1

  0
ENDBLK
  5
1C
  8
0
  0
BLOCK
 67
     1
  8
0
  2
$PAPER_SPACE
 70
     0
 10
0.0
 20
0.0
 30
0.0
  3
$PAPER_SPACE
  1

  0
ENDBLK
  5
19
 67
     1
  8
0
  0
BLOCK
  8
0
  2
*U0
 70
     1
 10
0.0
 20
0.0
 30
0.0
  3
*U0
  1

  0
ENDBLK
  5
73
  8
0
  0
BLOCK
  8
0
  2
GENAXEH
 70
     0
 10
0.0
 20
0.0
 30
0.0
  3
GENAXEH
  1

  0
LINE
  5
9BF
  8
0
 10
-1.0
 20
0.0
 30
0.0
 11
1.0
 21
0.0
 31
0.0
  0
ENDBLK
  5
9C1
  8
0
  0
BLOCK
  8
0
  2
*U2
 70
     1
 10
0.0
 20
0.0
 30
0.0
  3
*U2
  1

  0
ENDBLK
  5
A60
  8
0
  0
BLOCK
  8
0
  2
3DCAEA3
 70
     0
 10
0.0
 20
0.0
 30
0.0
  3
3DCAEA3
  1

  0
TEXT
  5
C65
  8
L41
 10
-401.53908778026658
 20
0.0276491541971211
 30
0.0
 40
2.0
  1
AutoCAD 13_c4  MCAD
 50
90.0
  7
SIMPLEX
  0
TEXT
  5
C66
  8
L20
 10
-397.81675329250328
 20
247.3226502203436
 30
0.0
 40
2.8282828282828278
  1
F
 72
     1
 11
-396.82685430260432
 21
247.3226502203436
 31
0.0
  0
TEXT
  5
C67
  8
L20
 10
-398.37330047299002
 20
200.9113070374847
 30
0.0
 40
2.8282828282828278
  1
E
 72
     1
 11
-397.38340148309101
 21
200.9113070374847
 31
0.0
  0
TEXT
  5
C68
  8
L20
 10
-398.6194538439205
 20
155.00811724713901
 30
0.0
 40
2.8282828282828278
  1
D
 72
     1
 11
-397.4075991865904
 21
155.00811724713901
 31
0.0
  0
TEXT
  5
C69
  8
L20
 10
-398.23480975029599
 20
111.8150788835293
 30
0.0
 40
2.8282828282828278
  1
C
 72
     1
 11
-397.3108083725927
 21
111.8150788835293
 31
0.0
  0
TEXT
  5
C6A
  8
L20
 10
-398.61150542840181
 20
65.28274679769126
 30
0.0
 40
2.8282828282828278
  1
B
 72
     1
 11
-397.48019229708859
 21
65.28274679769126
 31
0.0
  0
TEXT
  5
C6B
  8
L20
 10
-398.63193105231881
 20
21.387972796801652
 30
0.0
 40
2.8282828282828278
  1
A
 72
     1
 11
-397.35920377959161
 21
21.387972796801652
 31
0.0
  0
LINE
  5
C6C
  8
L41
 10
-405.0
 20
-5.0
 30
0.0
 11
-405.0
 21
280.0
 31
0.0
  0
LINE
  5
C6D
  8
L41
 10
-405.0
 20
280.0
 30
0.0
 11
4.0
 21
280.0
 31
0.0
  0
LINE
  5
C6E
  8
L41
 10
4.0
 20
280.0
 30
0.0
 11
4.0
 21
-5.0
 31
0.0
  0
LINE
  5
C6F
  8
L41
 10
4.0
 20
-5.0
 30
0.0
 11
-405.0
 21
-5.0
 31
0.0
  0
LINE
  5
C70
  8
L41
 10
-400.0
 20
0.0
 30
0.0
 11
-400.0
 21
280.0
 31
0.0
  0
LINE
  5
C71
  8
L40
 62
   255
 10
-395.0
 20
0.0
 30
0.0
 11
0.0
 21
0.0
 31
0.0
  0
LINE
  5
C72
  8
L40
 62
   255
 10
0.0
 20
0.0
 30
0.0
 11
0.0
 21
275.0
 31
0.0
  0
LINE
  5
C73
  8
L40
 62
   255
 10
0.0
 20
275.0
 30
0.0
 11
-395.0
 21
275.0
 31
0.0
  0
LINE
  5
C74
  8
L40
 62
   255
 10
-395.0
 20
275.0
 30
0.0
 11
-395.0
 21
0.0
 31
0.0
  0
LINE
  5
C75
  8
L41
 10
-395.0
 20
0.0
 30
0.0
 11
-400.0
 21
0.0
 31
0.0
  0
LINE
  5
C76
  8
L41
 10
-395.0
 20
45.799999999999997
 30
0.0
 11
-400.0
 21
45.799999999999997
 31
0.0
  0
LINE
  5
C77
  8
L41
 10
-395.0
 20
91.599999999999994
 30
0.0
 11
-400.0
 21
91.599999999999994
 31
0.0
  0
LINE
  5
C78
  8
L41
 10
-395.0
 20
137.39999999999989
 30
0.0
 11
-400.0
 21
137.39999999999989
 31
0.0
  0
LINE
  5
C79
  8
L41
 10
-395.0
 20
183.1999999999999
 30
0.0
 11
-400.0
 21
183.1999999999999
 31
0.0
  0
LINE
  5
C7A
  8
L41
 10
-395.0
 20
229.0
 30
0.0
 11
-400.0
 21
229.0
 31
0.0
  0
LINE
  5
C7B
  8
L41
 10
-345.625
 20
275.0
 30
0.0
 11
-345.625
 21
280.0
 31
0.0
  0
LINE
  5
C7C
  8
L41
 10
-296.25
 20
275.0
 30
0.0
 11
-296.25
 21
280.0
 31
0.0
  0
LINE
  5
C7D
  8
L41
 10
-246.875
 20
275.0
 30
0.0
 11
-246.875
 21
280.0
 31
0.0
  0
LINE
  5
C7E
  8
L41
 10
-197.5
 20
275.0
 30
0.0
 11
-197.5
 21
280.0
 31
0.0
  0
LINE
  5
C7F
  8
L41
 10
-148.125
 20
275.0
 30
0.0
 11
-148.125
 21
280.0
 31
0.0
  0
LINE
  5
C80
  8
L41
 10
-98.75
 20
275.0
 30
0.0
 11
-98.75
 21
280.0
 31
0.0
  0
LINE
  5
C81
  8
L41
 10
-49.375
 20
275.0
 30
0.0
 11
-49.375
 21
280.0
 31
0.0
  0
LINE
  5
C82
  8
L41
 10
0.0
 20
275.0
 30
0.0
 11
0.0
 21
280.0
 31
0.0
  0
TEXT
  5
C83
  8
L20
 10
-25.104166666666661
 20
275.74999999999989
 30
0.0
 40
3.5
  1
1
  7
TKKISO
 72
     4
 11
-24.6875
 21
277.49999999999989
 31
0.0
  0
TEXT
  5
C84
  8
L20
 10
-75.229166666666671
 20
275.74999999999989
 30
0.0
 40
3.5
  1
2
  7
TKKISO
 72
     4
 11
-74.0625
 21
277.49999999999989
 31
0.0
  0
TEXT
  5
C85
  8
L20
 10
-124.6041666666666
 20
275.74999999999989
 30
0.0
 40
3.5
  1
3
  7
TKKISO
 72
     4
 11
-123.4375
 21
277.49999999999989
 31
0.0
  0
TEXT
  5
C86
  8
L20
 10
-174.0625
 20
275.74999999999989
 30
0.0
 40
3.5
  1
4
  7
TKKISO
 72
     4
 11
-172.8125
 21
277.49999999999989
 31
0.0
  0
TEXT
  5
C87
  8
L20
 10
-223.3541666666666
 20
275.74999999999989
 30
0.0
 40
3.5
  1
5
  7
TKKISO
 72
     4
 11
-222.1875
 21
277.49999999999989
 31
0.0
  0
TEXT
  5
C88
  8
L20
 10
-272.6458333333332
 20
275.74999999999989
 30
0.0
 40
3.5
  1
6
  7
TKKISO
 72
     4
 11
-271.5625
 21
277.49999999999989
 31
0.0
  0
TEXT
  5
C89
  8
L20
 10
-322.10416666666657
 20
275.74999999999989
 30
0.0
 40
3.5
  1
7
  7
TKKISO
 72
     4
 11
-320.9375
 21
277.49999999999989
 31
0.0
  0
TEXT
  5
C8A
  8
L20
 10
-371.47916666666657
 20
275.74999999999989
 30
0.0
 40
3.5
  1
8
  7
TKKISO
 72
     4
 11
-370.3125
 21
277.49999999999989
 31
0.0
  0
LINE
  5
C8B
  8
L41
 10
-395.0
 20
275.0
 30
0.0
 11
-400.0
 21
280.0
 31
0.0
  0
LINE
  5
C8C
  8
L40
 10
4.0
 20
137.5
 30
0.0
 11
1.5
 21
137.5
 31
0.0
  0
LINE
  5
C8D
  8
L40
 10
-200.49999999999989
 20
-5.0
 30
0.0
 11
-200.49999999999989
 21
-2.5
 31
0.0
  0
ENDBLK
  5
C8F
  8
0
  0
BLOCK
  8
0
  2
OTSIKKOTAULU2002
 70
     2
 10
0.0
 20
0.0
 30
0.0
  3
OTSIKKOTAULU2002
  1

  0
POLYLINE
  5
CA1
  8
AM_VIS
 66
     1
 10
0.0
 20
0.0
 30
-1.242857142857152
 70
     1
1001
ACAD
1000
ASC_BOUNDS
1002
{
1070
    19
1005
CC0
1002
}
  0
VERTEX
  5
14BF
  8
AM_VIS
 10
-156.01263579042259
 20
8.1533414770357293
 30
-1.242857142857152
  0
VERTEX
  5
14C0
  8
AM_VIS
 10
-157.70097186669071
 20
6.3434998613929734
 30
-1.242857142857152
  0
VERTEX
  5
14C1
  8
AM_VIS
 10
-159.5269215047083
 20
6.3434998613929734
 30
-1.242857142857152
  0
VERTEX
  5
14C2
  8
AM_VIS
 10
-156.9256106094314
 20
9.3434998613929743
 30
-1.242857142857152
  0
VERTEX
  5
14C3
  8
AM_VIS
 10
-159.5269215047083
 20
12.343499861392971
 30
-1.242857142857152
  0
VERTEX
  5
14C4
  8
AM_VIS
 10
-157.70097186669071
 20
12.34349986139293
 30
-1.242857142857152
  0
VERTEX
  5
14C5
  8
AM_VIS
 10
-156.01263579042259
 20
10.53365824575018
 30
-1.242857142857152
  0
VERTEX
  5
14C6
  8
AM_VIS
 10
-154.32429971415451
 20
12.343499861392971
 30
-1.242857142857152
  0
VERTEX
  5
14C7
  8
AM_VIS
 10
-152.49835007613689
 20
12.343499861392971
 30
-1.242857142857152
  0
VERTEX
  5
14C8
  8
AM_VIS
 10
-155.09966097141381
 20
9.3434998613929725
 30
-1.242857142857152
  0
VERTEX
  5
14C9
  8
AM_VIS
 10
-152.49835007613689
 20
6.3434998613929716
 30
-1.242857142857152
  0
VERTEX
  5
14CA
  8
AM_VIS
 10
-154.32429971415451
 20
6.3434998613929734
 30
-1.242857142857152
  0
SEQEND
  5
14CB
  8
AM_VIS
  0
POLYLINE
  5
CA2
  8
AM_VIS
 66
     1
 10
0.0
 20
0.0
 30
-1.24285714285715
 70
     1
1001
ACAD
1000
ASC_BOUNDS
1002
{
1070
    19
1005
CC0
1002
}
  0
VERTEX
  5
14CC
  8
AM_VIS
 10
-164.2043417411908
 20
7.4710796249105149
 30
-1.24285714285715
  0
VERTEX
  5
14CD
  8
AM_VIS
 10
-161.50092983965439
 20
7.4710796249105149
 30
-1.24285714285715
 42
0.4142135623730951
  0
VERTEX
  5
14CE
  8
AM_VIS
 10
-160.86065246031481
 20
8.1113570042501042
 30
-1.24285714285715
  0
VERTEX
  5
14CF
  8
AM_VIS
 10
-160.86065246031481
 20
10.5756427185358
 30
-1.24285714285715
 42
0.4142135623730951
  0
VERTEX
  5
14D0
  8
AM_VIS
 10
-161.50092983965439
 20
11.21592009787539
 30
-1.24285714285715
  0
VERTEX
  5
14D1
  8
AM_VIS
 10
-164.2043417411908
 20
11.21592009787539
 30
-1.24285714285715
 42
0.4142135623730951
  0
VERTEX
  5
14D2
  8
AM_VIS
 10
-164.8446191205303
 20
10.5756427185358
 30
-1.24285714285715
  0
VERTEX
  5
14D3
  8
AM_VIS
 10
-164.84461912053041
 20
8.1113570042501042
 30
-1.24285714285715
 42
0.4142135623730982
  0
SEQEND
  5
14D4
  8
AM_VIS
  0
POLYLINE
  5
CA3
  8
AM_VIS
 66
     1
 10
0.0
 20
0.0
 30
-1.24285714285715
 70
     1
1001
ACAD
1000
ASC_BOUNDS
1002
{
1070
    19
1005
CC0
1002
}
  0
VERTEX
  5
14D5
  8
AM_VIS
 10
-164.4426357904226
 20
6.3434998613929734
 30
-1.24285714285715
 42
-0.4142135623730992
  0
VERTEX
  5
14D6
  8
AM_VIS
 10
-166.15692150470829
 20
8.0577855756786736
 30
-1.24285714285715
  0
VERTEX
  5
14D7
  8
AM_VIS
 10
-166.15692150470829
 20
10.62921414710727
 30
-1.24285714285715
 42
-0.4142135623730951
  0
VERTEX
  5
14D8
  8
AM_VIS
 10
-164.4426357904226
 20
12.343499861392971
 30
-1.24285714285715
  0
VERTEX
  5
14D9
  8
AM_VIS
 10
-161.26263579042259
 20
12.343499861392971
 30
-1.24285714285715
 42
-0.4142135623730951
  0
VERTEX
  5
14DA
  8
AM_VIS
 10
-159.5483500761369
 20
10.62921414710727
 30
-1.24285714285715
  0
VERTEX
  5
14DB
  8
AM_VIS
 10
-159.5483500761369
 20
8.0577855756786736
 30
-1.24285714285715
 42
-0.4142135623730951
  0
VERTEX
  5
14DC
  8
AM_VIS
 10
-161.26263579042259
 20
6.3434998613929734
 30
-1.24285714285715
  0
SEQEND
  5
14DD
  8
AM_VIS
  0
POLYLINE
  5
CA4
  8
AM_VIS
 66
     1
 10
0.0
 20
0.0
 30
-1.24285714285715
 70
     1
1001
ACAD
1000
ASC_BOUNDS
1002
{
1070
    19
1005
CC0
1002
}
  0
VERTEX
  5
14DE
  8
AM_VIS
 10
-167.62874237139499
 20
9.3434998613929743
 30
-1.24285714285715
 42
-0.6910804946404705
  0
VERTEX
  5
14DF
  8
AM_VIS
 10
-168.76263579042259
 20
6.3434998613929388
 30
-1.24285714285715
  0
VERTEX
  5
14E0
  8
AM_VIS
 10
-174.3340643618512
 20
6.3434998613929743
 30
-1.24285714285715
  0
VERTEX
  5
14E1
  8
AM_VIS
 10
-174.3340643618512
 20
12.343499861392971
 30
-1.24285714285715
  0
VERTEX
  5
14E2
  8
AM_VIS
 10
-168.76263579042259
 20
12.34349986139293
 30
-1.24285714285715
 42
-0.6910804946404695
  0
SEQEND
  5
14E3
  8
AM_VIS
  0
POLYLINE
  5
CA5
  8
AM_VIS
 66
     1
 10
0.0
 20
0.0
 30
-1.24285714285715
 70
     1
1001
ACAD
1000
ASC_BOUNDS
1002
{
1070
    19
1005
CC0
1002
}
  0
VERTEX
  5
14E4
  8
AM_VIS
 10
-175.4054929332797
 20
6.3434998613929743
 30
-1.24285714285715
  0
VERTEX
  5
14E5
  8
AM_VIS
 10
-176.9054929332797
 20
6.3434998613929743
 30
-1.24285714285715
  0
VERTEX
  5
14E6
  8
AM_VIS
 10
-176.9054929332797
 20
12.343499861392971
 30
-1.24285714285715
  0
VERTEX
  5
14E7
  8
AM_VIS
 10
-175.4054929332797
 20
12.343499861392971
 30
-1.24285714285715
  0
SEQEND
  5
14E8
  8
AM_VIS
  0
POLYLINE
  5
CA6
  8
AM_VIS
 66
     1
 10
0.0
 20
0.0
 30
-1.24285714285715
 70
     1
1001
ACAD
1000
ASC_BOUNDS
1002
{
1070
    19
1005
CC0
1002
}
  0
VERTEX
  5
14E9
  8
AM_VIS
 10
-178.6197786475654
 20
8.8077855756786736
 30
-1.24285714285715
  0
VERTEX
  5
14EA
  8
AM_VIS
 10
-182.9054929332797
 20
8.8077855756786736
 30
-1.24285714285715
  0
VERTEX
  5
14EB
  8
AM_VIS
 10
-182.9054929332797
 20
6.3434998613929743
 30
-1.24285714285715
  0
VERTEX
  5
14EC
  8
AM_VIS
 10
-184.4054929332797
 20
6.3434998613929752
 30
-1.24285714285715
  0
VERTEX
  5
14ED
  8
AM_VIS
 10
-184.4054929332797
 20
12.343499861392971
 30
-1.24285714285715
  0
VERTEX
  5
14EE
  8
AM_VIS
 10
-177.97692150470829
 20
12.343499861392971
 30
-1.24285714285715
  0
VERTEX
  5
14EF
  8
AM_VIS
 10
-177.97692150470829
 20
11.2720712899644
 30
-1.24285714285715
  0
VERTEX
  5
14F0
  8
AM_VIS
 10
-182.9054929332797
 20
11.2720712899644
 30
-1.24285714285715
  0
VERTEX
  5
14F1
  8
AM_VIS
 10
-182.9054929332797
 20
9.8792141471072412
 30
-1.24285714285715
  0
VERTEX
  5
14F2
  8
AM_VIS
 10
-178.6197786475654
 20
9.8792141471072412
 30
-1.24285714285715
  0
SEQEND
  5
14F3
  8
AM_VIS
  0
POLYLINE
  5
CA7
  8
AM_VIS
 66
     1
 10
0.0
 20
0.0
 30
-1.24285714285715
 70
     1
1001
ACAD
1000
ASC_BOUNDS
1002
{
1070
    19
1005
CC0
1002
}
  0
VERTEX
  5
14F4
  8
AM_VIS
 10
-172.8340643618512
 20
7.414928432821541
 30
-1.24285714285715
  0
VERTEX
  5
14F5
  8
AM_VIS
 10
-172.8340643618512
 20
8.8077855756786736
 30
-1.24285714285715
  0
VERTEX
  5
14F6
  8
AM_VIS
 10
-169.4054929332797
 20
8.8077855756786736
 30
-1.24285714285715
 42
-0.9999999999999998
  0
VERTEX
  5
14F7
  8
AM_VIS
 10
-169.4054929332797
 20
7.4149284328215401
 30
-1.24285714285715
  0
SEQEND
  5
14F8
  8
AM_VIS
  0
POLYLINE
  5
CA8
  8
AM_VIS
 66
     1
 10
0.0
 20
0.0
 30
-1.24285714285715
 70
     1
1001
ACAD
1000
ASC_BOUNDS
1002
{
1070
    19
1005
CC0
1002
}
  0
VERTEX
  5
14F9
  8
AM_VIS
 10
-172.8340643618512
 20
9.8792141471072732
 30
-1.24285714285715
  0
VERTEX
  5
14FA
  8
AM_VIS
 10
-172.8340643618512
 20
11.2720712899644
 30
-1.24285714285715
  0
VERTEX
  5
14FB
  8
AM_VIS
 10
-169.4054929332797
 20
11.2720712899644
 30
-1.24285714285715
 42
-0.9999999999999998
  0
VERTEX
  5
14FC
  8
AM_VIS
 10
-169.4054929332797
 20
9.8792141471072394
 30
-1.24285714285715
  0
SEQEND
  5
14FD
  8
AM_VIS
  0
TEXT
  5
CA9
  8
L45
 10
-240.41716311407299
 20
0.7207240296828559
 30
0.0
 40
1.6200000000000001
  1
Date
 41
0.8
  7
SIMPLEX
  0
TEXT
  5
CAA
  8
L45
 10
-240.41716311407299
 20
3.3153815813070651
 30
0.0
 40
1.6200000000000001
  1
Pvm.
 41
0.8
  7
SIMPLEX
  0
LINE
  5
CAB
  8
L44
 10
-190.0
 20
12.0
 30
0.0
 11
-390.0
 21
12.0
 31
0.0
  0
LINE
  5
CAC
  8
L44
 10
-390.0
 20
6.0
 30
0.0
 11
-190.0
 21
6.0
 31
0.0
  0
LINE
  5
CAD
  8
L44
 10
-390.0
 20
0.0
 30
0.0
 11
-190.0
 21
0.0
 31
0.0
  0
LINE
  5
CAE
  8
L45
 10
-381.0
 20
0.0
 30
0.0
 11
-381.0
 21
12.0
 31
0.0
  0
TEXT
  5
CAF
  8
L45
 10
-388.88692995118549
 20
3.3286121811995031
 30
0.0
 40
1.6200000000000001
  1
Tunnus
 41
0.8
  7
SIMPLEX
  0
TEXT
  5
CB0
  8
L45
 10
-388.88066819760081
 20
0.861184610326859
 30
0.0
 40
1.6200000000000001
  1
Symbol
 41
0.8
  7
SIMPLEX
  0
LINE
  5
CB1
  8
L44
 10
-242.0
 20
0.0
 30
0.0
 11
-242.0
 21
12.0
 31
0.0
  0
LINE
  5
CB2
  8
L45
 10
-299.5
 20
0.0
 30
0.0
 11
-299.5
 21
12.0
 31
0.0
  0
TEXT
  5
CB3
  8
L45
 10
-357.96355595702693
 20
2.0581845758331951
 30
0.0
 40
1.6200000000000001
  1
Muutos - Modification
 41
0.8
  7
SIMPLEX
  0
TEXT
  5
CB4
  8
L45
 10
-285.46805532388009
 20
2.0581845758331951
 30
0.0
 40
1.6200000000000001
  1
aikaisemmin - earlier
 41
0.8
  7
SIMPLEX
  0
LINE
  5
CB5
  8
L43
 10
-8.0
 20
47.0
 30
0.0
 11
-8.0
 21
61.0
 31
0.0
  0
LINE
  5
CB6
  8
L43
 10
-182.0
 20
47.000000000000071
 30
0.0
 11
-182.0
 21
61.000000000000071
 31
0.0
  0
LINE
  5
CB7
  8
L43
 10
-190.0
 20
61.000000000000071
 30
0.0
 11
-190.0
 21
0.0
 31
0.0
  0
TEXT
  5
CB8
  8
L45
 10
-111.96447515708191
 20
1.6482030280458551
 30
0.0
 40
2.0
  1
U
  7
SIMPLEX
 72
     1
 11
-111.29780849041521
 21
1.6482030280458551
 31
0.0
  0
LINE
  5
CB9
  8
L45
 10
-190.0
 20
41.0
 30
0.0
 11
-73.999999999999972
 21
41.0
 31
0.0
  0
LINE
  5
CBA
  8
L45
 10
-148.0
 20
35.0
 30
0.0
 11
-50.0
 21
35.0
 31
0.0
  0
LINE
  5
CBB
  8
L44
 10
-148.0
 20
6.0
 30
0.0
 11
0.0
 21
6.0
 31
0.0
  0
LINE
  5
CBC
  8
L43
 10
-190.0
 20
47.000000000000071
 30
0.0
 11
0.0
 21
47.0
 31
0.0
  0
LINE
  5
CBD
  8
L43
 10
-190.0
 20
55.000000000000071
 30
0.0
 11
0.0
 21
55.0
 31
0.0
  0
LINE
  5
CBE
  8
L43
 10
-148.0
 20
47.0
 30
0.0
 11
-148.0
 21
0.0
 31
0.0
  0
LINE
  5
CBF
  8
L44
 10
-216.33546109382371
 20
0.0
 30
0.0
 11
-216.33546109382371
 21
12.0
 31
0.0
  0
INSERT
  5
CC0
  8
LOGO
  6
CONTINUOUS
  2
*X5
 10
0.0
 20
0.0
 30
0.0
1001
ACAD
1000
HATCH
1002
{
1070
    19
1000
ANSI31
1040
1.0
1040
0.0
1000
ASC_BOUNDS
1070
     8
1070
     1
1070
     1
1005
CA1
1070
     1
1070
     1
1005
CA2
1070
     1
1070
     1
1005
CA3
1070
     1
1070
     1
1005
CA8
1070
     1
1070
     1
1005
CA7
1070
     1
1070
     1
1005
CA4
1070
     1
1070
     1
1005
CA5
1070
     1
1070
     1
1005
CA6
1000
ASC_SEEDPOINT
1011
-183.71820545274511
1021
0.0
1031
0.0
1021
9.6634918130768028
1031
0.0
1000
R14_HATCH_DATA
1000
CC0
1011
1.0
1021
0.0
1031
0.0
1021
0.0
1031
0.0
1011
0.0
1021
0.0
1031
0.0
1021
1.0
1031
0.0
1011
0.0
1021
0.0
1031
0.0
1021
0.0
1031
1.0
1040
0.0
1010
0.0
1020
0.0
1030
1.0
1000
ANSI31
1070
     0
1070
     1
1071
        8
1071
        7
1070
     0
1070
     1
1071
       10
1040
-184.4054929332797
1040
6.3434998613929761
1040
-182.90549293327979
1040
6.3434998613929734
1040
-182.9054929332797
1040
8.8077855756786736
1040
-178.6197786475654
1040
8.8077855756786718
1040
-178.6197786475654
1040
9.8792141471072412
1040
-182.9054929332797
1040
9.8792141471072394
1040
-182.9054929332797
1040
11.2720712899644
1040
-177.97692150470829
1040
11.2720712899644
1040
-177.97692150470829
1040
12.343499861392971
1040
-184.4054929332797
1040
12.343499861392971
1071
        1
1005
CA6
1071
        7
1070
     0
1070
     1
1071
        4
1040
-175.40549293327979
1040
12.343499861392971
1040
-176.9054929332797
1040
12.343499861392971
1040
-176.9054929332797
1040
6.3434998613929734
1040
-175.4054929332797
1040
6.3434998613929743
1071
        1
1005
CA5
1071
        7
1070
     1
1070
     1
1071
        5
1040
-174.3340643618512
1040
6.3434998613929716
1040
0.0
1040
-168.76263579042259
1040
6.3434998613929388
1040
0.6910804946404734
1040
-167.62874237139499
1040
9.3434998613929796
1040
0.6910804946404666
1040
-168.76263579042259
1040
12.34349986139293
1040
0.0
1040
-174.3340643618512
1040
12.343499861392971
1040
0.0
1071
        1
1005
CA4
1071
       22
1070
     1
1070
     1
1071
        4
1040
-172.8340643618512
1040
8.8077855756786736
1040
0.0
1040
-169.4054929332797
1040
8.8077855756786736
1040
-1.0
1040
-169.4054929332797
1040
7.4149284328215401
1040
0.0
1040
-172.8340643618512
1040
7.414928432821541
1040
0.0
1071
        1
1005
CA7
1071
       22
1070
     1
1070
     1
1071
        4
1040
-172.8340643618512
1040
9.8792141471073034
1040
0.0
1040
-172.8340643618512
1040
11.2720712899644
1040
0.0
1040
-169.4054929332797
1040
11.2720712899644
1040
-1.0
1040
-169.4054929332797
1040
9.8792141471072394
1040
0.0
1071
        1
1005
CA8
1071
        7
1070
     1
1070
     1
1071
        8
1040
-166.15692150470829
1040
8.057785575678686
1040
0.4142135623730915
1040
-164.4426357904226
1040
6.3434998613929734
1040
0.0
1040
-161.26263579042259
1040
6.3434998613929734
1040
0.4142135623730982
1040
-159.5483500761369
1040
8.0577855756787198
1040
0.0
1040
-159.5483500761369
1040
10.62921414710728
1040
0.4142135623730934
1040
-161.26263579042259
1040
12.343499861392971
1040
0.0
1040
-164.4426357904226
1040
12.343499861392971
1040
0.4142135623730935
1040
-166.15692150470829
1040
10.62921414710728
1040
0.0
1071
        1
1005
CA3
1071
       22
1070
     1
1070
     1
1071
        8
1040
-164.8446191205303
1040
10.575642718535819
1040
-0.4142135623730887
1040
-164.2043417411908
1040
11.21592009787539
1040
0.0
1040
-161.50092983965439
1040
11.21592009787539
1040
-0.4142135623730927
1040
-160.86065246031481
1040
10.575642718535811
1040
0.0
1040
-160.86065246031481
1040
8.1113570042501006
1040
-0.4142135623730927
1040
-161.50092983965439
1040
7.4710796249105149
1040
0.0
1040
-164.2043417411908
1040
7.4710796249105149
1040
-0.4142135623731038
1040
-164.84461912053041
1040
8.1113570042501184
1040
0.0
1071
        1
1005
CA2
1071
        7
1070
     0
1070
     1
1071
       12
1040
-156.01263579042259
1040
8.1533414770357489
1040
-154.32429971415451
1040
6.3434998613929734
1040
-152.49835007613689
1040
6.3434998613929716
1040
-155.09966097141381
1040
9.3434998613929672
1040
-152.49835007613689
1040
12.343499861392971
1040
-154.32429971415451
1040
12.343499861392971
1040
-156.01263579042259
1040
10.53365824575017
1040
-157.70097186669071
1040
12.34349986139293
1040
-159.5269215047083
1040
12.343499861392971
1040
-156.9256106094314
1040
9.3434998613929672
1040
-159.5269215047083
1040
6.3434998613929734
1040
-157.70097186669071
1040
6.3434998613929734
1071
        1
1005
CA1
1070
     0
1070
     1
1040
0.0
1040
1.0
1070
     0
1070
     1
1040
0.7853981633974483
1040
0.0
1040
0.0
1040
-0.0883883476483184
1040
0.0883883476483185
1070
     0
1040
0.063707418122924
1071
        8
1040
-183.71820545274511
1040
9.6634918130768028
1040
0.0
1040
-176.1336383590434
1040
8.9627102252034092
1040
0.0
1040
-173.4567316790552
1040
8.4530507268509592
1040
0.0
1040
-173.4567316790552
1040
8.4530507268509592
1040
0.0
1040
-173.4567316790552
1040
8.4530507268509592
1040
0.0
1040
-165.61722122294481
1040
8.3893433636773125
1040
0.0
1040
-165.61722122294481
1040
8.3893433636773125
1040
0.0
1040
-156.94914415165749
1040
7.9433912284986263
1040
0.0
1002
}
  0
TEXT
  5
CC1
  8
L45
 10
-228.96731626762741
 20
3.2583002097326239
 30
0.0
 40
1.6200000000000001
  1
Teki
 41
0.8
  7
SIMPLEX
  0
TEXT
  5
CC2
  8
L45
 10
-228.96731626762741
 20
0.8348867728317372
 30
0.0
 40
1.6200000000000001
  1
Prepd.
 41
0.8
  7
SIMPLEX
  0
TEXT
  5
CC3
  8
L45
 10
-214.75262420789679
 20
3.3153815813070651
 30
0.0
 40
1.6200000000000001
  1
Pvm.
 41
0.8
  7
SIMPLEX
  0
TEXT
  5
CC4
  8
L45
 10
-214.75262420789679
 20
0.7207240296828559
 30
0.0
 40
1.6200000000000001
  1
Date
 41
0.8
  7
SIMPLEX
  0
TEXT
  5
CC5
  8
L45
 10
-203.30277736145109
 20
3.2583002097326239
 30
0.0
 40
1.6200000000000001
  1
Hyv.
 41
0.8
  7
SIMPLEX
  0
TEXT
  5
CC6
  8
L45
 10
-203.30277736145109
 20
0.8348867728317372
 30
0.0
 40
1.6200000000000001
  1
Apprd
 41
0.8
  7
SIMPLEX
  0
TEXT
  5
CC7
  8
L45
 10
-145.24080427873369
 20
0.8323925753628743
 30
0.0
 40
1.5
  1
Mod.
  7
SIMPLEX
  0
TEXT
  5
CC8
  8
L45
 10
-145.24080427873369
 20
3.4038211467914432
 30
0.0
 40
1.5
  1
Muutos
  7
SIMPLEX
  0
TEXT
  5
CC9
  8
L45
 10
-118.0041556621353
 20
1.6482030280458551
 30
0.0
 40
2.0
  1
V
  7
SIMPLEX
 72
     1
 11
-117.2422509002305
 21
1.6482030280458551
 31
0.0
  0
LINE
  5
CCA
  8
L45
 10
-114.0
 20
0.0000000000000284
 30
0.0
 11
-114.0
 21
6.0000000000000142
 31
0.0
  0
LINE
  5
CCB
  8
L45
 10
-126.0
 20
0.0000000000000284
 30
0.0
 11
-126.0
 21
6.0000000000000142
 31
0.0
  0
LINE
  5
CCC
  8
L45
 10
-120.0
 20
0.0000000000000284
 30
0.0
 11
-120.0
 21
6.0000000000000142
 31
0.0
  0
TEXT
  5
CCD
  8
L45
 10
-123.82255975697269
 20
1.4326008029367749
 30
0.0
 40
2.0
  1
X
  7
SIMPLEX
 72
     1
 11
-123.15589309030609
 21
1.4326008029367749
 31
0.0
  0
ATTDEF
  5
CCE
  8
L45
 10
-180.68482388494519
 20
42.216056163002413
 30
0.0
 40
2.5
  1

 41
0.8
  7
SIMPLEX
  3
Suunnittelija
  2
SUUN
 70
     0
  0
TEXT
  5
CCF
  8
L45
 10
-180.0
 20
48.571428571428619
 30
0.0
 40
1.8
  1
Number of drawing
 41
0.8
  7
SIMPLEX
  0
TEXT
  5
CD0
  8
L45
 10
-180.0
 20
52.000000000000071
 30
0.0
 40
1.8
  1
Piirustusnumero
 41
0.8
  7
SIMPLEX
  0
TEXT
  5
CD1
  8
L45
 10
-188.81208498582751
 20
29.982107128471959
 30
0.0
 40
1.5
  1
Gen. tol. DIN
  7
SIMPLEX
  0
TEXT
  5
CD2
  8
L45
 10
-188.81208498582751
 20
23.982107128471959
 30
0.0
 40
1.5
  1
Gen. tol. SFS
  7
SIMPLEX
  0
TEXT
  5
CD3
  8
L45
 10
-188.81208498582751
 20
26.55353569990055
 30
0.0
 40
1.5
  1
Yl.toleranssit
  7
SIMPLEX
  0
TEXT
  5
CD4
  8
L45
 10
-188.81208498582751
 20
32.55353569990055
 30
0.0
 40
1.5
  1
Yl.toleranssit
  7
SIMPLEX
  0
LINE
  5
CD5
  8
L45
 10
-190.0
 20
29.0
 30
0.0
 11
-148.0
 21
29.0
 31
0.0
  0
LINE
  5
CD6
  8
L45
 10
-190.0
 20
35.0
 30
0.0
 11
-148.0
 21
35.0
 31
0.0
  0
LINE
  5
CD7
  8
L43
 10
-190.0
 20
23.0
 30
0.0
 11
-148.0
 21
23.0
 31
0.0
  0
LINE
  5
CD8
  8
L44
 10
-190.0
 20
18.0
 30
0.0
 11
-192.0
 21
18.0
 31
0.0
  0
LINE
  5
CD9
  8
L44
 10
-190.0
 20
30.0
 30
0.0
 11
-192.0
 21
30.0
 31
0.0
  0
LINE
  5
CDA
  8
L44
 10
-190.0
 20
24.0
 30
0.0
 11
-192.0
 21
24.0
 31
0.0
  0
LINE
  5
CDB
  8
L44
 10
-190.0
 20
36.0
 30
0.0
 11
-192.0
 21
36.0
 31
0.0
  0
ATTDEF
  5
CDC
  8
L45
 10
-180.68482388494519
 20
36.246892940231731
 30
0.0
 40
2.5
  1

 41
0.8
  7
SIMPLEX
  3
Hyv„ksynyt
  2
HYV
 70
     0
  0
TEXT
  5
CDD
  8
L45
 10
-188.444301806661
 20
38.627015626848419
 30
0.0
 40
1.5
  1
Hyv.
  7
SIMPLEX
  0
TEXT
  5
CDE
  8
L45
 10
-188.444301806661
 20
36.055587055419828
 30
0.0
 40
1.5
  1
Apprd.
  7
SIMPLEX
  0
TEXT
  5
CDF
  8
L45
 10
-188.69070356458079
 20
42.400452537202057
 30
0.0
 40
1.5
  1
Plan.
  7
SIMPLEX
  0
TEXT
  5
CE0
  8
L45
 10
-187.93268476067189
 20
48.565398504068007
 30
0.0
 40
1.8
  1
Part
 41
0.8
  7
SIMPLEX
  0
TEXT
  5
CE1
  8
L45
 10
-188.69070356458079
 20
44.97188110863064
 30
0.0
 40
1.5
  1
Suun.
  7
SIMPLEX
  0
TEXT
  5
CE2
  8
L45
 10
-187.93268476067189
 20
51.75265201267716
 30
0.0
 40
1.8
  1
Osa
 41
0.8
  7
SIMPLEX
  0
ATTDEF
  5
CE3
  8
L46
 62
     3
 10
-145.0
 20
28.699999999999999
 30
0.0
 40
4.0
  1

 41
0.8
  7
SIMPLEX
  3
Tuote (1.rivi)
  2
NIMI1
 70
     0
  0
ATTDEF
  5
CE4
  8
L46
 62
     3
 10
-145.0
 20
9.3268801825944756
 30
0.0
 40
4.0
  1

 41
0.8
  7
SIMPLEX
  3
Tuote eng. (2.rivi)
  2
NIMI21
 70
     0
  0
ATTDEF
  5
CE5
  8
L46
 62
     3
 10
-145.0
 20
14.46791052081619
 30
0.0
 40
4.0
  1

 41
0.8
  7
SIMPLEX
  3
Tuote eng. (1.rivi)
  2
NIMI2
 70
     0
  0
ATTDEF
  5
CE6
  8
L46
 62
     3
 10
-145.0
 20
23.190813807204421
 30
0.0
 40
4.0
  1

 41
0.8
  7
SIMPLEX
  3
Tuote (2.rivi)
  2
NIMI11
 70
     0
  0
ATTDEF
  5
CE7
  8
L45
 10
-172.4114931224062
 20
24.598726090485791
 30
0.0
 40
2.1000000000000001
  1
SFS 3918
 41
0.8
  7
SIMPLEX
  3
Yleistoleranssit SFS -mukaan
  2
YL.TOL.SFS
 70
     0
  0
ATTDEF
  5
CE8
  8
L45
 10
-172.4114931224062
 20
30.37098142248885
 30
0.0
 40
2.1000000000000001
  1
DIN 16901,Reihe 2
 41
0.8
  7
SIMPLEX
  3
Yleistoleranssit DIN -mukaan
  2
YL.TOL.DIN
 70
     0
  0
TEXT
  5
CE9
  8
L45
 10
-145.09399966419431
 20
44.75627888352156
 30
0.0
 40
1.5
  1
Liittyy
  7
SIMPLEX
  0
TEXT
  5
CEA
  8
L45
 10
-145.09399966419431
 20
42.184850312092969
 30
0.0
 40
1.5
  1
Comb.
  7
SIMPLEX
  0
TEXT
  5
CEB
  8
L45
 10
-145.26095998403039
 20
38.463283128866827
 30
0.0
 40
1.5
  1
DIR:
  7
SIMPLEX
  0
TEXT
  5
CEC
  8
L45
 10
-153.0
 20
48.571428571428619
 30
0.0
 40
1.8
  1
Part or assembly name
 41
0.8
  7
SIMPLEX
  0
TEXT
  5
CED
  8
L45
 10
-153.0
 20
52.000000000000071
 30
0.0
 40
1.8
  1
Osan tai kokoonp.ryhmän nimitys
 41
0.8
  7
SIMPLEX
  0
ATTDEF
  5
CEE
  8
L45
 10
-130.0
 20
42.5
 30
0.0
 40
2.5
  1

 41
0.8
  7
SIMPLEX
  3
Liittyy
  2
LIITTYY
 70
     0
  0
ATTDEF
  5
CEF
  8
L45
 10
-139.73573214113279
 20
36.14048233473585
 30
0.0
 40
2.5
  1

 41
0.8
  7
SIMPLEX
  3
Kovalevyn hakemisto (DIR)
  2
DIR
 70
     0
  0
ATTDEF
  5
CF0
  8
L45
 10
-32.0
 20
7.5
 30
0.0
 40
2.5
  1

 41
0.8
  7
SIMPLEX
  3
Korvattu piirustuksella nro.
  2
KORVATTU
 70
     0
  0
LINE
  5
CF1
  8
L43
 10
-50.0
 20
47.0
 30
0.0
 11
-50.0
 21
6.0
 31
0.0
  0
TEXT
  5
CF2
  8
L45
 10
-48.684990325241408
 20
6.776853924799596
 30
0.0
 40
1.5
  1
Replaced by
  7
SIMPLEX
  0
LINE
  5
CF3
  8
L45
 10
-96.0
 20
0.0000000000000284
 30
0.0
 11
-96.0
 21
6.0000000000000142
 31
0.0
  0
TEXT
  5
CF4
  8
L45
 10
-106.2664345051866
 20
1.6482030280458551
 30
0.0
 40
2.0
  1
T
  7
SIMPLEX
 72
     1
 11
-105.5997678385199
 21
1.6482030280458551
 31
0.0
  0
LINE
  5
CF5
  8
L45
 10
-108.0
 20
0.0000000000000284
 30
0.0
 11
-108.0
 21
6.0000000000000142
 31
0.0
  0
LINE
  5
CF6
  8
L45
 10
-102.0
 20
0.0000000000000284
 30
0.0
 11
-102.0
 21
6.0000000000000142
 31
0.0
  0
TEXT
  5
CF7
  8
L45
 10
-100.568393853291
 20
1.4326008029367749
 30
0.0
 40
2.0
  1
S
  7
SIMPLEX
 72
     1
 11
-99.901727186624385
 21
1.4326008029367749
 31
0.0
  0
LINE
  5
CF8
  8
L45
 10
-84.0
 20
0.0000000000000284
 30
0.0
 11
-84.0
 21
6.0000000000000142
 31
0.0
  0
LINE
  5
CF9
  8
L45
 10
-90.0
 20
0.0000000000000284
 30
0.0
 11
-90.0
 21
6.0000000000000142
 31
0.0
  0
TEXT
  5
CFA
  8
L45
 10
-94.172886314988773
 20
1.6482030280458551
 30
0.0
 40
2.0
  1
R
  7
SIMPLEX
  0
TEXT
  5
CFB
  8
L45
 10
-88.127942514359063
 20
1.4326008029367749
 30
0.0
 40
2.0
  1
Q
  7
SIMPLEX
 72
     1
 11
-87.366037752454304
 21
1.4326008029367749
 31
0.0
  0
TEXT
  5
CFC
  8
L45
 10
-82.334663767225422
 20
1.4326008029367749
 30
0.0
 40
2.0
  1
P
  7
SIMPLEX
 72
     1
 11
-81.667997100558736
 21
1.4326008029367749
 31
0.0
  0
TEXT
  5
CFD
  8
L45
 10
-64.467698882021196
 20
1.6482030280458551
 30
0.0
 40
2.0
  1
L
  7
SIMPLEX
 72
     1
 11
-63.89627031059262
 21
1.6482030280458551
 31
0.0
  0
LINE
  5
CFE
  8
L45
 10
-66.0
 20
0.0000000000000284
 30
0.0
 11
-66.0
 21
6.0000000000000142
 31
0.0
  0
LINE
  5
CFF
  8
L45
 10
-72.0
 20
0.0000000000000284
 30
0.0
 11
-72.0
 21
6.0000000000000142
 31
0.0
  0
LINE
  5
D00
  8
L45
 10
-78.0
 20
0.0000000000000284
 30
0.0
 11
-78.0
 21
6.0000000000000142
 31
0.0
  0
TEXT
  5
D01
  8
L45
 10
-70.241115577027585
 20
1.6482030280458551
 30
0.0
 40
2.0
  1
M
  7
SIMPLEX
  0
TEXT
  5
D02
  8
L45
 10
-76.205420038970189
 20
1.4326008029367749
 30
0.0
 40
2.0
  1
N
  7
SIMPLEX
 72
     1
 11
-75.538753372303503
 21
1.4326008029367749
 31
0.0
  0
TEXT
  5
D03
  8
L45
 10
-52.083173110532798
 20
1.6482030280458551
 30
0.0
 40
2.0
  1
J
  7
SIMPLEX
 72
     1
 11
-51.60698263434233
 21
1.6482030280458551
 31
0.0
  0
TEXT
  5
D04
  8
L45
 10
-58.187291491084281
 20
1.6482030280458551
 30
0.0
 40
2.0
  1
K
  7
SIMPLEX
 72
     1
 11
-57.520624824417609
 21
1.6482030280458551
 31
0.0
  0
LINE
  5
D05
  8
L45
 10
-60.0
 20
0.0000000000000142
 30
0.0
 11
-60.0
 21
6.0
 31
0.0
  0
LINE
  5
D06
  8
L45
 10
-54.0
 20
0.0000000000000142
 30
0.0
 11
-54.0
 21
6.0
 31
0.0
  0
TEXT
  5
D07
  8
L45
 10
-34.207901705504042
 20
1.6482030280458551
 30
0.0
 40
2.0
  1
F
  7
SIMPLEX
 72
     1
 11
-33.588854086456422
 21
1.6482030280458551
 31
0.0
  0
LINE
  5
D08
  8
L45
 10
-36.0
 20
0.0000000000000142
 30
0.0
 11
-36.0
 21
6.0
 31
0.0
  0
TEXT
  5
D09
  8
L45
 10
-40.001180452637691
 20
1.6482030280458551
 30
0.0
 40
2.0
  1
G
  7
SIMPLEX
 72
     1
 11
-39.286894738351968
 21
1.6482030280458551
 31
0.0
  0
LINE
  5
D0A
  8
L45
 10
-42.0
 20
0.0000000000000142
 30
0.0
 11
-42.0
 21
6.0
 31
0.0
  0
LINE
  5
D0B
  8
L45
 10
-48.0
 20
0.0000000000000142
 30
0.0
 11
-48.0
 21
6.0
 31
0.0
  0
TEXT
  5
D0C
  8
L45
 10
-45.446938686347259
 20
1.6482030280458551
 30
0.0
 40
2.0
  1
H
  7
SIMPLEX
  0
LINE
  5
D0D
  8
L45
 10
-18.0
 20
0.0000000000000142
 30
0.0
 11
-18.0
 21
6.0
 31
0.0
  0
TEXT
  5
D0E
  8
L45
 10
-22.18183461505274
 20
1.6482030280458551
 30
0.0
 40
2.0
  1
D
  7
SIMPLEX
 72
     1
 11
-21.515167948386068
 21
1.6482030280458551
 31
0.0
  0
LINE
  5
D0F
  8
L45
 10
-24.0
 20
0.0000000000000142
 30
0.0
 11
-24.0
 21
6.0
 31
0.0
  0
LINE
  5
D10
  8
L45
 10
-30.0
 20
0.0000000000000142
 30
0.0
 11
-30.0
 21
6.0
 31
0.0
  0
TEXT
  5
D11
  8
L45
 10
-28.345127575525979
 20
1.6482030280458551
 30
0.0
 40
2.0
  1
E 
  7
SIMPLEX
 72
     1
 11
-26.535603766002161
 21
1.6482030280458551
 31
0.0
  0
TEXT
  5
D12
  8
L45
 10
-9.6461451808824368
 20
1.6482030280458551
 30
0.0
 40
2.0
  1
B
  7
SIMPLEX
 72
     1
 11
-8.9794785142157707
 21
1.6482030280458551
 31
0.0
  0
LINE
  5
D13
  8
L45
 10
-6.0
 20
0.0000000000000142
 30
0.0
 11
-6.0
 21
6.0
 31
0.0
  0
TEXT
  5
D14
  8
L45
 10
-15.85380817649677
 20
1.6482030280458551
 30
0.0
 40
2.0
  1
C
  7
SIMPLEX
 72
     1
 11
-15.13952246221106
 21
1.6482030280458551
 31
0.0
  0
LINE
  5
D15
  8
L45
 10
-12.0
 20
0.0000000000000142
 30
0.0
 11
-12.0
 21
6.0
 31
0.0
  0
TEXT
  5
D16
  8
L45
 10
-3.6121395478652989
 20
2.1102077961368191
 30
0.0
 40
2.0
  1
A
  7
SIMPLEX
 72
     1
 11
-2.850234785960537
 21
2.1102077961368191
 31
0.0
  0
LINE
  5
D17
  8
L45
 10
0.0
 20
0.0000000000000142
 30
0.0
 11
0.0
 21
6.0
 31
0.0
  0
TEXT
  5
D18
  8
L45
 10
-49.116193401601087
 20
44.109472208194227
 30
0.0
 40
1.5
  1
Suhde
  7
SIMPLEX
  0
TEXT
  5
D19
  8
L45
 10
-49.116193401601087
 20
41.53804363676565
 30
0.0
 40
1.5
  1
Scale
  7
SIMPLEX
  0
TEXT
  5
D1A
  8
L45
 10
-48.684990325241408
 20
23.76626022420086
 30
0.0
 40
1.5
  1
Replaising
  7
SIMPLEX
  0
TEXT
  5
D1B
  8
L45
 10
-48.684990325241408
 20
26.33768879562945
 30
0.0
 40
1.5
  1
Korvaa
  7
SIMPLEX
  0
TEXT
  5
D1C
  8
L45
 10
-48.684990325241408
 20
17.60619664965504
 30
0.0
 40
1.5
  1
Nr
  7
SIMPLEX
  0
TEXT
  5
D1D
  8
L45
 10
-48.684990325241408
 20
9.3482824962281654
 30
0.0
 40
1.5
  1
Korvattu
  7
SIMPLEX
  0
TEXT
  5
D1E
  8
L45
 10
-48.684990325241408
 20
20.177625221083609
 30
0.0
 40
1.5
  1
No
  7
SIMPLEX
  0
TEXT
  5
D1F
  8
L45
 10
-48.63143974995338
 20
32.41710872082546
 30
0.0
 40
1.5
  1
Disk:
  7
SIMPLEX
  0
LINE
  5
D20
  8
L45
 10
-50.0
 20
12.0
 30
0.0
 11
0.0
 21
12.0
 31
0.0
  0
LINE
  5
D21
  8
L45
 10
-50.0
 20
29.0
 30
0.0
 11
0.0
 21
29.0
 31
0.0
  0
LINE
  5
D22
  8
L45
 10
-50.0
 20
35.0
 30
0.0
 11
0.0
 21
35.0
 31
0.0
  0
LINE
  5
D23
  8
L45
 10
-50.0
 20
23.0
 30
0.0
 11
0.0
 21
23.0
 31
0.0
  0
TEXT
  5
D24
  8
L45
 10
-107.0
 20
48.571428571428619
 30
0.0
 40
1.8
  1
Standard or catalog
 41
0.8
  7
SIMPLEX
  0
TEXT
  5
D25
  8
L45
 10
-107.0
 20
52.000000000000007
 30
0.0
 40
1.8
  1
Standardi tai luettelo
 41
0.8
  7
SIMPLEX
  0
LINE
  5
D26
  8
L43
 10
-108.0
 20
55.000000000000071
 30
0.0
 11
-108.0
 21
52.000000000000071
 31
0.0
  0
LINE
  5
D27
  8
L6
 10
-57.303319570990467
 20
42.77795697296456
 30
0.0
 11
-57.303319570990467
 21
45.117956972964564
 31
0.0
  0
CIRCLE
  5
D28
  8
L45
 10
-57.303319570990467
 20
40.977956972964563
 30
0.0
 40
3.2400000000000002
  0
LINE
  5
D29
  8
L45
 10
-62.973319570990462
 20
44.217956972964551
 30
0.0
 11
-62.973319570990462
 21
37.737956972964561
 31
0.0
  0
LINE
  5
D2A
  8
L45
 10
-74.0
 20
35.0
 30
0.0
 11
-73.999999999999972
 21
47.000000000000021
 31
0.0
  0
LINE
  5
D2B
  8
L45
 10
-62.973319570990462
 20
44.217956972964551
 30
0.0
 11
-70.263319570990475
 21
42.59795697296456
 31
0.0
  0
LINE
  5
D2C
  8
L6
 10
-71.163319570990467
 20
40.977956972964563
 30
0.0
 11
-62.073319570990471
 21
40.977956972964563
 31
0.0
  0
LINE
  5
D2D
  8
L45
 10
-70.263319570990475
 20
39.357956972964551
 30
0.0
 11
-62.973319570990462
 21
37.737956972964561
 31
0.0
  0
LINE
  5
D2E
  8
L45
 10
-70.263319570990475
 20
42.59795697296456
 30
0.0
 11
-70.263319570990475
 21
39.357956972964551
 31
0.0
  0
LINE
  5
D2F
  8
L45
 10
-70.263319570990475
 20
42.59795697296456
 30
0.0
 11
-70.263319570990475
 21
39.357956972964551
 31
0.0
  0
LINE
  5
D30
  8
L6
 10
-57.303319570990467
 20
39.177956972964559
 30
0.0
 11
-57.303319570990467
 21
36.837956972964562
 31
0.0
  0
CIRCLE
  5
D31
  8
L45
 10
-57.303319570990467
 20
40.977956972964563
 30
0.0
 40
1.6166431871472251
  0
LINE
  5
D32
  8
L6
 10
-57.303319570990467
 20
40.077956972964557
 30
0.0
 11
-57.303319570990467
 21
41.877956972964562
 31
0.0
  0
LINE
  5
D33
  8
L6
 10
-58.203319570990473
 20
40.977956972964563
 30
0.0
 11
-56.403319570990469
 21
40.977956972964563
 31
0.0
  0
LINE
  5
D34
  8
L6
 10
-59.103319570990472
 20
40.977956972964563
 30
0.0
 11
-61.443319570990482
 21
40.977956972964563
 31
0.0
  0
LINE
  5
D35
  8
L6
 10
-55.50331957099047
 20
40.977956972964563
 30
0.0
 11
-53.163319570990467
 21
40.977956972964563
 31
0.0
  0
TEXT
  5
D36
  8
L45
 10
-77.0
 20
48.360308151154882
 30
0.0
 40
1.8
  1
Form, model, quantity
 41
0.8
  7
SIMPLEX
  0
TEXT
  5
D37
  8
L45
 10
-77.0
 20
52.000000000000007
 30
0.0
 40
1.8
  1
Muoto, malli, määrä
 41
0.8
  7
SIMPLEX
  0
LINE
  5
D38
  8
L43
 10
-78.0
 20
55.000000000000007
 30
0.0
 11
-78.0
 21
52.000000000000007
 31
0.0
  0
ATTDEF
  5
D39
  8
L45
 10
-43.051814193795053
 20
30.294870491503271
 30
0.0
 40
2.5
  1

 41
0.8
  7
SIMPLEX
  3
Varmuuskopion disketti
  2
DISK
 70
     0
  0
ATTDEF
  5
D3A
  8
L46
 10
-22.5
 20
15.0
 30
0.0
 40
5.0
  1

 41
0.8
  7
SIMPLEX
 72
     1
 11
-22.5
 21
15.0
 31
0.0
  3
Piirustuksen numero
  2
NRO
 70
     0
  0
ATTDEF
  5
D3B
  8
L45
 10
-32.0
 20
24.5
 30
0.0
 40
2.5
  1

 41
0.8
  7
SIMPLEX
  3
Korvaa piirustuksen nro.
  2
KORVAA
 70
     0
  0
TEXT
  5
D3C
  8
L45
 10
-33.531282213173426
 20
36.055587055419828
 30
0.0
 40
1.5
  1
Meas. weight g/pcs
  7
SIMPLEX
  0
TEXT
  5
D3D
  8
L45
 10
-33.531282213173426
 20
38.627015626848419
 30
0.0
 40
1.5
  1
Punnittu paino g/kpl
  7
SIMPLEX
  0
TEXT
  5
D3E
  8
L45
 10
-33.746883751353153
 20
42.184850312092969
 30
0.0
 40
1.5
  1
Calc. weight g/pcs
  7
SIMPLEX
  0
TEXT
  5
D3F
  8
L45
 10
-33.746883751353153
 20
44.75627888352156
 30
0.0
 40
1.5
  1
Laskettu paino g/kpl
  7
SIMPLEX
  0
LINE
  5
D40
  8
L45
 10
-35.0
 20
41.0
 30
0.0
 11
0.0
 21
41.0
 31
0.0
  0
LINE
  5
D41
  8
L45
 10
-35.0
 20
47.0
 30
0.0
 11
-35.0
 21
35.0
 31
0.0
  0
ATTDEF
  5
D42
  8
L45
 10
-42.5
 20
37.0
 30
0.0
 40
2.5
  1

 41
0.8
  7
SIMPLEX
 72
     1
 11
-42.5
 21
37.0
 31
0.0
  3
Mittakaava
  2
MITTA
 70
     0
  0
TEXT
  5
D43
  8
L45
 10
-33.0
 20
48.372127730935979
 30
0.0
 40
1.8
  1
Quality
 41
0.8
  7
SIMPLEX
  0
TEXT
  5
D44
  8
L45
 10
-33.0
 20
52.0
 30
0.0
 40
1.8
  1
Laatu
 41
0.8
  7
SIMPLEX
  0
LINE
  5
D45
  8
L43
 10
-35.0
 20
55.0
 30
0.0
 11
-35.0
 21
52.0
 31
0.0
  0
ATTDEF
  5
D46
  8
L45
 10
-8.0
 20
42.5
 30
0.0
 40
2.5
  1

 41
0.8
  7
SIMPLEX
  3
Laskettu massa (g):
  2
MASSA1
 70
     0
  0
ATTDEF
  5
D47
  8
L45
 10
-8.0
 20
36.5
 30
0.0
 40
2.5
  1

 41
0.8
  7
SIMPLEX
  3
Punnittu massa (g):
  2
MASSA2
 70
     0
  0
TEXT
  5
D48
  8
L45
 10
-6.4842640971925212
 20
48.372127730935979
 30
0.0
 40
1.8
  1
Piece
 41
0.8
  7
SIMPLEX
  0
TEXT
  5
D49
  8
L45
 10
-6.4842640971925212
 20
52.0
 30
0.0
 40
1.8
  1
Kpl
 41
0.8
  7
SIMPLEX
  0
LINE
  5
D4A
  8
L44
 10
-181.47699154380351
 20
61.000000000000071
 30
0.0
 11
-109.0
 21
61.000000000000071
 31
0.0
  0
LINE
  5
D4B
  8
L44
 10
-190.0
 20
61.000000000000071
 30
0.0
 11
-182.6214220006635
 21
61.000000000000071
 31
0.0
  0
LINE
  5
D4C
  8
L44
 10
-77.0
 20
61.0
 30
0.0
 11
-36.476149436671548
 21
61.0
 31
0.0
  0
LINE
  5
D4D
  8
L44
 10
-107.0
 20
61.0
 30
0.0
 11
-79.0
 21
61.0
 31
0.0
  0
LINE
  5
D4E
  8
L44
 10
-34.476149436671548
 20
61.0
 30
0.0
 11
-8.8845532031120911
 21
61.0
 31
0.0
  0
LINE
  5
D4F
  8
L44
 10
-7.4241649456721461
 20
61.0
 30
0.0
 11
2.000000000000028
 21
61.0
 31
0.0
  0
LINE
  5
D50
  8
L44
 10
2.000000000000028
 20
67.0
 30
0.0
 11
0.0
 21
67.0
 31
0.0
  0
LINE
  5
D51
  8
L44
 10
2.000000000000028
 20
73.0
 30
0.0
 11
0.0
 21
73.0
 31
0.0
  0
LINE
  5
D52
  8
L44
 10
2.000000000000028
 20
79.0
 30
0.0
 11
0.0
 21
79.0
 31
0.0
  0
LINE
  5
D53
  8
L44
 10
2.000000000000028
 20
85.0
 30
0.0
 11
0.0
 21
85.0
 31
0.0
  0
ENDBLK
  5
D55
  8
0
  0
BLOCK
  8
0
  2
*X5
 70
     1
 10
0.0
 20
0.0
 30
0.0
  3
*X5
  1

  0
LINE
  5
14FF
  8
0
 62
     0
 10
-152.57874921028349
 20
6.3434998613929556
 30
0.0
 11
-152.53568832561751
 21
6.386560746058989
 31
0.0
  0
LINE
  5
1500
  8
0
 62
     0
 10
-152.75552590558021
 20
6.3434998613929556
 30
0.0
 11
-152.6177853832713
 21
6.4812403837018726
 31
0.0
  0
LINE
  5
1501
  8
0
 62
     0
 10
-152.9323026008768
 20
6.3434998613929556
 30
0.0
 11
-152.69988244092499
 21
6.575920021344742
 31
0.0
  0
LINE
  5
1502
  8
0
 62
     0
 10
-153.10907929617349
 20
6.3434998613929556
 30
0.0
 11
-152.78197949857881
 21
6.6705996589876122
 31
0.0
  0
LINE
  5
1503
  8
0
 62
     0
 10
-153.2858559914701
 20
6.3434998613929556
 30
0.0
 11
-152.8640765562325
 21
6.7652792966304949
 31
0.0
  0
LINE
  5
1504
  8
0
 62
     0
 10
-153.46263268676671
 20
6.3434998613929556
 30
0.0
 11
-152.94617361388629
 21
6.8599589342733793
 31
0.0
  0
LINE
  5
1505
  8
0
 62
     0
 10
-153.63940938206329
 20
6.3434998613929698
 30
0.0
 11
-153.0282706715401
 21
6.9546385719162336
 31
0.0
  0
LINE
  5
1506
  8
0
 62
     0
 10
-153.81618607735999
 20
6.3434998613929698
 30
0.0
 11
-153.1103677291938
 21
7.049318209559118
 31
0.0
  0
LINE
  5
1507
  8
0
 62
     0
 10
-153.9929627726566
 20
6.3434998613929698
 30
0.0
 11
-153.19246478684761
 21
7.1439978472020149
 31
0.0
  0
LINE
  5
1508
  8
0
 62
     0
 10
-154.16973946795329
 20
6.3434998613929698
 30
0.0
 11
-153.27456184450131
 21
7.2386774848448852
 31
0.0
  0
LINE
  5
1509
  8
0
 62
     0
 10
-154.33502210615339
 20
6.3549939184894981
 30
0.0
 11
-153.35665890215509
 21
7.3333571224877403
 31
0.0
  0
LINE
  5
150A
  8
0
 62
     0
 10
-154.4203403770928
 20
6.4464523428466967
 30
0.0
 11
-153.4387559598089
 21
7.428036760130623
 31
0.0
  0
LINE
  5
150B
  8
0
 62
     0
 10
-154.50565864803221
 20
6.5379107672038819
 30
0.0
 11
-153.5208530174626
 21
7.5227163977735207
 31
0.0
  0
LINE
  5
150C
  8
0
 62
     0
 10
-154.59097691897171
 20
6.6293691915610964
 30
0.0
 11
-153.60295007511641
 21
7.6173960354163901
 31
0.0
  0
LINE
  5
150D
  8
0
 62
     0
 10
-154.67629518991109
 20
6.7208276159182949
 30
0.0
 11
-153.68504713277019
 21
7.7120756730592461
 31
0.0
  0
LINE
  5
150E
  8
0
 62
     0
 10
-154.76161346085061
 20
6.812286040275481
 30
0.0
 11
-153.76714419042389
 21
7.8067553107021288
 31
0.0
  0
LINE
  5
150F
  8
0
 62
     0
 10
-154.84693173178999
 20
6.9037444646326662
 30
0.0
 11
-153.8492412480777
 21
7.9014349483450133
 31
0.0
  0
LINE
  5
1510
  8
0
 62
     0
 10
-154.93225000272949
 20
6.9952028889898514
 30
0.0
 11
-153.9313383057314
 21
7.9961145859878817
 31
0.0
  0
LINE
  5
1511
  8
0
 62
     0
 10
-155.0175682736689
 20
7.08666131334705
 30
0.0
 11
-154.01343536338521
 21
8.0907942236307377
 31
0.0
  0
LINE
  5
1512
  8
0
 62
     0
 10
-155.1028865446084
 20
7.1781197377042503
 30
0.0
 11
-154.09553242103891
 21
8.1854738612736213
 31
0.0
  0
LINE
  5
1513
  8
0
 62
     0
 10
-155.18820481554769
 20
7.2695781620614488
 30
0.0
 11
-154.17762947869269
 21
8.2801534989165049
 31
0.0
  0
LINE
  5
1514
  8
0
 62
     0
 10
-155.27352308648719
 20
7.361036586418634
 30
0.0
 11
-154.25972653634651
 21
8.3748331365593742
 31
0.0
  0
LINE
  5
1515
  8
0
 62
     0
 10
-155.35884135742671
 20
7.4524950107758343
 30
0.0
 11
-154.3418235940002
 21
8.4695127742022578
 31
0.0
  0
LINE
  5
1516
  8
0
 62
     0
 10
-155.44415962836609
 20
7.5439534351330328
 30
0.0
 11
-154.42392065165399
 21
8.5641924118451271
 31
0.0
  0
LINE
  5
1517
  8
0
 62
     0
 10
-155.5294778993055
 20
7.6354118594902332
 30
0.0
 11
-154.5060177093078
 21
8.6588720494879965
 31
0.0
  0
LINE
  5
1518
  8
0
 62
     0
 10
-155.614796170245
 20
7.7268702838474184
 30
0.0
 11
-154.5881147669615
 21
8.7535516871308801
 31
0.0
  0
LINE
  5
1519
  8
0
 62
     0
 10
-155.70011444118441
 20
7.8183287082046027
 30
0.0
 11
-154.67021182461531
 21
8.8482313247737636
 31
0.0
  0
LINE
  5
151A
  8
0
 62
     0
 10
-155.78543271212391
 20
7.9097871325618021
 30
0.0
 11
-154.75230888226909
 21
8.9429109624166312
 31
0.0
  0
LINE
  5
151B
  8
0
 62
     0
 10
-155.87075098306329
 20
8.0012455569190166
 30
0.0
 11
-154.83440593992279
 21
9.0375906000595023
 31
0.0
  0
LINE
  5
151C
  8
0
 62
     0
 10
-155.9560692540027
 20
8.0927039812762018
 30
0.0
 11
-154.9165029975766
 21
9.1322702377023859
 31
0.0
  0
LINE
  5
151D
  8
0
 62
     0
 10
-157.705273373886
 20
6.3434998613929698
 30
0.0
 11
-157.64120183630791
 21
6.4075713989710428
 31
0.0
  0
LINE
  5
151E
  8
0
 62
     0
 10
-157.88205006918261
 20
6.3434998613929698
 30
0.0
 11
-154.9986000552303
 21
9.2269498753452837
 31
0.0
  0
LINE
  5
151F
  8
0
 62
     0
 10
-158.05882676447931
 20
6.3434998613929841
 30
0.0
 11
-155.08069711288411
 21
9.3216295129881388
 31
0.0
  0
LINE
  5
1520
  8
0
 62
     0
 10
-158.23560345977589
 20
6.3434998613929841
 30
0.0
 11
-154.2126824412303
 21
10.366420879938561
 31
0.0
  0
LINE
  5
1521
  8
0
 62
     0
 10
-158.41238015507261
 20
6.3434998613929841
 30
0.0
 11
-153.0592745902045
 21
11.696605426261041
 31
0.0
  0
LINE
  5
1522
  8
0
 62
     0
 10
-158.58915685036919
 20
6.3434998613929841
 30
0.0
 11
-152.58915685036919
 21
12.34349986139298
 31
0.0
  0
LINE
  5
1523
  8
0
 62
     0
 10
-158.7659335456658
 20
6.3434998613929841
 30
0.0
 11
-152.7659335456658
 21
12.34349986139298
 31
0.0
  0
LINE
  5
1524
  8
0
 62
     0
 10
-158.9427102409625
 20
6.3434998613929698
 30
0.0
 11
-152.9427102409625
 21
12.34349986139298
 31
0.0
  0
LINE
  5
1525
  8
0
 62
     0
 10
-159.11948693625911
 20
6.3434998613929556
 30
0.0
 11
-153.11948693625911
 21
12.343499861392971
 31
0.0
  0
LINE
  5
1526
  8
0
 62
     0
 10
-159.2962636315558
 20
6.3434998613929556
 30
0.0
 11
-153.29626363155569
 21
12.343499861392971
 31
0.0
  0
LINE
  5
1527
  8
0
 62
     0
 10
-159.47304032685241
 20
6.3434998613929556
 30
0.0
 11
-153.47304032685241
 21
12.343499861392971
 31
0.0
  0
LINE
  5
1528
  8
0
 62
     0
 10
-158.72507002516701
 20
7.2682468583748943
 30
0.0
 11
-153.64981702214899
 21
12.343499861392971
 31
0.0
  0
LINE
  5
1529
  8
0
 62
     0
 10
-157.57166217414101
 20
8.5984314046975925
 30
0.0
 11
-153.8265937174456
 21
12.343499861392971
 31
0.0
  0
LINE
  5
152A
  8
0
 62
     0
 10
-156.96172312440311
 20
9.3851471497320773
 30
0.0
 11
-154.0033704127423
 21
12.343499861392971
 31
0.0
  0
LINE
  5
152B
  8
0
 62
     0
 10
-157.04382018205689
 20
9.4798267873749467
 30
0.0
 11
-154.18014710803891
 21
12.343499861392971
 31
0.0
  0
LINE
  5
152C
  8
0
 62
     0
 10
-157.1259172397107
 20
9.5745064250178302
 30
0.0
 11
-156.087023839067
 21
10.61339982566157
 31
0.0
  0
LINE
  5
152D
  8
0
 62
     0
 10
-157.2080142973644
 20
9.6691860626607138
 30
0.0
 11
-156.17234211000641
 21
10.704858250018759
 31
0.0
  0
LINE
  5
152E
  8
0
 62
     0
 10
-157.29011135501821
 20
9.7638657003035672
 30
0.0
 11
-156.25766038094579
 21
10.79631667437595
 31
0.0
  0
LINE
  5
152F
  8
0
 62
     0
 10
-160.5597568720377
 20
6.4942201832840416
 30
0.0
 11
-159.699070398028
 21
7.3549066572938377
 31
0.0
  0
LINE
  5
1530
  8
0
 62
     0
 10
-157.37220841267199
 20
9.8585453379464525
 30
0.0
 11
-156.34297865188529
 21
10.887775098733149
 31
0.0
  0
LINE
  5
1531
  8
0
 62
     0
 10
-160.8323831972514
 20
6.3983705533670578
 30
0.0
 11
-159.6032207681109
 21
7.6275329825074598
 31
0.0
  0
LINE
  5
1532
  8
0
 62
     0
 10
-157.45430547032569
 20
9.9532249755893361
 30
0.0
 11
-156.4282969228247
 21
10.97923352309034
 31
0.0
  0
LINE
  5
1533
  8
0
 62
     0
 10
-161.05090493134739
 20
6.3566255145676251
 30
0.0
 11
-159.5614757293115
 21
7.8460547166035317
 31
0.0
  0
LINE
  5
1534
  8
0
 62
     0
 10
-157.5364025279795
 20
10.047904613232211
 30
0.0
 11
-156.5136151937642
 21
11.07069194744752
 31
0.0
  0
LINE
  5
1535
  8
0
 62
     0
 10
-161.24066650121841
 20
6.3436406399932821
 30
0.0
 11
-159.5484908547372
 21
8.0358162864745282
 31
0.0
  0
LINE
  5
1536
  8
0
 62
     0
 10
-157.6184995856332
 20
10.1425842508751
 30
0.0
 11
-156.59893346470361
 21
11.162150371804721
 31
0.0
  0
LINE
  5
1537
  8
0
 62
     0
 10
-161.41758397511541
 20
6.3434998613929698
 30
0.0
 11
-159.5483500761369
 21
8.2127337603714778
 31
0.0
  0
LINE
  5
1538
  8
0
 62
     0
 10
-157.70059664328701
 20
10.237263888517949
 30
0.0
 11
-156.6842517356431
 21
11.25360879616192
 31
0.0
  0
LINE
  5
1539
  8
0
 62
     0
 10
-161.59436067041199
 20
6.3434998613929841
 30
0.0
 11
-159.5483500761369
 21
8.3895104556681002
 31
0.0
  0
LINE
  5
153A
  8
0
 62
     0
 10
-157.7826937009408
 20
10.33194352616084
 30
0.0
 11
-156.76957000658251
 21
11.34506722051912
 31
0.0
  0
LINE
  5
153B
  8
0
 62
     0
 10
-161.7711373657086
 20
6.3434998613929841
 30
0.0
 11
-159.5483500761369
 21
8.5662871509647402
 31
0.0
  0
LINE
  5
153C
  8
0
 62
     0
 10
-157.86479075859449
 20
10.42662316380372
 30
0.0
 11
-156.85488827752189
 21
11.43652564487631
 31
0.0
  0
LINE
  5
153D
  8
0
 62
     0
 10
-161.94791406100529
 20
6.3434998613929841
 30
0.0
 11
-159.5483500761369
 21
8.7430638462613786
 31
0.0
  0
LINE
  5
153E
  8
0
 62
     0
 10
-157.94688781624831
 20
10.521302801446611
 30
0.0
 11
-156.94020654846139
 21
11.52798406923349
 31
0.0
  0
LINE
  5
153F
  8
0
 62
     0
 10
-162.1246907563019
 20
6.3434998613929841
 30
0.0
 11
-159.5483500761369
 21
8.9198405415580169
 31
0.0
  0
LINE
  5
1540
  8
0
 62
     0
 10
-158.02898487390209
 20
10.615982439089469
 30
0.0
 11
-157.0255248194008
 21
11.619442493590689
 31
0.0
  0
LINE
  5
1541
  8
0
 62
     0
 10
-162.30146745159851
 20
6.3434998613929841
 30
0.0
 11
-159.5483500761369
 21
9.0966172368546552
 31
0.0
  0
LINE
  5
1542
  8
0
 62
     0
 10
-160.88489142360851
 20
7.9368525846796407
 30
0.0
 11
-159.5483500761369
 21
9.2733939321512935
 31
0.0
  0
LINE
  5
1543
  8
0
 62
     0
 10
-158.11108193155579
 20
10.710662076732341
 30
0.0
 11
-157.1108430903403
 21
11.710900917947891
 31
0.0
  0
LINE
  5
1544
  8
0
 62
     0
 10
-162.47824414689521
 20
6.3434998613929698
 30
0.0
 11
-161.32642542008401
 21
7.4953185882041993
 31
0.0
  0
LINE
  5
1545
  8
0
 62
     0
 10
-160.86065246031481
 20
8.1378682432699332
 30
0.0
 11
-159.5483500761369
 21
9.4501706274478892
 31
0.0
  0
LINE
  5
1546
  8
0
 62
     0
 10
-158.1931789892096
 20
10.80534171437521
 30
0.0
 11
-157.19616136127971
 21
11.802359342305079
 31
0.0
  0
LINE
  5
1547
  8
0
 62
     0
 10
-162.65502084219179
 20
6.3434998613929556
 30
0.0
 11
-161.52744107867429
 21
7.4710796249105149
 31
0.0
  0
LINE
  5
1548
  8
0
 62
     0
 10
-160.86065246031481
 20
8.3146449385665733
 30
0.0
 11
-159.5483500761369
 21
9.6269473227445275
 31
0.0
  0
LINE
  5
1549
  8
0
 62
     0
 10
-158.2752760468633
 20
10.900021352018079
 30
0.0
 11
-157.2814796322192
 21
11.893817766662259
 31
0.0
  0
LINE
  5
154A
  8
0
 62
     0
 10
-162.83179753748851
 20
6.3434998613929556
 30
0.0
 11
-161.7042177739709
 21
7.4710796249105149
 31
0.0
  0
LINE
  5
154B
  8
0
 62
     0
 10
-160.86065246031481
 20
8.4914216338632116
 30
0.0
 11
-159.5483500761369
 21
9.8037240180411658
 31
0.0
  0
LINE
  5
154C
  8
0
 62
     0
 10
-158.35737310451711
 20
10.99470098966097
 30
0.0
 11
-157.36679790315861
 21
11.98527619101948
 31
0.0
  0
LINE
  5
154D
  8
0
 62
     0
 10
-163.00857423278509
 20
6.3434998613929556
 30
0.0
 11
-161.88099446926751
 21
7.4710796249105149
 31
0.0
  0
LINE
  5
154E
  8
0
 62
     0
 10
-160.86065246031481
 20
8.6681983291598481
 30
0.0
 11
-159.5483500761369
 21
9.9805007133378041
 31
0.0
  0
LINE
  5
154F
  8
0
 62
     0
 10
-158.43947016217081
 20
11.08938062730383
 30
0.0
 11
-157.45211617409799
 21
12.076734615376649
 31
0.0
  0
LINE
  5
1550
  8
0
 62
     0
 10
-163.1853509280817
 20
6.3434998613929556
 30
0.0
 11
-162.0577711645642
 21
7.4710796249105149
 31
0.0
  0
LINE
  5
1551
  8
0
 62
     0
 10
-160.86065246031481
 20
8.8449750244564882
 30
0.0
 11
-159.5483500761369
 21
10.157277408634419
 31
0.0
  0
LINE
  5
1552
  8
0
 62
     0
 10
-158.52156721982459
 20
11.1840602649467
 30
0.0
 11
-157.53743444503749
 21
12.16819303973385
 31
0.0
  0
LINE
  5
1553
  8
0
 62
     0
 10
-163.3621276233784
 20
6.3434998613929556
 30
0.0
 11
-162.23454785986081
 21
7.4710796249105149
 31
0.0
  0
LINE
  5
1554
  8
0
 62
     0
 10
-160.86065246031481
 20
9.0217517197531265
 30
0.0
 11
-159.5483500761369
 21
10.334054103931059
 31
0.0
  0
LINE
  5
1555
  8
0
 62
     0
 10
-158.6036642774784
 20
11.278739902589599
 30
0.0
 11
-157.6227527159769
 21
12.25965146409105
 31
0.0
  0
LINE
  5
1556
  8
0
 62
     0
 10
-163.53890431867501
 20
6.3434998613929556
 30
0.0
 11
-162.41132455515739
 21
7.4710796249105149
 31
0.0
  0
LINE
  5
1557
  8
0
 62
     0
 10
-160.86065246031481
 20
9.1985284150497648
 30
0.0
 11
-159.5483500761369
 21
10.510830799227699
 31
0.0
  0
LINE
  5
1558
  8
0
 62
     0
 10
-158.6857613351321
 20
11.37341954023247
 30
0.0
 11
-157.7156810139717
 21
12.343499861392919
 31
0.0
  0
LINE
  5
1559
  8
0
 62
     0
 10
-163.71568101397159
 20
6.3434998613929556
 30
0.0
 11
-162.58810125045409
 21
7.4710796249105149
 31
0.0
  0
LINE
  5
155A
  8
0
 62
     0
 10
-160.86065246031481
 20
9.3753051103464031
 30
0.0
 11
-159.5493123583318
 21
10.686645212329481
 31
0.0
  0
LINE
  5
155B
  8
0
 62
     0
 10
-158.76785839278591
 20
11.46809917787535
 30
0.0
 11
-157.89245770926831
 21
12.343499861392919
 31
0.0
  0
LINE
  5
155C
  8
0
 62
     0
 10
-163.89245770926831
 20
6.3434998613929556
 30
0.0
 11
-162.7648779457507
 21
7.4710796249105149
 31
0.0
  0
LINE
  5
155D
  8
0
 62
     0
 10
-160.86065246031481
 20
9.5520818056430414
 30
0.0
 11
-159.56263953254509
 21
10.85009473341276
 31
0.0
  0
LINE
  5
155E
  8
0
 62
     0
 10
-158.84995545043969
 20
11.56277881551822
 30
0.0
 11
-158.06923440456501
 21
12.343499861392941
 31
0.0
  0
LINE
  5
155F
  8
0
 62
     0
 10
-164.0692344045649
 20
6.3434998613929698
 30
0.0
 11
-162.94165464104739
 21
7.4710796249105149
 31
0.0
  0
LINE
  5
1560
  8
0
 62
     0
 10
-160.86065246031481
 20
9.7288585009396797
 30
0.0
 11
-159.58903486066129
 21
11.0004761005932
 31
0.0
  0
LINE
  5
1561
  8
0
 62
     0
 10
-158.93205250809339
 20
11.657458453161111
 30
0.0
 11
-158.24601109986159
 21
12.343499861392941
 31
0.0
  0
LINE
  5
1562
  8
0
 62
     0
 10
-164.24601109986159
 20
6.3434998613929698
 30
0.0
 11
-163.118431336344
 21
7.4710796249105149
 31
0.0
  0
LINE
  5
1563
  8
0
 62
     0
 10
-160.86065246031481
 20
9.9056351962363181
 30
0.0
 11
-159.6262322102406
 21
11.140055446310519
 31
0.0
  0
LINE
  5
1564
  8
0
 62
     0
 10
-159.0141495657472
 20
11.75213809080398
 30
0.0
 11
-158.4227877951582
 21
12.343499861392941
 31
0.0
  0
LINE
  5
1565
  8
0
 62
     0
 10
-164.4227877951582
 20
6.3434998613929698
 30
0.0
 11
-163.2952080316407
 21
7.4710796249105149
 31
0.0
  0
LINE
  5
1566
  8
0
 62
     0
 10
-160.86065246031481
 20
10.082411891532949
 30
0.0
 11
-159.6727434533403
 21
11.270320898507499
 31
0.0
  0
LINE
  5
1567
  8
0
 62
     0
 10
-159.0962466234009
 20
11.84681772844686
 30
0.0
 11
-158.59956449045481
 21
12.343499861392949
 31
0.0
  0
LINE
  5
1568
  8
0
 62
     0
 10
-164.5929608019334
 20
6.350103549914393
 30
0.0
 11
-163.47198472693731
 21
7.4710796249105149
 31
0.0
  0
LINE
  5
1569
  8
0
 62
     0
 10
-160.86065246031481
 20
10.259188586829589
 30
0.0
 11
-159.72754983228421
 21
11.39229121486022
 31
0.0
  0
LINE
  5
156A
  8
0
 62
     0
 10
-159.17834368105471
 20
11.941497366089729
 30
0.0
 11
-158.77634118575151
 21
12.343499861392949
 31
0.0
  0
LINE
  5
156B
  8
0
 62
     0
 10
-164.74878290986811
 20
6.3710581372763349
 30
0.0
 11
-163.64876142223389
 21
7.4710796249105149
 31
0.0
  0
LINE
  5
156C
  8
0
 62
     0
 10
-160.86065246031481
 20
10.435965282126229
 30
0.0
 11
-159.789939945123
 21
11.50667779731809
 31
0.0
  0
LINE
  5
156D
  8
0
 62
     0
 10
-159.2604407387085
 20
12.036177003732609
 30
0.0
 11
-158.95311788104809
 21
12.343499861392949
 31
0.0
  0
LINE
  5
156E
  8
0
 62
     0
 10
-164.8929231079878
 20
6.4036946344532586
 30
0.0
 11
-163.82553811753061
 21
7.4710796249105149
 31
0.0
  0
LINE
  5
156F
  8
0
 62
     0
 10
-160.86166993378279
 20
10.611724503954861
 30
0.0
 11
-159.85941829862111
 21
11.613976139116639
 31
0.0
  0
LINE
  5
1570
  8
0
 62
     0
 10
-159.34253779636219
 20
12.13085664137548
 30
0.0
 11
-159.12989457634481
 21
12.343499861392949
 31
0.0
  0
LINE
  5
1571
  8
0
 62
     0
 10
-165.02716225138289
 20
6.4462321863547913
 30
0.0
 11
-164.00231481282719
 21
7.4710796249105149
 31
0.0
  0
LINE
  5
1572
  8
0
 62
     0
 10
-160.88832580034619
 20
10.76184533268818
 30
0.0
 11
-159.93565145742801
 21
11.71451967560639
 31
0.0
  0
LINE
  5
1573
  8
0
 62
     0
 10
-159.42463485401601
 20
12.225536279018369
 30
0.0
 11
-159.30667127164139
 21
12.343499861392971
 31
0.0
  0
LINE
  5
1574
  8
0
 62
     0
 10
-165.1527006978034
 20
6.4974704352309507
 30
0.0
 11
-164.1790915081238
 21
7.4710796249105149
 31
0.0
  0
LINE
  5
1575
  8
0
 62
     0
 10
-160.9409170211317
 20
10.886030807199299
 30
0.0
 11
-160.01843612981719
 21
11.80851169851379
 31
0.0
  0
LINE
  5
1576
  8
0
 62
     0
 10
-159.50673191166979
 20
12.32021591666124
 30
0.0
 11
-159.483447966938
 21
12.343499861392971
 31
0.0
  0
LINE
  5
1577
  8
0
 62
     0
 10
-165.2703714787398
 20
6.5565763495911957
 30
0.0
 11
-164.34109381575701
 21
7.4858540125739799
 31
0.0
  0
LINE
  5
1578
  8
0
 62
     0
 10
-161.01322890936731
 20
10.99049561426034
 30
0.0
 11
-160.10768135654109
 21
11.8960431670865
 31
0.0
  0
LINE
  5
1579
  8
0
 62
     0
 10
-165.38075726630549
 20
6.6229672573221592
 30
0.0
 11
-164.47337884427441
 21
7.5303456793532879
 31
0.0
  0
LINE
  5
157A
  8
0
 62
     0
 10
-161.1031417163133
 20
11.07735950261096
 30
0.0
 11
-160.2034009363629
 21
11.97710028256132
 31
0.0
  0
LINE
  5
157B
  8
0
 62
     0
 10
-165.48425822750889
 20
6.6962429914153461
 30
0.0
 11
-164.58441246366149
 21
7.5960887552627412
 31
0.0
  0
LINE
  5
157C
  8
0
 62
     0
 10
-161.21084240915181
 20
11.14643550506903
 30
0.0
 11
-160.30571455958099
 21
12.05156335463988
 31
0.0
  0
LINE
  5
157D
  8
0
 62
     0
 10
-165.58113234484841
 20
6.776145569372459
 30
0.0
 11
-164.67739823176331
 21
7.6798796824576376
 31
0.0
  0
LINE
  5
157E
  8
0
 62
     0
 10
-161.33895984112581
 20
11.195094768391661
 30
0.0
 11
-160.41485787381509
 21
12.11919673570241
 31
0.0
  0
LINE
  5
157F
  8
0
 62
     0
 10
-165.67151881144079
 20
6.8625357980767632
 30
0.0
 11
-164.75290303705029
 21
7.7811515724672509
 31
0.0
  0
LINE
  5
1580
  8
0
 62
     0
 10
-161.49493923241769
 20
11.2158920723964
 30
0.0
 11
-160.5312035427884
 21
12.179627762025801
 31
0.0
  0
LINE
  5
1581
  8
0
 62
     0
 10
-165.75544983126071
 20
6.955381473553472
 30
0.0
 11
-164.80927165005619
 21
7.901559654757917
 31
0.0
  0
LINE
  5
1582
  8
0
 62
     0
 10
-161.67168790223539
 20
11.21592009787539
 30
0.0
 11
-160.65529799895691
 21
12.23231000115392
 31
0.0
  0
LINE
  5
1583
  8
0
 62
     0
 10
-165.8328532684375
 20
7.0547547316733272
 30
0.0
 11
-164.84130564525881
 21
8.0463023548519601
 31
0.0
  0
LINE
  5
1584
  8
0
 62
     0
 10
-161.848464597532
 20
11.21592009787539
 30
0.0
 11
-160.78792328477621
 21
12.27646141063118
 31
0.0
  0
LINE
  5
1585
  8
0
 62
     0
 10
-165.90354667089039
 20
7.1608380245170329
 30
0.0
 11
-164.84461912053041
 21
8.219765574877087
 31
0.0
  0
LINE
  5
1586
  8
0
 62
     0
 10
-162.0252412928287
 20
11.21592009787539
 30
0.0
 11
-160.93020293814229
 21
12.31095845256182
 31
0.0
  0
LINE
  5
1587
  8
0
 62
     0
 10
-165.967221471085
 20
7.2739399196191243
 30
0.0
 11
-164.84461912053041
 21
8.3965422701737253
 31
0.0
  0
LINE
  5
1588
  8
0
 62
     0
 10
-162.20201798812531
 20
11.21592009787539
 30
0.0
 11
-161.08379266553271
 21
12.33414542046806
 31
0.0
  0
LINE
  5
1589
  8
0
 62
     0
 10
-166.02341399078441
 20
7.3945240952163402
 30
0.0
 11
-164.84461912053041
 21
8.5733189654703637
 31
0.0
  0
LINE
  5
158A
  8
0
 62
     0
 10
-162.378794683422
 20
11.21592009787539
 30
0.0
 11
-161.25125271287021
 21
12.34346206842714
 31
0.0
  0
LINE
  5
158B
  8
0
 62
     0
 10
-166.07145630997451
 20
7.5232584713229036
 30
0.0
 11
-164.84461912053041
 21
8.7500956607670002
 31
0.0
  0
LINE
  5
158C
  8
0
 62
     0
 10
-162.55557137871861
 20
11.21592009787539
 30
0.0
 11
-161.42799161520099
 21
12.343499861392949
 31
0.0
  0
LINE
  5
158D
  8
0
 62
     0
 10
-166.11039318056351
 20
7.6610982960305298
 30
0.0
 11
-164.84461912053041
 21
8.9268723560636403
 31
0.0
  0
LINE
  5
158E
  8
0
 62
     0
 10
-162.73234807401519
 20
11.21592009787539
 30
0.0
 11
-161.60476831049769
 21
12.343499861392949
 31
0.0
  0
LINE
  5
158F
  8
0
 62
     0
 10
-166.13883624325899
 20
7.8094319286315956
 30
0.0
 11
-164.84461912053041
 21
9.1036490513602786
 31
0.0
  0
LINE
  5
1590
  8
0
 62
     0
 10
-162.90912476931189
 20
11.21592009787539
 30
0.0
 11
-161.7815450057943
 21
12.343499861392949
 31
0.0
  0
LINE
  5
1591
  8
0
 62
     0
 10
-166.154690490386
 20
7.9703543768012111
 30
0.0
 11
-164.84461912053041
 21
9.2804257466569169
 31
0.0
  0
LINE
  5
1592
  8
0
 62
     0
 10
-163.0859014646085
 20
11.21592009787539
 30
0.0
 11
-161.95832170109091
 21
12.343499861392949
 31
0.0
  0
LINE
  5
1593
  8
0
 62
     0
 10
-166.15692150470829
 20
8.1449000577755726
 30
0.0
 11
-164.8446191205303
 21
9.4572024419535694
 31
0.0
  0
LINE
  5
1594
  8
0
 62
     0
 10
-166.15692150470829
 20
8.3216767530722109
 30
0.0
 11
-164.8446191205303
 21
9.6339791372502077
 31
0.0
  0
LINE
  5
1595
  8
0
 62
     0
 10
-163.26267815990519
 20
11.21592009787541
 30
0.0
 11
-162.1350983963876
 21
12.343499861392971
 31
0.0
  0
LINE
  5
1596
  8
0
 62
     0
 10
-167.90533846973349
 20
6.5732597880469958
 30
0.0
 11
-167.2781100027909
 21
7.2004882549896081
 31
0.0
  0
LINE
  5
1597
  8
0
 62
     0
 10
-166.15692150470829
 20
8.4984534483688492
 30
0.0
 11
-164.8446191205303
 21
9.810755832546846
 31
0.0
  0
LINE
  5
1598
  8
0
 62
     0
 10
-163.4394548552018
 20
11.21592009787541
 30
0.0
 11
-162.31187509168419
 21
12.34349986139298
 31
0.0
  0
LINE
  5
1599
  8
0
 62
     0
 10
-168.22557684714411
 20
6.4297981059330729
 30
0.0
 11
-167.134648320677
 21
7.5207266324001552
 31
0.0
  0
LINE
  5
159A
  8
0
 62
     0
 10
-166.15692150470829
 20
8.6752301436654875
 30
0.0
 11
-164.8446191205303
 21
9.9875325278434843
 31
0.0
  0
LINE
  5
159B
  8
0
 62
     0
 10
-163.61623155049841
 20
11.21592009787541
 30
0.0
 11
-162.4886517869808
 21
12.343499861392971
 31
0.0
  0
LINE
  5
159C
  8
0
 62
     0
 10
-168.46210286169901
 20
6.3700487866748707
 30
0.0
 11
-167.0748990014188
 21
7.7572526469550089
 31
0.0
  0
LINE
  5
159D
  8
0
 62
     0
 10
-166.15692150470829
 20
8.8520068389621258
 30
0.0
 11
-164.8446191205303
 21
10.164309223140121
 31
0.0
  0
LINE
  5
159E
  8
0
 62
     0
 10
-163.79300824579511
 20
11.21592009787539
 30
0.0
 11
-162.66542848227749
 21
12.343499861392971
 31
0.0
  0
LINE
  5
159F
  8
0
 62
     0
 10
-168.6625014765597
 20
6.3464268671107362
 30
0.0
 11
-167.05127708185469
 21
7.9576512618157693
 31
0.0
  0
LINE
  5
15A0
  8
0
 62
     0
 10
-166.15692150470829
 20
9.0287835342587641
 30
0.0
 11
-164.8446191205303
 21
10.341085918436759
 31
0.0
  0
LINE
  5
15A1
  8
0
 62
     0
 10
-163.96978494109169
 20
11.21592009787539
 30
0.0
 11
-162.8422051775741
 21
12.343499861392971
 31
0.0
  0
LINE
  5
15A2
  8
0
 62
     0
 10
-168.84220517757419
 20
6.3434998613929423
 30
0.0
 11
-167.05011653098941
 21
8.1355885079777153
 31
0.0
  0
LINE
  5
15A3
  8
0
 62
     0
 10
-166.15692150470829
 20
9.2055602295554024
 30
0.0
 11
-164.8446191205303
 21
10.51786261373339
 31
0.0
  0
LINE
  5
15A4
  8
0
 62
     0
 10
-164.1465616363883
 20
11.21592009787539
 30
0.0
 11
-163.0189818728708
 21
12.343499861392971
 31
0.0
  0
LINE
  5
15A5
  8
0
 62
     0
 10
-169.0189818728708
 20
6.3434998613929556
 30
0.0
 11
-167.0651667424022
 21
8.2973149918614961
 31
0.0
  0
LINE
  5
15A6
  8
0
 62
     0
 10
-166.15692150470829
 20
9.3823369248520692
 30
0.0
 11
-164.83066338499469
 21
10.70859504456574
 31
0.0
  0
LINE
  5
15A7
  8
0
 62
     0
 10
-164.33729406722071
 20
11.2019643623397
 30
0.0
 11
-163.19575856816741
 21
12.34349986139298
 31
0.0
  0
LINE
  5
15A8
  8
0
 62
     0
 10
-169.19575856816741
 20
6.3434998613929556
 30
0.0
 11
-167.0929561064261
 21
8.4463023231342618
 31
0.0
  0
LINE
  5
15A9
  8
0
 62
     0
 10
-166.15692150470829
 20
9.5591136201487075
 30
0.0
 11
-163.37253526346399
 21
12.34349986139298
 31
0.0
  0
LINE
  5
15AA
  8
0
 62
     0
 10
-169.3725352634641
 20
6.3434998613929556
 30
0.0
 11
-167.13133632071359
 21
8.5846988041434287
 31
0.0
  0
LINE
  5
15AB
  8
0
 62
     0
 10
-166.15692150470829
 20
9.7358903154453174
 30
0.0
 11
-163.54931195876071
 21
12.343499861392971
 31
0.0
  0
LINE
  5
15AC
  8
0
 62
     0
 10
-169.54931195876071
 20
6.3434998613929423
 30
0.0
 11
-167.17888776546289
 21
8.7139240546907342
 31
0.0
  0
LINE
  5
15AD
  8
0
 62
     0
 10
-166.15692150470829
 20
9.9126670107419699
 30
0.0
 11
-163.72608865405729
 21
12.343499861392971
 31
0.0
  0
LINE
  5
15AE
  8
0
 62
     0
 10
-169.72608865405729
 20
6.3434998613929423
 30
0.0
 11
-167.23463519780259
 21
8.8349533176476172
 31
0.0
  0
LINE
  5
15AF
  8
0
 62
     0
 10
-166.15692150470829
 20
10.089443706038599
 30
0.0
 11
-163.9028653493539
 21
12.343499861392971
 31
0.0
  0
LINE
  5
15B0
  8
0
 62
     0
 10
-169.9028653493539
 20
6.3434998613929423
 30
0.0
 11
-167.2978969512564
 21
8.9484682594904825
 31
0.0
  0
LINE
  5
15B1
  8
0
 62
     0
 10
-166.15692150470829
 20
10.266220401335239
 30
0.0
 11
-164.07964204465051
 21
12.343499861392971
 31
0.0
  0
LINE
  5
15B2
  8
0
 62
     0
 10
-170.0796420446506
 20
6.3434998613929423
 30
0.0
 11
-167.3681992495784
 21
9.0549426564651299
 31
0.0
  0
LINE
  5
15B3
  8
0
 62
     0
 10
-168.76726183822689
 20
7.8326567631132491
 30
0.0
 11
-167.44522560002
 21
9.1546930013201688
 31
0.0
  0
LINE
  5
15B4
  8
0
 62
     0
 10
-166.15692150470829
 20
10.442997096631879
 30
0.0
 11
-164.25641873994721
 21
12.343499861392971
 31
0.0
  0
LINE
  5
15B5
  8
0
 62
     0
 10
-170.25641873994721
 20
6.3434998613929423
 30
0.0
 11
-169.12679269214291
 21
7.473125909197293
 31
0.0
  0
LINE
  5
15B6
  8
0
 62
     0
 10
-168.71053231926129
 20
8.0661629773755266
 30
0.0
 11
-167.5287868800242
 21
9.2479084166126313
 31
0.0
  0
LINE
  5
15B7
  8
0
 62
     0
 10
-166.15692150470829
 20
10.61977379192852
 30
0.0
 11
-164.43319543524379
 21
12.343499861392971
 31
0.0
  0
LINE
  5
15B8
  8
0
 62
     0
 10
-170.4331954352439
 20
6.3434998613929423
 30
0.0
 11
-169.36029890640521
 21
7.416396390231653
 31
0.0
  0
LINE
  5
15B9
  8
0
 62
     0
 10
-168.7198761201995
 20
8.2335958717339661
 30
0.0
 11
-167.61880490046141
 21
9.3346670914720278
 31
0.0
  0
LINE
  5
15BA
  8
0
 62
     0
 10
-166.14781738626081
 20
10.80565460567267
 30
0.0
 11
-164.61907624898799
 21
12.33439574294546
 31
0.0
  0
LINE
  5
15BB
  8
0
 62
     0
 10
-170.60997213054051
 20
6.3434998613929556
 30
0.0
 11
-169.5385435591119
 21
7.414928432821525
 31
0.0
  0
LINE
  5
15BC
  8
0
 62
     0
 10
-168.75926709811429
 20
8.3709815891158428
 30
0.0
 11
-167.19516858621881
 21
9.9350801010112502
 31
0.0
  0
LINE
  5
15BD
  8
0
 62
     0
 10
-166.11225409215581
 20
11.01799459507424
 30
0.0
 11
-164.83141623838961
 21
12.298832448840519
 31
0.0
  0
LINE
  5
15BE
  8
0
 62
     0
 10
-170.78674882583709
 20
6.3434998613929556
 30
0.0
 11
-169.7153202544086
 21
7.414928432821525
 31
0.0
  0
LINE
  5
15BF
  8
0
 62
     0
 10
-168.81943640341669
 20
8.4875889791100008
 30
0.0
 11
-167.10154395223071
 21
10.205481430296031
 31
0.0
  0
LINE
  5
15C0
  8
0
 62
     0
 10
-166.02967578698389
 20
11.27734959554285
 30
0.0
 11
-165.0907712388582
 21
12.21625414366855
 31
0.0
  0
LINE
  5
15C1
  8
0
 62
     0
 10
-170.96352552113379
 20
6.3434998613929556
 30
0.0
 11
-169.89209694970521
 21
7.414928432821525
 31
0.0
  0
LINE
  5
15C2
  8
0
 62
     0
 10
-168.89679694276759
 20
8.5870051350557617
 30
0.0
 11
-167.06079764810119
 21
10.42300442972215
 31
0.0
  0
LINE
  5
15C3
  8
0
 62
     0
 10
-165.77112501633391
 20
11.71267706148941
 30
0.0
 11
-165.5260987048047
 21
11.95770337301863
 31
0.0
  0
LINE
  5
15C4
  8
0
 62
     0
 10
-171.1403022164304
 20
6.3434998613929556
 30
0.0
 11
-170.06887364500179
 21
7.414928432821525
 31
0.0
  0
LINE
  5
15C5
  8
0
 62
     0
 10
-168.9901798854568
 20
8.6703988876631968
 30
0.0
 11
-167.04843506992671
 21
10.612143703193251
 31
0.0
  0
LINE
  5
15C6
  8
0
 62
     0
 10
-171.31707891172701
 20
6.3434998613929556
 30
0.0
 11
-170.24565034029851
 21
7.414928432821525
 31
0.0
  0
LINE
  5
15C7
  8
0
 62
     0
 10
-169.10010052402589
 20
8.7372549443906706
 30
0.0
 11
-167.0551872381524
 21
10.782168230264229
 31
0.0
  0
LINE
  5
15C8
  8
0
 62
     0
 10
-171.4938556070237
 20
6.3434998613929698
 30
0.0
 11
-170.42242703559509
 21
7.4149284328215401
 31
0.0
  0
LINE
  5
15C9
  8
0
 62
     0
 10
-169.22906467034969
 20
8.7850674933635844
 30
0.0
 11
-167.07634961843061
 21
10.937782545282669
 31
0.0
  0
LINE
  5
15CA
  8
0
 62
     0
 10
-171.67063230232031
 20
6.3434998613929698
 30
0.0
 11
-170.5992037308917
 21
7.4149284328215401
 31
0.0
  0
LINE
  5
15CB
  8
0
 62
     0
 10
-169.3834715339118
 20
8.8074373250981495
 30
0.0
 11
-167.1091586573643
 21
11.08175020164563
 31
0.0
  0
LINE
  5
15CC
  8
0
 62
     0
 10
-171.8474089976169
 20
6.3434998613929698
 30
0.0
 11
-170.7759804261884
 21
7.4149284328215401
 31
0.0
  0
LINE
  5
15CD
  8
0
 62
     0
 10
-169.5598999786279
 20
8.8077855756786771
 30
0.0
 11
-167.1518454555189
 21
11.215840098787609
 31
0.0
  0
LINE
  5
15CE
  8
0
 62
     0
 10
-172.02418569291359
 20
6.3434998613929556
 30
0.0
 11
-170.95275712148501
 21
7.4149284328215401
 31
0.0
  0
LINE
  5
15CF
  8
0
 62
     0
 10
-169.73667667392459
 20
8.8077855756786647
 30
0.0
 11
-167.20321694378941
 21
11.341245305813819
 31
0.0
  0
LINE
  5
15D0
  8
0
 62
     0
 10
-172.20096238821031
 20
6.3434998613929556
 30
0.0
 11
-171.1295338167817
 21
7.4149284328215401
 31
0.0
  0
LINE
  5
15D1
  8
0
 62
     0
 10
-169.9134533692212
 20
8.8077855756786647
 30
0.0
 11
-167.2624449009281
 21
11.45879404397172
 31
0.0
  0
LINE
  5
15D2
  8
0
 62
     0
 10
-172.3777390835069
 20
6.3434998613929556
 30
0.0
 11
-171.30631051207831
 21
7.4149284328215401
 31
0.0
  0
LINE
  5
15D3
  8
0
 62
     0
 10
-170.09023006451781
 20
8.8077855756786647
 30
0.0
 11
-167.32895005572229
 21
11.569065584474201
 31
0.0
  0
LINE
  5
15D4
  8
0
 62
     0
 10
-172.55451577880351
 20
6.3434998613929556
 30
0.0
 11
-171.48308720737489
 21
7.4149284328215401
 31
0.0
  0
LINE
  5
15D5
  8
0
 62
     0
 10
-170.26700675981439
 20
8.8077855756786647
 30
0.0
 11
-169.14504342171929
 21
9.9297489137737642
 31
0.0
  0
LINE
  5
15D6
  8
0
 62
     0
 10
-168.75959912851769
 20
10.31519320697543
 30
0.0
 11
-167.4023348086854
 21
11.67245752680769
 31
0.0
  0
LINE
  5
15D7
  8
0
 62
     0
 10
-172.73129247410009
 20
6.3434998613929556
 30
0.0
 11
-171.65986390267159
 21
7.4149284328215401
 31
0.0
  0
LINE
  5
15D8
  8
0
 62
     0
 10
-170.44378345511109
 20
8.8077855756786647
 30
0.0
 11
-169.37152605815399
 21
9.8800429726357493
 31
0.0
  0
LINE
  5
15D9
  8
0
 62
     0
 10
-168.70989318737969
 20
10.541675843410079
 30
0.0
 11
-167.4823432507828
 21
11.76922578000694
 31
0.0
  0
LINE
  5
15DA
  8
0
 62
     0
 10
-172.90806916939681
 20
6.3434998613929698
 30
0.0
 11
-171.8366405979682
 21
7.4149284328215401
 31
0.0
  0
LINE
  5
15DB
  8
0
 62
     0
 10
-170.6205601504077
 20
8.8077855756786647
 30
0.0
 11
-169.54913157897909
 21
9.8792141471072181
 31
0.0
  0
LINE
  5
15DC
  8
0
 62
     0
 10
-168.72152932337011
 20
10.70681640271625
 30
0.0
 11
-167.56883798859189
 21
11.859507737494511
 31
0.0
  0
LINE
  5
15DD
  8
0
 62
     0
 10
-173.08484586469339
 20
6.3434998613929556
 30
0.0
 11
-172.01341729326481
 21
7.414928432821525
 31
0.0
  0
LINE
  5
15DE
  8
0
 62
     0
 10
-170.79733684570431
 20
8.8077855756786647
 30
0.0
 11
-169.72590827427581
 21
9.8792141471072181
 31
0.0
  0
LINE
  5
15DF
  8
0
 62
     0
 10
-168.76233811122751
 20
10.84278431015546
 30
0.0
 11
-167.6617885057494
 21
11.943333915633559
 31
0.0
  0
LINE
  5
15E0
  8
0
 62
     0
 10
-173.26162255999
 20
6.3434998613929556
 30
0.0
 11
-172.1901939885615
 21
7.414928432821525
 31
0.0
  0
LINE
  5
15E1
  8
0
 62
     0
 10
-170.974113541001
 20
8.8077855756786647
 30
0.0
 11
-169.90268496957239
 21
9.8792141471072341
 31
0.0
  0
LINE
  5
15E2
  8
0
 62
     0
 10
-168.82360650553761
 20
10.95829261114204
 30
0.0
 11
-167.7612686529435
 21
12.02063046373609
 31
0.0
  0
LINE
  5
15E3
  8
0
 62
     0
 10
-173.4383992552867
 20
6.3434998613929556
 30
0.0
 11
-172.36697068385811
 21
7.414928432821525
 31
0.0
  0
LINE
  5
15E4
  8
0
 62
     0
 10
-171.15089023629761
 20
8.8077855756786647
 30
0.0
 11
-170.079461664869
 21
9.8792141471072483
 31
0.0
  0
LINE
  5
15E5
  8
0
 62
     0
 10
-168.90194170928149
 20
11.05673410269476
 30
0.0
 11
-167.8674627689154
 21
12.09121304306087
 31
0.0
  0
LINE
  5
15E6
  8
0
 62
     0
 10
-173.61517595058331
 20
6.3434998613929556
 30
0.0
 11
-172.54374737915481
 21
7.414928432821525
 31
0.0
  0
LINE
  5
15E7
  8
0
 62
     0
 10
-171.32766693159419
 20
8.8077855756786647
 30
0.0
 11
-170.2562383601657
 21
9.8792141471072483
 31
0.0
  0
LINE
  5
15E8
  8
0
 62
     0
 10
-168.99628426242799
 20
11.13916824484485
 30
0.0
 11
-167.9806816594153
 21
12.154770847857661
 31
0.0
  0
LINE
  5
15E9
  8
0
 62
     0
 10
-173.79195264588
 20
6.3434998613929556
 30
0.0
 11
-172.72052407445139
 21
7.414928432821525
 31
0.0
  0
LINE
  5
15EA
  8
0
 62
     0
 10
-171.50444362689089
 20
8.8077855756786647
 30
0.0
 11
-170.43301505546231
 21
9.8792141471072483
 31
0.0
  0
LINE
  5
15EB
  8
0
 62
     0
 10
-169.1072502707506
 20
11.204978931818969
 30
0.0
 11
-168.10139185057929
 21
12.21083735199028
 31
0.0
  0
LINE
  5
15EC
  8
0
 62
     0
 10
-173.96872934117661
 20
6.3434998613929556
 30
0.0
 11
-172.8340643618512
 21
7.4781648407183354
 31
0.0
  0
LINE
  5
15ED
  8
0
 62
     0
 10
-171.6812203221875
 20
8.8077855756786771
 30
0.0
 11
-170.60979175075889
 21
9.8792141471072341
 31
0.0
  0
LINE
  5
15EE
  8
0
 62
     0
 10
-169.2374999453132
 20
11.25150595255297
 30
0.0
 11
-168.23026513407899
 21
12.25874076378715
 31
0.0
  0
LINE
  5
15EF
  8
0
 62
     0
 10
-174.14550603647319
 20
6.3434998613929556
 30
0.0
 11
-172.8340643618512
 21
7.6549415360149728
 31
0.0
  0
LINE
  5
15F0
  8
0
 62
     0
 10
-171.85799701748411
 20
8.8077855756786771
 30
0.0
 11
-170.78656844605561
 21
9.8792141471072483
 31
0.0
  0
LINE
  5
15F1
  8
0
 62
     0
 10
-169.39380931507381
 20
11.271973278089019
 30
0.0
 11
-168.36826238161979
 21
12.297520211543031
 31
0.0
  0
LINE
  5
15F2
  8
0
 62
     0
 10
-174.32228273176989
 20
6.3434998613929556
 30
0.0
 11
-172.8340643618512
 21
7.831718231311612
 31
0.0
  0
LINE
  5
15F3
  8
0
 62
     0
 10
-172.0347737127808
 20
8.8077855756786771
 30
0.0
 11
-170.96334514135219
 21
9.8792141471072767
 31
0.0
  0
LINE
  5
15F4
  8
0
 62
     0
 10
-169.57048799849511
 20
11.2720712899644
 30
0.0
 11
-168.51678073061731
 21
12.32577855784211
 31
0.0
  0
LINE
  5
15F5
  8
0
 62
     0
 10
-174.3340643618512
 20
6.5084949266082779
 30
0.0
 11
-172.8340643618512
 21
8.0084949266082504
 31
0.0
  0
LINE
  5
15F6
  8
0
 62
     0
 10
-172.21155040807739
 20
8.8077855756786771
 30
0.0
 11
-171.1401218366488
 21
9.8792141471072767
 31
0.0
  0
LINE
  5
15F7
  8
0
 62
     0
 10
-169.74726469379169
 20
11.2720712899644
 30
0.0
 11
-168.6779301241624
 21
12.341405859593729
 31
0.0
  0
LINE
  5
15F8
  8
0
 62
     0
 10
-174.3340643618512
 20
6.6852716219049171
 30
0.0
 11
-172.8340643618512
 21
8.1852716219048745
 31
0.0
  0
LINE
  5
15F9
  8
0
 62
     0
 10
-172.38832710337411
 20
8.8077855756786771
 30
0.0
 11
-171.3168985319455
 21
9.8792141471072767
 31
0.0
  0
LINE
  5
15FA
  8
0
 62
     0
 10
-169.9240413890883
 20
11.2720712899644
 30
0.0
 11
-168.8526128176598
 21
12.343499861392919
 31
0.0
  0
LINE
  5
15FB
  8
0
 62
     0
 10
-174.3340643618512
 20
6.8620483172015554
 30
0.0
 11
-172.8340643618512
 21
8.3620483172014985
 31
0.0
  0
LINE
  5
15FC
  8
0
 62
     0
 10
-172.56510379867069
 20
8.8077855756786771
 30
0.0
 11
-171.49367522724211
 21
9.8792141471072767
 31
0.0
  0
LINE
  5
15FD
  8
0
 62
     0
 10
-170.100818084385
 20
11.2720712899644
 30
0.0
 11
-169.02938951295641
 21
12.343499861392919
 31
0.0
  0
LINE
  5
15FE
  8
0
 62
     0
 10
-174.3340643618512
 20
7.0388250124981928
 30
0.0
 11
-172.8340643618512
 21
8.5388250124981369
 31
0.0
  0
LINE
  5
15FF
  8
0
 62
     0
 10
-172.7418804939673
 20
8.8077855756786771
 30
0.0
 11
-171.6704519225388
 21
9.8792141471072625
 31
0.0
  0
LINE
  5
1600
  8
0
 62
     0
 10
-170.27759477968161
 20
11.2720712899644
 30
0.0
 11
-169.20616620825311
 21
12.343499861392919
 31
0.0
  0
LINE
  5
1601
  8
0
 62
     0
 10
-174.3340643618512
 20
7.215601707794832
 30
0.0
 11
-172.8340643618512
 21
8.7156017077947752
 31
0.0
  0
LINE
  5
1602
  8
0
 62
     0
 10
-170.4543714749783
 20
11.2720712899644
 30
0.0
 11
-169.38294290354969
 21
12.343499861392919
 31
0.0
  0
LINE
  5
1603
  8
0
 62
     0
 10
-174.3340643618512
 20
7.3923784030914703
 30
0.0
 11
-171.84722861783541
 21
9.8792141471072767
 31
0.0
  0
LINE
  5
1604
  8
0
 62
     0
 10
-174.3340643618512
 20
7.5691550983881077
 30
0.0
 11
-172.02400531313199
 21
9.8792141471072892
 31
0.0
  0
LINE
  5
1605
  8
0
 62
     0
 10
-170.63114817027491
 20
11.2720712899644
 30
0.0
 11
-169.55971959884641
 21
12.343499861392941
 31
0.0
  0
LINE
  5
1606
  8
0
 62
     0
 10
-175.5597195988463
 20
6.3434998613929841
 30
0.0
 11
-175.4054929332797
 21
6.4977265269595392
 31
0.0
  0
LINE
  5
1607
  8
0
 62
     0
 10
-174.3340643618512
 20
7.745931793684746
 30
0.0
 11
-172.20078200842869
 21
9.8792141471072892
 31
0.0
  0
LINE
  5
1608
  8
0
 62
     0
 10
-170.80792486557149
 20
11.2720712899644
 30
0.0
 11
-169.736496294143
 21
12.343499861392941
 31
0.0
  0
LINE
  5
1609
  8
0
 62
     0
 10
-175.736496294143
 20
6.3434998613929841
 30
0.0
 11
-175.4054929332797
 21
6.6745032222561766
 31
0.0
  0
LINE
  5
160A
  8
0
 62
     0
 10
-174.3340643618512
 20
7.9227084889813852
 30
0.0
 11
-172.3775587037253
 21
9.8792141471073052
 31
0.0
  0
LINE
  5
160B
  8
0
 62
     0
 10
-170.98470156086819
 20
11.27207128996441
 30
0.0
 11
-169.9132729894396
 21
12.343499861392949
 31
0.0
  0
LINE
  5
160C
  8
0
 62
     0
 10
-175.9132729894396
 20
6.3434998613929841
 30
0.0
 11
-175.4054929332797
 21
6.851279917552815
 31
0.0
  0
LINE
  5
160D
  8
0
 62
     0
 10
-174.3340643618512
 20
8.0994851842780236
 30
0.0
 11
-172.55433539902191
 21
9.8792141471072892
 31
0.0
  0
LINE
  5
160E
  8
0
 62
     0
 10
-171.1614782561648
 20
11.2720712899644
 30
0.0
 11
-170.0900496847363
 21
12.343499861392949
 31
0.0
  0
LINE
  5
160F
  8
0
 62
     0
 10
-176.09004968473619
 20
6.3434998613929841
 30
0.0
 11
-175.4054929332797
 21
7.0280566128494542
 31
0.0
  0
LINE
  5
1610
  8
0
 62
     0
 10
-174.3340643618512
 20
8.2762618795746477
 30
0.0
 11
-172.7311120943186
 21
9.8792141471072892
 31
0.0
  0
LINE
  5
1611
  8
0
 62
     0
 10
-171.33825495146141
 20
11.2720712899644
 30
0.0
 11
-170.26682638003291
 21
12.343499861392949
 31
0.0
  0
LINE
  5
1612
  8
0
 62
     0
 10
-176.2668263800328
 20
6.3434998613929841
 30
0.0
 11
-175.4054929332797
 21
7.2048333081460916
 31
0.0
  0
LINE
  5
1613
  8
0
 62
     0
 10
-174.3340643618512
 20
8.4530385748712717
 30
0.0
 11
-172.83406436185109
 21
9.9530385748713144
 31
0.0
  0
LINE
  5
1614
  8
0
 62
     0
 10
-171.5150316467581
 20
11.27207128996438
 30
0.0
 11
-170.44360307532949
 21
12.343499861392941
 31
0.0
  0
LINE
  5
1615
  8
0
 62
     0
 10
-176.44360307532949
 20
6.3434998613929556
 30
0.0
 11
-175.4054929332797
 21
7.3816100034427157
 31
0.0
  0
LINE
  5
1616
  8
0
 62
     0
 10
-174.3340643618512
 20
8.6298152701679101
 30
0.0
 11
-172.83406436185109
 21
10.129815270167949
 31
0.0
  0
LINE
  5
1617
  8
0
 62
     0
 10
-171.69180834205471
 20
11.27207128996438
 30
0.0
 11
-170.6203797706261
 21
12.343499861392941
 31
0.0
  0
LINE
  5
1618
  8
0
 62
     0
 10
-176.6203797706261
 20
6.3434998613929556
 30
0.0
 11
-175.4054929332797
 21
7.558386698739354
 31
0.0
  0
LINE
  5
1619
  8
0
 62
     0
 10
-174.3340643618512
 20
8.8065919654645484
 30
0.0
 11
-172.83406436185109
 21
10.306591965464589
 31
0.0
  0
LINE
  5
161A
  8
0
 62
     0
 10
-171.86858503735141
 20
11.27207128996438
 30
0.0
 11
-170.7971564659228
 21
12.343499861392941
 31
0.0
  0
LINE
  5
161B
  8
0
 62
     0
 10
-176.7971564659228
 20
6.3434998613929556
 30
0.0
 11
-175.4054929332797
 21
7.7351633940359932
 31
0.0
  0
LINE
  5
161C
  8
0
 62
     0
 10
-174.3340643618512
 20
8.9833686607611867
 30
0.0
 11
-172.83406436185109
 21
10.48336866076122
 31
0.0
  0
LINE
  5
161D
  8
0
 62
     0
 10
-172.04536173264799
 20
11.27207128996438
 30
0.0
 11
-170.97393316121941
 21
12.343499861392941
 31
0.0
  0
LINE
  5
161E
  8
0
 62
     0
 10
-176.9054929332797
 20
6.411940089332659
 30
0.0
 11
-175.4054929332797
 21
7.9119400893326306
 31
0.0
  0
LINE
  5
161F
  8
0
 62
     0
 10
-174.3340643618512
 20
9.1601453560578232
 30
0.0
 11
-172.8340643618512
 21
10.66014535605785
 31
0.0
  0
LINE
  5
1620
  8
0
 62
     0
 10
-172.2221384279446
 20
11.27207128996438
 30
0.0
 11
-171.1507098565161
 21
12.343499861392941
 31
0.0
  0
LINE
  5
1621
  8
0
 62
     0
 10
-176.9054929332797
 20
6.5887167846292982
 30
0.0
 11
-175.4054929332797
 21
8.0887167846292698
 31
0.0
  0
LINE
  5
1622
  8
0
 62
     0
 10
-174.3340643618512
 20
9.3369220513544633
 30
0.0
 11
-172.8340643618512
 21
10.83692205135449
 31
0.0
  0
LINE
  5
1623
  8
0
 62
     0
 10
-172.39891512324121
 20
11.27207128996438
 30
0.0
 11
-171.32748655181271
 21
12.343499861392941
 31
0.0
  0
LINE
  5
1624
  8
0
 62
     0
 10
-176.9054929332797
 20
6.7654934799259356
 30
0.0
 11
-175.4054929332797
 21
8.2654934799259081
 31
0.0
  0
LINE
  5
1625
  8
0
 62
     0
 10
-174.3340643618512
 20
9.5136987466511016
 30
0.0
 11
-172.8340643618512
 21
11.01369874665111
 31
0.0
  0
LINE
  5
1626
  8
0
 62
     0
 10
-172.5756918185379
 20
11.2720712899644
 30
0.0
 11
-171.50426324710929
 21
12.343499861392949
 31
0.0
  0
LINE
  5
1627
  8
0
 62
     0
 10
-176.9054929332797
 20
6.9422701752225739
 30
0.0
 11
-175.4054929332797
 21
8.4422701752225322
 31
0.0
  0
LINE
  5
1628
  8
0
 62
     0
 10
-174.3340643618512
 20
9.6904754419477381
 30
0.0
 11
-172.8340643618512
 21
11.190475441947751
 31
0.0
  0
LINE
  5
1629
  8
0
 62
     0
 10
-172.75246851383449
 20
11.2720712899644
 30
0.0
 11
-171.68103994240599
 21
12.343499861392949
 31
0.0
  0
LINE
  5
162A
  8
0
 62
     0
 10
-176.9054929332797
 20
7.1190468705192131
 30
0.0
 11
-175.4054929332797
 21
8.6190468705191705
 31
0.0
  0
LINE
  5
162B
  8
0
 62
     0
 10
-174.3340643618512
 20
9.8672521372443782
 30
0.0
 11
-171.8578166377026
 21
12.343499861392949
 31
0.0
  0
LINE
  5
162C
  8
0
 62
     0
 10
-176.9054929332797
 20
7.2958235658158506
 30
0.0
 11
-175.4054929332797
 21
8.7958235658158088
 31
0.0
  0
LINE
  5
162D
  8
0
 62
     0
 10
-174.3340643618512
 20
10.044028832541009
 30
0.0
 11
-172.03459333299921
 21
12.343499861392949
 31
0.0
  0
LINE
  5
162E
  8
0
 62
     0
 10
-176.9054929332797
 20
7.4726002611124889
 30
0.0
 11
-175.4054929332797
 21
8.9726002611124471
 31
0.0
  0
LINE
  5
162F
  8
0
 62
     0
 10
-174.3340643618512
 20
10.22080552783765
 30
0.0
 11
-172.2113700282959
 21
12.343499861392949
 31
0.0
  0
LINE
  5
1630
  8
0
 62
     0
 10
-176.9054929332797
 20
7.6493769564091281
 30
0.0
 11
-175.4054929332797
 21
9.1493769564090854
 31
0.0
  0
LINE
  5
1631
  8
0
 62
     0
 10
-174.3340643618512
 20
10.39758222313429
 30
0.0
 11
-172.38814672359251
 21
12.343499861392949
 31
0.0
  0
LINE
  5
1632
  8
0
 62
     0
 10
-176.9054929332797
 20
7.8261536517057664
 30
0.0
 11
-175.4054929332797
 21
9.3261536517057237
 31
0.0
  0
LINE
  5
1633
  8
0
 62
     0
 10
-174.3340643618512
 20
10.57435891843093
 30
0.0
 11
-172.56492341888921
 21
12.343499861392949
 31
0.0
  0
LINE
  5
1634
  8
0
 62
     0
 10
-176.9054929332797
 20
8.0029303470024047
 30
0.0
 11
-175.40549293327979
 21
9.5029303470023336
 31
0.0
  0
LINE
  5
1635
  8
0
 62
     0
 10
-174.3340643618512
 20
10.751135613727561
 30
0.0
 11
-172.74170011418579
 21
12.343499861392949
 31
0.0
  0
LINE
  5
1636
  8
0
 62
     0
 10
-176.9054929332797
 20
8.1797070422990288
 30
0.0
 11
-175.40549293327979
 21
9.6797070422989702
 31
0.0
  0
LINE
  5
1637
  8
0
 62
     0
 10
-174.3340643618512
 20
10.927912309024199
 30
0.0
 11
-172.9184768094824
 21
12.343499861392949
 31
0.0
  0
LINE
  5
1638
  8
0
 62
     0
 10
-176.9054929332797
 20
8.3564837375956671
 30
0.0
 11
-175.40549293327979
 21
9.8564837375956103
 31
0.0
  0
LINE
  5
1639
  8
0
 62
     0
 10
-174.3340643618512
 20
11.104689004320839
 30
0.0
 11
-173.09525350477909
 21
12.343499861392971
 31
0.0
  0
LINE
  5
163A
  8
0
 62
     0
 10
-176.9054929332797
 20
8.5332604328923054
 30
0.0
 11
-175.40549293327979
 21
10.03326043289224
 31
0.0
  0
LINE
  5
163B
  8
0
 62
     0
 10
-174.3340643618512
 20
11.281465699617479
 30
0.0
 11
-173.2720302000757
 21
12.343499861392971
 31
0.0
  0
LINE
  5
163C
  8
0
 62
     0
 10
-176.9054929332797
 20
8.7100371281889437
 30
0.0
 11
-175.40549293327979
 21
10.21003712818888
 31
0.0
  0
LINE
  5
163D
  8
0
 62
     0
 10
-174.3340643618512
 20
11.458242394914119
 30
0.0
 11
-173.44880689537229
 21
12.343499861392971
 31
0.0
  0
LINE
  5
163E
  8
0
 62
     0
 10
-176.9054929332797
 20
8.886813823485582
 30
0.0
 11
-175.40549293327979
 21
10.38681382348552
 31
0.0
  0
LINE
  5
163F
  8
0
 62
     0
 10
-174.3340643618512
 20
11.63501909021074
 30
0.0
 11
-173.62558359066901
 21
12.34349986139298
 31
0.0
  0
LINE
  5
1640
  8
0
 62
     0
 10
-176.9054929332797
 20
9.0635905187822203
 30
0.0
 11
-175.40549293327979
 21
10.56359051878216
 31
0.0
  0
LINE
  5
1641
  8
0
 62
     0
 10
-174.3340643618512
 20
11.81179578550738
 30
0.0
 11
-173.80236028596559
 21
12.34349986139298
 31
0.0
  0
LINE
  5
1642
  8
0
 62
     0
 10
-176.9054929332797
 20
9.2403672140788586
 30
0.0
 11
-175.40549293327979
 21
10.7403672140788
 31
0.0
  0
LINE
  5
1643
  8
0
 62
     0
 10
-174.3340643618512
 20
11.988572480804001
 30
0.0
 11
-173.9791369812622
 21
12.343499861392971
 31
0.0
  0
LINE
  5
1644
  8
0
 62
     0
 10
-176.9054929332797
 20
9.4171439093754685
 30
0.0
 11
-175.40549293327979
 21
10.917143909375421
 31
0.0
  0
LINE
  5
1645
  8
0
 62
     0
 10
-174.3340643618512
 20
12.165349176100641
 30
0.0
 11
-174.15591367655881
 21
12.343499861392971
 31
0.0
  0
LINE
  5
1646
  8
0
 62
     0
 10
-176.9054929332797
 20
9.5939206046721068
 30
0.0
 11
-175.40549293327979
 21
11.093920604672039
 31
0.0
  0
LINE
  5
1647
  8
0
 62
     0
 10
-174.3340643618512
 20
12.342125871397281
 30
0.0
 11
-174.33269037185551
 21
12.343499861392971
 31
0.0
  0
LINE
  5
1648
  8
0
 62
     0
 10
-176.9054929332797
 20
9.7706972999687451
 30
0.0
 11
-175.40549293327979
 21
11.270697299968679
 31
0.0
  0
LINE
  5
1649
  8
0
 62
     0
 10
-176.9054929332797
 20
9.9474739952653835
 30
0.0
 11
-175.40549293327979
 21
11.44747399526532
 31
0.0
  0
LINE
  5
164A
  8
0
 62
     0
 10
-176.9054929332797
 20
10.12425069056202
 30
0.0
 11
-175.40549293327979
 21
11.62425069056196
 31
0.0
  0
LINE
  5
164B
  8
0
 62
     0
 10
-176.9054929332797
 20
10.30102738585866
 30
0.0
 11
-175.40549293327979
 21
11.8010273858586
 31
0.0
  0
LINE
  5
164C
  8
0
 62
     0
 10
-176.9054929332797
 20
10.477804081155289
 30
0.0
 11
-175.40549293327979
 21
11.97780408115524
 31
0.0
  0
LINE
  5
164D
  8
0
 62
     0
 10
-176.9054929332797
 20
10.65458077645193
 30
0.0
 11
-175.40549293327979
 21
12.154580776451869
 31
0.0
  0
LINE
  5
164E
  8
0
 62
     0
 10
-178.752288134053
 20
8.8077855756786647
 30
0.0
 11
-178.6197786475654
 21
8.9402950621662853
 31
0.0
  0
LINE
  5
164F
  8
0
 62
     0
 10
-176.9054929332797
 20
10.83135747174857
 30
0.0
 11
-175.40549293327979
 21
12.331357471748509
 31
0.0
  0
LINE
  5
1650
  8
0
 62
     0
 10
-178.92906482934961
 20
8.8077855756786771
 30
0.0
 11
-178.6197786475654
 21
9.1170717574629236
 31
0.0
  0
LINE
  5
1651
  8
0
 62
     0
 10
-176.9054929332797
 20
11.00813416704521
 30
0.0
 11
-175.570127238932
 21
12.34349986139298
 31
0.0
  0
LINE
  5
1652
  8
0
 62
     0
 10
-179.10584152464631
 20
8.8077855756786771
 30
0.0
 11
-178.6197786475654
 21
9.2938484527595477
 31
0.0
  0
LINE
  5
1653
  8
0
 62
     0
 10
-176.9054929332797
 20
11.18491086234185
 30
0.0
 11
-175.74690393422861
 21
12.34349986139298
 31
0.0
  0
LINE
  5
1654
  8
0
 62
     0
 10
-179.28261821994289
 20
8.8077855756786771
 30
0.0
 11
-178.6197786475654
 21
9.4706251480561718
 31
0.0
  0
LINE
  5
1655
  8
0
 62
     0
 10
-176.9054929332797
 20
11.36168755763849
 30
0.0
 11
-175.92368062952519
 21
12.34349986139298
 31
0.0
  0
LINE
  5
1656
  8
0
 62
     0
 10
-179.4593949152395
 20
8.8077855756786771
 30
0.0
 11
-178.6197786475654
 21
9.6474018433528101
 31
0.0
  0
LINE
  5
1657
  8
0
 62
     0
 10
-176.9054929332797
 20
11.538464252935119
 30
0.0
 11
-176.10045732482189
 21
12.34349986139298
 31
0.0
  0
LINE
  5
1658
  8
0
 62
     0
 10
-179.63617161053619
 20
8.8077855756786771
 30
0.0
 11
-178.6197786475654
 21
9.8241785386494485
 31
0.0
  0
LINE
  5
1659
  8
0
 62
     0
 10
-176.9054929332797
 20
11.715240948231759
 30
0.0
 11
-176.2772340201185
 21
12.34349986139298
 31
0.0
  0
LINE
  5
165A
  8
0
 62
     0
 10
-179.8129483058328
 20
8.8077855756786771
 30
0.0
 11
-178.74151973440419
 21
9.8792141471072483
 31
0.0
  0
LINE
  5
165B
  8
0
 62
     0
 10
-176.9054929332797
 20
11.8920176435284
 30
0.0
 11
-176.45401071541519
 21
12.343499861392971
 31
0.0
  0
LINE
  5
165C
  8
0
 62
     0
 10
-179.9897250011295
 20
8.8077855756786771
 30
0.0
 11
-178.91829642970089
 21
9.8792141471072483
 31
0.0
  0
LINE
  5
165D
  8
0
 62
     0
 10
-176.9054929332797
 20
12.06879433882504
 30
0.0
 11
-176.6307874107118
 21
12.343499861392971
 31
0.0
  0
LINE
  5
165E
  8
0
 62
     0
 10
-180.16650169642611
 20
8.8077855756786771
 30
0.0
 11
-179.0950731249975
 21
9.8792141471072483
 31
0.0
  0
LINE
  5
165F
  8
0
 62
     0
 10
-176.9054929332797
 20
12.24557103412168
 30
0.0
 11
-176.80756410600841
 21
12.343499861392971
 31
0.0
  0
LINE
  5
1660
  8
0
 62
     0
 10
-180.34327839172269
 20
8.8077855756786647
 30
0.0
 11
-179.27184982029419
 21
9.8792141471072483
 31
0.0
  0
LINE
  5
1661
  8
0
 62
     0
 10
-180.52005508701939
 20
8.8077855756786647
 30
0.0
 11
-179.4486265155908
 21
9.8792141471072483
 31
0.0
  0
LINE
  5
1662
  8
0
 62
     0
 10
-178.05576937273361
 20
11.27207128996441
 30
0.0
 11
-177.97692150470829
 21
11.35091915798975
 31
0.0
  0
LINE
  5
1663
  8
0
 62
     0
 10
-182.98434080130511
 20
6.3434998613929698
 30
0.0
 11
-182.90549293327979
 21
6.4223477294183047
 31
0.0
  0
LINE
  5
1664
  8
0
 62
     0
 10
-180.696831782316
 20
8.8077855756786647
 30
0.0
 11
-179.62540321088741
 21
9.8792141471072483
 31
0.0
  0
LINE
  5
1665
  8
0
 62
     0
 10
-178.2325460680303
 20
11.2720712899644
 30
0.0
 11
-177.97692150470829
 21
11.52769585328638
 31
0.0
  0
LINE
  5
1666
  8
0
 62
     0
 10
-183.16111749660169
 20
6.3434998613929698
 30
0.0
 11
-182.90549293327979
 21
6.5991244247149581
 31
0.0
  0
LINE
  5
1667
  8
0
 62
     0
 10
-180.87360847761261
 20
8.8077855756786647
 30
0.0
 11
-179.80217990618411
 21
9.8792141471072483
 31
0.0
  0
LINE
  5
1668
  8
0
 62
     0
 10
-178.40932276332691
 20
11.2720712899644
 30
0.0
 11
-177.97692150470829
 21
11.70447254858302
 31
0.0
  0
LINE
  5
1669
  8
0
 62
     0
 10
-183.3378941918983
 20
6.3434998613929698
 30
0.0
 11
-182.9054929332797
 21
6.7759011200115964
 31
0.0
  0
LINE
  5
166A
  8
0
 62
     0
 10
-181.0503851729093
 20
8.8077855756786647
 30
0.0
 11
-179.97895660148069
 21
9.8792141471072341
 31
0.0
  0
LINE
  5
166B
  8
0
 62
     0
 10
-178.58609945862361
 20
11.27207128996438
 30
0.0
 11
-177.97692150470829
 21
11.88124924387963
 31
0.0
  0
LINE
  5
166C
  8
0
 62
     0
 10
-183.514670887195
 20
6.3434998613929556
 30
0.0
 11
-182.9054929332797
 21
6.9526778153082196
 31
0.0
  0
LINE
  5
166D
  8
0
 62
     0
 10
-181.22716186820591
 20
8.8077855756786647
 30
0.0
 11
-180.1557332967773
 21
9.8792141471072341
 31
0.0
  0
LINE
  5
166E
  8
0
 62
     0
 10
-178.76287615392019
 20
11.2720712899644
 30
0.0
 11
-177.97692150470829
 21
12.05802593917627
 31
0.0
  0
LINE
  5
166F
  8
0
 62
     0
 10
-183.69144758249161
 20
6.3434998613929556
 30
0.0
 11
-182.9054929332797
 21
7.1294545106048579
 31
0.0
  0
LINE
  5
1670
  8
0
 62
     0
 10
-181.40393856350261
 20
8.8077855756786647
 30
0.0
 11
-180.33250999207399
 21
9.8792141471072341
 31
0.0
  0
LINE
  5
1671
  8
0
 62
     0
 10
-178.9396528492168
 20
11.27207128996441
 30
0.0
 11
-177.97692150470829
 21
12.23480263447291
 31
0.0
  0
LINE
  5
1672
  8
0
 62
     0
 10
-183.8682242777883
 20
6.3434998613929556
 30
0.0
 11
-182.9054929332797
 21
7.306231205901482
 31
0.0
  0
LINE
  5
1673
  8
0
 62
     0
 10
-181.58071525879919
 20
8.8077855756786647
 30
0.0
 11
-180.5092866873706
 21
9.8792141471072341
 31
0.0
  0
LINE
  5
1674
  8
0
 62
     0
 10
-179.11642954451349
 20
11.2720712899644
 30
0.0
 11
-178.04500097308491
 21
12.343499861392971
 31
0.0
  0
LINE
  5
1675
  8
0
 62
     0
 10
-184.04500097308491
 20
6.3434998613929556
 30
0.0
 11
-182.90549293327979
 21
7.4830079011981212
 31
0.0
  0
LINE
  5
1676
  8
0
 62
     0
 10
-181.75749195409591
 20
8.8077855756786647
 30
0.0
 11
-180.6860633826673
 21
9.8792141471072341
 31
0.0
  0
LINE
  5
1677
  8
0
 62
     0
 10
-179.2932062398101
 20
11.2720712899644
 30
0.0
 11
-178.22177766838149
 21
12.343499861392971
 31
0.0
  0
LINE
  5
1678
  8
0
 62
     0
 10
-184.22177766838149
 20
6.3434998613929556
 30
0.0
 11
-182.9054929332797
 21
7.6597845964948021
 31
0.0
  0
LINE
  5
1679
  8
0
 62
     0
 10
-181.93426864939249
 20
8.8077855756786647
 30
0.0
 11
-180.86284007796391
 21
9.8792141471072341
 31
0.0
  0
LINE
  5
167A
  8
0
 62
     0
 10
-179.46998293510671
 20
11.2720712899644
 30
0.0
 11
-178.39855436367819
 21
12.343499861392971
 31
0.0
  0
LINE
  5
167B
  8
0
 62
     0
 10
-184.39855436367819
 20
6.3434998613929556
 30
0.0
 11
-182.9054929332797
 21
7.8365612917914262
 31
0.0
  0
LINE
  5
167C
  8
0
 62
     0
 10
-182.1110453446891
 20
8.8077855756786647
 30
0.0
 11
-181.03961677326049
 21
9.8792141471072341
 31
0.0
  0
LINE
  5
167D
  8
0
 62
     0
 10
-179.64675963040341
 20
11.2720712899644
 30
0.0
 11
-178.5753310589748
 21
12.343499861392971
 31
0.0
  0
LINE
  5
167E
  8
0
 62
     0
 10
-184.4054929332797
 20
6.5133379870880637
 30
0.0
 11
-182.9054929332797
 21
8.0133379870880646
 31
0.0
  0
LINE
  5
167F
  8
0
 62
     0
 10
-182.28782203998571
 20
8.8077855756786647
 30
0.0
 11
-181.21639346855719
 21
9.8792141471072341
 31
0.0
  0
LINE
  5
1680
  8
0
 62
     0
 10
-179.82353632569999
 20
11.2720712899644
 30
0.0
 11
-178.75210775427149
 21
12.343499861392971
 31
0.0
  0
LINE
  5
1681
  8
0
 62
     0
 10
-184.4054929332797
 20
6.690114682384702
 30
0.0
 11
-182.9054929332797
 21
8.1901146823847029
 31
0.0
  0
LINE
  5
1682
  8
0
 62
     0
 10
-182.46459873528241
 20
8.8077855756786647
 30
0.0
 11
-181.3931701638538
 21
9.8792141471072341
 31
0.0
  0
LINE
  5
1683
  8
0
 62
     0
 10
-180.0003130209966
 20
11.2720712899644
 30
0.0
 11
-178.9288844495681
 21
12.34349986139298
 31
0.0
  0
LINE
  5
1684
  8
0
 62
     0
 10
-184.4054929332797
 20
6.8668913776813261
 30
0.0
 11
-182.9054929332797
 21
8.3668913776813412
 31
0.0
  0
LINE
  5
1685
  8
0
 62
     0
 10
-182.64137543057899
 20
8.8077855756786647
 30
0.0
 11
-181.56994685915041
 21
9.8792141471072341
 31
0.0
  0
LINE
  5
1686
  8
0
 62
     0
 10
-180.1770897162933
 20
11.2720712899644
 30
0.0
 11
-179.10566114486471
 21
12.34349986139298
 31
0.0
  0
LINE
  5
1687
  8
0
 62
     0
 10
-184.4054929332797
 20
7.0436680729779653
 30
0.0
 11
-182.9054929332797
 21
8.5436680729779795
 31
0.0
  0
LINE
  5
1688
  8
0
 62
     0
 10
-182.81815212587571
 20
8.8077855756786647
 30
0.0
 11
-181.7467235544471
 21
9.8792141471072341
 31
0.0
  0
LINE
  5
1689
  8
0
 62
     0
 10
-180.35386641158991
 20
11.2720712899644
 30
0.0
 11
-179.28243784016129
 21
12.34349986139298
 31
0.0
  0
LINE
  5
168A
  8
0
 62
     0
 10
-184.4054929332797
 20
7.2204447682746027
 30
0.0
 11
-182.9054929332797
 21
8.7204447682746178
 31
0.0
  0
LINE
  5
168B
  8
0
 62
     0
 10
-180.53064310688649
 20
11.2720712899644
 30
0.0
 11
-179.45921453545799
 21
12.34349986139298
 31
0.0
  0
LINE
  5
168C
  8
0
 62
     0
 10
-184.4054929332797
 20
7.397221463571241
 30
0.0
 11
-181.92350024974371
 21
9.8792141471072341
 31
0.0
  0
LINE
  5
168D
  8
0
 62
     0
 10
-180.70741980218321
 20
11.2720712899644
 30
0.0
 11
-179.6359912307546
 21
12.34349986139298
 31
0.0
  0
LINE
  5
168E
  8
0
 62
     0
 10
-184.4054929332797
 20
7.5739981588678802
 30
0.0
 11
-182.10027694504041
 21
9.8792141471072341
 31
0.0
  0
LINE
  5
168F
  8
0
 62
     0
 10
-180.88419649747979
 20
11.2720712899644
 30
0.0
 11
-179.81276792605121
 21
12.34349986139298
 31
0.0
  0
LINE
  5
1690
  8
0
 62
     0
 10
-184.4054929332797
 20
7.7507748541645176
 30
0.0
 11
-182.27705364033699
 21
9.8792141471072341
 31
0.0
  0
LINE
  5
1691
  8
0
 62
     0
 10
-181.06097319277649
 20
11.2720712899644
 30
0.0
 11
-179.9895446213479
 21
12.343499861392971
 31
0.0
  0
LINE
  5
1692
  8
0
 62
     0
 10
-184.4054929332797
 20
7.9275515494611559
 30
0.0
 11
-182.4538303356336
 21
9.8792141471072341
 31
0.0
  0
LINE
  5
1693
  8
0
 62
     0
 10
-181.2377498880731
 20
11.2720712899644
 30
0.0
 11
-180.1663213166446
 21
12.343499861392971
 31
0.0
  0
LINE
  5
1694
  8
0
 62
     0
 10
-184.4054929332797
 20
8.1043282447577951
 30
0.0
 11
-182.63060703093029
 21
9.8792141471072341
 31
0.0
  0
LINE
  5
1695
  8
0
 62
     0
 10
-181.41452658336971
 20
11.27207128996441
 30
0.0
 11
-180.34309801194121
 21
12.343499861392971
 31
0.0
  0
LINE
  5
1696
  8
0
 62
     0
 10
-184.4054929332797
 20
8.2811049400544334
 30
0.0
 11
-182.8073837262269
 21
9.8792141471072341
 31
0.0
  0
LINE
  5
1697
  8
0
 62
     0
 10
-181.5913032786664
 20
11.27207128996441
 30
0.0
 11
-180.51987470723779
 21
12.34349986139298
 31
0.0
  0
LINE
  5
1698
  8
0
 62
     0
 10
-184.4054929332797
 20
8.4578816353510717
 30
0.0
 11
-182.9054929332797
 21
9.9578816353510842
 31
0.0
  0
LINE
  5
1699
  8
0
 62
     0
 10
-181.76807997396301
 20
11.27207128996441
 30
0.0
 11
-180.6966514025344
 21
12.34349986139298
 31
0.0
  0
LINE
  5
169A
  8
0
 62
     0
 10
-184.4054929332797
 20
8.63465833064771
 30
0.0
 11
-182.9054929332797
 21
10.134658330647721
 31
0.0
  0
LINE
  5
169B
  8
0
 62
     0
 10
-181.94485666925959
 20
11.2720712899644
 30
0.0
 11
-180.87342809783101
 21
12.343499861392971
 31
0.0
  0
LINE
  5
169C
  8
0
 62
     0
 10
-184.4054929332797
 20
8.8114350259443182
 30
0.0
 11
-182.9054929332797
 21
10.311435025944339
 31
0.0
  0
LINE
  5
169D
  8
0
 62
     0
 10
-182.12163336455629
 20
11.2720712899644
 30
0.0
 11
-181.0502047931277
 21
12.343499861392971
 31
0.0
  0
LINE
  5
169E
  8
0
 62
     0
 10
-184.4054929332797
 20
8.9882117212409582
 30
0.0
 11
-182.9054929332797
 21
10.48821172124098
 31
0.0
  0
LINE
  5
169F
  8
0
 62
     0
 10
-182.2984100598529
 20
11.2720712899644
 30
0.0
 11
-181.22698148842429
 21
12.343499861392971
 31
0.0
  0
LINE
  5
16A0
  8
0
 62
     0
 10
-184.4054929332797
 20
9.1649884165375965
 30
0.0
 11
-182.9054929332797
 21
10.66498841653762
 31
0.0
  0
LINE
  5
16A1
  8
0
 62
     0
 10
-182.47518675514959
 20
11.2720712899644
 30
0.0
 11
-181.40375818372101
 21
12.343499861392971
 31
0.0
  0
LINE
  5
16A2
  8
0
 62
     0
 10
-184.4054929332797
 20
9.3417651118342349
 30
0.0
 11
-182.9054929332797
 21
10.84176511183426
 31
0.0
  0
LINE
  5
16A3
  8
0
 62
     0
 10
-182.6519634504462
 20
11.2720712899644
 30
0.0
 11
-181.58053487901759
 21
12.343499861392971
 31
0.0
  0
LINE
  5
16A4
  8
0
 62
     0
 10
-184.4054929332797
 20
9.5185418071308572
 30
0.0
 11
-182.9054929332797
 21
11.0185418071309
 31
0.0
  0
LINE
  5
16A5
  8
0
 62
     0
 10
-182.82874014574281
 20
11.27207128996438
 30
0.0
 11
-181.75731157431429
 21
12.343499861392971
 31
0.0
  0
LINE
  5
16A6
  8
0
 62
     0
 10
-184.4054929332797
 20
9.6953185024274973
 30
0.0
 11
-182.9054929332797
 21
11.19531850242752
 31
0.0
  0
LINE
  5
16A7
  8
0
 62
     0
 10
-184.4054929332797
 20
9.8720951977241214
 30
0.0
 11
-181.9340882696109
 21
12.343499861392971
 31
0.0
  0
LINE
  5
16A8
  8
0
 62
     0
 10
-184.4054929332797
 20
10.04887189302076
 30
0.0
 11
-182.11086496490759
 21
12.343499861392971
 31
0.0
  0
LINE
  5
16A9
  8
0
 62
     0
 10
-184.4054929332797
 20
10.225648588317391
 30
0.0
 11
-182.2876416602042
 21
12.343499861392971
 31
0.0
  0
LINE
  5
16AA
  8
0
 62
     0
 10
-184.4054929332797
 20
10.402425283614029
 30
0.0
 11
-182.46441835550081
 21
12.343499861392971
 31
0.0
  0
LINE
  5
16AB
  8
0
 62
     0
 10
-184.4054929332797
 20
10.579201978910669
 30
0.0
 11
-182.64119505079739
 21
12.343499861392971
 31
0.0
  0
LINE
  5
16AC
  8
0
 62
     0
 10
-184.4054929332797
 20
10.755978674207309
 30
0.0
 11
-182.81797174609409
 21
12.343499861392971
 31
0.0
  0
LINE
  5
16AD
  8
0
 62
     0
 10
-184.4054929332797
 20
10.932755369503949
 30
0.0
 11
-182.9947484413907
 21
12.343499861392971
 31
0.0
  0
LINE
  5
16AE
  8
0
 62
     0
 10
-184.4054929332797
 20
11.10953206480057
 30
0.0
 11
-183.17152513668739
 21
12.343499861392971
 31
0.0
  0
LINE
  5
16AF
  8
0
 62
     0
 10
-184.4054929332797
 20
11.28630876009721
 30
0.0
 11
-183.348301831984
 21
12.343499861392971
 31
0.0
  0
LINE
  5
16B0
  8
0
 62
     0
 10
-184.4054929332797
 20
11.46308545539385
 30
0.0
 11
-183.5250785272807
 21
12.343499861392971
 31
0.0
  0
LINE
  5
16B1
  8
0
 62
     0
 10
-184.4054929332797
 20
11.63986215069048
 30
0.0
 11
-183.70185522257731
 21
12.343499861392971
 31
0.0
  0
LINE
  5
16B2
  8
0
 62
     0
 10
-184.4054929332797
 20
11.81663884598712
 30
0.0
 11
-183.87863191787389
 21
12.343499861392971
 31
0.0
  0
LINE
  5
16B3
  8
0
 62
     0
 10
-184.4054929332797
 20
11.99341554128376
 30
0.0
 11
-184.0554086131705
 21
12.34349986139298
 31
0.0
  0
LINE
  5
16B4
  8
0
 62
     0
 10
-184.4054929332797
 20
12.1701922365804
 30
0.0
 11
-184.23218530846711
 21
12.34349986139298
 31
0.0
  0
ENDBLK
  5
16B6
  8
0
  0
ENDSEC
  0
SECTION
  2
ENTITIES
  0
POLYLINE
  5
FD2
  8
L11
 66
     1
 10
0.0
 20
0.0
 30
0.0
  0
VERTEX
  5
16B7
  8
L11
 10
45.249999999999972
 20
175.0
 30
0.0
  0
VERTEX
  5
16B8
  8
L11
 10
0.0
 20
175.0
 30
0.0
  0
VERTEX
  5
16B9
  8
L11
 10
0.0
 20
0.0
 30
0.0
  0
VERTEX
  5
16BA
  8
L11
 10
3.75
 20
0.0
 30
0.0
  0
SEQEND
  5
16BB
  8
L11
  0
LINE
  5
FD3
  8
L6
 10
-19.884970757479799
 20
87.5
 30
0.0
 11
247.89619067877831
 21
87.5
 31
0.0
  0
LINE
  5
FD4
  8
L6
 10
112.5
 20
188.52100700011411
 30
0.0
 11
112.5
 21
-19.101921127133121
 31
0.0
  0
LINE
  5
FD5
  8
L6
 10
47.0
 20
178.639622375974
 30
0.0
 11
47.0
 21
162.06499122843269
 31
0.0
  0
LINE
  5
FD9
  8
L6
 10
40.25151802930074
 20
170.5
 30
0.0
 11
53.228964817464863
 21
170.5
 31
0.0
  0
ARC
  5
FDB
  8
L11
 10
47.0
 20
170.5
 30
0.0
 40
1.75
 50
180.0
 51
0.0
  0
LINE
  5
FDC
  8
L11
 10
45.25
 20
170.5
 30
0.0
 11
45.25
 21
175.0
 31
0.0
  0
LINE
  5
FDD
  8
L11
 10
48.75
 20
170.5
 30
0.0
 11
48.75
 21
175.0
 31
0.0
  0
ARC
  5
FDE
  8
L11
 10
178.0
 20
170.5
 30
0.0
 40
1.75
 50
180.0
 51
0.000000000000007
  0
LINE
  5
FDF
  8
L11
 10
179.75
 20
170.5
 30
0.0
 11
179.75
 21
175.0
 31
0.0
  0
LINE
  5
FE0
  8
L11
 10
176.25
 20
170.5
 30
0.0
 11
176.25
 21
175.0
 31
0.0
  0
ARC
  5
FE1
  8
L11
 10
5.5
 20
4.4999999999999707
 30
0.0
 40
1.75
 50
0.0
 51
180.0
  0
LINE
  5
FE2
  8
L11
 10
3.75
 20
4.4999999999999707
 30
0.0
 11
3.75
 21
0.0
 31
0.0
  0
LINE
  5
FE3
  8
L11
 10
7.25
 20
4.4999999999999707
 30
0.0
 11
7.25
 21
0.0
 31
0.0
  0
ARC
  5
FE4
  8
L11
 10
219.5
 20
4.4999999999999707
 30
0.0
 40
1.75
 50
0.0
 51
180.0
  0
LINE
  5
FE5
  8
L11
 10
217.75
 20
4.4999999999999707
 30
0.0
 11
217.75
 21
0.0
 31
0.0
  0
LINE
  5
FE6
  8
L11
 10
221.25
 20
4.4999999999999707
 30
0.0
 11
221.25
 21
0.0
 31
0.0
  0
POLYLINE
  5
FE7
  8
L11
 66
     1
 10
0.0
 20
0.0
 30
0.0
  0
VERTEX
  5
16BC
  8
L11
 10
176.25
 20
175.0
 30
0.0
  0
VERTEX
  5
16BD
  8
L11
 10
48.750000000000028
 20
175.0
 30
0.0
  0
SEQEND
  5
16BE
  8
L11
  0
POLYLINE
  5
FE8
  8
L11
 66
     1
 10
0.0
 20
0.0
 30
0.0
  0
VERTEX
  5
16BF
  8
L11
 10
221.24999999999989
 20
0.0
 30
0.0
  0
VERTEX
  5
16C0
  8
L11
 10
225.0
 20
0.0
 30
0.0
  0
VERTEX
  5
16C1
  8
L11
 10
225.0
 20
175.0
 30
0.0
  0
VERTEX
  5
16C2
  8
L11
 10
179.74999999999989
 20
175.0
 30
0.0
  0
SEQEND
  5
16C3
  8
L11
  0
POLYLINE
  5
FE9
  8
L11
 66
     1
 10
0.0
 20
0.0
 30
0.0
  0
VERTEX
  5
16C4
  8
L11
 10
7.2499999999999822
 20
0.0
 30
0.0
  0
VERTEX
  5
16C5
  8
L11
 10
217.75
 20
0.0
 30
0.0
  0
SEQEND
  5
16C6
  8
L11
  0
LINE
  5
FEA
  8
L6
 10
178.0
 20
178.639622375974
 30
0.0
 11
178.0
 21
162.06499122843269
 31
0.0
  0
LINE
  5
FEB
  8
L6
 10
171.25151802930071
 20
170.5
 30
0.0
 11
184.2289648174648
 21
170.5
 31
0.0
  0
LINE
  5
FEC
  8
L6
 10
219.5
 20
12.639622375974019
 30
0.0
 11
219.5
 21
-3.9350087715673392
 31
0.0
  0
LINE
  5
FED
  8
L6
 10
212.75151802930071
 20
4.4999999999999707
 30
0.0
 11
225.7289648174648
 21
4.4999999999999707
 31
0.0
  0
LINE
  5
FEE
  8
L6
 10
5.5
 20
12.639622375974019
 30
0.0
 11
5.5
 21
-3.9350087715673392
 31
0.0
  0
LINE
  5
FEF
  8
L6
 10
-1.2484819706992589
 20
4.4999999999999707
 30
0.0
 11
11.728964817464851
 21
4.4999999999999707
 31
0.0
  0
TEXT
  5
1255
  8
L11
 10
139.88390727455041
 20
105.4541877346407
 30
0.0
 40
2.5
  1
s=1.5
  0
VIEWPORT
  5
22
 67
     1
  8
0
 10
-184.39075217320641
 20
143.70483974192899
 30
0.0
 40
488.28420248349119
 41
315.92507777392137
 68
     1
 69
     1
1001
ACAD
1000
MVIEW
1002
{
1070
    16
1010
0.0
1020
0.0
1030
0.0
1010
0.0
1020
0.0
1030
1.0
1040
0.0
1040
315.92507777392137
1040
-184.39075217320641
1040
143.70483974192899
1040
50.0
1040
0.0
1040
0.0
1070
     0
1070
   100
1070
     1
1070
     1
1070
     0
1070
     0
1070
     0
1070
     0
1040
0.0
1040
0.0
1040
0.0
1040
1.0
1040
1.0
1040
10.0
1040
10.0
1070
     0
1002
{
1002
}
1002
}
  0
ENDSEC
  0
EOF
