  0
SECTION
  2
HEADER
  9
$ACADVER
  1
AC1014
  9
$ACADMAINTVER
 70
     9
  9
$DWGCODEPAGE
  3
ANSI_1252
  9
$INSBASE
 10
0.0
 20
0.0
 30
0.0
  9
$EXTMIN
 10
0.0
 20
0.0
 30
0.0
  9
$EXTMAX
 10
840.0
 20
594.0
 30
0.0
  9
$LIMMIN
 10
0.0
 20
0.0
  9
$LIMMAX
 10
0.0
 20
0.0
  9
$ORTHOMODE
 70
     0
  9
$REGENMODE
 70
     1
  9
$FILLMODE
 70
     1
  9
$QTEXTMODE
 70
     0
  9
$MIRRTEXT
 70
     1
  9
$DRAGMODE
 70
     2
  9
$LTSCALE
 40
1.0
  9
$OSMODE
 70
    37
  9
$ATTMODE
 70
     1
  9
$TEXTSIZE
 40
7.0
  9
$TRACEWID
 40
1.0
  9
$TEXTSTYLE
  7
STANDARD
  9
$CLAYER
  8
0
  9
$CELTYPE
  6
BYLAYER
  9
$CECOLOR
 62
   256
  9
$CELTSCALE
 40
1.0
  9
$DELOBJ
 70
     1
  9
$DISPSILH
 70
     0
  9
$DIMSCALE
 40
1.0
  9
$DIMASZ
 40
12.0
  9
$DIMEXO
 40
2.0
  9
$DIMDLI
 40
3.75
  9
$DIMRND
 40
0.0
  9
$DIMDLE
 40
0.0
  9
$DIMEXE
 40
2.0
  9
$DIMTP
 40
0.0
  9
$DIMTM
 40
0.0
  9
$DIMTXT
 40
7.0
  9
$DIMCEN
 40
2.5
  9
$DIMTSZ
 40
0.0
  9
$DIMTOL
 70
     0
  9
$DIMLIM
 70
     0
  9
$DIMTIH
 70
     1
  9
$DIMTOH
 70
     1
  9
$DIMSE1
 70
     0
  9
$DIMSE2
 70
     0
  9
$DIMTAD
 70
     1
  9
$DIMZIN
 70
     0
  9
$DIMBLK
  1

  9
$DIMASO
 70
     1
  9
$DIMSHO
 70
     1
  9
$DIMPOST
  1

  9
$DIMAPOST
  1

  9
$DIMALT
 70
     0
  9
$DIMALTD
 70
     3
  9
$DIMALTF
 40
0.0393700787
  9
$DIMLFAC
 40
1.0
  9
$DIMTOFL
 70
     1
  9
$DIMTVP
 40
0.0
  9
$DIMTIX
 70
     0
  9
$DIMSOXD
 70
     0
  9
$DIMSAH
 70
     0
  9
$DIMBLK1
  1

  9
$DIMBLK2
  1

  9
$DIMSTYLE
  2
ISO-25
  9
$DIMCLRD
 70
     0
  9
$DIMCLRE
 70
     0
  9
$DIMCLRT
 70
     0
  9
$DIMTFAC
 40
1.0
  9
$DIMGAP
 40
3.048
  9
$DIMJUST
 70
     0
  9
$DIMSD1
 70
     0
  9
$DIMSD2
 70
     0
  9
$DIMTOLJ
 70
     0
  9
$DIMTZIN
 70
     0
  9
$DIMALTZ
 70
     0
  9
$DIMALTTZ
 70
     0
  9
$DIMFIT
 70
     3
  9
$DIMUPT
 70
     0
  9
$DIMUNIT
 70
     2
  9
$DIMDEC
 70
     2
  9
$DIMTDEC
 70
     2
  9
$DIMALTU
 70
     2
  9
$DIMALTTD
 70
     3
  9
$DIMTXSTY
  7
STANDARD
  9
$DIMAUNIT
 70
     0
  9
$LUNITS
 70
     2
  9
$LUPREC
 70
     1
  9
$SKETCHINC
 40
1.0
  9
$FILLETRAD
 40
10.0
  9
$AUNITS
 70
     0
  9
$AUPREC
 70
     0
  9
$MENU
  1
.
  9
$ELEVATION
 40
0.0
  9
$PELEVATION
 40
0.0
  9
$THICKNESS
 40
0.0
  9
$LIMCHECK
 70
     0
  9
$CHAMFERA
 40
10.0
  9
$CHAMFERB
 40
10.0
  9
$CHAMFERC
 40
20.0
  9
$CHAMFERD
 40
0.0
  9
$SKPOLY
 70
     0
  9
$TDCREATE
 40
2454575.570347049
  9
$TDUPDATE
 40
2454575.57034706
  9
$TDINDWG
 40
0.0000000116
  9
$TDUSRTIMER
 40
0.0000000116
  9
$USRTIMER
 70
     1
  9
$ANGBASE
 50
0.0
  9
$ANGDIR
 70
     0
  9
$PDMODE
 70
     0
  9
$PDSIZE
 40
-1.0
  9
$PLINEWID
 40
0.0
  9
$COORDS
 70
     1
  9
$SPLFRAME
 70
     0
  9
$SPLINETYPE
 70
     6
  9
$SPLINESEGS
 70
     8
  9
$ATTDIA
 70
     0
  9
$ATTREQ
 70
     1
  9
$HANDLING
 70
     1
  9
$HANDSEED
  5
2F2
  9
$SURFTAB1
 70
     6
  9
$SURFTAB2
 70
     6
  9
$SURFTYPE
 70
     6
  9
$SURFU
 70
     6
  9
$SURFV
 70
     6
  9
$UCSNAME
  2

  9
$UCSORG
 10
0.0
 20
0.0
 30
0.0
  9
$UCSXDIR
 10
1.0
 20
0.0
 30
0.0
  9
$UCSYDIR
 10
0.0
 20
1.0
 30
0.0
  9
$PUCSNAME
  2

  9
$PUCSORG
 10
0.0
 20
0.0
 30
0.0
  9
$PUCSXDIR
 10
1.0
 20
0.0
 30
0.0
  9
$PUCSYDIR
 10
0.0
 20
1.0
 30
0.0
  9
$USERI1
 70
     0
  9
$USERI2
 70
     0
  9
$USERI3
 70
     0
  9
$USERI4
 70
     0
  9
$USERI5
 70
     0
  9
$USERR1
 40
0.0
  9
$USERR2
 40
0.0
  9
$USERR3
 40
0.0
  9
$USERR4
 40
0.0
  9
$USERR5
 40
0.0
  9
$WORLDVIEW
 70
     1
  9
$SHADEDGE
 70
     3
  9
$SHADEDIF
 70
    70
  9
$TILEMODE
 70
     1
  9
$MAXACTVP
 70
    64
  9
$PINSBASE
 10
0.0
 20
0.0
 30
0.0
  9
$PLIMCHECK
 70
     0
  9
$PEXTMIN
 10
1.0000000000E+20
 20
1.0000000000E+20
 30
1.0000000000E+20
  9
$PEXTMAX
 10
-1.0000000000E+20
 20
-1.0000000000E+20
 30
-1.0000000000E+20
  9
$PLIMMIN
 10
0.0
 20
0.0
  9
$PLIMMAX
 10
420.0
 20
297.0
  9
$UNITMODE
 70
     0
  9
$VISRETAIN
 70
     1
  9
$PLINEGEN
 70
     0
  9
$PSLTSCALE
 70
     1
  9
$TREEDEPTH
 70
  3020
  9
$PICKSTYLE
 70
     1
  9
$CMLSTYLE
  2
STANDARD
  9
$CMLJUST
 70
     0
  9
$CMLSCALE
 40
20.0
  9
$PROXYGRAPHICS
 70
     1
  9
$MEASUREMENT
 70
     1
  0
ENDSEC
  0
SECTION
  2
CLASSES
  0
CLASS
  1
ACDBDICTIONARYWDFLT
  2
AcDbDictionaryWithDefault
  3
ObjectDBX Classes
 90
        0
280
     0
281
     0
  0
CLASS
  1
XRECORD
  2
AcDbXrecord
  3
AutoCAD 2000
 90
        0
280
     0
281
     0
  0
CLASS
  1
LWPOLYLINE
  2
AcDbPolyline
  3
AutoCAD 2000
 90
        0
280
     0
281
     1
  0
CLASS
  1
HATCH
  2
AcDbHatch
  3
AutoCAD 2000
 90
        0
280
     0
281
     1
  0
CLASS
  1
ACDBPLACEHOLDER
  2
AcDbPlaceHolder
  3
ObjectDBX Classes
 90
        0
280
     0
281
     0
  0
CLASS
  1
LAYOUT
  2
AcDbLayout
  3
ObjectDBX Classes
 90
        0
280
     0
281
     0
  0
ENDSEC
  0
SECTION
  2
TABLES
  0
TABLE
  2
VPORT
  5
8
330
0
100
AcDbSymbolTable
 70
     1
  0
VPORT
  5
29
330
8
100
AcDbSymbolTableRecord
100
AcDbViewportTableRecord
  2
*ACTIVE
 70
     0
 10
0.0
 20
0.0
 11
1.0
 21
1.0
 12
420.0
 22
297.0
 13
0.0
 23
0.0
 14
10.0
 24
10.0
 15
10.0
 25
10.0
 16
0.0
 26
0.0
 36
1.0
 17
0.0
 27
0.0
 37
0.0
 40
594.0
 41
1.4141414141
 42
50.0
 43
0.0
 44
0.0
 50
0.0
 51
0.0
 71
     0
 72
  2000
 73
     1
 74
     3
 75
     0
 76
     0
 77
     0
 78
     0
  0
ENDTAB
  0
TABLE
  2
LTYPE
  5
5
330
0
100
AcDbSymbolTable
 70
     6
  0
LTYPE
  5
14
330
5
100
AcDbSymbolTableRecord
100
AcDbLinetypeTableRecord
  2
BYBLOCK
 70
     0
  3

 72
    65
 73
     0
 40
0.0
  0
LTYPE
  5
15
330
5
100
AcDbSymbolTableRecord
100
AcDbLinetypeTableRecord
  2
BYLAYER
 70
     0
  3

 72
    65
 73
     0
 40
0.0
  0
LTYPE
  5
16
330
5
100
AcDbSymbolTableRecord
100
AcDbLinetypeTableRecord
  2
CONTINUOUS
 70
     0
  3
Solid line
 72
    65
 73
     0
 40
0.0
  0
LTYPE
  5
2A
330
5
100
AcDbSymbolTableRecord
100
AcDbLinetypeTableRecord
  2
HIDDEN
 70
     0
  3
Hidden __ __ __ __ __ __ __ __ __ __ __ __ __ __
 72
    65
 73
     2
 40
1.905
 49
1.27
 74
     0
 49
-0.635
 74
     0
  0
LTYPE
  5
2B
330
5
100
AcDbSymbolTableRecord
100
AcDbLinetypeTableRecord
  2
PHANTOM
 70
     0
  3
Phantom ______  __  __  ______  __  __  ______
 72
    65
 73
     6
 40
12.7
 49
6.35
 74
     0
 49
-1.27
 74
     0
 49
1.27
 74
     0
 49
-1.27
 74
     0
 49
1.27
 74
     0
 49
-1.27
 74
     0
  0
LTYPE
  5
2C
330
5
100
AcDbSymbolTableRecord
100
AcDbLinetypeTableRecord
  2
CENTER
 70
     0
  3
Center ____ _ ____ _ ____ _ ____ _ ____ _ ____
 72
    65
 73
     4
 40
10.16
 49
6.35
 74
     0
 49
-1.27
 74
     0
 49
1.27
 74
     0
 49
-1.27
 74
     0
  0
LTYPE
  5
2D
330
5
100
AcDbSymbolTableRecord
100
AcDbLinetypeTableRecord
  2
CENTERX2
 70
     0
  3
Center (2x) ________  __  ________  __  _____
 72
    65
 73
     4
 40
20.32
 49
12.7
 74
     0
 49
-2.54
 74
     0
 49
2.54
 74
     0
 49
-2.54
 74
     0
  0
LTYPE
  5
2E
330
5
100
AcDbSymbolTableRecord
100
AcDbLinetypeTableRecord
  2
DOT2
 70
     0
  3
Dot (.5x) ........................................
 72
    65
 73
     2
 40
0.635
 49
0.0
 74
     0
 49
-0.635
 74
     0
  0
ENDTAB
  0
TABLE
  2
LAYER
  5
2
330
0
100
AcDbSymbolTable
 70
     1
  0
LAYER
  5
10
330
2
100
AcDbSymbolTableRecord
100
AcDbLayerTableRecord
  2
0
 70
     0
 62
     7
  6
CONTINUOUS
  0
ENDTAB
  0
TABLE
  2
STYLE
  5
3
330
0
100
AcDbSymbolTable
 70
     2
  0
STYLE
  5
11
330
3
100
AcDbSymbolTableRecord
100
AcDbTextStyleTableRecord
  2
STANDARD
 70
     0
 40
0.0
 41
1.0
 50
0.0
 71
     0
 42
2.5
  3
txt
  4

  0
STYLE
  5
2F
330
3
100
AcDbSymbolTableRecord
100
AcDbTextStyleTableRecord
  2
SLDTEXTSTYLE0
 70
     0
 40
0.0
 41
0.69375
 50
0.0
 71
     0
 42
0.2
  3
TXT
  4

  0
ENDTAB
  0
TABLE
  2
VIEW
  5
6
330
0
100
AcDbSymbolTable
 70
     0
  0
ENDTAB
  0
TABLE
  2
UCS
  5
7
330
0
100
AcDbSymbolTable
 70
     0
  0
ENDTAB
  0
TABLE
  2
APPID
  5
9
330
0
100
AcDbSymbolTable
 70
     1
  0
APPID
  5
12
330
9
100
AcDbSymbolTableRecord
100
AcDbRegAppTableRecord
  2
ACAD
 70
     0
  0
ENDTAB
  0
TABLE
  2
DIMSTYLE
  5
A
330
0
100
AcDbSymbolTable
 70
     1
  0
DIMSTYLE
105
27
330
A
100
AcDbSymbolTableRecord
100
AcDbDimStyleTableRecord
  2
ISO-25
 70
     0
  3

  4

  5

  6

  7

 40
1.0
 41
2.5
 42
0.625
 43
3.75
 44
1.25
 45
0.0
 46
0.0
 47
0.0
 48
0.0
140
2.5
141
2.5
142
0.0
143
0.0393700787
144
1.0
145
0.0
146
1.0
147
0.625
 71
     0
 72
     0
 73
     0
 74
     0
 75
     0
 76
     0
 77
     1
 78
     8
170
     0
171
     3
172
     1
173
     0
174
     0
175
     0
176
     0
177
     0
178
     0
270
     2
271
     2
272
     2
273
     2
274
     3
340
11
275
     0
280
     0
281
     0
282
     0
283
     0
284
     8
285
     0
286
     0
287
     3
288
     0
  0
ENDTAB
  0
TABLE
  2
BLOCK_RECORD
  5
1
330
0
100
AcDbSymbolTable
 70
     1
  0
BLOCK_RECORD
  5
1F
330
1
100
AcDbSymbolTableRecord
100
AcDbBlockTableRecord
  2
*MODEL_SPACE
  0
BLOCK_RECORD
  5
1B
330
1
100
AcDbSymbolTableRecord
100
AcDbBlockTableRecord
  2
*PAPER_SPACE
  0
ENDTAB
  0
ENDSEC
  0
SECTION
  2
BLOCKS
  0
BLOCK
  5
20
330
1F
100
AcDbEntity
  8
0
100
AcDbBlockBegin
  2
*MODEL_SPACE
 70
     0
 71
     0
 10
0.0
 20
0.0
 30
0.0
  3
*MODEL_SPACE
  1

  0
ENDBLK
  5
21
330
1F
100
AcDbEntity
  8
0
100
AcDbBlockEnd
  0
BLOCK
  5
1C
330
1B
100
AcDbEntity
 67
     1
  8
0
100
AcDbBlockBegin
  2
*PAPER_SPACE
 70
     0
 71
     0
 10
0.0
 20
0.0
 30
0.0
  3
*PAPER_SPACE
  1

  0
ENDBLK
  5
1D
330
1B
100
AcDbEntity
 67
     1
  8
0
100
AcDbBlockEnd
  0
ENDSEC
  0
SECTION
  2
ENTITIES
  0
MTEXT
  5
30
330
1F
100
AcDbEntity
  8
0
  6
CONTINUOUS
 62
     7
100
AcDbMText
 10
208.4385218365
 20
444.1675087904
 30
0.0
 40
7.0
 41
0.0
 71
     1
 72
     1
  1
FIBOX MNX PCM150X Base
  7
SLDTEXTSTYLE0
  0
LINE
  5
31
330
1F
100
AcDbEntity
  8
0
  6
CONTINUOUS
 62
     7
100
AcDbLine
 10
450.3191508887
 20
484.7955675781
 30
0.0
 11
450.3191508887
 21
484.7973128766
 31
0.0
  0
LINE
  5
32
330
1F
100
AcDbEntity
  8
0
  6
CONTINUOUS
 62
     7
100
AcDbLine
 10
429.8191521851
 20
484.7973128766
 30
0.0
 11
429.8191521851
 21
484.7955675781
 31
0.0
  0
LINE
  5
33
330
1F
100
AcDbEntity
  8
0
  6
CONTINUOUS
 62
     7
100
AcDbLine
 10
520.3191493241
 20
484.7955675781
 30
0.0
 11
520.3191493241
 21
484.7973128766
 31
0.0
  0
LINE
  5
34
330
1F
100
AcDbEntity
  8
0
  6
CONTINUOUS
 62
     7
100
AcDbLine
 10
499.8191506205
 20
484.7973128766
 30
0.0
 11
499.8191506205
 21
484.7955675781
 31
0.0
  0
LINE
  5
35
330
1F
100
AcDbEntity
  8
0
  6
CONTINUOUS
 62
     7
100
AcDbLine
 10
491.0691515146
 20
470.7961017252
 30
0.0
 11
491.0691515146
 21
470.797845161
 31
0.0
  0
LINE
  5
36
330
1F
100
AcDbEntity
  8
0
  6
CONTINUOUS
 62
     7
100
AcDbLine
 10
459.0691499947
 20
470.797845161
 30
0.0
 11
459.0691499947
 21
470.7961017252
 31
0.0
  0
LINE
  5
37
330
1F
100
AcDbEntity
  8
0
  6
CONTINUOUS
 62
     7
100
AcDbLine
 10
437.8191497711
 20
454.7967100502
 30
0.0
 11
437.8191497711
 21
454.798453486
 31
0.0
  0
LINE
  5
38
330
1F
100
AcDbEntity
  8
0
  6
CONTINUOUS
 62
     7
100
AcDbLine
 10
412.3191539733
 20
454.798453486
 30
0.0
 11
412.3191539733
 21
454.7967100502
 31
0.0
  0
LINE
  5
39
330
1F
100
AcDbEntity
  8
0
  6
CONTINUOUS
 62
     7
100
AcDbLine
 10
537.819147536
 20
454.7967100502
 30
0.0
 11
537.819147536
 21
454.798453486
 31
0.0
  0
LINE
  5
3A
330
1F
100
AcDbEntity
  8
0
  6
CONTINUOUS
 62
     7
100
AcDbLine
 10
485.0691505311
 20
470.797845161
 30
0.0
 11
485.0691505311
 21
470.7995923222
 31
0.0
  0
LINE
  5
3B
330
1F
100
AcDbEntity
  8
0
  6
CONTINUOUS
 62
     7
100
AcDbLine
 10
465.0691509781
 20
470.7995923222
 30
0.0
 11
465.0691509781
 21
470.797845161
 31
0.0
  0
LINE
  5
3C
330
1F
100
AcDbEntity
  8
0
  6
CONTINUOUS
 62
     7
100
AcDbLine
 10
433.3191518275
 20
454.798453486
 30
0.0
 11
433.3191518275
 21
454.8002006472
 31
0.0
  0
LINE
  5
3D
330
1F
100
AcDbEntity
  8
0
  6
CONTINUOUS
 62
     7
100
AcDbLine
 10
416.8191519169
 20
454.8002006472
 30
0.0
 11
416.8191519169
 21
454.798453486
 31
0.0
  0
LINE
  5
3E
330
1F
100
AcDbEntity
  8
0
  6
CONTINUOUS
 62
     7
100
AcDbLine
 10
533.3191495923
 20
454.798453486
 30
0.0
 11
533.3191495923
 21
454.8002006472
 31
0.0
  0
LINE
  5
3F
330
1F
100
AcDbEntity
  8
0
  6
CONTINUOUS
 62
     7
100
AcDbLine
 10
516.8191496817
 20
454.8002006472
 30
0.0
 11
516.8191496817
 21
454.798453486
 31
0.0
  0
LINE
  5
40
330
1F
100
AcDbEntity
  8
0
  6
CONTINUOUS
 62
     7
100
AcDbLine
 10
388.5191534249
 20
500.7976233014
 30
0.0
 11
388.5191534249
 21
504.7976234914
 31
0.0
  0
LINE
  5
41
330
1F
100
AcDbEntity
  8
0
  6
CONTINUOUS
 62
     7
100
AcDbLine
 10
385.0540597526
 20
500.7976233014
 30
0.0
 11
388.5191534249
 21
500.7976233014
 31
0.0
  0
LINE
  5
42
330
1F
100
AcDbEntity
  8
0
  6
CONTINUOUS
 62
     7
100
AcDbLine
 10
385.0540597526
 20
500.7976233014
 30
0.0
 11
385.0191537825
 21
504.7976234914
 31
0.0
  0
LINE
  5
43
330
1F
100
AcDbEntity
  8
0
  6
CONTINUOUS
 62
     7
100
AcDbLine
 10
385.0191537825
 20
504.7976234914
 30
0.0
 11
388.5191534249
 21
504.7976234914
 31
0.0
  0
LINE
  5
44
330
1F
100
AcDbEntity
  8
0
  6
CONTINUOUS
 62
     7
100
AcDbLine
 10
400.130033919
 20
430.7976225377
 30
0.0
 11
550.0082675902
 21
430.7976225377
 31
0.0
  0
LINE
  5
45
330
1F
100
AcDbEntity
  8
0
  6
CONTINUOUS
 62
     7
100
AcDbLine
 10
400.130033919
 20
430.7976225377
 30
0.0
 11
399.5364536135
 21
498.8150764242
 31
0.0
  0
ARC
  5
46
330
1F
100
AcDbEntity
  8
0
  6
CONTINUOUS
 62
     7
100
AcDbCircle
 10
397.5365283334
 20
498.7976234914
 30
0.0
 40
2.000000000000011
100
AcDbArc
 50
0.5
 51
90.0
  0
LINE
  5
47
330
1F
100
AcDbEntity
  8
0
  6
CONTINUOUS
 62
     7
100
AcDbLine
 10
388.5191534249
 20
500.7976233014
 30
0.0
 11
397.5365315167
 21
500.7976233014
 31
0.0
  0
LINE
  5
48
330
1F
100
AcDbEntity
  8
0
  6
CONTINUOUS
 62
     7
100
AcDbLine
 10
561.6191480843
 20
500.7976233014
 30
0.0
 11
561.6191480843
 21
504.7976234914
 31
0.0
  0
LINE
  5
49
330
1F
100
AcDbEntity
  8
0
  6
CONTINUOUS
 62
     7
100
AcDbLine
 10
552.6017699925
 20
500.7976233014
 30
0.0
 11
561.6191480843
 21
500.7976233014
 31
0.0
  0
ARC
  5
4A
330
1F
100
AcDbEntity
  8
0
  6
CONTINUOUS
 62
     7
100
AcDbCircle
 10
552.6017731758
 20
498.7976234914
 30
0.0
 40
2.000000000000011
100
AcDbArc
 50
90.0
 51
179.5
  0
LINE
  5
4B
330
1F
100
AcDbEntity
  8
0
  6
CONTINUOUS
 62
     7
100
AcDbLine
 10
550.6018478958
 20
498.8150764242
 30
0.0
 11
550.0082675902
 21
430.7976225377
 31
0.0
  0
CIRCLE
  5
4C
330
1F
100
AcDbEntity
  8
0
  6
CONTINUOUS
 62
     7
100
AcDbCircle
 10
425.0690922675
 20
454.7970530715
 30
0.0
 40
12.74985849530573
  0
CIRCLE
  5
4D
330
1F
100
AcDbEntity
  8
0
  6
CONTINUOUS
 62
     7
100
AcDbCircle
 10
525.0691820411
 20
454.7963656042
 30
0.0
 40
12.74985991984684
  0
CIRCLE
  5
4E
330
1F
100
AcDbEntity
  8
0
  6
CONTINUOUS
 62
     7
100
AcDbCircle
 10
475.0690887689
 20
470.796516132
 30
0.0
 40
15.99980608198384
  0
CIRCLE
  5
4F
330
1F
100
AcDbEntity
  8
0
  6
CONTINUOUS
 62
     7
100
AcDbCircle
 10
440.0691050479
 20
484.795835424
 30
0.0
 40
10.24987697359825
  0
CIRCLE
  5
50
330
1F
100
AcDbEntity
  8
0
  6
CONTINUOUS
 62
     7
100
AcDbCircle
 10
510.0691053575
 20
484.7958355753
 30
0.0
 40
10.24987712492221
  0
LINE
  5
51
330
1F
100
AcDbEntity
  8
0
  6
CONTINUOUS
 62
     7
100
AcDbLine
 10
388.5191534249
 20
504.7976234914
 30
0.0
 11
561.6191480843
 21
504.7976234914
 31
0.0
  0
LINE
  5
52
330
1F
100
AcDbEntity
  8
0
  6
CONTINUOUS
 62
     7
100
AcDbLine
 10
565.0842417566
 20
500.7976233014
 30
0.0
 11
565.1191477267
 21
504.7976234914
 31
0.0
  0
LINE
  5
53
330
1F
100
AcDbEntity
  8
0
  6
CONTINUOUS
 62
     7
100
AcDbLine
 10
561.6191480843
 20
500.7976233014
 30
0.0
 11
565.0842417566
 21
500.7976233014
 31
0.0
  0
LINE
  5
54
330
1F
100
AcDbEntity
  8
0
  6
CONTINUOUS
 62
     7
100
AcDbLine
 10
561.6191480843
 20
504.7976234914
 30
0.0
 11
565.1191477267
 21
504.7976234914
 31
0.0
  0
ARC
  5
55
330
1F
100
AcDbEntity
  8
0
  6
CONTINUOUS
 62
     7
100
AcDbCircle
 10
440.0693818341
 20
484.7974728023
 30
0.0
 40
10.24976905590017
100
AcDbArc
 50
269.9987074425
 51
359.9991060223
  0
ARC
  5
56
330
1F
100
AcDbEntity
  8
0
  6
CONTINUOUS
 62
     7
100
AcDbCircle
 10
440.0689592366
 20
484.7975108006
 30
0.0
 40
10.24980705333286
100
AcDbArc
 50
180.0011063822
 51
270.001069741
  0
ARC
  5
57
330
1F
100
AcDbEntity
  8
0
  6
CONTINUOUS
 62
     7
100
AcDbCircle
 10
510.0693810801
 20
484.7974719917
 30
0.0
 40
10.24976824528511
100
AcDbArc
 50
269.9987133233
 51
359.9991105534
  0
ARC
  5
58
330
1F
100
AcDbEntity
  8
0
  6
CONTINUOUS
 62
     7
100
AcDbCircle
 10
510.0689594463
 20
484.797512575
 30
0.0
 40
10.24980882774869
100
AcDbArc
 50
180.0011163009
 51
270.0010702342
  0
ARC
  5
59
330
1F
100
AcDbEntity
  8
0
  6
CONTINUOUS
 62
     7
100
AcDbCircle
 10
475.0694661213
 20
470.7981388789
 30
0.0
 40
15.99968539593877
100
AcDbArc
 50
269.9988706539
 51
359.9989481798
  0
ARC
  5
5A
330
1F
100
AcDbEntity
  8
0
  6
CONTINUOUS
 62
     7
100
AcDbCircle
 10
475.0688537799
 20
470.7981572716
 30
0.0
 40
15.99970378832543
100
AcDbArc
 50
180.0011176844
 51
270.0010634819
  0
ARC
  5
5B
330
1F
100
AcDbEntity
  8
0
  6
CONTINUOUS
 62
     7
100
AcDbCircle
 10
425.0694009924
 20
454.7986867906
 30
0.0
 40
12.74974878090044
100
AcDbArc
 50
269.9988721146
 51
359.9989515583
  0
ARC
  5
5C
330
1F
100
AcDbEntity
  8
0
  6
CONTINUOUS
 62
     7
100
AcDbCircle
 10
425.0688963349
 20
454.7986803733
 30
0.0
 40
12.74974236361117
100
AcDbArc
 50
180.0010196035
 51
270.001139983
  0
ARC
  5
5D
330
1F
100
AcDbEntity
  8
0
  6
CONTINUOUS
 62
     7
100
AcDbCircle
 10
525.069149637
 20
454.7988353121
 30
0.0
 40
12.74999790465357
100
AcDbArc
 50
180.001715845
 51
359.998284155
  0
CIRCLE
  5
5E
330
1F
100
AcDbEntity
  8
0
  6
CONTINUOUS
 62
     7
100
AcDbCircle
 10
475.0690968637
 20
470.7980977298
 30
0.0
 40
9.999870503104354
  0
ARC
  5
5F
330
1F
100
AcDbEntity
  8
0
  6
CONTINUOUS
 62
     7
100
AcDbCircle
 10
475.0693383905
 20
470.7997828033
 30
0.0
 40
9.99981214242493
100
AcDbArc
 50
269.9989249055
 51
359.9989086029
  0
ARC
  5
60
330
1F
100
AcDbEntity
  8
0
  6
CONTINUOUS
 62
     7
100
AcDbCircle
 10
475.0689631188
 20
470.7997828033
 30
0.0
 40
9.99981214242493
100
AcDbArc
 50
180.0010913971
 51
270.0010750946
  0
CIRCLE
  5
61
330
1F
100
AcDbEntity
  8
0
  6
CONTINUOUS
 62
     7
100
AcDbCircle
 10
425.0691220549
 20
454.7986710365
 30
0.0
 40
8.249902718812745
  0
CIRCLE
  5
62
330
1F
100
AcDbEntity
  8
0
  6
CONTINUOUS
 62
     7
100
AcDbCircle
 10
525.0691235495
 20
454.7986710895
 30
0.0
 40
8.249902771751973
  0
ARC
  5
63
330
1F
100
AcDbEntity
  8
0
  6
CONTINUOUS
 62
     7
100
AcDbCircle
 10
425.0693226002
 20
454.8003447057
 30
0.0
 40
8.249829228550198
100
AcDbArc
 50
269.998801343
 51
359.9989995014
  0
ARC
  5
64
330
1F
100
AcDbEntity
  8
0
  6
CONTINUOUS
 62
     7
100
AcDbCircle
 10
425.0689773793
 20
454.8003409407
 30
0.0
 40
8.249825463604598
100
AcDbArc
 50
180.0009743512
 51
270.0011989325
  0
ARC
  5
65
330
1F
100
AcDbEntity
  8
0
  6
CONTINUOUS
 62
     7
100
AcDbCircle
 10
525.0693241299
 20
454.8003409407
 30
0.0
 40
8.249825463604541
100
AcDbArc
 50
269.9988010675
 51
359.9990256488
  0
ARC
  5
66
330
1F
100
AcDbEntity
  8
0
  6
CONTINUOUS
 62
     7
100
AcDbCircle
 10
525.068978909
 20
454.8003447057
 30
0.0
 40
8.249829228550254
100
AcDbArc
 50
180.0010004986
 51
270.001198657
  0
LINE
  5
67
330
1F
100
AcDbEntity
  8
0
  6
CONTINUOUS
 62
     7
100
AcDbLine
 10
388.5191534249
 20
429.7976205111
 30
0.0
 11
388.5191534249
 21
500.7976233014
 31
0.0
  0
LINE
  5
68
330
1F
100
AcDbEntity
  8
0
  6
CONTINUOUS
 62
     7
100
AcDbLine
 10
388.5191534249
 20
429.7976205111
 30
0.0
 11
386.3387559144
 21
429.7976205111
 31
0.0
  0
LINE
  5
69
330
1F
100
AcDbEntity
  8
0
  6
CONTINUOUS
 62
     7
100
AcDbLine
 10
386.3387559144
 20
429.7976205111
 30
0.0
 11
385.7191507308
 21
500.7976233014
 31
0.0
  0
LINE
  5
6A
330
1F
100
AcDbEntity
  8
0
  6
CONTINUOUS
 62
     7
100
AcDbLine
 10
400.3213052241
 20
429.7976205111
 30
0.0
 11
400.330029854
 21
430.7976225377
 31
0.0
  0
LINE
  5
6B
330
1F
100
AcDbEntity
  8
0
  6
CONTINUOUS
 62
     7
100
AcDbLine
 10
400.3213052241
 20
429.7976205111
 30
0.0
 11
388.5191534249
 21
429.7976205111
 31
0.0
  0
LINE
  5
6C
330
1F
100
AcDbEntity
  8
0
  6
CONTINUOUS
 62
     7
100
AcDbLine
 10
561.6191480843
 20
429.7976205111
 30
0.0
 11
561.6191480843
 21
500.7976233014
 31
0.0
  0
LINE
  5
6D
330
1F
100
AcDbEntity
  8
0
  6
CONTINUOUS
 62
     7
100
AcDbLine
 10
561.6191480843
 20
429.7976205111
 30
0.0
 11
549.8169962851
 21
429.7976205111
 31
0.0
  0
LINE
  5
6E
330
1F
100
AcDbEntity
  8
0
  6
CONTINUOUS
 62
     7
100
AcDbLine
 10
549.8169962851
 20
429.7976205111
 30
0.0
 11
549.8082716553
 21
430.7976225377
 31
0.0
  0
LINE
  5
6F
330
1F
100
AcDbEntity
  8
0
  6
CONTINUOUS
 62
     7
100
AcDbLine
 10
563.7995455949
 20
429.7976205111
 30
0.0
 11
564.4191507785
 21
500.7976233014
 31
0.0
  0
LINE
  5
70
330
1F
100
AcDbEntity
  8
0
  6
CONTINUOUS
 62
     7
100
AcDbLine
 10
563.7995455949
 20
429.7976205111
 30
0.0
 11
561.6191480843
 21
429.7976205111
 31
0.0
  0
LINE
  5
71
330
1F
100
AcDbEntity
  8
0
  6
CONTINUOUS
 62
     7
100
AcDbLine
 10
385.7364509789
 20
498.8150764242
 30
0.0
 11
385.0713600008
 21
498.8150764242
 31
0.0
  0
LWPOLYLINE
  5
72
330
1F
100
AcDbEntity
  8
0
  6
CONTINUOUS
 62
     7
100
AcDbPolyline
 90
        9
 70
   128
 43
0.0
 10
385.0713600008
 20
498.8150764242
 10
385.0679774372
 20
499.2027706452
 10
385.0647289841
 20
499.5750673101
 10
385.0617338507
 20
499.9178173006
 10
385.0591186969
 20
500.217994208
 10
385.0569654791
 20
500.4641897962
 10
385.0553710548
 20
500.6470479988
 10
385.0543875782
 20
500.7596183554
 10
385.0540597526
 20
500.7976233014
  0
LINE
  5
73
330
1F
100
AcDbEntity
  8
0
  6
CONTINUOUS
 62
     7
100
AcDbLine
 10
565.0669415085
 20
498.8150764242
 30
0.0
 11
564.4018505303
 21
498.8150764242
 31
0.0
  0
LWPOLYLINE
  5
74
330
1F
100
AcDbEntity
  8
0
  6
CONTINUOUS
 62
     7
100
AcDbPolyline
 90
        9
 70
   128
 43
0.0
 10
565.0842417566
 20
500.7976233014
 10
565.0839139311
 20
500.7596183554
 10
565.0829304544
 20
500.6470479988
 10
565.0813360302
 20
500.4641897962
 10
565.0791828124
 20
500.217994208
 10
565.0765676586
 20
499.9178173006
 10
565.0735725252
 20
499.5750673101
 10
565.0703240721
 20
499.2027706452
 10
565.0669415085
 20
498.8150764242
  0
LINE
  5
75
330
1F
100
AcDbEntity
  8
0
  6
CONTINUOUS
 62
     7
100
AcDbLine
 10
385.0713600008
 20
498.8150764242
 30
0.0
 11
385.6649403064
 21
430.7976225377
 31
0.0
  0
LINE
  5
76
330
1F
100
AcDbEntity
  8
0
  6
CONTINUOUS
 62
     7
100
AcDbLine
 10
386.3300312845
 20
430.7976225377
 30
0.0
 11
385.6649403064
 21
430.7976225377
 31
0.0
  0
LINE
  5
77
330
1F
100
AcDbEntity
  8
0
  6
CONTINUOUS
 62
     7
100
AcDbLine
 10
564.4733612029
 20
430.7976225377
 30
0.0
 11
565.0669415085
 21
498.8150764242
 31
0.0
  0
LINE
  5
78
330
1F
100
AcDbEntity
  8
0
  6
CONTINUOUS
 62
     7
100
AcDbLine
 10
563.8082702247
 20
430.7976225377
 30
0.0
 11
564.4733612029
 21
430.7976225377
 31
0.0
  0
LINE
  5
79
330
1F
100
AcDbEntity
  8
0
  6
CONTINUOUS
 62
     7
100
AcDbLine
 10
385.0191537825
 20
377.2595172969
 30
0.0
 11
385.0191537825
 21
254.1595196572
 31
0.0
  0
LINE
  5
7A
330
1F
100
AcDbEntity
  8
0
  6
CONTINUOUS
 62
     7
100
AcDbLine
 10
565.1191477267
 20
254.1595196572
 30
0.0
 11
565.1191477267
 21
377.2595172969
 31
0.0
  0
ARC
  5
7B
330
1F
100
AcDbEntity
  8
0
  6
CONTINUOUS
 62
     7
100
AcDbCircle
 10
561.6191507546
 20
254.159518477
 30
0.0
 40
3.5
100
AcDbArc
 50
270.0
 51
0.0
  0
LINE
  5
7C
330
1F
100
AcDbEntity
  8
0
  6
CONTINUOUS
 62
     7
100
AcDbLine
 10
388.5191534249
 20
250.6595200148
 30
0.0
 11
561.6191480843
 21
250.6595200148
 31
0.0
  0
ARC
  5
7D
330
1F
100
AcDbEntity
  8
0
  6
CONTINUOUS
 62
     7
100
AcDbCircle
 10
388.5191507546
 20
254.159518477
 30
0.0
 40
3.5
100
AcDbArc
 50
180.0
 51
270.0
  0
CIRCLE
  5
7E
330
1F
100
AcDbEntity
  8
0
  6
CONTINUOUS
 62
     7
100
AcDbCircle
 10
556.8191507546
 20
372.459518477
 30
0.0
 40
4.000000000000114
  0
CIRCLE
  5
7F
330
1F
100
AcDbEntity
  8
0
  6
CONTINUOUS
 62
     7
100
AcDbCircle
 10
393.3191507546
 20
372.459518477
 30
0.0
 40
3.999999999999943
  0
CIRCLE
  5
80
330
1F
100
AcDbEntity
  8
0
  6
CONTINUOUS
 62
     7
100
AcDbCircle
 10
556.8191507546
 20
258.959518477
 30
0.0
 40
4.0
  0
CIRCLE
  5
81
330
1F
100
AcDbEntity
  8
0
  6
CONTINUOUS
 62
     7
100
AcDbCircle
 10
393.3191507546
 20
258.959518477
 30
0.0
 40
3.999999999999943
  0
LINE
  5
82
330
1F
100
AcDbEntity
  8
0
  6
CONTINUOUS
 62
     7
100
AcDbLine
 10
402.3191486089
 20
258.9595189539
 30
0.0
 11
402.3191486089
 21
254.8595203307
 31
0.0
  0
LINE
  5
83
330
1F
100
AcDbEntity
  8
0
  6
CONTINUOUS
 62
     7
100
AcDbLine
 10
402.3191486089
 20
254.8595203307
 30
0.0
 11
547.8191529004
 21
254.8595203307
 31
0.0
  0
LINE
  5
84
330
1F
100
AcDbEntity
  8
0
  6
CONTINUOUS
 62
     7
100
AcDbLine
 10
547.8191529004
 20
254.8595203307
 30
0.0
 11
547.8191529004
 21
258.9595189539
 31
0.0
  0
ARC
  5
85
330
1F
100
AcDbEntity
  8
0
  6
CONTINUOUS
 62
     7
100
AcDbCircle
 10
556.8191507546
 20
258.959518477
 30
0.0
 40
9.0
100
AcDbArc
 50
90.0
 51
180.0
  0
LINE
  5
86
330
1F
100
AcDbEntity
  8
0
  6
CONTINUOUS
 62
     7
100
AcDbLine
 10
556.8191487877
 20
267.9595185665
 30
0.0
 11
560.9191511361
 21
267.9595185665
 31
0.0
  0
LINE
  5
87
330
1F
100
AcDbEntity
  8
0
  6
CONTINUOUS
 62
     7
100
AcDbLine
 10
560.9191511361
 20
267.9595185665
 30
0.0
 11
560.9191511361
 21
363.4595183876
 31
0.0
  0
LINE
  5
88
330
1F
100
AcDbEntity
  8
0
  6
CONTINUOUS
 62
     7
100
AcDbLine
 10
560.9191511361
 20
363.4595183876
 30
0.0
 11
556.8191487877
 21
363.4595183876
 31
0.0
  0
ARC
  5
89
330
1F
100
AcDbEntity
  8
0
  6
CONTINUOUS
 62
     7
100
AcDbCircle
 10
556.8191507546
 20
372.459518477
 30
0.0
 40
9.0
100
AcDbArc
 50
180.0
 51
270.0
  0
LINE
  5
8A
330
1F
100
AcDbEntity
  8
0
  6
CONTINUOUS
 62
     7
100
AcDbLine
 10
547.8191529004
 20
372.4595180002
 30
0.0
 11
547.8191529004
 21
376.5595166233
 31
0.0
  0
LINE
  5
8B
330
1F
100
AcDbEntity
  8
0
  6
CONTINUOUS
 62
     7
100
AcDbLine
 10
547.8191529004
 20
376.5595166233
 30
0.0
 11
402.3191486089
 21
376.5595166233
 31
0.0
  0
LINE
  5
8C
330
1F
100
AcDbEntity
  8
0
  6
CONTINUOUS
 62
     7
100
AcDbLine
 10
402.3191486089
 20
376.5595166233
 30
0.0
 11
402.3191486089
 21
372.4595180002
 31
0.0
  0
ARC
  5
8D
330
1F
100
AcDbEntity
  8
0
  6
CONTINUOUS
 62
     7
100
AcDbCircle
 10
393.3191507546
 20
372.459518477
 30
0.0
 40
9.0
100
AcDbArc
 50
270.0
 51
0.0
  0
LINE
  5
8E
330
1F
100
AcDbEntity
  8
0
  6
CONTINUOUS
 62
     7
100
AcDbLine
 10
393.3191527216
 20
363.4595183876
 30
0.0
 11
389.2191503732
 21
363.4595183876
 31
0.0
  0
LINE
  5
8F
330
1F
100
AcDbEntity
  8
0
  6
CONTINUOUS
 62
     7
100
AcDbLine
 10
389.2191503732
 20
363.4595183876
 30
0.0
 11
389.2191503732
 21
267.9595185665
 31
0.0
  0
LINE
  5
90
330
1F
100
AcDbEntity
  8
0
  6
CONTINUOUS
 62
     7
100
AcDbLine
 10
389.2191503732
 20
267.9595185665
 30
0.0
 11
393.3191527216
 21
267.9595185665
 31
0.0
  0
ARC
  5
91
330
1F
100
AcDbEntity
  8
0
  6
CONTINUOUS
 62
     7
100
AcDbCircle
 10
393.3191507546
 20
258.959518477
 30
0.0
 40
9.0
100
AcDbArc
 50
0.0
 51
90.0
  0
ARC
  5
92
330
1F
100
AcDbEntity
  8
0
  6
CONTINUOUS
 62
     7
100
AcDbCircle
 10
561.6191507546
 20
377.259518477
 30
0.0
 40
3.5
100
AcDbArc
 50
0.0
 51
90.0
  0
LINE
  5
93
330
1F
100
AcDbEntity
  8
0
  6
CONTINUOUS
 62
     7
100
AcDbLine
 10
561.6191480843
 20
380.7595169392
 30
0.0
 11
388.5191534249
 21
380.7595169392
 31
0.0
  0
ARC
  5
94
330
1F
100
AcDbEntity
  8
0
  6
CONTINUOUS
 62
     7
100
AcDbCircle
 10
388.5191507546
 20
377.259518477
 30
0.0
 40
3.500000000000057
100
AcDbArc
 50
90.0
 51
180.0
  0
LINE
  5
95
330
1F
100
AcDbEntity
  8
0
  6
CONTINUOUS
 62
     7
100
AcDbLine
 10
547.1995402662
 20
375.9399114397
 30
0.0
 11
402.938761243
 21
375.9399114397
 31
0.0
  0
LINE
  5
96
330
1F
100
AcDbEntity
  8
0
  6
CONTINUOUS
 62
     7
100
AcDbLine
 10
402.938761243
 20
375.9399114397
 30
0.0
 11
402.3191486089
 21
376.5595166233
 31
0.0
  0
LINE
  5
97
330
1F
100
AcDbEntity
  8
0
  6
CONTINUOUS
 62
     7
100
AcDbLine
 10
547.1995402662
 20
375.9399114397
 30
0.0
 11
547.8191529004
 21
376.5595166233
 31
0.0
  0
LINE
  5
98
330
1F
100
AcDbEntity
  8
0
  6
CONTINUOUS
 62
     7
100
AcDbLine
 10
402.938761243
 20
375.9399114397
 30
0.0
 11
402.938761243
 21
372.4595180002
 31
0.0
  0
LINE
  5
99
330
1F
100
AcDbEntity
  8
0
  6
CONTINUOUS
 62
     7
100
AcDbLine
 10
402.938761243
 20
372.4595180002
 30
0.0
 11
402.3191486089
 21
372.4595180002
 31
0.0
  0
LINE
  5
9A
330
1F
100
AcDbEntity
  8
0
  6
CONTINUOUS
 62
     7
100
AcDbLine
 10
547.1995402662
 20
372.4595180002
 30
0.0
 11
547.1995402662
 21
375.9399114397
 31
0.0
  0
LINE
  5
9B
330
1F
100
AcDbEntity
  8
0
  6
CONTINUOUS
 62
     7
100
AcDbLine
 10
547.1995402662
 20
372.4595180002
 30
0.0
 11
547.8191529004
 21
372.4595180002
 31
0.0
  0
SPLINE
  5
9C
330
1F
100
AcDbEntity
  8
0
  6
CONTINUOUS
 62
     7
100
AcDbSpline
210
0.0
220
0.0
230
1.0
 70
     8
 71
     3
 72
    11
 73
     7
 74
     0
 42
0.00000001
 43
0.00000001
 40
0.0000002000139896
 40
0.0000002000139896
 40
0.0000002000139896
 40
0.0000002000139896
 40
0.0178788833057404
 40
0.0178788833057404
 40
0.0178788833057404
 40
0.0690049021471707
 40
0.0690049021471707
 40
0.0690049021471707
 40
0.0690049021471707
 10
549.902305125689
 20
366.6740436980085
 30
0.0
 10
549.8318891368663
 20
366.6771734104191
 30
0.0
 10
549.7617403513538
 20
366.6805703635098
 30
0.0
 10
549.6918465179328
 20
366.6842223035208
 30
0.0
 10
549.491977582191
 20
366.6946654188527
 30
0.0
 10
549.2941896336196
 20
366.7071898092624
 30
0.0
 10
549.098234906889
 20
366.7215476594928
 30
0.0
  0
ARC
  5
9D
330
1F
100
AcDbEntity
  8
0
  6
CONTINUOUS
 62
     7
100
AcDbCircle
 10
556.8191507546
 20
372.459518477
 30
0.0
 40
9.619607613143845
100
AcDbArc
 50
180.0
 51
216.6187091966
  0
LINE
  5
9E
330
1F
100
AcDbEntity
  8
0
  6
CONTINUOUS
 62
     7
100
AcDbLine
 10
556.8191487877
 20
362.8399094787
 30
0.0
 11
556.8191487877
 21
363.4595183876
 31
0.0
  0
ARC
  5
9F
330
1F
100
AcDbEntity
  8
0
  6
CONTINUOUS
 62
     7
100
AcDbCircle
 10
556.8191507546
 20
372.459518477
 30
0.0
 40
9.619607613143899
100
AcDbArc
 50
233.3812908034
 51
270.0
  0
SPLINE
  5
A0
330
1F
100
AcDbEntity
  8
0
  6
CONTINUOUS
 62
     7
100
AcDbSpline
210
0.0
220
0.0
230
1.0
 70
     8
 71
     3
 72
    11
 73
     7
 74
     0
 42
0.00000001
 43
0.00000001
 40
0.0000002000132931
 40
0.0000002000132931
 40
0.0000002000132931
 40
0.0000002000132931
 40
0.0190727794621035
 40
0.0190727794621035
 40
0.0190727794621035
 40
0.0690049021101202
 40
0.0690049021101202
 40
0.0690049021101202
 40
0.0690049021101202
 10
551.0811799370717
 20
364.7386026293102
 30
0.0
 10
551.075823735891
 20
364.8117036104342
 30
0.0
 10
551.0707232039493
 20
364.8850602273155
 30
0.0
 10
551.0658903778074
 20
364.9586845141224
 30
0.0
 10
551.0532380113287
 20
365.1514333180418
 30
0.0
 10
551.0424167301269
 20
365.3460129659225
 30
0.0
 10
551.0336759755875
 20
365.54267284811
 30
0.0
  0
ARC
  5
A1
330
1F
100
AcDbEntity
  8
0
  6
CONTINUOUS
 62
     7
100
AcDbCircle
 10
556.8191507546
 20
372.459518477
 30
0.0
 40
9.017453735581523
100
AcDbArc
 50
219.9102078627
 51
230.0897921373
  0
LINE
  5
A2
330
1F
100
AcDbEntity
  8
0
  6
CONTINUOUS
 62
     7
100
AcDbLine
 10
393.3191527216
 20
362.8399094787
 30
0.0
 11
393.3191527216
 21
363.4595183876
 31
0.0
  0
ARC
  5
A3
330
1F
100
AcDbEntity
  8
0
  6
CONTINUOUS
 62
     7
100
AcDbCircle
 10
393.3191507546
 20
372.459518477
 30
0.0
 40
9.619607613143938
100
AcDbArc
 50
323.3812908034
 51
0.0
  0
SPLINE
  5
A4
330
1F
100
AcDbEntity
  8
0
  6
CONTINUOUS
 62
     7
100
AcDbSpline
210
0.0
220
0.0
230
1.0
 70
     8
 71
     3
 72
    11
 73
     7
 74
     0
 42
0.00000001
 43
0.00000001
 40
0.0000002000132931
 40
0.0000002000132931
 40
0.0000002000132931
 40
0.0000002000132931
 40
0.0190727794621035
 40
0.0190727794621035
 40
0.0190727794621035
 40
0.0690049021101202
 40
0.0690049021101202
 40
0.0690049021101202
 40
0.0690049021101202
 10
401.0400666023566
 20
366.7215476594923
 30
0.0
 10
400.9669656212325
 20
366.7161914583116
 30
0.0
 10
400.8936090043512
 20
366.7110909263699
 30
0.0
 10
400.8199847175442
 20
366.7062581002279
 30
0.0
 10
400.6272359136248
 20
366.6936057337492
 30
0.0
 10
400.4326562657441
 20
366.6827844525473
 30
0.0
 10
400.2359963835565
 20
366.6740436980079
 30
0.0
  0
ARC
  5
A5
330
1F
100
AcDbEntity
  8
0
  6
CONTINUOUS
 62
     7
100
AcDbCircle
 10
393.3191507546
 20
372.459518477
 30
0.0
 40
9.017453735581515
100
AcDbArc
 50
309.9102078627
 51
320.0897921373
  0
SPLINE
  5
A6
330
1F
100
AcDbEntity
  8
0
  6
CONTINUOUS
 62
     7
100
AcDbSpline
210
0.0
220
0.0
230
1.0
 70
     8
 71
     3
 72
    11
 73
     7
 74
     0
 42
0.00000001
 43
0.00000001
 40
0.0000002000139896
 40
0.0000002000139896
 40
0.0000002000139896
 40
0.0000002000139896
 40
0.0178788833057404
 40
0.0178788833057404
 40
0.0178788833057404
 40
0.0690049021471707
 40
0.0690049021471707
 40
0.0690049021471707
 40
0.0690049021471707
 10
399.104625533658
 20
365.5426728481094
 30
0.0
 10
399.1014958212475
 20
365.4722568592867
 30
0.0
 10
399.0980988681568
 20
365.4021080737741
 30
0.0
 10
399.0944469281458
 20
365.3322142403532
 30
0.0
 10
399.0840038128139
 20
365.1323453046115
 30
0.0
 10
399.0714794224043
 20
364.93455735604
 30
0.0
 10
399.0571215721739
 20
364.7386026293096
 30
0.0
  0
ARC
  5
A7
330
1F
100
AcDbEntity
  8
0
  6
CONTINUOUS
 62
     7
100
AcDbCircle
 10
393.3191507546
 20
372.459518477
 30
0.0
 40
9.619607613143902
100
AcDbArc
 50
270.0
 51
306.6187091966
  0
LINE
  5
A8
330
1F
100
AcDbEntity
  8
0
  6
CONTINUOUS
 62
     7
100
AcDbLine
 10
560.2995459525
 20
268.5791274753
 30
0.0
 11
560.2995459525
 21
362.8399094787
 31
0.0
  0
LINE
  5
A9
330
1F
100
AcDbEntity
  8
0
  6
CONTINUOUS
 62
     7
100
AcDbLine
 10
560.2995459525
 20
362.8399094787
 30
0.0
 11
560.9191511361
 21
363.4595183876
 31
0.0
  0
LINE
  5
AA
330
1F
100
AcDbEntity
  8
0
  6
CONTINUOUS
 62
     7
100
AcDbLine
 10
560.2995459525
 20
268.5791274753
 30
0.0
 11
560.9191511361
 21
267.9595185665
 31
0.0
  0
LINE
  5
AB
330
1F
100
AcDbEntity
  8
0
  6
CONTINUOUS
 62
     7
100
AcDbLine
 10
560.2995459525
 20
362.8399094787
 30
0.0
 11
556.8191487877
 21
362.8399094787
 31
0.0
  0
LINE
  5
AC
330
1F
100
AcDbEntity
  8
0
  6
CONTINUOUS
 62
     7
100
AcDbLine
 10
389.8387555568
 20
362.8399094787
 30
0.0
 11
389.8387555568
 21
268.5791274753
 31
0.0
  0
LINE
  5
AD
330
1F
100
AcDbEntity
  8
0
  6
CONTINUOUS
 62
     7
100
AcDbLine
 10
389.8387555568
 20
268.5791274753
 30
0.0
 11
389.2191503732
 21
267.9595185665
 31
0.0
  0
LINE
  5
AE
330
1F
100
AcDbEntity
  8
0
  6
CONTINUOUS
 62
     7
100
AcDbLine
 10
389.8387555568
 20
362.8399094787
 30
0.0
 11
389.2191503732
 21
363.4595183876
 31
0.0
  0
LINE
  5
AF
330
1F
100
AcDbEntity
  8
0
  6
CONTINUOUS
 62
     7
100
AcDbLine
 10
393.3191527216
 20
362.8399094787
 30
0.0
 11
389.8387555568
 21
362.8399094787
 31
0.0
  0
LINE
  5
B0
330
1F
100
AcDbEntity
  8
0
  6
CONTINUOUS
 62
     7
100
AcDbLine
 10
402.938761243
 20
258.9595189539
 30
0.0
 11
402.3191486089
 21
258.9595189539
 31
0.0
  0
LINE
  5
B1
330
1F
100
AcDbEntity
  8
0
  6
CONTINUOUS
 62
     7
100
AcDbLine
 10
393.3191527216
 20
268.5791274753
 30
0.0
 11
393.3191527216
 21
267.9595185665
 31
0.0
  0
ARC
  5
B2
330
1F
100
AcDbEntity
  8
0
  6
CONTINUOUS
 62
     7
100
AcDbCircle
 10
393.3191507546
 20
258.959518477
 30
0.0
 40
9.619607613143899
100
AcDbArc
 50
53.3812908034
 51
90.0
  0
SPLINE
  5
B3
330
1F
100
AcDbEntity
  8
0
  6
CONTINUOUS
 62
     7
100
AcDbSpline
210
0.0
220
0.0
230
1.0
 70
     8
 71
     3
 72
    11
 73
     7
 74
     0
 42
0.00000001
 43
0.00000001
 40
0.0000002000132931
 40
0.0000002000132931
 40
0.0000002000132931
 40
0.0000002000132931
 40
0.0190727794621035
 40
0.0190727794621035
 40
0.0190727794621035
 40
0.0690049021101202
 40
0.0690049021101202
 40
0.0690049021101202
 40
0.0690049021101202
 10
399.0571215721742
 20
266.6804343247774
 30
0.0
 10
399.0624777733549
 20
266.6073333436533
 30
0.0
 10
399.0675783052966
 20
266.5339767267719
 30
0.0
 10
399.0724111314386
 20
266.460352439965
 30
0.0
 10
399.0850634979172
 20
266.2676036360455
 30
0.0
 10
399.095884779119
 20
266.0730239881647
 30
0.0
 10
399.1046255336584
 20
265.8763641059771
 30
0.0
  0
ARC
  5
B4
330
1F
100
AcDbEntity
  8
0
  6
CONTINUOUS
 62
     7
100
AcDbCircle
 10
393.3191507546
 20
258.959518477
 30
0.0
 40
9.017453735581565
100
AcDbArc
 50
39.9102078627
 51
50.0897921373
  0
SPLINE
  5
B5
330
1F
100
AcDbEntity
  8
0
  6
CONTINUOUS
 62
     7
100
AcDbSpline
210
0.0
220
0.0
230
1.0
 70
     8
 71
     3
 72
    11
 73
     7
 74
     0
 42
0.00000001
 43
0.00000001
 40
0.0000002000139896
 40
0.0000002000139896
 40
0.0000002000139896
 40
0.0000002000139896
 40
0.0178788833057404
 40
0.0178788833057404
 40
0.0178788833057404
 40
0.0690049021471707
 40
0.0690049021471707
 40
0.0690049021471707
 40
0.0690049021471707
 10
400.2359963835569
 20
264.7449932560786
 30
0.0
 10
400.3064123723797
 20
264.741863543668
 30
0.0
 10
400.3765611578922
 20
264.7384665905774
 30
0.0
 10
400.4464549913131
 20
264.7348146505664
 30
0.0
 10
400.6463239270549
 20
264.7243715352346
 30
0.0
 10
400.8441118756265
 20
264.711847144825
 30
0.0
 10
401.0400666023569
 20
264.6974892945947
 30
0.0
  0
ARC
  5
B6
330
1F
100
AcDbEntity
  8
0
  6
CONTINUOUS
 62
     7
100
AcDbCircle
 10
393.3191507546
 20
258.959518477
 30
0.0
 40
9.619607613143845
100
AcDbArc
 50
0.0
 51
36.6187091966
  0
LINE
  5
B7
330
1F
100
AcDbEntity
  8
0
  6
CONTINUOUS
 62
     7
100
AcDbLine
 10
389.8387555568
 20
268.5791274753
 30
0.0
 11
393.3191527216
 21
268.5791274753
 31
0.0
  0
LINE
  5
B8
330
1F
100
AcDbEntity
  8
0
  6
CONTINUOUS
 62
     7
100
AcDbLine
 10
556.8191487877
 20
268.5791274753
 30
0.0
 11
560.2995459525
 21
268.5791274753
 31
0.0
  0
LINE
  5
B9
330
1F
100
AcDbEntity
  8
0
  6
CONTINUOUS
 62
     7
100
AcDbLine
 10
556.8191487877
 20
268.5791274753
 30
0.0
 11
556.8191487877
 21
267.9595185665
 31
0.0
  0
LINE
  5
BA
330
1F
100
AcDbEntity
  8
0
  6
CONTINUOUS
 62
     7
100
AcDbLine
 10
547.1995402662
 20
258.9595189539
 30
0.0
 11
547.8191529004
 21
258.9595189539
 31
0.0
  0
ARC
  5
BB
330
1F
100
AcDbEntity
  8
0
  6
CONTINUOUS
 62
     7
100
AcDbCircle
 10
556.8191507546
 20
258.959518477
 30
0.0
 40
9.619607613143812
100
AcDbArc
 50
143.3812908034
 51
180.0
  0
SPLINE
  5
BC
330
1F
100
AcDbEntity
  8
0
  6
CONTINUOUS
 62
     7
100
AcDbSpline
210
0.0
220
0.0
230
1.0
 70
     8
 71
     3
 72
    11
 73
     7
 74
     0
 42
0.00000001
 43
0.00000001
 40
0.0000002000132931
 40
0.0000002000132931
 40
0.0000002000132931
 40
0.0000002000132931
 40
0.0190727794621035
 40
0.0190727794621035
 40
0.0190727794621035
 40
0.0690049021101202
 40
0.0690049021101202
 40
0.0690049021101202
 40
0.0690049021101202
 10
549.0982349068894
 20
264.6974892945952
 30
0.0
 10
549.1713358880135
 20
264.7028454957759
 30
0.0
 10
549.2446925048948
 20
264.7079460277176
 30
0.0
 10
549.3183167917017
 20
264.7127788538594
 30
0.0
 10
549.5110655956212
 20
264.7254312203381
 30
0.0
 10
549.7056452435019
 20
264.7362525015398
 30
0.0
 10
549.9023051256895
 20
264.7449932560792
 30
0.0
  0
ARC
  5
BD
330
1F
100
AcDbEntity
  8
0
  6
CONTINUOUS
 62
     7
100
AcDbCircle
 10
556.8191507546
 20
258.959518477
 30
0.0
 40
9.017453735581551
100
AcDbArc
 50
129.9102078627
 51
140.0897921373
  0
SPLINE
  5
BE
330
1F
100
AcDbEntity
  8
0
  6
CONTINUOUS
 62
     7
100
AcDbSpline
210
0.0
220
0.0
230
1.0
 70
     8
 71
     3
 72
    11
 73
     7
 74
     0
 42
0.00000001
 43
0.00000001
 40
0.0000002000139896
 40
0.0000002000139896
 40
0.0000002000139896
 40
0.0000002000139896
 40
0.0178788833057404
 40
0.0178788833057404
 40
0.0178788833057404
 40
0.0690049021471707
 40
0.0690049021471707
 40
0.0690049021471707
 40
0.0690049021471707
 10
551.0336759755879
 20
265.8763641059776
 30
0.0
 10
551.0368056879985
 20
265.9467800948004
 30
0.0
 10
551.0402026410892
 20
266.016928880313
 30
0.0
 10
551.0438545811002
 20
266.086822713734
 30
0.0
 10
551.0542976964321
 20
266.2866916494758
 30
0.0
 10
551.0668220868416
 20
266.4844795980474
 30
0.0
 10
551.0811799370721
 20
266.6804343247779
 30
0.0
  0
ARC
  5
BF
330
1F
100
AcDbEntity
  8
0
  6
CONTINUOUS
 62
     7
100
AcDbCircle
 10
556.8191507546
 20
258.959518477
 30
0.0
 40
9.619607613143842
100
AcDbArc
 50
90.0
 51
126.6187091966
  0
LINE
  5
C0
330
1F
100
AcDbEntity
  8
0
  6
CONTINUOUS
 62
     7
100
AcDbLine
 10
547.1995402662
 20
255.4791255143
 30
0.0
 11
547.1995402662
 21
258.9595189539
 31
0.0
  0
LINE
  5
C1
330
1F
100
AcDbEntity
  8
0
  6
CONTINUOUS
 62
     7
100
AcDbLine
 10
547.1995402662
 20
255.4791255143
 30
0.0
 11
547.8191529004
 21
254.8595203307
 31
0.0
  0
LINE
  5
C2
330
1F
100
AcDbEntity
  8
0
  6
CONTINUOUS
 62
     7
100
AcDbLine
 10
402.938761243
 20
258.9595189539
 30
0.0
 11
402.938761243
 21
255.4791255143
 31
0.0
  0
LINE
  5
C3
330
1F
100
AcDbEntity
  8
0
  6
CONTINUOUS
 62
     7
100
AcDbLine
 10
402.938761243
 20
255.4791255143
 30
0.0
 11
402.3191486089
 21
254.8595203307
 31
0.0
  0
LINE
  5
C4
330
1F
100
AcDbEntity
  8
0
  6
CONTINUOUS
 62
     7
100
AcDbLine
 10
402.938761243
 20
255.4791255143
 30
0.0
 11
547.1995402662
 21
255.4791255143
 31
0.0
  0
LINE
  5
C5
330
1F
100
AcDbEntity
  8
0
  6
CONTINUOUS
 62
     7
100
AcDbLine
 10
549.902305433
 20
366.6740453091
 30
0.0
 11
548.495889136
 21
365.2676252869
 31
0.0
  0
SPLINE
  5
C6
330
1F
100
AcDbEntity
  8
0
  6
CONTINUOUS
 62
     7
100
AcDbSpline
210
0.0
220
0.0
230
1.0
 70
     8
 71
     3
 72
    11
 73
     7
 74
     0
 42
0.00000001
 43
0.00000001
 40
0.0040012715206372
 40
0.0040012715206372
 40
0.0040012715206372
 40
0.0040012715206372
 40
0.0230727946320661
 40
0.0230727946320661
 40
0.0230727946320661
 40
0.0730060616497417
 40
0.0730060616497417
 40
0.0730060616497417
 40
0.0730060616497417
 10
547.6838480871317
 20
365.3071608397355
 30
0.0
 10
547.7578148210872
 20
365.3026748526074
 30
0.0
 10
547.8320037756295
 20
365.2984111159389
 30
0.0
 10
547.9064237636346
 20
365.2943784444015
 30
0.0
 10
548.1012709754402
 20
365.2838200604746
 30
0.0
 10
548.2976996749024
 20
365.2748433780353
 30
0.0
 10
548.4958883883858
 20
365.2676269607051
 30
0.0
  0
LINE
  5
C7
330
1F
100
AcDbEntity
  8
0
  6
CONTINUOUS
 62
     7
100
AcDbLine
 10
549.0982313244
 20
366.7215464857
 30
0.0
 11
547.6838503567
 21
365.3071617928
 31
0.0
  0
ARC
  5
C8
330
1F
100
AcDbEntity
  8
0
  6
CONTINUOUS
 62
     7
100
AcDbCircle
 10
556.8191507546
 20
372.459518477
 30
0.0
 40
11.0
100
AcDbArc
 50
220.8293520881
 51
229.1706479119
  0
LINE
  5
C9
330
1F
100
AcDbEntity
  8
0
  6
CONTINUOUS
 62
     7
100
AcDbLine
 10
549.6272597997
 20
364.1362546233
 30
0.0
 11
551.0336760966
 21
365.5426746455
 31
0.0
  0
LINE
  5
CA
330
1F
100
AcDbEntity
  8
0
  6
CONTINUOUS
 62
     7
100
AcDbLine
 10
401.6424123732
 20
365.2676252869
 30
0.0
 11
400.2359960763
 21
366.6740453091
 31
0.0
  0
LINE
  5
CB
330
1F
100
AcDbEntity
  8
0
  6
CONTINUOUS
 62
     7
100
AcDbLine
 10
402.4544511525
 20
365.3071617928
 30
0.0
 11
401.0400701849
 21
366.7215464857
 31
0.0
  0
SPLINE
  5
CC
330
1F
100
AcDbEntity
  8
0
  6
CONTINUOUS
 62
     7
100
AcDbSpline
210
0.0
220
0.0
230
1.0
 70
     8
 71
     3
 72
    11
 73
     7
 74
     0
 42
0.00000001
 43
0.00000001
 40
0.0040012715206372
 40
0.0040012715206372
 40
0.0040012715206372
 40
0.0040012715206372
 40
0.0230727946320661
 40
0.0230727946320661
 40
0.0230727946320661
 40
0.0730060616497417
 40
0.0730060616497417
 40
0.0730060616497417
 40
0.0730060616497417
 10
402.4544534221139
 20
365.307160839735
 30
0.0
 10
402.3804866881583
 20
365.3026748526068
 30
0.0
 10
402.3062977336161
 20
365.2984111159383
 30
0.0
 10
402.2318777456109
 20
365.2943784444009
 30
0.0
 10
402.0370305338054
 20
365.2838200604741
 30
0.0
 10
401.8406018343431
 20
365.2748433780347
 30
0.0
 10
401.6424131208598
 20
365.2676269607047
 30
0.0
  0
ARC
  5
CD
330
1F
100
AcDbEntity
  8
0
  6
CONTINUOUS
 62
     7
100
AcDbCircle
 10
393.3191507546
 20
372.459518477
 30
0.0
 40
11.00000000000001
100
AcDbArc
 50
310.8293520881
 51
319.1706479119
  0
LINE
  5
CE
330
1F
100
AcDbEntity
  8
0
  6
CONTINUOUS
 62
     7
100
AcDbLine
 10
399.1046254126
 20
365.5426746455
 30
0.0
 11
400.5110417096
 21
364.1362546233
 31
0.0
  0
LINE
  5
CF
330
1F
100
AcDbEntity
  8
0
  6
CONTINUOUS
 62
     7
100
AcDbLine
 10
549.6667925803
 20
363.324215844
 30
0.0
 11
551.0811809985
 21
364.7386042622
 31
0.0
  0
SPLINE
  5
D0
330
1F
100
AcDbEntity
  8
0
  6
CONTINUOUS
 62
     7
100
AcDbSpline
210
0.0
220
0.0
230
1.0
 70
     8
 71
     3
 72
    11
 73
     7
 74
     0
 42
0.00000001
 43
0.00000001
 40
0.0040012715206372
 40
0.0040012715206372
 40
0.0040012715206372
 40
0.0040012715206372
 40
0.0230727946320661
 40
0.0230727946320661
 40
0.0230727946320661
 40
0.0730060616497417
 40
0.0730060616497417
 40
0.0730060616497417
 40
0.0730060616497417
 10
549.6667931173143
 20
363.3242158095528
 30
0.0
 10
549.6623071301863
 20
363.3981825435084
 30
0.0
 10
549.6580433935179
 20
363.4723714980506
 30
0.0
 10
549.6540107219805
 20
363.5467914860557
 30
0.0
 10
549.6434523380535
 20
363.7416386978612
 30
0.0
 10
549.6344756556143
 20
363.9380673973234
 30
0.0
 10
549.6272592382843
 20
364.1362561108067
 30
0.0
  0
SPLINE
  5
D1
330
1F
100
AcDbEntity
  8
0
  6
CONTINUOUS
 62
     7
100
AcDbSpline
210
0.0
220
0.0
230
1.0
 70
     8
 71
     3
 72
    11
 73
     7
 74
     0
 42
0.00000001
 43
0.00000001
 40
0.0040012715206372
 40
0.0040012715206372
 40
0.0040012715206372
 40
0.0040012715206372
 40
0.0230727946320661
 40
0.0230727946320661
 40
0.0230727946320661
 40
0.0730060616497417
 40
0.0730060616497417
 40
0.0730060616497417
 40
0.0730060616497417
 10
400.4715083919312
 20
363.3242158095522
 30
0.0
 10
400.4759943790593
 20
363.3981825435078
 30
0.0
 10
400.4802581157277
 20
363.47237149805
 30
0.0
 10
400.4842907872651
 20
363.5467914860552
 30
0.0
 10
400.494849171192
 20
363.7416386978607
 30
0.0
 10
400.5038258536313
 20
363.9380673973229
 30
0.0
 10
400.5110422709613
 20
364.1362561108061
 30
0.0
  0
LINE
  5
D2
330
1F
100
AcDbEntity
  8
0
  6
CONTINUOUS
 62
     7
100
AcDbLine
 10
399.0571205107
 20
364.7386042622
 30
0.0
 11
400.4715089289
 21
363.324215844
 31
0.0
  0
ARC
  5
D3
330
1F
100
AcDbEntity
  8
0
  6
CONTINUOUS
 62
     7
100
AcDbCircle
 10
393.3191507546
 20
372.459518477
 30
0.0
 40
11.60215387756241
100
AcDbArc
 50
308.0586719179
 51
321.9413280821
  0
ARC
  5
D4
330
1F
100
AcDbEntity
  8
0
  6
CONTINUOUS
 62
     7
100
AcDbCircle
 10
556.8191507546
 20
372.459518477
 30
0.0
 40
11.60215387756234
100
AcDbArc
 50
218.0586719179
 51
231.9413280821
  0
ARC
  5
D5
330
1F
100
AcDbEntity
  8
0
  6
CONTINUOUS
 62
     7
100
AcDbCircle
 10
393.3191507546
 20
258.959518477
 30
0.0
 40
11.00000000000006
100
AcDbArc
 50
40.8293520881
 51
49.1706479119
  0
SPLINE
  5
D6
330
1F
100
AcDbEntity
  8
0
  6
CONTINUOUS
 62
     7
100
AcDbSpline
210
0.0
220
0.0
230
1.0
 70
     8
 71
     3
 72
    11
 73
     7
 74
     0
 42
0.00000001
 43
0.00000001
 40
0.0040012715206372
 40
0.0040012715206372
 40
0.0040012715206372
 40
0.0040012715206372
 40
0.0230727946320661
 40
0.0230727946320661
 40
0.0230727946320661
 40
0.0730060616497417
 40
0.0730060616497417
 40
0.0730060616497417
 40
0.0730060616497417
 10
400.4715083919315
 20
268.0948211445348
 30
0.0
 10
400.4759943790597
 20
268.0208544105791
 30
0.0
 10
400.4802581157281
 20
267.9466654560369
 30
0.0
 10
400.4842907872655
 20
267.8722454680317
 30
0.0
 10
400.4948491711923
 20
267.6773982562261
 30
0.0
 10
400.5038258536317
 20
267.4809695567637
 30
0.0
 10
400.5110422709617
 20
267.2827808432804
 30
0.0
  0
ARC
  5
D7
330
1F
100
AcDbEntity
  8
0
  6
CONTINUOUS
 62
     7
100
AcDbCircle
 10
393.3191507546
 20
258.959518477
 30
0.0
 40
11.60215387756239
100
AcDbArc
 50
38.0586719179
 51
51.9413280821
  0
SPLINE
  5
D8
330
1F
100
AcDbEntity
  8
0
  6
CONTINUOUS
 62
     7
100
AcDbSpline
210
0.0
220
0.0
230
1.0
 70
     8
 71
     3
 72
    11
 73
     7
 74
     0
 42
0.00000001
 43
0.00000001
 40
0.0040012715206372
 40
0.0040012715206372
 40
0.0040012715206372
 40
0.0040012715206372
 40
0.0230727946320661
 40
0.0230727946320661
 40
0.0230727946320661
 40
0.0730060616497417
 40
0.0730060616497417
 40
0.0730060616497417
 40
0.0730060616497417
 10
402.4544534221143
 20
266.1118761143521
 30
0.0
 10
402.3804866881587
 20
266.1163621014801
 30
0.0
 10
402.3062977336165
 20
266.1206258381486
 30
0.0
 10
402.2318777456113
 20
266.1246585096859
 30
0.0
 10
402.0370305338057
 20
266.1352168936127
 30
0.0
 10
401.8406018343434
 20
266.144193576052
 30
0.0
 10
401.6424131208601
 20
266.1514099933819
 30
0.0
  0
LINE
  5
D9
330
1F
100
AcDbEntity
  8
0
  6
CONTINUOUS
 62
     7
100
AcDbLine
 10
551.0336760966
 20
265.8763623086
 30
0.0
 11
549.6272597997
 21
267.2827823308
 31
0.0
  0
SPLINE
  5
DA
330
1F
100
AcDbEntity
  8
0
  6
CONTINUOUS
 62
     7
100
AcDbSpline
210
0.0
220
0.0
230
1.0
 70
     8
 71
     3
 72
    11
 73
     7
 74
     0
 42
0.00000001
 43
0.00000001
 40
0.0040012715206372
 40
0.0040012715206372
 40
0.0040012715206372
 40
0.0040012715206372
 40
0.0230727946320661
 40
0.0230727946320661
 40
0.0230727946320661
 40
0.0730060616497417
 40
0.0730060616497417
 40
0.0730060616497417
 40
0.0730060616497417
 10
549.6667931173147
 20
268.0948211445353
 30
0.0
 10
549.6623071301866
 20
268.0208544105797
 30
0.0
 10
549.6580433935183
 20
267.9466654560374
 30
0.0
 10
549.6540107219809
 20
267.8722454680322
 30
0.0
 10
549.643452338054
 20
267.6773982562265
 30
0.0
 10
549.6344756556147
 20
267.4809695567643
 30
0.0
 10
549.6272592382846
 20
267.2827808432809
 30
0.0
  0
LINE
  5
DB
330
1F
100
AcDbEntity
  8
0
  6
CONTINUOUS
 62
     7
100
AcDbLine
 10
551.0811809985
 20
266.6804326919
 30
0.0
 11
549.6667925803
 21
268.0948211101
 31
0.0
  0
ARC
  5
DC
330
1F
100
AcDbEntity
  8
0
  6
CONTINUOUS
 62
     7
100
AcDbCircle
 10
556.8191507546
 20
258.959518477
 30
0.0
 40
11.00000000000004
100
AcDbArc
 50
130.8293520881
 51
139.1706479119
  0
SPLINE
  5
DD
330
1F
100
AcDbEntity
  8
0
  6
CONTINUOUS
 62
     7
100
AcDbSpline
210
0.0
220
0.0
230
1.0
 70
     8
 71
     3
 72
    11
 73
     7
 74
     0
 42
0.00000001
 43
0.00000001
 40
0.0040012715206372
 40
0.0040012715206372
 40
0.0040012715206372
 40
0.0040012715206372
 40
0.0230727946320661
 40
0.0230727946320661
 40
0.0230727946320661
 40
0.0730060616497417
 40
0.0730060616497417
 40
0.0730060616497417
 40
0.0730060616497417
 10
547.683848087132
 20
266.1118761143525
 30
0.0
 10
547.7578148210875
 20
266.1163621014807
 30
0.0
 10
547.8320037756298
 20
266.1206258381491
 30
0.0
 10
547.906423763635
 20
266.1246585096864
 30
0.0
 10
548.1012709754406
 20
266.1352168936132
 30
0.0
 10
548.2976996749028
 20
266.1441935760524
 30
0.0
 10
548.4958883883861
 20
266.1514099933825
 30
0.0
  0
ARC
  5
DE
330
1F
100
AcDbEntity
  8
0
  6
CONTINUOUS
 62
     7
100
AcDbCircle
 10
556.8191507546
 20
258.959518477
 30
0.0
 40
11.60215387756237
100
AcDbArc
 50
128.0586719179
 51
141.9413280821
  0
LINE
  5
DF
330
1F
100
AcDbEntity
  8
0
  6
CONTINUOUS
 62
     7
100
AcDbLine
 10
400.5110417096
 20
267.2827823308
 30
0.0
 11
399.1046254126
 21
265.8763623086
 31
0.0
  0
LINE
  5
E0
330
1F
100
AcDbEntity
  8
0
  6
CONTINUOUS
 62
     7
100
AcDbLine
 10
400.4715089289
 20
268.0948211101
 30
0.0
 11
399.0571205107
 21
266.6804326919
 31
0.0
  0
LINE
  5
E1
330
1F
100
AcDbEntity
  8
0
  6
CONTINUOUS
 62
     7
100
AcDbLine
 10
548.495889136
 20
266.1514116672
 30
0.0
 11
549.902305433
 21
264.7449916449
 31
0.0
  0
LINE
  5
E2
330
1F
100
AcDbEntity
  8
0
  6
CONTINUOUS
 62
     7
100
AcDbLine
 10
400.2359960763
 20
264.7449916449
 30
0.0
 11
401.6424123732
 21
266.1514116672
 31
0.0
  0
LINE
  5
E3
330
1F
100
AcDbEntity
  8
0
  6
CONTINUOUS
 62
     7
100
AcDbLine
 10
547.6838503568
 20
266.1118751613
 30
0.0
 11
549.0982313244
 21
264.6974904683
 31
0.0
  0
LINE
  5
E4
330
1F
100
AcDbEntity
  8
0
  6
CONTINUOUS
 62
     7
100
AcDbLine
 10
401.0400701849
 20
264.6974904683
 30
0.0
 11
402.4544511525
 21
266.1118751613
 31
0.0
  0
CIRCLE
  5
E5
330
1F
100
AcDbEntity
  8
0
  6
CONTINUOUS
 62
     7
100
AcDbCircle
 10
475.0691507546
 20
360.709518477
 30
0.0
 40
4.0
  0
CIRCLE
  5
E6
330
1F
100
AcDbEntity
  8
0
  6
CONTINUOUS
 62
     7
100
AcDbCircle
 10
475.0691507546
 20
360.709518477
 30
0.0
 40
2.0
  0
CIRCLE
  5
E7
330
1F
100
AcDbEntity
  8
0
  6
CONTINUOUS
 62
     7
100
AcDbCircle
 10
425.0691507546
 20
360.709518477
 30
0.0
 40
4.0
  0
CIRCLE
  5
E8
330
1F
100
AcDbEntity
  8
0
  6
CONTINUOUS
 62
     7
100
AcDbCircle
 10
425.0691507546
 20
360.709518477
 30
0.0
 40
2.0
  0
CIRCLE
  5
E9
330
1F
100
AcDbEntity
  8
0
  6
CONTINUOUS
 62
     7
100
AcDbCircle
 10
465.0691507546
 20
360.709518477
 30
0.0
 40
1.25
  0
CIRCLE
  5
EA
330
1F
100
AcDbEntity
  8
0
  6
CONTINUOUS
 62
     7
100
AcDbCircle
 10
525.0691507546
 20
360.709518477
 30
0.0
 40
4.0
  0
CIRCLE
  5
EB
330
1F
100
AcDbEntity
  8
0
  6
CONTINUOUS
 62
     7
100
AcDbCircle
 10
525.0691507546
 20
360.709518477
 30
0.0
 40
2.0
  0
CIRCLE
  5
EC
330
1F
100
AcDbEntity
  8
0
  6
CONTINUOUS
 62
     7
100
AcDbCircle
 10
485.0691507546
 20
360.709518477
 30
0.0
 40
1.249999999999943
  0
CIRCLE
  5
ED
330
1F
100
AcDbEntity
  8
0
  6
CONTINUOUS
 62
     7
100
AcDbCircle
 10
405.0691507546
 20
325.709518477
 30
0.0
 40
1.25
  0
CIRCLE
  5
EE
330
1F
100
AcDbEntity
  8
0
  6
CONTINUOUS
 62
     7
100
AcDbCircle
 10
545.0691507546
 20
325.709518477
 30
0.0
 40
1.25
  0
CIRCLE
  5
EF
330
1F
100
AcDbEntity
  8
0
  6
CONTINUOUS
 62
     7
100
AcDbCircle
 10
545.0691507546
 20
315.709518477
 30
0.0
 40
2.0
  0
CIRCLE
  5
F0
330
1F
100
AcDbEntity
  8
0
  6
CONTINUOUS
 62
     7
100
AcDbCircle
 10
545.0691507546
 20
315.709518477
 30
0.0
 40
4.0
  0
CIRCLE
  5
F1
330
1F
100
AcDbEntity
  8
0
  6
CONTINUOUS
 62
     7
100
AcDbCircle
 10
405.0691507546
 20
315.709518477
 30
0.0
 40
4.0
  0
CIRCLE
  5
F2
330
1F
100
AcDbEntity
  8
0
  6
CONTINUOUS
 62
     7
100
AcDbCircle
 10
405.0691507546
 20
315.709518477
 30
0.0
 40
2.0
  0
CIRCLE
  5
F3
330
1F
100
AcDbEntity
  8
0
  6
CONTINUOUS
 62
     7
100
AcDbCircle
 10
545.0691507546
 20
305.709518477
 30
0.0
 40
1.25
  0
CIRCLE
  5
F4
330
1F
100
AcDbEntity
  8
0
  6
CONTINUOUS
 62
     7
100
AcDbCircle
 10
405.0691507546
 20
305.709518477
 30
0.0
 40
1.25
  0
CIRCLE
  5
F5
330
1F
100
AcDbEntity
  8
0
  6
CONTINUOUS
 62
     7
100
AcDbCircle
 10
525.0691507546
 20
270.709518477
 30
0.0
 40
2.0
  0
CIRCLE
  5
F6
330
1F
100
AcDbEntity
  8
0
  6
CONTINUOUS
 62
     7
100
AcDbCircle
 10
525.0691507546
 20
270.709518477
 30
0.0
 40
4.0
  0
CIRCLE
  5
F7
330
1F
100
AcDbEntity
  8
0
  6
CONTINUOUS
 62
     7
100
AcDbCircle
 10
425.0691507546
 20
270.709518477
 30
0.0
 40
2.0
  0
CIRCLE
  5
F8
330
1F
100
AcDbEntity
  8
0
  6
CONTINUOUS
 62
     7
100
AcDbCircle
 10
425.0691507546
 20
270.709518477
 30
0.0
 40
4.0
  0
CIRCLE
  5
F9
330
1F
100
AcDbEntity
  8
0
  6
CONTINUOUS
 62
     7
100
AcDbCircle
 10
475.0691507546
 20
270.709518477
 30
0.0
 40
2.0
  0
CIRCLE
  5
FA
330
1F
100
AcDbEntity
  8
0
  6
CONTINUOUS
 62
     7
100
AcDbCircle
 10
475.0691507546
 20
270.709518477
 30
0.0
 40
4.0
  0
CIRCLE
  5
FB
330
1F
100
AcDbEntity
  8
0
  6
CONTINUOUS
 62
     7
100
AcDbCircle
 10
485.0691507546
 20
270.709518477
 30
0.0
 40
1.25
  0
CIRCLE
  5
FC
330
1F
100
AcDbEntity
  8
0
  6
CONTINUOUS
 62
     7
100
AcDbCircle
 10
465.0691507546
 20
270.709518477
 30
0.0
 40
1.25
  0
CIRCLE
  5
FD
330
1F
100
AcDbEntity
  8
0
  6
CONTINUOUS
 62
     7
100
AcDbCircle
 10
525.0691507546
 20
360.709518477
 30
0.0
 40
1.600000000000023
  0
CIRCLE
  5
FE
330
1F
100
AcDbEntity
  8
0
  6
CONTINUOUS
 62
     7
100
AcDbCircle
 10
425.0691507546
 20
360.709518477
 30
0.0
 40
1.600000000000023
  0
CIRCLE
  5
FF
330
1F
100
AcDbEntity
  8
0
  6
CONTINUOUS
 62
     7
100
AcDbCircle
 10
475.0691507546
 20
360.709518477
 30
0.0
 40
1.600000000000023
  0
CIRCLE
  5
100
330
1F
100
AcDbEntity
  8
0
  6
CONTINUOUS
 62
     7
100
AcDbCircle
 10
405.0691507546
 20
315.709518477
 30
0.0
 40
1.599999999999966
  0
CIRCLE
  5
101
330
1F
100
AcDbEntity
  8
0
  6
CONTINUOUS
 62
     7
100
AcDbCircle
 10
545.0691507546
 20
315.709518477
 30
0.0
 40
1.600000000000023
  0
CIRCLE
  5
102
330
1F
100
AcDbEntity
  8
0
  6
CONTINUOUS
 62
     7
100
AcDbCircle
 10
425.0691507546
 20
270.709518477
 30
0.0
 40
1.600000000000023
  0
CIRCLE
  5
103
330
1F
100
AcDbEntity
  8
0
  6
CONTINUOUS
 62
     7
100
AcDbCircle
 10
475.0691507546
 20
270.709518477
 30
0.0
 40
1.599999999999966
  0
CIRCLE
  5
104
330
1F
100
AcDbEntity
  8
0
  6
CONTINUOUS
 62
     7
100
AcDbCircle
 10
525.0691507546
 20
270.709518477
 30
0.0
 40
1.600000000000023
  0
CIRCLE
  5
105
330
1F
100
AcDbEntity
  8
0
  6
CONTINUOUS
 62
     7
100
AcDbCircle
 10
556.8191507546
 20
372.459518477
 30
0.0
 40
2.249999999999886
  0
CIRCLE
  5
106
330
1F
100
AcDbEntity
  8
0
  6
CONTINUOUS
 62
     7
100
AcDbCircle
 10
393.3191507546
 20
372.459518477
 30
0.0
 40
2.249999999999943
  0
CIRCLE
  5
107
330
1F
100
AcDbEntity
  8
0
  6
CONTINUOUS
 62
     7
100
AcDbCircle
 10
556.8191507546
 20
258.959518477
 30
0.0
 40
2.25
  0
CIRCLE
  5
108
330
1F
100
AcDbEntity
  8
0
  6
CONTINUOUS
 62
     7
100
AcDbCircle
 10
393.3191507546
 20
258.959518477
 30
0.0
 40
2.25
  0
LINE
  5
109
330
1F
100
AcDbEntity
  8
0
  6
CONTINUOUS
 62
     7
100
AcDbLine
 10
422.2374935238
 20
328.7520447967
 30
0.0
 11
422.2374935238
 21
330.2736694214
 31
0.0
  0
LINE
  5
10A
330
1F
100
AcDbEntity
  8
0
  6
CONTINUOUS
 62
     7
100
AcDbLine
 10
420.72929112
 20
327.3450976458
 30
0.0
 11
422.2374935238
 21
328.7520447967
 31
0.0
  0
LINE
  5
10B
330
1F
100
AcDbEntity
  8
0
  6
CONTINUOUS
 62
     7
100
AcDbLine
 10
422.2374935238
 20
325.9381514263
 30
0.0
 11
420.72929112
 21
327.3450976458
 31
0.0
  0
LINE
  5
10C
330
1F
100
AcDbEntity
  8
0
  6
CONTINUOUS
 62
     7
100
AcDbLine
 10
422.2374935238
 20
324.4165268016
 30
0.0
 11
422.2374935238
 21
325.9381514263
 31
0.0
  0
LINE
  5
10D
330
1F
100
AcDbEntity
  8
0
  6
CONTINUOUS
 62
     7
100
AcDbLine
 10
419.7374921827
 20
326.5842853335
 30
0.0
 11
422.2374935238
 21
324.4165268016
 31
0.0
  0
LINE
  5
10E
330
1F
100
AcDbEntity
  8
0
  6
CONTINUOUS
 62
     7
100
AcDbLine
 10
417.2374908416
 20
324.4165268016
 30
0.0
 11
419.7374921827
 21
326.5842853335
 31
0.0
  0
LINE
  5
10F
330
1F
100
AcDbEntity
  8
0
  6
CONTINUOUS
 62
     7
100
AcDbLine
 10
417.2374908416
 20
325.9381514263
 30
0.0
 11
417.2374908416
 21
324.4165268016
 31
0.0
  0
LINE
  5
110
330
1F
100
AcDbEntity
  8
0
  6
CONTINUOUS
 62
     7
100
AcDbLine
 10
418.7456932453
 20
327.3450976458
 30
0.0
 11
417.2374908416
 21
325.9381514263
 31
0.0
  0
LINE
  5
111
330
1F
100
AcDbEntity
  8
0
  6
CONTINUOUS
 62
     7
100
AcDbLine
 10
417.2374908416
 20
328.7520447967
 30
0.0
 11
418.7456932453
 21
327.3450976458
 31
0.0
  0
LINE
  5
112
330
1F
100
AcDbEntity
  8
0
  6
CONTINUOUS
 62
     7
100
AcDbLine
 10
417.2374908416
 20
330.2736694214
 30
0.0
 11
417.2374908416
 21
328.7520447967
 31
0.0
  0
LINE
  5
113
330
1F
100
AcDbEntity
  8
0
  6
CONTINUOUS
 62
     7
100
AcDbLine
 10
419.7374921827
 20
328.1059099582
 30
0.0
 11
417.2374908416
 21
330.2736694214
 31
0.0
  0
LINE
  5
114
330
1F
100
AcDbEntity
  8
0
  6
CONTINUOUS
 62
     7
100
AcDbLine
 10
422.2374935238
 20
330.2736694214
 30
0.0
 11
419.7374921827
 21
328.1059099582
 31
0.0
  0
ARC
  5
115
330
1F
100
AcDbEntity
  8
0
  6
CONTINUOUS
 62
     7
100
AcDbCircle
 10
420.7642781836
 20
320.5186763893
 30
0.0
 40
0.5335644827830492
100
AcDbArc
 50
270.0
 51
0.0
  0
ARC
  5
116
330
1F
100
AcDbEntity
  8
0
  6
CONTINUOUS
 62
     7
100
AcDbCircle
 10
420.7642781836
 20
322.7715196406
 30
0.0
 40
0.5335644827829924
100
AcDbArc
 50
0.0
 51
90.0
  0
ARC
  5
117
330
1F
100
AcDbEntity
  8
0
  6
CONTINUOUS
 62
     7
100
AcDbCircle
 10
418.710706755
 20
320.5186763893
 30
0.0
 40
0.5335644827829924
100
AcDbArc
 50
180.0
 51
270.0
  0
LINE
  5
118
330
1F
100
AcDbEntity
  8
0
  6
CONTINUOUS
 62
     7
100
AcDbLine
 10
418.7107053189
 20
319.985111918
 30
0.0
 11
420.7642790465
 21
319.985111918
 31
0.0
  0
LINE
  5
119
330
1F
100
AcDbEntity
  8
0
  6
CONTINUOUS
 62
     7
100
AcDbLine
 10
418.6660651652
 20
318.891526641
 30
0.0
 11
420.8089192001
 21
318.891526641
 31
0.0
  0
ARC
  5
11A
330
1F
100
AcDbEntity
  8
0
  6
CONTINUOUS
 62
     7
100
AcDbCircle
 10
418.6660638979
 20
320.320098015
 30
0.0
 40
1.428571428571445
100
AcDbArc
 50
180.0
 51
270.0
  0
ARC
  5
11B
330
1F
100
AcDbEntity
  8
0
  6
CONTINUOUS
 62
     7
100
AcDbCircle
 10
420.8089210407
 20
322.970098015
 30
0.0
 40
1.428571428571445
100
AcDbArc
 50
0.0
 51
90.0
  0
ARC
  5
11C
330
1F
100
AcDbEntity
  8
0
  6
CONTINUOUS
 62
     7
100
AcDbCircle
 10
420.8089210407
 20
320.320098015
 30
0.0
 40
1.428571428571445
100
AcDbArc
 50
270.0
 51
0.0
  0
LINE
  5
11D
330
1F
100
AcDbEntity
  8
0
  6
CONTINUOUS
 62
     7
100
AcDbLine
 10
420.8089192001
 20
324.3986696226
 30
0.0
 11
418.6660651652
 21
324.3986696226
 31
0.0
  0
ARC
  5
11E
330
1F
100
AcDbEntity
  8
0
  6
CONTINUOUS
 62
     7
100
AcDbCircle
 10
418.710706755
 20
322.7715196406
 30
0.0
 40
0.5335644827829924
100
AcDbArc
 50
90.0
 51
180.0
  0
ARC
  5
11F
330
1F
100
AcDbEntity
  8
0
  6
CONTINUOUS
 62
     7
100
AcDbCircle
 10
418.6660638979
 20
322.970098015
 30
0.0
 40
1.428571428571445
100
AcDbArc
 50
90.0
 51
180.0
  0
LINE
  5
120
330
1F
100
AcDbEntity
  8
0
  6
CONTINUOUS
 62
     7
100
AcDbLine
 10
418.1771431653
 20
322.7715196309
 30
0.0
 11
418.1771431653
 21
320.5186763999
 31
0.0
  0
LINE
  5
121
330
1F
100
AcDbEntity
  8
0
  6
CONTINUOUS
 62
     7
100
AcDbLine
 10
420.7642790465
 20
323.3050841128
 30
0.0
 11
418.7107053189
 21
323.3050841128
 31
0.0
  0
LINE
  5
122
330
1F
100
AcDbEntity
  8
0
  6
CONTINUOUS
 62
     7
100
AcDbLine
 10
422.2374935238
 20
320.3200979379
 30
0.0
 11
422.2374935238
 21
322.9700980929
 31
0.0
  0
LINE
  5
123
330
1F
100
AcDbEntity
  8
0
  6
CONTINUOUS
 62
     7
100
AcDbLine
 10
417.2374908416
 20
322.9700980929
 30
0.0
 11
417.2374908416
 21
320.3200979379
 31
0.0
  0
LINE
  5
124
330
1F
100
AcDbEntity
  8
0
  6
CONTINUOUS
 62
     7
100
AcDbLine
 10
421.2978412
 20
320.5186763999
 30
0.0
 11
421.2978412
 21
322.7715196309
 31
0.0
  0
LINE
  5
125
330
1F
100
AcDbEntity
  8
0
  6
CONTINUOUS
 62
     7
100
AcDbLine
 10
420.1839197962
 20
313.327240966
 30
0.0
 11
421.3446345715
 21
313.327240966
 31
0.0
  0
LINE
  5
126
330
1F
100
AcDbEntity
  8
0
  6
CONTINUOUS
 62
     7
100
AcDbLine
 10
421.3446345715
 20
313.327240966
 30
0.0
 11
421.3446345715
 21
316.1843837343
 31
0.0
  0
ARC
  5
127
330
1F
100
AcDbEntity
  8
0
  6
CONTINUOUS
 62
     7
100
AcDbCircle
 10
420.7642781836
 20
316.1843837293
 30
0.0
 40
0.5803571428571672
100
AcDbArc
 50
0.0
 51
180.0
  0
LINE
  5
128
330
1F
100
AcDbEntity
  8
0
  6
CONTINUOUS
 62
     7
100
AcDbLine
 10
420.1839197962
 20
316.1843837343
 30
0.0
 11
420.1839197962
 21
313.327240966
 31
0.0
  0
LINE
  5
129
330
1F
100
AcDbEntity
  8
0
  6
CONTINUOUS
 62
     7
100
AcDbLine
 10
422.2374935238
 20
312.0772407611
 30
0.0
 11
422.2374935238
 21
316.7200979997
 31
0.0
  0
LINE
  5
12A
330
1F
100
AcDbEntity
  8
0
  6
CONTINUOUS
 62
     7
100
AcDbLine
 10
417.2374908416
 20
312.0772407611
 30
0.0
 11
422.2374935238
 21
312.0772407611
 31
0.0
  0
LINE
  5
12B
330
1F
100
AcDbEntity
  8
0
  6
CONTINUOUS
 62
     7
100
AcDbLine
 10
417.2374908416
 20
316.7200979997
 30
0.0
 11
417.2374908416
 21
312.0772407611
 31
0.0
  0
ARC
  5
12C
330
1F
100
AcDbEntity
  8
0
  6
CONTINUOUS
 62
     7
100
AcDbCircle
 10
418.6660638979
 20
316.720098015
 30
0.0
 40
1.428571428571445
100
AcDbArc
 50
41.4096221093
 51
180.0
  0
LINE
  5
12D
330
1F
100
AcDbEntity
  8
0
  6
CONTINUOUS
 62
     7
100
AcDbLine
 10
418.1303497938
 20
313.327240966
 30
0.0
 11
419.2910645692
 21
313.327240966
 31
0.0
  0
LINE
  5
12E
330
1F
100
AcDbEntity
  8
0
  6
CONTINUOUS
 62
     7
100
AcDbLine
 10
419.2910645692
 20
313.327240966
 30
0.0
 11
419.2910645692
 21
316.1843837343
 31
0.0
  0
ARC
  5
12F
330
1F
100
AcDbEntity
  8
0
  6
CONTINUOUS
 62
     7
100
AcDbCircle
 10
418.710706755
 20
316.1843837293
 30
0.0
 40
0.5803571428571672
100
AcDbArc
 50
0.0
 51
180.0
  0
LINE
  5
130
330
1F
100
AcDbEntity
  8
0
  6
CONTINUOUS
 62
     7
100
AcDbLine
 10
418.1303497938
 20
316.1843837343
 30
0.0
 11
418.1303497938
 21
313.327240966
 31
0.0
  0
ARC
  5
131
330
1F
100
AcDbEntity
  8
0
  6
CONTINUOUS
 62
     7
100
AcDbCircle
 10
420.8089210407
 20
316.720098015
 30
0.0
 40
1.428571428571502
100
AcDbArc
 50
0.0
 51
138.5903778907
  0
LINE
  5
132
330
1F
100
AcDbEntity
  8
0
  6
CONTINUOUS
 62
     7
100
AcDbLine
 10
422.2374935238
 20
311.1843836715
 30
0.0
 11
417.2374908416
 21
311.1843836715
 31
0.0
  0
LINE
  5
133
330
1F
100
AcDbEntity
  8
0
  6
CONTINUOUS
 62
     7
100
AcDbLine
 10
422.2374935238
 20
309.9343839322
 30
0.0
 11
422.2374935238
 21
311.1843836715
 31
0.0
  0
LINE
  5
134
330
1F
100
AcDbEntity
  8
0
  6
CONTINUOUS
 62
     7
100
AcDbLine
 10
417.2374908416
 20
311.1843836715
 30
0.0
 11
417.2374908416
 21
309.9343839322
 31
0.0
  0
LINE
  5
135
330
1F
100
AcDbEntity
  8
0
  6
CONTINUOUS
 62
     7
100
AcDbLine
 10
417.2374908416
 20
309.9343839322
 30
0.0
 11
422.2374935238
 21
309.9343839322
 31
0.0
  0
LINE
  5
136
330
1F
100
AcDbEntity
  8
0
  6
CONTINUOUS
 62
     7
100
AcDbLine
 10
419.2910645692
 20
308.5058124025
 30
0.0
 11
419.2910645692
 21
304.9343835783
 31
0.0
  0
LINE
  5
137
330
1F
100
AcDbEntity
  8
0
  6
CONTINUOUS
 62
     7
100
AcDbLine
 10
420.1839197962
 20
308.5058124025
 30
0.0
 11
419.2910645692
 21
308.5058124025
 31
0.0
  0
LINE
  5
138
330
1F
100
AcDbEntity
  8
0
  6
CONTINUOUS
 62
     7
100
AcDbLine
 10
422.2374935238
 20
304.9343835783
 30
0.0
 11
420.1839197962
 21
304.9343835783
 31
0.0
  0
LINE
  5
139
330
1F
100
AcDbEntity
  8
0
  6
CONTINUOUS
 62
     7
100
AcDbLine
 10
422.2374935238
 20
303.6843838391
 30
0.0
 11
422.2374935238
 21
304.9343835783
 31
0.0
  0
LINE
  5
13A
330
1F
100
AcDbEntity
  8
0
  6
CONTINUOUS
 62
     7
100
AcDbLine
 10
417.2374908416
 20
303.6843838391
 30
0.0
 11
422.2374935238
 21
303.6843838391
 31
0.0
  0
LINE
  5
13B
330
1F
100
AcDbEntity
  8
0
  6
CONTINUOUS
 62
     7
100
AcDbLine
 10
418.1303497938
 20
304.9343835783
 30
0.0
 11
418.1303497938
 21
309.0415263769
 31
0.0
  0
LINE
  5
13C
330
1F
100
AcDbEntity
  8
0
  6
CONTINUOUS
 62
     7
100
AcDbLine
 10
419.2910645692
 20
304.9343835783
 30
0.0
 11
418.1303497938
 21
304.9343835783
 31
0.0
  0
LINE
  5
13D
330
1F
100
AcDbEntity
  8
0
  6
CONTINUOUS
 62
     7
100
AcDbLine
 10
418.1303497938
 20
309.0415263769
 30
0.0
 11
417.2374908416
 21
309.0415263769
 31
0.0
  0
LINE
  5
13E
330
1F
100
AcDbEntity
  8
0
  6
CONTINUOUS
 62
     7
100
AcDbLine
 10
420.1839197962
 20
304.9343835783
 30
0.0
 11
420.1839197962
 21
308.5058124025
 31
0.0
  0
LINE
  5
13F
330
1F
100
AcDbEntity
  8
0
  6
CONTINUOUS
 62
     7
100
AcDbLine
 10
417.2374908416
 20
309.0415263769
 30
0.0
 11
417.2374908416
 21
303.6843838391
 31
0.0
  0
LINE
  5
140
330
1F
100
AcDbEntity
  8
0
  6
CONTINUOUS
 62
     7
100
AcDbLine
 10
691.2757716344
 20
333.4595190582
 30
0.0
 11
691.2775169329
 21
333.4595190582
 31
0.0
  0
LINE
  5
141
330
1F
100
AcDbEntity
  8
0
  6
CONTINUOUS
 62
     7
100
AcDbLine
 10
691.2775169329
 20
353.9595177618
 30
0.0
 11
691.2757716344
 21
353.9595177618
 31
0.0
  0
LINE
  5
142
330
1F
100
AcDbEntity
  8
0
  6
CONTINUOUS
 62
     7
100
AcDbLine
 10
691.2757716344
 20
277.4595191923
 30
0.0
 11
691.2775169329
 21
277.4595191923
 31
0.0
  0
LINE
  5
143
330
1F
100
AcDbEntity
  8
0
  6
CONTINUOUS
 62
     7
100
AcDbLine
 10
691.2775169329
 20
297.9595178959
 30
0.0
 11
691.2757716344
 21
297.9595178959
 31
0.0
  0
LINE
  5
144
330
1F
100
AcDbEntity
  8
0
  6
CONTINUOUS
 62
     7
100
AcDbLine
 10
677.2763057814
 20
305.4595181939
 30
0.0
 11
677.2780492173
 21
305.4595181939
 31
0.0
  0
LINE
  5
145
330
1F
100
AcDbEntity
  8
0
  6
CONTINUOUS
 62
     7
100
AcDbLine
 10
677.2780492173
 20
325.9595187602
 30
0.0
 11
677.2763057814
 21
325.9595187602
 31
0.0
  0
LINE
  5
146
330
1F
100
AcDbEntity
  8
0
  6
CONTINUOUS
 62
     7
100
AcDbLine
 10
661.2769141064
 20
333.4595190582
 30
0.0
 11
661.2786575423
 21
333.4595190582
 31
0.0
  0
LINE
  5
147
330
1F
100
AcDbEntity
  8
0
  6
CONTINUOUS
 62
     7
100
AcDbLine
 10
661.2786575423
 20
353.9595177618
 30
0.0
 11
661.2769141064
 21
353.9595177618
 31
0.0
  0
LINE
  5
148
330
1F
100
AcDbEntity
  8
0
  6
CONTINUOUS
 62
     7
100
AcDbLine
 10
661.2769141064
 20
277.4595191923
 30
0.0
 11
661.2786575423
 21
277.4595191923
 31
0.0
  0
LINE
  5
149
330
1F
100
AcDbEntity
  8
0
  6
CONTINUOUS
 62
     7
100
AcDbLine
 10
651.2772961722
 20
309.4595183839
 30
0.0
 11
651.279039608
 21
309.4595183839
 31
0.0
  0
ARC
  5
14A
330
1F
100
AcDbEntity
  8
0
  6
CONTINUOUS
 62
     7
100
AcDbCircle
 10
705.2778275476
 20
368.2421408982
 30
0.0
 40
2.000000000000011
100
AcDbArc
 50
270.5
 51
360.0
  0
LINE
  5
14B
330
1F
100
AcDbEntity
  8
0
  6
CONTINUOUS
 62
     7
100
AcDbLine
 10
707.2778273576
 20
368.2421392051
 30
0.0
 11
707.2778273576
 21
377.2595172969
 31
0.0
  0
LINE
  5
14C
330
1F
100
AcDbEntity
  8
0
  6
CONTINUOUS
 62
     7
100
AcDbLine
 10
707.2778273576
 20
377.2595172969
 30
0.0
 11
711.2778275476
 21
377.2595172969
 31
0.0
  0
LINE
  5
14D
330
1F
100
AcDbEntity
  8
0
  6
CONTINUOUS
 62
     7
100
AcDbLine
 10
711.2778275476
 20
377.2595172969
 30
0.0
 11
711.2778275476
 21
254.1595196572
 31
0.0
  0
LINE
  5
14E
330
1F
100
AcDbEntity
  8
0
  6
CONTINUOUS
 62
     7
100
AcDbLine
 10
707.2778273576
 20
254.1595196572
 30
0.0
 11
711.2778275476
 21
254.1595196572
 31
0.0
  0
LINE
  5
14F
330
1F
100
AcDbEntity
  8
0
  6
CONTINUOUS
 62
     7
100
AcDbLine
 10
707.2778273576
 20
263.176897749
 30
0.0
 11
707.2778273576
 21
254.1595196572
 31
0.0
  0
ARC
  5
150
330
1F
100
AcDbEntity
  8
0
  6
CONTINUOUS
 62
     7
100
AcDbCircle
 10
705.2778275476
 20
263.1768960559
 30
0.0
 40
2.000000000000011
100
AcDbArc
 50
0.0
 51
89.5
  0
LINE
  5
151
330
1F
100
AcDbEntity
  8
0
  6
CONTINUOUS
 62
     7
100
AcDbLine
 10
705.2952804805
 20
265.1768198458
 30
0.0
 11
637.2778265939
 21
265.7704001513
 31
0.0
  0
LINE
  5
152
330
1F
100
AcDbEntity
  8
0
  6
CONTINUOUS
 62
     7
100
AcDbLine
 10
637.2778265939
 20
365.6486368028
 30
0.0
 11
637.2778265939
 21
265.7704001513
 31
0.0
  0
LINE
  5
153
330
1F
100
AcDbEntity
  8
0
  6
CONTINUOUS
 62
     7
100
AcDbLine
 10
637.2778265939
 20
365.6486368028
 30
0.0
 11
705.2952804805
 21
366.2422171083
 31
0.0
  0
CIRCLE
  5
154
330
1F
100
AcDbEntity
  8
0
  6
CONTINUOUS
 62
     7
100
AcDbCircle
 10
691.2755032485
 20
343.7094798545
 30
0.0
 40
10.24987751362244
  0
CIRCLE
  5
155
330
1F
100
AcDbEntity
  8
0
  6
CONTINUOUS
 62
     7
100
AcDbCircle
 10
691.2755032485
 20
287.7094799886
 30
0.0
 40
10.24987751361611
  0
CIRCLE
  5
156
330
1F
100
AcDbEntity
  8
0
  6
CONTINUOUS
 62
     7
100
AcDbCircle
 10
677.2760367592
 20
315.7094853014
 30
0.0
 40
10.24987814991871
  0
CIRCLE
  5
157
330
1F
100
AcDbEntity
  8
0
  6
CONTINUOUS
 62
     7
100
AcDbCircle
 10
661.2766466484
 20
343.7094859558
 30
0.0
 40
10.24987844834916
  0
CIRCLE
  5
158
330
1F
100
AcDbEntity
  8
0
  6
CONTINUOUS
 62
     7
100
AcDbCircle
 10
661.2766466484
 20
287.7094860899
 30
0.0
 40
10.24987844834418
  0
CIRCLE
  5
159
330
1F
100
AcDbEntity
  8
0
  6
CONTINUOUS
 62
     7
100
AcDbCircle
 10
651.277137472
 20
315.7094738732
 30
0.0
 40
6.249918046638755
  0
LINE
  5
15A
330
1F
100
AcDbEntity
  8
0
  6
CONTINUOUS
 62
     7
100
AcDbLine
 10
707.2778273576
 20
380.7246109691
 30
0.0
 11
711.2778275476
 21
380.7595169392
 31
0.0
  0
LINE
  5
15B
330
1F
100
AcDbEntity
  8
0
  6
CONTINUOUS
 62
     7
100
AcDbLine
 10
707.2778273576
 20
377.2595172969
 30
0.0
 11
707.2778273576
 21
380.7246109691
 31
0.0
  0
LINE
  5
15C
330
1F
100
AcDbEntity
  8
0
  6
CONTINUOUS
 62
     7
100
AcDbLine
 10
711.2778275476
 20
380.7595169392
 30
0.0
 11
711.2778275476
 21
377.2595172969
 31
0.0
  0
LINE
  5
15D
330
1F
100
AcDbEntity
  8
0
  6
CONTINUOUS
 62
     7
100
AcDbLine
 10
707.2778273576
 20
250.6944259849
 30
0.0
 11
711.2778275476
 21
250.6595200148
 31
0.0
  0
LINE
  5
15E
330
1F
100
AcDbEntity
  8
0
  6
CONTINUOUS
 62
     7
100
AcDbLine
 10
707.2778273576
 20
254.1595196572
 30
0.0
 11
707.2778273576
 21
250.6944259849
 31
0.0
  0
LINE
  5
15F
330
1F
100
AcDbEntity
  8
0
  6
CONTINUOUS
 62
     7
100
AcDbLine
 10
711.2778275476
 20
254.1595196572
 30
0.0
 11
711.2778275476
 21
250.6595200148
 31
0.0
  0
ARC
  5
160
330
1F
100
AcDbEntity
  8
0
  6
CONTINUOUS
 62
     7
100
AcDbCircle
 10
691.2778190582
 20
343.70951841
 30
0.0
 40
10.24999935625216
100
AcDbArc
 50
90.0016888301
 51
269.9983111699
  0
ARC
  5
161
330
1F
100
AcDbEntity
  8
0
  6
CONTINUOUS
 62
     7
100
AcDbCircle
 10
691.2778190582
 20
287.7095185441
 30
0.0
 40
10.24999935625216
100
AcDbArc
 50
90.0016888301
 51
269.9983111699
  0
ARC
  5
162
330
1F
100
AcDbEntity
  8
0
  6
CONTINUOUS
 62
     7
100
AcDbCircle
 10
677.2783547774
 20
315.709518477
 30
0.0
 40
10.25000028767655
100
AcDbArc
 50
90.00170803
 51
269.99829197
  0
ARC
  5
163
330
1F
100
AcDbEntity
  8
0
  6
CONTINUOUS
 62
     7
100
AcDbCircle
 10
661.2789615303
 20
343.70951841
 30
0.0
 40
10.24999935630729
100
AcDbArc
 50
90.0016992423
 51
269.9983007577
  0
ARC
  5
164
330
1F
100
AcDbEntity
  8
0
  6
CONTINUOUS
 62
     7
100
AcDbCircle
 10
661.2789615303
 20
287.7095185441
 30
0.0
 40
10.24999935630723
100
AcDbArc
 50
90.0016992423
 51
269.9983007577
  0
ARC
  5
165
330
1F
100
AcDbEntity
  8
0
  6
CONTINUOUS
 62
     7
100
AcDbCircle
 10
651.2792174858
 20
315.709518477
 30
0.0
 40
6.250000095663498
100
AcDbArc
 50
90.0016306636
 51
269.9983693364
  0
LINE
  5
166
330
1F
100
AcDbEntity
  8
0
  6
CONTINUOUS
 62
     7
100
AcDbLine
 10
636.2778245674
 20
377.2595172969
 30
0.0
 11
707.2778273576
 21
377.2595172969
 31
0.0
  0
LINE
  5
167
330
1F
100
AcDbEntity
  8
0
  6
CONTINUOUS
 62
     7
100
AcDbLine
 10
636.2778245674
 20
377.2595172969
 30
0.0
 11
636.2778245674
 21
379.4399073568
 31
0.0
  0
LINE
  5
168
330
1F
100
AcDbEntity
  8
0
  6
CONTINUOUS
 62
     7
100
AcDbLine
 10
636.2778245674
 20
379.4399073568
 30
0.0
 11
707.2778273576
 21
380.059519991
 31
0.0
  0
LINE
  5
169
330
1F
100
AcDbEntity
  8
0
  6
CONTINUOUS
 62
     7
100
AcDbLine
 10
636.2778245674
 20
365.4573654977
 30
0.0
 11
637.2778265939
 21
365.4486371425
 31
0.0
  0
LINE
  5
16A
330
1F
100
AcDbEntity
  8
0
  6
CONTINUOUS
 62
     7
100
AcDbLine
 10
636.2778245674
 20
365.4573654977
 30
0.0
 11
636.2778245674
 21
377.2595172969
 31
0.0
  0
LINE
  5
16B
330
1F
100
AcDbEntity
  8
0
  6
CONTINUOUS
 62
     7
100
AcDbLine
 10
636.2778245674
 20
254.1595196572
 30
0.0
 11
707.2778273576
 21
254.1595196572
 31
0.0
  0
LINE
  5
16C
330
1F
100
AcDbEntity
  8
0
  6
CONTINUOUS
 62
     7
100
AcDbLine
 10
636.2778245674
 20
254.1595196572
 30
0.0
 11
636.2778245674
 21
265.9616714564
 31
0.0
  0
LINE
  5
16D
330
1F
100
AcDbEntity
  8
0
  6
CONTINUOUS
 62
     7
100
AcDbLine
 10
636.2778245674
 20
265.9616714564
 30
0.0
 11
637.2778265939
 21
265.9703998116
 31
0.0
  0
LINE
  5
16E
330
1F
100
AcDbEntity
  8
0
  6
CONTINUOUS
 62
     7
100
AcDbLine
 10
636.2778245674
 20
251.9791295973
 30
0.0
 11
707.2778273576
 21
251.3595169631
 31
0.0
  0
LINE
  5
16F
330
1F
100
AcDbEntity
  8
0
  6
CONTINUOUS
 62
     7
100
AcDbLine
 10
636.2778245674
 20
251.9791295973
 30
0.0
 11
636.2778245674
 21
254.1595196572
 31
0.0
  0
LINE
  5
170
330
1F
100
AcDbEntity
  8
0
  6
CONTINUOUS
 62
     7
100
AcDbLine
 10
705.2952804805
 20
380.0422197429
 30
0.0
 11
705.2952804805
 21
380.707310721
 31
0.0
  0
LWPOLYLINE
  5
171
330
1F
100
AcDbEntity
  8
0
  6
CONTINUOUS
 62
     7
100
AcDbPolyline
 90
        9
 70
   128
 43
0.0
 10
705.2952804805
 20
380.707310721
 10
705.6829747015
 20
380.7106932846
 10
706.0552713663
 20
380.7139417377
 10
706.3980213569
 20
380.7169294206
 10
706.6981982642
 20
380.7195520249
 10
706.9443938525
 20
380.7216977921
 10
707.1272520551
 20
380.723299667
 10
707.2398224116
 20
380.724275693
 10
707.2778273576
 20
380.7246109691
  0
LINE
  5
172
330
1F
100
AcDbEntity
  8
0
  6
CONTINUOUS
 62
     7
100
AcDbLine
 10
705.2952804805
 20
250.7117262331
 30
0.0
 11
705.2952804805
 21
251.3768172112
 31
0.0
  0
LWPOLYLINE
  5
173
330
1F
100
AcDbEntity
  8
0
  6
CONTINUOUS
 62
     7
100
AcDbPolyline
 90
        9
 70
   128
 43
0.0
 10
707.2778273576
 20
250.6944259849
 10
707.2398224116
 20
250.6947612611
 10
707.1272520551
 20
250.6957372871
 10
706.9443938525
 20
250.697339162
 10
706.6981982642
 20
250.6994849292
 10
706.3980213569
 20
250.7021075335
 10
706.0552713663
 20
250.7050952164
 10
705.6829747015
 20
250.7083436695
 10
705.2952804805
 20
250.7117262331
  0
LINE
  5
174
330
1F
100
AcDbEntity
  8
0
  6
CONTINUOUS
 62
     7
100
AcDbLine
 10
705.2952804805
 20
380.707310721
 30
0.0
 11
637.2778265939
 21
380.1137304154
 31
0.0
  0
LINE
  5
175
330
1F
100
AcDbEntity
  8
0
  6
CONTINUOUS
 62
     7
100
AcDbLine
 10
637.2778265939
 20
379.4486394373
 30
0.0
 11
637.2778265939
 21
380.1137304154
 31
0.0
  0
LINE
  5
176
330
1F
100
AcDbEntity
  8
0
  6
CONTINUOUS
 62
     7
100
AcDbLine
 10
637.2778265939
 20
251.3053065387
 30
0.0
 11
705.2952804805
 21
250.7117262331
 31
0.0
  0
LINE
  5
177
330
1F
100
AcDbEntity
  8
0
  6
CONTINUOUS
 62
     7
100
AcDbLine
 10
637.2778265939
 20
251.9703975168
 30
0.0
 11
637.2778265939
 21
251.3053065387
 31
0.0
  0
LINE
  5
178
330
1F
100
AcDbEntity
  8
0
  6
CONTINUOUS
 62
     7
100
AcDbLine
 10
283.6536496978
 20
340.9595193562
 30
0.0
 11
283.6519062619
 21
340.9595193562
 31
0.0
  0
LINE
  5
179
330
1F
100
AcDbEntity
  8
0
  6
CONTINUOUS
 62
     7
100
AcDbLine
 10
283.6519062619
 20
290.4595175979
 30
0.0
 11
283.6536496978
 21
290.4595175979
 31
0.0
  0
LINE
  5
17A
330
1F
100
AcDbEntity
  8
0
  6
CONTINUOUS
 62
     7
100
AcDbLine
 10
283.6519062619
 20
323.9595184323
 30
0.0
 11
283.6501591008
 21
323.9595184323
 31
0.0
  0
LINE
  5
17B
330
1F
100
AcDbEntity
  8
0
  6
CONTINUOUS
 62
     7
100
AcDbLine
 10
283.6501591008
 20
307.4595185217
 30
0.0
 11
283.6519062619
 21
307.4595185217
 31
0.0
  0
LINE
  5
17C
330
1F
100
AcDbEntity
  8
0
  6
CONTINUOUS
 62
     7
100
AcDbLine
 10
308.6555145781
 20
286.9595179555
 30
0.0
 11
308.6537711422
 21
286.9595179555
 31
0.0
  0
LINE
  5
17D
330
1F
100
AcDbEntity
  8
0
  6
CONTINUOUS
 62
     7
100
AcDbLine
 10
308.6555145781
 20
356.9595201162
 30
0.0
 11
308.6537711422
 21
356.9595201162
 31
0.0
  0
LINE
  5
17E
330
1F
100
AcDbEntity
  8
0
  6
CONTINUOUS
 62
     7
100
AcDbLine
 10
322.6549841564
 20
265.7704001513
 30
0.0
 11
322.6549841564
 21
365.6486368028
 31
0.0
  0
LINE
  5
17F
330
1F
100
AcDbEntity
  8
0
  6
CONTINUOUS
 62
     7
100
AcDbLine
 10
322.6549841564
 20
265.7704001513
 30
0.0
 11
254.6375302698
 21
265.1768198458
 31
0.0
  0
ARC
  5
180
330
1F
100
AcDbEntity
  8
0
  6
CONTINUOUS
 62
     7
100
AcDbCircle
 10
254.6549832027
 20
263.1768960559
 30
0.0
 40
2.000000000000012
100
AcDbArc
 50
90.5
 51
180.0
  0
LINE
  5
181
330
1F
100
AcDbEntity
  8
0
  6
CONTINUOUS
 62
     7
100
AcDbLine
 10
252.6549833927
 20
254.1595196572
 30
0.0
 11
252.6549833927
 21
263.176897749
 31
0.0
  0
LINE
  5
182
330
1F
100
AcDbEntity
  8
0
  6
CONTINUOUS
 62
     7
100
AcDbLine
 10
252.6549833927
 20
254.1595196572
 30
0.0
 11
248.6549832027
 21
254.1595196572
 31
0.0
  0
LINE
  5
183
330
1F
100
AcDbEntity
  8
0
  6
CONTINUOUS
 62
     7
100
AcDbLine
 10
248.6549832027
 20
254.1595196572
 30
0.0
 11
248.6549832027
 21
377.2595172969
 31
0.0
  0
LINE
  5
184
330
1F
100
AcDbEntity
  8
0
  6
CONTINUOUS
 62
     7
100
AcDbLine
 10
252.6549833927
 20
377.2595172969
 30
0.0
 11
248.6549832027
 21
377.2595172969
 31
0.0
  0
LINE
  5
185
330
1F
100
AcDbEntity
  8
0
  6
CONTINUOUS
 62
     7
100
AcDbLine
 10
252.6549833927
 20
377.2595172969
 30
0.0
 11
252.6549833927
 21
368.2421392051
 31
0.0
  0
ARC
  5
186
330
1F
100
AcDbEntity
  8
0
  6
CONTINUOUS
 62
     7
100
AcDbCircle
 10
254.6549832027
 20
368.2421408982
 30
0.0
 40
2.000000000000012
100
AcDbArc
 50
180.0
 51
269.5
  0
LINE
  5
187
330
1F
100
AcDbEntity
  8
0
  6
CONTINUOUS
 62
     7
100
AcDbLine
 10
254.6375302698
 20
366.2422171083
 30
0.0
 11
322.6549841564
 21
365.6486368028
 31
0.0
  0
CIRCLE
  5
188
330
1F
100
AcDbEntity
  8
0
  6
CONTINUOUS
 62
     7
100
AcDbCircle
 10
308.6553579245
 20
280.7094935489
 30
0.0
 40
6.249919725178481
  0
CIRCLE
  5
189
330
1F
100
AcDbEntity
  8
0
  6
CONTINUOUS
 62
     7
100
AcDbCircle
 10
308.6556737153
 20
350.7095622556
 30
0.0
 40
6.249918483621004
  0
CIRCLE
  5
18A
330
1F
100
AcDbEntity
  8
0
  6
CONTINUOUS
 62
     7
100
AcDbCircle
 10
283.6529951363
 20
315.7094592108
 30
0.0
 40
25.24969245320123
  0
LINE
  5
18B
330
1F
100
AcDbEntity
  8
0
  6
CONTINUOUS
 62
     7
100
AcDbLine
 10
252.6549833927
 20
250.6944259849
 30
0.0
 11
252.6549833927
 21
254.1595196572
 31
0.0
  0
LINE
  5
18C
330
1F
100
AcDbEntity
  8
0
  6
CONTINUOUS
 62
     7
100
AcDbLine
 10
252.6549833927
 20
250.6944259849
 30
0.0
 11
248.6549832027
 21
250.6595200148
 31
0.0
  0
LINE
  5
18D
330
1F
100
AcDbEntity
  8
0
  6
CONTINUOUS
 62
     7
100
AcDbLine
 10
248.6549832027
 20
250.6595200148
 30
0.0
 11
248.6549832027
 21
254.1595196572
 31
0.0
  0
LINE
  5
18E
330
1F
100
AcDbEntity
  8
0
  6
CONTINUOUS
 62
     7
100
AcDbLine
 10
252.6549833927
 20
380.7246109691
 30
0.0
 11
248.6549832027
 21
380.7595169392
 31
0.0
  0
LINE
  5
18F
330
1F
100
AcDbEntity
  8
0
  6
CONTINUOUS
 62
     7
100
AcDbLine
 10
252.6549833927
 20
380.7246109691
 30
0.0
 11
252.6549833927
 21
377.2595172969
 31
0.0
  0
LINE
  5
190
330
1F
100
AcDbEntity
  8
0
  6
CONTINUOUS
 62
     7
100
AcDbLine
 10
248.6549832027
 20
377.2595172969
 30
0.0
 11
248.6549832027
 21
380.7595169392
 31
0.0
  0
ARC
  5
191
330
1F
100
AcDbEntity
  8
0
  6
CONTINUOUS
 62
     7
100
AcDbCircle
 10
283.6514568618
 20
315.7100320632
 30
0.0
 40
25.24948729700356
100
AcDbArc
 50
359.9988345775
 51
89.9989802275
  0
ARC
  5
192
330
1F
100
AcDbEntity
  8
0
  6
CONTINUOUS
 62
     7
100
AcDbCircle
 10
283.651432824
 20
315.7090289277
 30
0.0
 40
25.24951133429506
100
AcDbArc
 50
270.0010743176
 51
0.0011108773
  0
CIRCLE
  5
193
330
1F
100
AcDbEntity
  8
0
  6
CONTINUOUS
 62
     7
100
AcDbCircle
 10
283.6516889748
 20
315.7094907327
 30
0.0
 40
8.24990245539105
  0
ARC
  5
194
330
1F
100
AcDbEntity
  8
0
  6
CONTINUOUS
 62
     7
100
AcDbCircle
 10
283.6500173039
 20
315.7096914667
 30
0.0
 40
8.249826966898235
100
AcDbArc
 50
359.9987985718
 51
89.9990152085
  0
ARC
  5
195
330
1F
100
AcDbEntity
  8
0
  6
CONTINUOUS
 62
     7
100
AcDbCircle
 10
283.6500173039
 20
315.7093454874
 30
0.0
 40
8.24982696689852
100
AcDbArc
 50
270.0009847915
 51
0.0012014282
  0
ARC
  5
196
330
1F
100
AcDbEntity
  8
0
  6
CONTINUOUS
 62
     7
100
AcDbCircle
 10
308.6536547613
 20
280.709638503
 30
0.0
 40
6.249879453598665
100
AcDbArc
 50
359.9988982959
 51
89.9989330779
  0
ARC
  5
197
330
1F
100
AcDbEntity
  8
0
  6
CONTINUOUS
 62
     7
100
AcDbCircle
 10
308.6536518664
 20
280.7093991853
 30
0.0
 40
6.249882348506222
100
AcDbArc
 50
270.0010934609
 51
0.0010922408
  0
ARC
  5
198
330
1F
100
AcDbEntity
  8
0
  6
CONTINUOUS
 62
     7
100
AcDbCircle
 10
308.6535915555
 20
350.7095195574
 30
0.0
 40
6.250000561373655
100
AcDbArc
 50
270.0016463294
 51
89.9983536706
  0
LINE
  5
199
330
1F
100
AcDbEntity
  8
0
  6
CONTINUOUS
 62
     7
100
AcDbLine
 10
323.6549861829
 20
254.1595196572
 30
0.0
 11
252.6549833927
 21
254.1595196572
 31
0.0
  0
LINE
  5
19A
330
1F
100
AcDbEntity
  8
0
  6
CONTINUOUS
 62
     7
100
AcDbLine
 10
323.6549861829
 20
254.1595196572
 30
0.0
 11
323.6549861829
 21
251.9791295973
 31
0.0
  0
LINE
  5
19B
330
1F
100
AcDbEntity
  8
0
  6
CONTINUOUS
 62
     7
100
AcDbLine
 10
323.6549861829
 20
251.9791295973
 30
0.0
 11
252.6549833927
 21
251.3595169631
 31
0.0
  0
LINE
  5
19C
330
1F
100
AcDbEntity
  8
0
  6
CONTINUOUS
 62
     7
100
AcDbLine
 10
323.6549861829
 20
265.9616714564
 30
0.0
 11
322.6549841564
 21
265.9703998116
 31
0.0
  0
LINE
  5
19D
330
1F
100
AcDbEntity
  8
0
  6
CONTINUOUS
 62
     7
100
AcDbLine
 10
323.6549861829
 20
265.9616714564
 30
0.0
 11
323.6549861829
 21
254.1595196572
 31
0.0
  0
LINE
  5
19E
330
1F
100
AcDbEntity
  8
0
  6
CONTINUOUS
 62
     7
100
AcDbLine
 10
323.6549861829
 20
377.2595172969
 30
0.0
 11
252.6549833927
 21
377.2595172969
 31
0.0
  0
LINE
  5
19F
330
1F
100
AcDbEntity
  8
0
  6
CONTINUOUS
 62
     7
100
AcDbLine
 10
323.6549861829
 20
377.2595172969
 30
0.0
 11
323.6549861829
 21
365.4573654977
 31
0.0
  0
LINE
  5
1A0
330
1F
100
AcDbEntity
  8
0
  6
CONTINUOUS
 62
     7
100
AcDbLine
 10
323.6549861829
 20
365.4573654977
 30
0.0
 11
322.6549841564
 21
365.4486371425
 31
0.0
  0
LINE
  5
1A1
330
1F
100
AcDbEntity
  8
0
  6
CONTINUOUS
 62
     7
100
AcDbLine
 10
323.6549861829
 20
379.4399073568
 30
0.0
 11
252.6549833927
 21
380.059519991
 31
0.0
  0
LINE
  5
1A2
330
1F
100
AcDbEntity
  8
0
  6
CONTINUOUS
 62
     7
100
AcDbLine
 10
323.6549861829
 20
379.4399073568
 30
0.0
 11
323.6549861829
 21
377.2595172969
 31
0.0
  0
LINE
  5
1A3
330
1F
100
AcDbEntity
  8
0
  6
CONTINUOUS
 62
     7
100
AcDbLine
 10
254.6375302698
 20
251.3768172112
 30
0.0
 11
254.6375302698
 21
250.7117262331
 31
0.0
  0
LWPOLYLINE
  5
1A4
330
1F
100
AcDbEntity
  8
0
  6
CONTINUOUS
 62
     7
100
AcDbPolyline
 90
        9
 70
   128
 43
0.0
 10
254.6375302698
 20
250.7117262331
 10
254.2498360488
 20
250.7083436695
 10
253.8775393839
 20
250.7050952164
 10
253.5347893934
 20
250.7021075335
 10
253.2346124861
 20
250.6994849292
 10
252.9884168978
 20
250.697339162
 10
252.8055586952
 20
250.6957372871
 10
252.6929883386
 20
250.6947612611
 10
252.6549833927
 20
250.6944259849
  0
LINE
  5
1A5
330
1F
100
AcDbEntity
  8
0
  6
CONTINUOUS
 62
     7
100
AcDbLine
 10
254.6375302698
 20
380.707310721
 30
0.0
 11
254.6375302698
 21
380.0422197429
 31
0.0
  0
LWPOLYLINE
  5
1A6
330
1F
100
AcDbEntity
  8
0
  6
CONTINUOUS
 62
     7
100
AcDbPolyline
 90
        9
 70
   128
 43
0.0
 10
252.6549833927
 20
380.7246109691
 10
252.6929883386
 20
380.724275693
 10
252.8055586952
 20
380.723299667
 10
252.9884168978
 20
380.7216977921
 10
253.2346124861
 20
380.7195520249
 10
253.5347893934
 20
380.7169294206
 10
253.8775393839
 20
380.7139417377
 10
254.2498360488
 20
380.7106932846
 10
254.6375302698
 20
380.707310721
  0
LINE
  5
1A7
330
1F
100
AcDbEntity
  8
0
  6
CONTINUOUS
 62
     7
100
AcDbLine
 10
322.6549841564
 20
380.1137304154
 30
0.0
 11
254.6375302698
 21
380.707310721
 31
0.0
  0
LINE
  5
1A8
330
1F
100
AcDbEntity
  8
0
  6
CONTINUOUS
 62
     7
100
AcDbLine
 10
322.6549841564
 20
379.4486394373
 30
0.0
 11
322.6549841564
 21
380.1137304154
 31
0.0
  0
LINE
  5
1A9
330
1F
100
AcDbEntity
  8
0
  6
CONTINUOUS
 62
     7
100
AcDbLine
 10
254.6375302698
 20
250.7117262331
 30
0.0
 11
322.6549841564
 21
251.3053065387
 31
0.0
  0
LINE
  5
1AA
330
1F
100
AcDbEntity
  8
0
  6
CONTINUOUS
 62
     7
100
AcDbLine
 10
322.6549841564
 20
251.9703975168
 30
0.0
 11
322.6549841564
 21
251.3053065387
 31
0.0
  0
LINE
  5
1AB
330
1F
100
AcDbEntity
  8
0
  6
CONTINUOUS
 62
     7
100
AcDbLine
 10
177.6454939068
 20
251.9791295973
 30
0.0
 11
189.447645706
 21
251.9791295973
 31
0.0
  0
LINE
  5
1AC
330
1F
100
AcDbEntity
  8
0
  6
CONTINUOUS
 62
     7
100
AcDbLine
 10
177.6454939068
 20
253.9616732148
 30
0.0
 11
177.6454939068
 21
251.9791295973
 31
0.0
  0
LINE
  5
1AD
330
1F
100
AcDbEntity
  8
0
  6
CONTINUOUS
 62
     7
100
AcDbLine
 10
189.447645706
 20
253.9616732148
 30
0.0
 11
177.6454939068
 21
253.9616732148
 31
0.0
  0
ARC
  5
1AE
330
1F
100
AcDbEntity
  8
0
  6
CONTINUOUS
 62
     7
100
AcDbCircle
 10
189.4476483763
 20
254.159518477
 30
0.0
 40
0.1978461224375963
100
AcDbArc
 50
270.0
 51
0.0
  0
LINE
  5
1AF
330
1F
100
AcDbEntity
  8
0
  6
CONTINUOUS
 62
     7
100
AcDbLine
 10
189.6454958737
 20
265.9616714564
 30
0.0
 11
189.6454958737
 21
254.1595196572
 31
0.0
  0
LINE
  5
1B0
330
1F
100
AcDbEntity
  8
0
  6
CONTINUOUS
 62
     7
100
AcDbLine
 10
191.6280432165
 20
265.9616714564
 30
0.0
 11
189.6454958737
 21
265.9616714564
 31
0.0
  0
LINE
  5
1B1
330
1F
100
AcDbEntity
  8
0
  6
CONTINUOUS
 62
     7
100
AcDbLine
 10
191.6280432165
 20
254.1595196572
 30
0.0
 11
191.6280432165
 21
265.9616714564
 31
0.0
  0
ARC
  5
1B2
330
1F
100
AcDbEntity
  8
0
  6
CONTINUOUS
 62
     7
100
AcDbCircle
 10
189.4476483763
 20
254.159518477
 30
0.0
 40
2.180392386856113
100
AcDbArc
 50
270.0
 51
0.0
  0
LINE
  5
1B3
330
1F
100
AcDbEntity
  8
0
  6
CONTINUOUS
 62
     7
100
AcDbLine
 10
189.447645706
 20
251.9791295973
 30
0.0
 11
189.447645706
 21
251.3595169631
 31
0.0
  0
LINE
  5
1B4
330
1F
100
AcDbEntity
  8
0
  6
CONTINUOUS
 62
     7
100
AcDbLine
 10
191.6280432165
 20
254.1595196572
 30
0.0
 11
192.2476484001
 21
254.1595196572
 31
0.0
  0
ARC
  5
1B5
330
1F
100
AcDbEntity
  8
0
  6
CONTINUOUS
 62
     7
100
AcDbCircle
 10
189.4476483763
 20
254.159518477
 30
0.0
 40
2.799999999999983
100
AcDbArc
 50
270.0
 51
0.0
  0
LINE
  5
1B6
330
1F
100
AcDbEntity
  8
0
  6
CONTINUOUS
 62
     7
100
AcDbLine
 10
177.6367692769
 20
251.9703975168
 30
0.0
 11
177.8367652119
 21
251.9703975168
 31
0.0
  0
LINE
  5
1B7
330
1F
100
AcDbEntity
  8
0
  6
CONTINUOUS
 62
     7
100
AcDbLine
 10
177.6454939068
 20
251.9791295973
 30
0.0
 11
177.6367692769
 21
251.9703975168
 31
0.0
  0
LINE
  5
1B8
330
1F
100
AcDbEntity
  8
0
  6
CONTINUOUS
 62
     7
100
AcDbLine
 10
180.4302676142
 20
251.3595169631
 30
0.0
 11
189.447645706
 21
251.3595169631
 31
0.0
  0
ELLIPSE
  5
1B9
330
1F
100
AcDbEntity
  8
0
  6
CONTINUOUS
 62
     7
100
AcDbEllipse
 10
180.4302707974
 20
251.3769722126
 30
0.0
 11
2.000000000000028
 21
-5.684341886080801E-14
 31
0.0
210
0.0
220
0.0
230
1.0
 40
0.0087268678
 41
3.150319299856215
 42
4.712388980384704
  0
LINE
  5
1BA
330
1F
100
AcDbEntity
  8
0
  6
CONTINUOUS
 62
     7
100
AcDbLine
 10
177.8367652119
 20
251.9703975168
 30
0.0
 11
178.4303455174
 21
251.3768172112
 31
0.0
  0
LINE
  5
1BB
330
1F
100
AcDbEntity
  8
0
  6
CONTINUOUS
 62
     7
100
AcDbLine
 10
189.447645706
 20
253.9616732148
 30
0.0
 11
189.447645706
 21
253.9703978446
 31
0.0
  0
LINE
  5
1BC
330
1F
100
AcDbEntity
  8
0
  6
CONTINUOUS
 62
     7
100
AcDbLine
 10
177.6454939068
 20
253.9616732148
 30
0.0
 11
177.6367692769
 21
253.9703978446
 31
0.0
  0
LINE
  5
1BD
330
1F
100
AcDbEntity
  8
0
  6
CONTINUOUS
 62
     7
100
AcDbLine
 10
189.447645706
 20
253.9703978446
 30
0.0
 11
177.6367692769
 21
253.9703978446
 31
0.0
  0
LINE
  5
1BE
330
1F
100
AcDbEntity
  8
0
  6
CONTINUOUS
 62
     7
100
AcDbLine
 10
189.6454958737
 20
254.1595196572
 30
0.0
 11
189.6367712438
 21
254.1595196572
 31
0.0
  0
ARC
  5
1BF
330
1F
100
AcDbEntity
  8
0
  6
CONTINUOUS
 62
     7
100
AcDbCircle
 10
189.4476483763
 20
254.159518477
 30
0.0
 40
0.1891192546468687
100
AcDbArc
 50
270.0
 51
0.0
  0
LINE
  5
1C0
330
1F
100
AcDbEntity
  8
0
  6
CONTINUOUS
 62
     7
100
AcDbLine
 10
191.6280432165
 20
265.9616714564
 30
0.0
 11
191.6367678464
 21
265.9703998116
 31
0.0
  0
LINE
  5
1C1
330
1F
100
AcDbEntity
  8
0
  6
CONTINUOUS
 62
     7
100
AcDbLine
 10
191.6367678464
 20
265.7704001513
 30
0.0
 11
191.6367678464
 21
265.9703998116
 31
0.0
  0
LINE
  5
1C2
330
1F
100
AcDbEntity
  8
0
  6
CONTINUOUS
 62
     7
100
AcDbLine
 10
191.6367678464
 20
265.7704001513
 30
0.0
 11
192.230348152
 21
265.1768198458
 31
0.0
  0
ELLIPSE
  5
1C3
330
1F
100
AcDbEntity
  8
0
  6
CONTINUOUS
 62
     7
100
AcDbEllipse
 10
192.2301946407
 20
263.1768960559
 30
0.0
 11
0.0
 21
2.0
 31
0.0
210
0.0
220
0.0
230
1.0
 40
0.0087268678
 41
4.71238898038469
 42
6.274458660922841
  0
LINE
  5
1C4
330
1F
100
AcDbEntity
  8
0
  6
CONTINUOUS
 62
     7
100
AcDbLine
 10
192.2476484001
 20
254.1595196572
 30
0.0
 11
192.2476484001
 21
263.176897749
 31
0.0
  0
LINE
  5
1C5
330
1F
100
AcDbEntity
  8
0
  6
CONTINUOUS
 62
     7
100
AcDbLine
 10
189.6454958737
 20
265.9616714564
 30
0.0
 11
189.6367712438
 21
265.9703998116
 31
0.0
  0
LINE
  5
1C6
330
1F
100
AcDbEntity
  8
0
  6
CONTINUOUS
 62
     7
100
AcDbLine
 10
189.6367712438
 20
265.9703998116
 30
0.0
 11
189.6367712438
 21
254.1595196572
 31
0.0
  0
LINE
  5
1C7
330
1F
100
AcDbEntity
  8
0
  6
CONTINUOUS
 62
     7
100
AcDbLine
 10
191.6367678464
 20
265.9703998116
 30
0.0
 11
189.6367712438
 21
265.9703998116
 31
0.0
  0
LINE
  5
1C8
330
1F
100
AcDbEntity
  8
0
  6
CONTINUOUS
 62
     7
100
AcDbLine
 10
177.6367692769
 20
253.9703978446
 30
0.0
 11
177.6367692769
 21
251.9703975168
 31
0.0
  0
LINE
  5
1C9
330
1F
100
AcDbEntity
  8
0
  6
CONTINUOUS
 62
     7
100
AcDbLine
 10
191.6280432165
 20
365.4573654977
 30
0.0
 11
191.6280432165
 21
377.2595172969
 31
0.0
  0
LINE
  5
1CA
330
1F
100
AcDbEntity
  8
0
  6
CONTINUOUS
 62
     7
100
AcDbLine
 10
189.6454958737
 20
365.4573654977
 30
0.0
 11
191.6280432165
 21
365.4573654977
 31
0.0
  0
LINE
  5
1CB
330
1F
100
AcDbEntity
  8
0
  6
CONTINUOUS
 62
     7
100
AcDbLine
 10
189.6454958737
 20
377.2595172969
 30
0.0
 11
189.6454958737
 21
365.4573654977
 31
0.0
  0
ARC
  5
1CC
330
1F
100
AcDbEntity
  8
0
  6
CONTINUOUS
 62
     7
100
AcDbCircle
 10
189.4476483763
 20
377.259518477
 30
0.0
 40
0.1978461224376247
100
AcDbArc
 50
0.0
 51
90.0
  0
LINE
  5
1CD
330
1F
100
AcDbEntity
  8
0
  6
CONTINUOUS
 62
     7
100
AcDbLine
 10
177.6454939068
 20
377.4573637393
 30
0.0
 11
189.447645706
 21
377.4573637393
 31
0.0
  0
LINE
  5
1CE
330
1F
100
AcDbEntity
  8
0
  6
CONTINUOUS
 62
     7
100
AcDbLine
 10
177.6454939068
 20
379.4399073568
 30
0.0
 11
177.6454939068
 21
377.4573637393
 31
0.0
  0
LINE
  5
1CF
330
1F
100
AcDbEntity
  8
0
  6
CONTINUOUS
 62
     7
100
AcDbLine
 10
189.447645706
 20
379.4399073568
 30
0.0
 11
177.6454939068
 21
379.4399073568
 31
0.0
  0
ARC
  5
1D0
330
1F
100
AcDbEntity
  8
0
  6
CONTINUOUS
 62
     7
100
AcDbCircle
 10
189.4476483763
 20
377.259518477
 30
0.0
 40
2.18039238685617
100
AcDbArc
 50
0.0
 51
90.0
  0
LINE
  5
1D1
330
1F
100
AcDbEntity
  8
0
  6
CONTINUOUS
 62
     7
100
AcDbLine
 10
189.6454958737
 20
365.4573654977
 30
0.0
 11
189.6367712438
 21
365.4486371425
 31
0.0
  0
LINE
  5
1D2
330
1F
100
AcDbEntity
  8
0
  6
CONTINUOUS
 62
     7
100
AcDbLine
 10
191.6280432165
 20
365.4573654977
 30
0.0
 11
191.6367678464
 21
365.4486371425
 31
0.0
  0
LINE
  5
1D3
330
1F
100
AcDbEntity
  8
0
  6
CONTINUOUS
 62
     7
100
AcDbLine
 10
189.6367712438
 20
365.4486371425
 30
0.0
 11
191.6367678464
 21
365.4486371425
 31
0.0
  0
LINE
  5
1D4
330
1F
100
AcDbEntity
  8
0
  6
CONTINUOUS
 62
     7
100
AcDbLine
 10
191.6367678464
 20
365.4486371425
 30
0.0
 11
191.6367678464
 21
365.6486368028
 31
0.0
  0
LINE
  5
1D5
330
1F
100
AcDbEntity
  8
0
  6
CONTINUOUS
 62
     7
100
AcDbLine
 10
191.6280432165
 20
377.2595172969
 30
0.0
 11
192.2476484001
 21
377.2595172969
 31
0.0
  0
LINE
  5
1D6
330
1F
100
AcDbEntity
  8
0
  6
CONTINUOUS
 62
     7
100
AcDbLine
 10
192.2476484001
 20
368.2421392051
 30
0.0
 11
192.2476484001
 21
377.2595172969
 31
0.0
  0
ELLIPSE
  5
1D7
330
1F
100
AcDbEntity
  8
0
  6
CONTINUOUS
 62
     7
100
AcDbEllipse
 10
192.2301946407
 20
368.2421408982
 30
0.0
 11
0.0
 21
2.0
 31
0.0
210
0.0
220
0.0
230
1.0
 40
0.0087268678
 41
3.150319299851344
 42
4.712388980384661
  0
LINE
  5
1D8
330
1F
100
AcDbEntity
  8
0
  6
CONTINUOUS
 62
     7
100
AcDbLine
 10
191.6367678464
 20
365.6486368028
 30
0.0
 11
192.230348152
 21
366.2422171083
 31
0.0
  0
LINE
  5
1D9
330
1F
100
AcDbEntity
  8
0
  6
CONTINUOUS
 62
     7
100
AcDbLine
 10
189.6454958737
 20
377.2595172969
 30
0.0
 11
189.6367712438
 21
377.2595172969
 31
0.0
  0
LINE
  5
1DA
330
1F
100
AcDbEntity
  8
0
  6
CONTINUOUS
 62
     7
100
AcDbLine
 10
189.6367712438
 20
377.2595172969
 30
0.0
 11
189.6367712438
 21
365.4486371425
 31
0.0
  0
LINE
  5
1DB
330
1F
100
AcDbEntity
  8
0
  6
CONTINUOUS
 62
     7
100
AcDbLine
 10
189.447645706
 20
379.4399073568
 30
0.0
 11
189.447645706
 21
380.059519991
 31
0.0
  0
ARC
  5
1DC
330
1F
100
AcDbEntity
  8
0
  6
CONTINUOUS
 62
     7
100
AcDbCircle
 10
189.4476483763
 20
377.259518477
 30
0.0
 40
2.800000000000068
100
AcDbArc
 50
0.0
 51
90.0
  0
LINE
  5
1DD
330
1F
100
AcDbEntity
  8
0
  6
CONTINUOUS
 62
     7
100
AcDbLine
 10
189.447645706
 20
377.4573637393
 30
0.0
 11
189.447645706
 21
377.4486391095
 31
0.0
  0
ARC
  5
1DE
330
1F
100
AcDbEntity
  8
0
  6
CONTINUOUS
 62
     7
100
AcDbCircle
 10
189.4476483763
 20
377.259518477
 30
0.0
 40
0.1891192546468687
100
AcDbArc
 50
0.0
 51
90.0
  0
LINE
  5
1DF
330
1F
100
AcDbEntity
  8
0
  6
CONTINUOUS
 62
     7
100
AcDbLine
 10
177.6454939068
 20
377.4573637393
 30
0.0
 11
177.6367692769
 21
377.4486391095
 31
0.0
  0
LINE
  5
1E0
330
1F
100
AcDbEntity
  8
0
  6
CONTINUOUS
 62
     7
100
AcDbLine
 10
177.6367692769
 20
377.4486391095
 30
0.0
 11
189.447645706
 21
377.4486391095
 31
0.0
  0
LINE
  5
1E1
330
1F
100
AcDbEntity
  8
0
  6
CONTINUOUS
 62
     7
100
AcDbLine
 10
177.6454939068
 20
379.4399073568
 30
0.0
 11
177.6367692769
 21
379.4486394373
 31
0.0
  0
LINE
  5
1E2
330
1F
100
AcDbEntity
  8
0
  6
CONTINUOUS
 62
     7
100
AcDbLine
 10
177.8367652119
 20
379.4486394373
 30
0.0
 11
177.6367692769
 21
379.4486394373
 31
0.0
  0
LINE
  5
1E3
330
1F
100
AcDbEntity
  8
0
  6
CONTINUOUS
 62
     7
100
AcDbLine
 10
177.8367652119
 20
379.4486394373
 30
0.0
 11
178.4303455174
 21
380.0422197429
 31
0.0
  0
ELLIPSE
  5
1E4
330
1F
100
AcDbEntity
  8
0
  6
CONTINUOUS
 62
     7
100
AcDbEllipse
 10
180.4302707975
 20
380.0420647415
 30
0.0
 11
2.0
 21
0.0
 31
0.0
210
0.0
220
0.0
230
1.0
 40
0.0087268678
 41
1.570796326794882
 42
3.132866007328242
  0
LINE
  5
1E5
330
1F
100
AcDbEntity
  8
0
  6
CONTINUOUS
 62
     7
100
AcDbLine
 10
189.447645706
 20
380.059519991
 30
0.0
 11
180.4302676142
 21
380.059519991
 31
0.0
  0
LINE
  5
1E6
330
1F
100
AcDbEntity
  8
0
  6
CONTINUOUS
 62
     7
100
AcDbLine
 10
177.6367692769
 20
379.4486394373
 30
0.0
 11
177.6367692769
 21
377.4486391095
 31
0.0
  0
LINE
  5
1E7
330
1F
100
AcDbEntity
  8
0
  6
CONTINUOUS
 62
     7
100
AcDbLine
 10
28.1498028457
 20
253.9616732148
 30
0.0
 11
28.1585274756
 21
253.9703978446
 31
0.0
  0
LINE
  5
1E8
330
1F
100
AcDbEntity
  8
0
  6
CONTINUOUS
 62
     7
100
AcDbLine
 10
28.1498028457
 20
253.9616732148
 30
0.0
 11
16.3476510465
 21
253.9616732148
 31
0.0
  0
LINE
  5
1E9
330
1F
100
AcDbEntity
  8
0
  6
CONTINUOUS
 62
     7
100
AcDbLine
 10
16.3476510465
 20
253.9616732148
 30
0.0
 11
16.3476510465
 21
253.9703978446
 31
0.0
  0
LINE
  5
1EA
330
1F
100
AcDbEntity
  8
0
  6
CONTINUOUS
 62
     7
100
AcDbLine
 10
28.1585274756
 20
253.9703978446
 30
0.0
 11
16.3476510465
 21
253.9703978446
 31
0.0
  0
LINE
  5
1EB
330
1F
100
AcDbEntity
  8
0
  6
CONTINUOUS
 62
     7
100
AcDbLine
 10
28.1498028457
 20
251.9791295973
 30
0.0
 11
28.1585274756
 21
251.9703975168
 31
0.0
  0
LINE
  5
1EC
330
1F
100
AcDbEntity
  8
0
  6
CONTINUOUS
 62
     7
100
AcDbLine
 10
28.1498028457
 20
251.9791295973
 30
0.0
 11
28.1498028457
 21
253.9616732148
 31
0.0
  0
LINE
  5
1ED
330
1F
100
AcDbEntity
  8
0
  6
CONTINUOUS
 62
     7
100
AcDbLine
 10
28.1585274756
 20
251.9703975168
 30
0.0
 11
28.1585274756
 21
253.9703978446
 31
0.0
  0
LINE
  5
1EE
330
1F
100
AcDbEntity
  8
0
  6
CONTINUOUS
 62
     7
100
AcDbLine
 10
14.167253536
 20
265.9616714564
 30
0.0
 11
14.167253536
 21
254.1595196572
 31
0.0
  0
LINE
  5
1EF
330
1F
100
AcDbEntity
  8
0
  6
CONTINUOUS
 62
     7
100
AcDbLine
 10
16.1498008788
 20
265.9616714564
 30
0.0
 11
14.167253536
 21
265.9616714564
 31
0.0
  0
LINE
  5
1F0
330
1F
100
AcDbEntity
  8
0
  6
CONTINUOUS
 62
     7
100
AcDbLine
 10
16.1498008788
 20
254.1595196572
 30
0.0
 11
16.1498008788
 21
265.9616714564
 31
0.0
  0
ARC
  5
1F1
330
1F
100
AcDbEntity
  8
0
  6
CONTINUOUS
 62
     7
100
AcDbCircle
 10
16.3476483763
 20
254.159518477
 30
0.0
 40
0.1978461224376034
100
AcDbArc
 50
180.0
 51
270.0
  0
LINE
  5
1F2
330
1F
100
AcDbEntity
  8
0
  6
CONTINUOUS
 62
     7
100
AcDbLine
 10
16.3476510465
 20
251.9791295973
 30
0.0
 11
28.1498028457
 21
251.9791295973
 31
0.0
  0
ARC
  5
1F3
330
1F
100
AcDbEntity
  8
0
  6
CONTINUOUS
 62
     7
100
AcDbCircle
 10
16.3476483763
 20
254.159518477
 30
0.0
 40
2.180392386856134
100
AcDbArc
 50
180.0
 51
270.0
  0
LINE
  5
1F4
330
1F
100
AcDbEntity
  8
0
  6
CONTINUOUS
 62
     7
100
AcDbLine
 10
16.3476510465
 20
251.9791295973
 30
0.0
 11
16.3476510465
 21
251.3595169631
 31
0.0
  0
LINE
  5
1F5
330
1F
100
AcDbEntity
  8
0
  6
CONTINUOUS
 62
     7
100
AcDbLine
 10
27.9585315407
 20
251.9703975168
 30
0.0
 11
28.1585274756
 21
251.9703975168
 31
0.0
  0
LINE
  5
1F6
330
1F
100
AcDbEntity
  8
0
  6
CONTINUOUS
 62
     7
100
AcDbLine
 10
27.9585315407
 20
251.9703975168
 30
0.0
 11
27.3649512351
 21
251.3768172112
 31
0.0
  0
ELLIPSE
  5
1F7
330
1F
100
AcDbEntity
  8
0
  6
CONTINUOUS
 62
     7
100
AcDbEllipse
 10
25.3650259551
 20
251.3769722126
 30
0.0
 11
2.000000000000004
 21
0.0
 31
0.0
210
0.0
220
0.0
230
1.0
 40
0.0087268678
 41
4.712388980384697
 42
6.274458660919557
  0
LINE
  5
1F8
330
1F
100
AcDbEntity
  8
0
  6
CONTINUOUS
 62
     7
100
AcDbLine
 10
16.3476510465
 20
251.3595169631
 30
0.0
 11
25.3650291384
 21
251.3595169631
 31
0.0
  0
LINE
  5
1F9
330
1F
100
AcDbEntity
  8
0
  6
CONTINUOUS
 62
     7
100
AcDbLine
 10
14.167253536
 20
254.1595196572
 30
0.0
 11
13.5476483524
 21
254.1595196572
 31
0.0
  0
ARC
  5
1FA
330
1F
100
AcDbEntity
  8
0
  6
CONTINUOUS
 62
     7
100
AcDbCircle
 10
16.3476483763
 20
254.159518477
 30
0.0
 40
2.80000000000004
100
AcDbArc
 50
180.0
 51
270.0
  0
LINE
  5
1FB
330
1F
100
AcDbEntity
  8
0
  6
CONTINUOUS
 62
     7
100
AcDbLine
 10
16.1498008788
 20
254.1595196572
 30
0.0
 11
16.1585255087
 21
254.1595196572
 31
0.0
  0
ARC
  5
1FC
330
1F
100
AcDbEntity
  8
0
  6
CONTINUOUS
 62
     7
100
AcDbCircle
 10
16.3476483763
 20
254.159518477
 30
0.0
 40
0.1891192546468474
100
AcDbArc
 50
180.0
 51
270.0
  0
LINE
  5
1FD
330
1F
100
AcDbEntity
  8
0
  6
CONTINUOUS
 62
     7
100
AcDbLine
 10
16.1498008788
 20
265.9616714564
 30
0.0
 11
16.1585255087
 21
265.9703998116
 31
0.0
  0
LINE
  5
1FE
330
1F
100
AcDbEntity
  8
0
  6
CONTINUOUS
 62
     7
100
AcDbLine
 10
16.1585255087
 20
254.1595196572
 30
0.0
 11
16.1585255087
 21
265.9703998116
 31
0.0
  0
LINE
  5
1FF
330
1F
100
AcDbEntity
  8
0
  6
CONTINUOUS
 62
     7
100
AcDbLine
 10
14.1585289061
 20
265.9703998116
 30
0.0
 11
14.1585289061
 21
265.7704001513
 31
0.0
  0
LINE
  5
200
330
1F
100
AcDbEntity
  8
0
  6
CONTINUOUS
 62
     7
100
AcDbLine
 10
14.167253536
 20
265.9616714564
 30
0.0
 11
14.1585289061
 21
265.9703998116
 31
0.0
  0
LINE
  5
201
330
1F
100
AcDbEntity
  8
0
  6
CONTINUOUS
 62
     7
100
AcDbLine
 10
13.5476483524
 20
263.176897749
 30
0.0
 11
13.5476483524
 21
254.1595196572
 31
0.0
  0
ELLIPSE
  5
202
330
1F
100
AcDbEntity
  8
0
  6
CONTINUOUS
 62
     7
100
AcDbEllipse
 10
13.5651021118
 20
263.1768960559
 30
0.0
 11
0.0
 21
2.0
 31
0.0
210
0.0
220
0.0
230
1.0
 40
0.0087268678
 41
0.0087266462596386
 42
1.570796326794897
  0
LINE
  5
203
330
1F
100
AcDbEntity
  8
0
  6
CONTINUOUS
 62
     7
100
AcDbLine
 10
14.1585289061
 20
265.7704001513
 30
0.0
 11
13.5649486006
 21
265.1768198458
 31
0.0
  0
LINE
  5
204
330
1F
100
AcDbEntity
  8
0
  6
CONTINUOUS
 62
     7
100
AcDbLine
 10
16.1585255087
 20
265.9703998116
 30
0.0
 11
14.1585289061
 21
265.9703998116
 31
0.0
  0
LINE
  5
205
330
1F
100
AcDbEntity
  8
0
  6
CONTINUOUS
 62
     7
100
AcDbLine
 10
28.1498028457
 20
377.4573637393
 30
0.0
 11
28.1498028457
 21
379.4399073568
 31
0.0
  0
LINE
  5
206
330
1F
100
AcDbEntity
  8
0
  6
CONTINUOUS
 62
     7
100
AcDbLine
 10
16.3476510465
 20
377.4573637393
 30
0.0
 11
28.1498028457
 21
377.4573637393
 31
0.0
  0
ARC
  5
207
330
1F
100
AcDbEntity
  8
0
  6
CONTINUOUS
 62
     7
100
AcDbCircle
 10
16.3476483763
 20
377.259518477
 30
0.0
 40
0.1978461224376176
100
AcDbArc
 50
90.0
 51
180.0
  0
LINE
  5
208
330
1F
100
AcDbEntity
  8
0
  6
CONTINUOUS
 62
     7
100
AcDbLine
 10
16.1498008788
 20
365.4573654977
 30
0.0
 11
16.1498008788
 21
377.2595172969
 31
0.0
  0
LINE
  5
209
330
1F
100
AcDbEntity
  8
0
  6
CONTINUOUS
 62
     7
100
AcDbLine
 10
14.167253536
 20
365.4573654977
 30
0.0
 11
16.1498008788
 21
365.4573654977
 31
0.0
  0
LINE
  5
20A
330
1F
100
AcDbEntity
  8
0
  6
CONTINUOUS
 62
     7
100
AcDbLine
 10
14.167253536
 20
377.2595172969
 30
0.0
 11
14.167253536
 21
365.4573654977
 31
0.0
  0
ARC
  5
20B
330
1F
100
AcDbEntity
  8
0
  6
CONTINUOUS
 62
     7
100
AcDbCircle
 10
16.3476483763
 20
377.259518477
 30
0.0
 40
2.18039238685612
100
AcDbArc
 50
90.0
 51
180.0
  0
LINE
  5
20C
330
1F
100
AcDbEntity
  8
0
  6
CONTINUOUS
 62
     7
100
AcDbLine
 10
28.1498028457
 20
379.4399073568
 30
0.0
 11
16.3476510465
 21
379.4399073568
 31
0.0
  0
LINE
  5
20D
330
1F
100
AcDbEntity
  8
0
  6
CONTINUOUS
 62
     7
100
AcDbLine
 10
28.1498028457
 20
377.4573637393
 30
0.0
 11
28.1585274756
 21
377.4486391095
 31
0.0
  0
LINE
  5
20E
330
1F
100
AcDbEntity
  8
0
  6
CONTINUOUS
 62
     7
100
AcDbLine
 10
28.1498028457
 20
379.4399073568
 30
0.0
 11
28.1585274756
 21
379.4486394373
 31
0.0
  0
LINE
  5
20F
330
1F
100
AcDbEntity
  8
0
  6
CONTINUOUS
 62
     7
100
AcDbLine
 10
28.1585274756
 20
377.4486391095
 30
0.0
 11
28.1585274756
 21
379.4486394373
 31
0.0
  0
LINE
  5
210
330
1F
100
AcDbEntity
  8
0
  6
CONTINUOUS
 62
     7
100
AcDbLine
 10
16.3476510465
 20
377.4573637393
 30
0.0
 11
16.3476510465
 21
377.4486391095
 31
0.0
  0
LINE
  5
211
330
1F
100
AcDbEntity
  8
0
  6
CONTINUOUS
 62
     7
100
AcDbLine
 10
16.3476510465
 20
377.4486391095
 30
0.0
 11
28.1585274756
 21
377.4486391095
 31
0.0
  0
LINE
  5
212
330
1F
100
AcDbEntity
  8
0
  6
CONTINUOUS
 62
     7
100
AcDbLine
 10
28.1585274756
 20
379.4486394373
 30
0.0
 11
27.9585315407
 21
379.4486394373
 31
0.0
  0
LINE
  5
213
330
1F
100
AcDbEntity
  8
0
  6
CONTINUOUS
 62
     7
100
AcDbLine
 10
16.3476510465
 20
379.4399073568
 30
0.0
 11
16.3476510465
 21
380.059519991
 31
0.0
  0
LINE
  5
214
330
1F
100
AcDbEntity
  8
0
  6
CONTINUOUS
 62
     7
100
AcDbLine
 10
25.3650291384
 20
380.059519991
 30
0.0
 11
16.3476510465
 21
380.059519991
 31
0.0
  0
ELLIPSE
  5
215
330
1F
100
AcDbEntity
  8
0
  6
CONTINUOUS
 62
     7
100
AcDbEllipse
 10
25.3650259551
 20
380.0420647415
 30
0.0
 11
2.000000000000004
 21
0.0
 31
0.0
210
0.0
220
0.0
230
1.0
 40
0.0087268678
 41
0.0087266462615661
 42
1.570796326794889
  0
LINE
  5
216
330
1F
100
AcDbEntity
  8
0
  6
CONTINUOUS
 62
     7
100
AcDbLine
 10
27.9585315407
 20
379.4486394373
 30
0.0
 11
27.3649512351
 21
380.0422197429
 31
0.0
  0
LINE
  5
217
330
1F
100
AcDbEntity
  8
0
  6
CONTINUOUS
 62
     7
100
AcDbLine
 10
16.1498008788
 20
365.4573654977
 30
0.0
 11
16.1585255087
 21
365.4486371425
 31
0.0
  0
LINE
  5
218
330
1F
100
AcDbEntity
  8
0
  6
CONTINUOUS
 62
     7
100
AcDbLine
 10
16.1498008788
 20
377.2595172969
 30
0.0
 11
16.1585255087
 21
377.2595172969
 31
0.0
  0
LINE
  5
219
330
1F
100
AcDbEntity
  8
0
  6
CONTINUOUS
 62
     7
100
AcDbLine
 10
16.1585255087
 20
365.4486371425
 30
0.0
 11
16.1585255087
 21
377.2595172969
 31
0.0
  0
LINE
  5
21A
330
1F
100
AcDbEntity
  8
0
  6
CONTINUOUS
 62
     7
100
AcDbLine
 10
14.167253536
 20
365.4573654977
 30
0.0
 11
14.1585289061
 21
365.4486371425
 31
0.0
  0
LINE
  5
21B
330
1F
100
AcDbEntity
  8
0
  6
CONTINUOUS
 62
     7
100
AcDbLine
 10
14.1585289061
 20
365.4486371425
 30
0.0
 11
16.1585255087
 21
365.4486371425
 31
0.0
  0
LINE
  5
21C
330
1F
100
AcDbEntity
  8
0
  6
CONTINUOUS
 62
     7
100
AcDbLine
 10
14.167253536
 20
377.2595172969
 30
0.0
 11
13.5476483524
 21
377.2595172969
 31
0.0
  0
LINE
  5
21D
330
1F
100
AcDbEntity
  8
0
  6
CONTINUOUS
 62
     7
100
AcDbLine
 10
14.1585289061
 20
365.6486368028
 30
0.0
 11
14.1585289061
 21
365.4486371425
 31
0.0
  0
LINE
  5
21E
330
1F
100
AcDbEntity
  8
0
  6
CONTINUOUS
 62
     7
100
AcDbLine
 10
14.1585289061
 20
365.6486368028
 30
0.0
 11
13.5649486006
 21
366.2422171083
 31
0.0
  0
ELLIPSE
  5
21F
330
1F
100
AcDbEntity
  8
0
  6
CONTINUOUS
 62
     7
100
AcDbEllipse
 10
13.5651021118
 20
368.2421408982
 30
0.0
 11
1.421085471520200E-14
 21
2.0
 31
0.0
210
0.0
220
0.0
230
1.0
 40
0.0087268678
 41
1.570796326794897
 42
3.132866007330142
  0
LINE
  5
220
330
1F
100
AcDbEntity
  8
0
  6
CONTINUOUS
 62
     7
100
AcDbLine
 10
13.5476483524
 20
377.2595172969
 30
0.0
 11
13.5476483524
 21
368.2421392051
 31
0.0
  0
ARC
  5
221
330
1F
100
AcDbEntity
  8
0
  6
CONTINUOUS
 62
     7
100
AcDbCircle
 10
16.3476483763
 20
377.259518477
 30
0.0
 40
2.800000000000011
100
AcDbArc
 50
90.0
 51
180.0
  0
ARC
  5
222
330
1F
100
AcDbEntity
  8
0
  6
CONTINUOUS
 62
     7
100
AcDbCircle
 10
16.3476483763
 20
377.259518477
 30
0.0
 40
0.1891192546468616
100
AcDbArc
 50
90.0
 51
180.0
  0
LINE
  5
223
330
1F
100
AcDbEntity
  8
0
  6
CONTINUOUS
 62
     7
100
AcDbLine
 10
191.6367678464
 20
365.6486368028
 30
0.0
 11
192.3018588245
 21
365.6486368028
 31
0.0
  0
LINE
  5
224
330
1F
100
AcDbEntity
  8
0
  6
CONTINUOUS
 62
     7
100
AcDbLine
 10
192.3018588245
 20
365.6486368028
 30
0.0
 11
192.3018588245
 21
265.7704001513
 31
0.0
  0
LINE
  5
225
330
1F
100
AcDbEntity
  8
0
  6
CONTINUOUS
 62
     7
100
AcDbLine
 10
191.6367678464
 20
265.7704001513
 30
0.0
 11
192.3018588245
 21
265.7704001513
 31
0.0
  0
LINE
  5
226
330
1F
100
AcDbEntity
  8
0
  6
CONTINUOUS
 62
     7
100
AcDbLine
 10
177.8367652119
 20
251.9703975168
 30
0.0
 11
177.8367652119
 21
251.3053065387
 31
0.0
  0
LINE
  5
227
330
1F
100
AcDbEntity
  8
0
  6
CONTINUOUS
 62
     7
100
AcDbLine
 10
177.8367652119
 20
251.3053065387
 30
0.0
 11
27.9585315407
 21
251.3053065387
 31
0.0
  0
LINE
  5
228
330
1F
100
AcDbEntity
  8
0
  6
CONTINUOUS
 62
     7
100
AcDbLine
 10
27.9585315407
 20
251.9703975168
 30
0.0
 11
27.9585315407
 21
251.3053065387
 31
0.0
  0
LINE
  5
229
330
1F
100
AcDbEntity
  8
0
  6
CONTINUOUS
 62
     7
100
AcDbLine
 10
14.1585289061
 20
265.7704001513
 30
0.0
 11
13.493437928
 21
265.7704001513
 31
0.0
  0
LINE
  5
22A
330
1F
100
AcDbEntity
  8
0
  6
CONTINUOUS
 62
     7
100
AcDbLine
 10
13.493437928
 20
265.7704001513
 30
0.0
 11
13.493437928
 21
365.6486368028
 31
0.0
  0
LINE
  5
22B
330
1F
100
AcDbEntity
  8
0
  6
CONTINUOUS
 62
     7
100
AcDbLine
 10
14.1585289061
 20
365.6486368028
 30
0.0
 11
13.493437928
 21
365.6486368028
 31
0.0
  0
LINE
  5
22C
330
1F
100
AcDbEntity
  8
0
  6
CONTINUOUS
 62
     7
100
AcDbLine
 10
27.9585315407
 20
379.4486394373
 30
0.0
 11
27.9585315407
 21
380.1137304154
 31
0.0
  0
LINE
  5
22D
330
1F
100
AcDbEntity
  8
0
  6
CONTINUOUS
 62
     7
100
AcDbLine
 10
27.9585315407
 20
380.1137304154
 30
0.0
 11
177.8367652119
 21
380.1137304154
 31
0.0
  0
LINE
  5
22E
330
1F
100
AcDbEntity
  8
0
  6
CONTINUOUS
 62
     7
100
AcDbLine
 10
177.8367652119
 20
379.4486394373
 30
0.0
 11
177.8367652119
 21
380.1137304154
 31
0.0
  0
CIRCLE
  5
22F
330
1F
100
AcDbEntity
  8
0
  6
CONTINUOUS
 62
     7
100
AcDbCircle
 10
184.6476483763
 20
372.459518477
 30
0.0
 40
4.000000000000028
  0
CIRCLE
  5
230
330
1F
100
AcDbEntity
  8
0
  6
CONTINUOUS
 62
     7
100
AcDbCircle
 10
184.6476483763
 20
258.959518477
 30
0.0
 40
4.0
  0
CIRCLE
  5
231
330
1F
100
AcDbEntity
  8
0
  6
CONTINUOUS
 62
     7
100
AcDbCircle
 10
21.1476483763
 20
258.959518477
 30
0.0
 40
4.000000000000004
  0
CIRCLE
  5
232
330
1F
100
AcDbEntity
  8
0
  6
CONTINUOUS
 62
     7
100
AcDbCircle
 10
21.1476483763
 20
372.459518477
 30
0.0
 40
4.000000000000004
  0
LINE
  5
233
330
1F
100
AcDbEntity
  8
0
  6
CONTINUOUS
 62
     7
100
AcDbLine
 10
27.3649512351
 20
380.707310721
 30
0.0
 11
27.3649512351
 21
380.0422197429
 31
0.0
  0
LINE
  5
234
330
1F
100
AcDbEntity
  8
0
  6
CONTINUOUS
 62
     7
100
AcDbLine
 10
27.9585315407
 20
380.1137304154
 30
0.0
 11
27.3649512351
 21
380.707310721
 31
0.0
  0
LINE
  5
235
330
1F
100
AcDbEntity
  8
0
  6
CONTINUOUS
 62
     7
100
AcDbLine
 10
12.8998576224
 20
366.2422171083
 30
0.0
 11
13.493437928
 21
365.6486368028
 31
0.0
  0
LINE
  5
236
330
1F
100
AcDbEntity
  8
0
  6
CONTINUOUS
 62
     7
100
AcDbLine
 10
13.5649486006
 20
366.2422171083
 30
0.0
 11
12.8998576224
 21
366.2422171083
 31
0.0
  0
ELLIPSE
  5
237
330
1F
100
AcDbEntity
  8
0
  6
CONTINUOUS
 62
     7
100
AcDbEllipse
 10
192.8952871695
 20
368.2421408982
 30
0.0
 11
0.0
 21
2.0
 31
0.0
210
0.0
220
0.0
230
1.0
 40
0.0087268678
 41
3.150319299852958
 42
4.712388980384661
  0
LINE
  5
238
330
1F
100
AcDbEntity
  8
0
  6
CONTINUOUS
 62
     7
100
AcDbLine
 10
192.9127393782
 20
368.2421392051
 30
0.0
 11
192.9127393782
 21
377.2595172969
 31
0.0
  0
LINE
  5
239
330
1F
100
AcDbEntity
  8
0
  6
CONTINUOUS
 62
     7
100
AcDbLine
 10
192.9127393782
 20
377.2595172969
 30
0.0
 11
192.9476453483
 21
377.2595172969
 31
0.0
  0
LINE
  5
23A
330
1F
100
AcDbEntity
  8
0
  6
CONTINUOUS
 62
     7
100
AcDbLine
 10
192.9476453483
 20
377.2595172969
 30
0.0
 11
192.9476453483
 21
254.1595196572
 31
0.0
  0
LINE
  5
23B
330
1F
100
AcDbEntity
  8
0
  6
CONTINUOUS
 62
     7
100
AcDbLine
 10
192.9127393782
 20
254.1595196572
 30
0.0
 11
192.9476453483
 21
254.1595196572
 31
0.0
  0
LINE
  5
23C
330
1F
100
AcDbEntity
  8
0
  6
CONTINUOUS
 62
     7
100
AcDbLine
 10
192.9127393782
 20
263.176897749
 30
0.0
 11
192.9127393782
 21
254.1595196572
 31
0.0
  0
ELLIPSE
  5
23D
330
1F
100
AcDbEntity
  8
0
  6
CONTINUOUS
 62
     7
100
AcDbEllipse
 10
192.8952871695
 20
263.1768960559
 30
0.0
 11
0.0
 21
2.0
 31
0.0
210
0.0
220
0.0
230
1.0
 40
0.0087268678
 41
4.71238898038469
 42
6.274458660922827
  0
LINE
  5
23E
330
1F
100
AcDbEntity
  8
0
  6
CONTINUOUS
 62
     7
100
AcDbLine
 10
192.8954391301
 20
265.1768198458
 30
0.0
 11
192.3018588245
 21
265.7704001513
 31
0.0
  0
LINE
  5
23F
330
1F
100
AcDbEntity
  8
0
  6
CONTINUOUS
 62
     7
100
AcDbLine
 10
192.3018588245
 20
365.6486368028
 30
0.0
 11
192.8954391301
 21
366.2422171083
 31
0.0
  0
LWPOLYLINE
  5
240
330
1F
100
AcDbEntity
  8
0
  6
CONTINUOUS
 62
     7
100
AcDbPolyline
 90
       42
 70
   128
 43
0.0
 10
192.8625373662
 20
343.7095193413
 10
192.8614942849
 20
345.2741729316
 10
192.8583724916
 20
346.8021547643
 10
192.8532539428
 20
348.2576480356
 10
192.8462578476
 20
349.6065346745
 10
192.8375406683
 20
350.8172018674
 10
192.8273184717
 20
351.8612703529
 10
192.8158222258
 20
352.714268699
 10
192.8033276022
 20
353.3562032727
 10
192.7901251734
 20
353.7720276264
 10
192.7765204132
 20
353.9519964007
 10
192.7628336966
 20
353.8918888417
 10
192.7493928492
 20
353.5931168345
 10
192.7365033448
 20
353.0626801995
 10
192.7244706571
 20
352.3130139557
 10
192.7135853589
 20
351.3616902974
 10
192.7040858686
 20
350.2310050872
 10
192.6962106049
 20
348.9474600402
 10
192.6901309312
 20
347.5411443261
 10
192.6859958589
 20
346.0450174508
 10
192.6839096964
 20
344.4941474346
 10
192.6839096964
 20
342.9248893854
 10
192.6859958589
 20
341.3740193692
 10
192.6901309312
 20
339.8778943566
 10
192.6962106049
 20
338.4715767798
 10
192.7040858686
 20
337.1880335954
 10
192.7135853589
 20
336.0573483852
 10
192.7244706571
 20
335.1060228643
 10
192.7365033448
 20
334.3563566205
 10
192.7493928492
 20
333.8259199855
 10
192.7628336966
 20
333.5271479783
 10
192.7765204132
 20
333.4670404193
 10
192.7901251734
 20
333.647007331
 10
192.8033276022
 20
334.0628335473
 10
192.8158222258
 20
334.704768121
 10
192.8273184717
 20
335.5577664671
 10
192.8375406683
 20
336.6018349526
 10
192.8462578476
 20
337.8125021455
 10
192.8532539428
 20
339.161390647
 10
192.8583724916
 20
340.6168820557
 10
192.8614942849
 20
342.1448638883
 10
192.8625373662
 20
343.7095193413
  0
LWPOLYLINE
  5
241
330
1F
100
AcDbEntity
  8
0
  6
CONTINUOUS
 62
     7
100
AcDbPolyline
 90
       42
 70
   128
 43
0.0
 10
192.8625373662
 20
287.7095176128
 10
192.8614942849
 20
289.2741730657
 10
192.8583724916
 20
290.8021548984
 10
192.8532539428
 20
292.2576463071
 10
192.8462578476
 20
293.6065348086
 10
192.8375406683
 20
294.8172020015
 10
192.8273184717
 20
295.861270487
 10
192.8158222258
 20
296.7142688331
 10
192.8033276022
 20
297.3562034068
 10
192.7901251734
 20
297.7720296231
 10
192.7765204132
 20
297.9519965348
 10
192.7628336966
 20
297.8918889758
 10
192.7493928492
 20
297.5931169686
 10
192.7365033448
 20
297.0626803336
 10
192.7244706571
 20
296.3130140898
 10
192.7135853589
 20
295.3616885689
 10
192.7040858686
 20
294.2310033587
 10
192.6962106049
 20
292.9474601743
 10
192.6901309312
 20
291.5411425975
 10
192.6859958589
 20
290.0450175849
 10
192.6839096964
 20
288.4941475687
 10
192.6839096964
 20
286.9248895195
 10
192.6859958589
 20
285.3740195033
 10
192.6901309312
 20
283.877892628
 10
192.6962106049
 20
282.4715769139
 10
192.7040858686
 20
281.1880318669
 10
192.7135853589
 20
280.0573466566
 10
192.7244706571
 20
279.1060229984
 10
192.7365033448
 20
278.3563567546
 10
192.7493928492
 20
277.8259201196
 10
192.7628336966
 20
277.5271481124
 10
192.7765204132
 20
277.4670405534
 10
192.7901251734
 20
277.6470093277
 10
192.8033276022
 20
278.0628336814
 10
192.8158222258
 20
278.7047682551
 10
192.8273184717
 20
279.5577666012
 10
192.8375406683
 20
280.6018350867
 10
192.8462578476
 20
281.8125022796
 10
192.8532539428
 20
283.1613889185
 10
192.8583724916
 20
284.6168821898
 10
192.8614942849
 20
286.1448640225
 10
192.8625373662
 20
287.7095176128
  0
LWPOLYLINE
  5
242
330
1F
100
AcDbEntity
  8
0
  6
CONTINUOUS
 62
     7
100
AcDbPolyline
 90
       42
 70
   128
 43
0.0
 10
192.7403701961
 20
315.709518477
 10
192.7393196643
 20
317.2741736972
 10
192.736197871
 20
318.8021545985
 10
192.7310793221
 20
320.2576467057
 10
192.724083227
 20
321.6065347415
 10
192.7153734982
 20
322.8172014688
 10
192.7051438511
 20
323.86127042
 10
192.6936550558
 20
324.7142687661
 10
192.6811529816
 20
325.356204271
 10
192.6679505527
 20
325.7720286247
 10
192.6543457926
 20
325.9519964677
 10
192.6406665266
 20
325.8918898401
 10
192.6272182286
 20
325.5931169015
 10
192.6143287242
 20
325.0626802665
 10
192.6023034871
 20
324.3130140227
 10
192.5914107383
 20
323.3616889675
 10
192.581911248
 20
322.2310032916
 10
192.5740359843
 20
320.9474601072
 10
192.5679563105
 20
319.5411434618
 10
192.5638286889
 20
318.0450170522
 10
192.5617350757
 20
316.4941483165
 10
192.5617350757
 20
314.9248886376
 10
192.5638286889
 20
313.3740199019
 10
192.5679563105
 20
311.8778934923
 10
192.5740359843
 20
310.4715768469
 10
192.581911248
 20
309.1880336625
 10
192.5914107383
 20
308.0573479866
 10
192.6023034871
 20
307.1060229314
 10
192.6143287242
 20
306.3563566876
 10
192.6272182286
 20
305.8259200525
 10
192.6406665266
 20
305.527147114
 10
192.6543457926
 20
305.4670404864
 10
192.6679505527
 20
305.6470083294
 10
192.6811529816
 20
306.062832683
 10
192.6936550558
 20
306.704768188
 10
192.7051438511
 20
307.5577665341
 10
192.7153734982
 20
308.6018354853
 10
192.724083227
 20
309.8125022125
 10
192.7310793221
 20
311.1613902484
 10
192.736197871
 20
312.6168823556
 10
192.7393196643
 20
314.1448632569
 10
192.7403701961
 20
315.709518477
  0
LWPOLYLINE
  5
243
330
1F
100
AcDbEntity
  8
0
  6
CONTINUOUS
 62
     7
100
AcDbPolyline
 90
       42
 70
   128
 43
0.0
 10
192.6007463158
 20
343.7095193413
 10
192.5996957839
 20
345.2741729316
 10
192.5965739906
 20
346.8021547643
 10
192.5914554417
 20
348.2576480356
 10
192.5844593466
 20
349.6065346745
 10
192.5757421673
 20
350.8172018674
 10
192.5655199707
 20
351.8612703529
 10
192.5540311754
 20
352.714268699
 10
192.5415291012
 20
353.3562032727
 10
192.5283266723
 20
353.7720276264
 10
192.5147219122
 20
353.9519964007
 10
192.5010426462
 20
353.8918888417
 10
192.4875943482
 20
353.5931168345
 10
192.4747048438
 20
353.0626801995
 10
192.4626796067
 20
352.3130139557
 10
192.4517868579
 20
351.3616902974
 10
192.4422873676
 20
350.2310050872
 10
192.4344121039
 20
348.9474600402
 10
192.4283324302
 20
347.5411443261
 10
192.4242048085
 20
346.0450174508
 10
192.4221111954
 20
344.4941474346
 10
192.4221111954
 20
342.9248893854
 10
192.4242048085
 20
341.3740193692
 10
192.4283324302
 20
339.8778943566
 10
192.4344121039
 20
338.4715767798
 10
192.4422873676
 20
337.1880335954
 10
192.4517868579
 20
336.0573483852
 10
192.4626796067
 20
335.1060228643
 10
192.4747048438
 20
334.3563566205
 10
192.4875943482
 20
333.8259199855
 10
192.5010426462
 20
333.5271479783
 10
192.5147219122
 20
333.4670404193
 10
192.5283266723
 20
333.647007331
 10
192.5415291012
 20
334.0628335473
 10
192.5540311754
 20
334.704768121
 10
192.5655199707
 20
335.5577664671
 10
192.5757421673
 20
336.6018349526
 10
192.5844593466
 20
337.8125021455
 10
192.5914554417
 20
339.161390647
 10
192.5965739906
 20
340.6168820557
 10
192.5996957839
 20
342.1448638883
 10
192.6007463158
 20
343.7095193413
  0
LWPOLYLINE
  5
244
330
1F
100
AcDbEntity
  8
0
  6
CONTINUOUS
 62
     7
100
AcDbPolyline
 90
       42
 70
   128
 43
0.0
 10
192.6007463158
 20
287.7095176128
 10
192.5996957839
 20
289.2741730657
 10
192.5965739906
 20
290.8021548984
 10
192.5914554417
 20
292.2576463071
 10
192.5844593466
 20
293.6065348086
 10
192.5757421673
 20
294.8172020015
 10
192.5655199707
 20
295.861270487
 10
192.5540311754
 20
296.7142688331
 10
192.5415291012
 20
297.3562034068
 10
192.5283266723
 20
297.7720296231
 10
192.5147219122
 20
297.9519965348
 10
192.5010426462
 20
297.8918889758
 10
192.4875943482
 20
297.5931169686
 10
192.4747048438
 20
297.0626803336
 10
192.4626796067
 20
296.3130140898
 10
192.4517868579
 20
295.3616885689
 10
192.4422873676
 20
294.2310033587
 10
192.4344121039
 20
292.9474601743
 10
192.4283324302
 20
291.5411425975
 10
192.4242048085
 20
290.0450175849
 10
192.4221111954
 20
288.4941475687
 10
192.4221111954
 20
286.9248895195
 10
192.4242048085
 20
285.3740195033
 10
192.4283324302
 20
283.877892628
 10
192.4344121039
 20
282.4715769139
 10
192.4422873676
 20
281.1880318669
 10
192.4517868579
 20
280.0573466566
 10
192.4626796067
 20
279.1060229984
 10
192.4747048438
 20
278.3563567546
 10
192.4875943482
 20
277.8259201196
 10
192.5010426462
 20
277.5271481124
 10
192.5147219122
 20
277.4670405534
 10
192.5283266723
 20
277.6470093277
 10
192.5415291012
 20
278.0628336814
 10
192.5540311754
 20
278.7047682551
 10
192.5655199707
 20
279.5577666012
 10
192.5757421673
 20
280.6018350867
 10
192.5844593466
 20
281.8125022796
 10
192.5914554417
 20
283.1613889185
 10
192.5965739906
 20
284.6168821898
 10
192.5996957839
 20
286.1448640225
 10
192.6007463158
 20
287.7095176128
  0
LWPOLYLINE
  5
245
330
1F
100
AcDbEntity
  8
0
  6
CONTINUOUS
 62
     7
100
AcDbPolyline
 90
       33
 70
   128
 43
0.0
 10
192.4785716951
 20
315.709518477
 10
192.4775211633
 20
316.9288330001
 10
192.4744217217
 20
318.1012898904
 10
192.4693776787
 20
319.1818324604
 10
192.4625976503
 20
320.1289360632
 10
192.4543349564
 20
320.9062034485
 10
192.4449025214
 20
321.4837654714
 10
192.4346728742
 20
321.8394263868
 10
192.4240334452
 20
321.9595185702
 10
192.4133940161
 20
321.8394263868
 10
192.4031569183
 20
321.4837654714
 10
192.3937319339
 20
320.9062034485
 10
192.3854617894
 20
320.1289360632
 10
192.3786817611
 20
319.1818324604
 10
192.3736451686
 20
318.1012898904
 10
192.3705382765
 20
316.9288330001
 10
192.3694877446
 20
315.709518477
 10
192.3705382765
 20
314.490203954
 10
192.3736451686
 20
313.3177470637
 10
192.3786817611
 20
312.2372044937
 10
192.3854617894
 20
311.2901008909
 10
192.3937319339
 20
310.5128335056
 10
192.4031569183
 20
309.9352714826
 10
192.4133940161
 20
309.5796105673
 10
192.4240334452
 20
309.4595183839
 10
192.4346728742
 20
309.5796105673
 10
192.4449025214
 20
309.9352714826
 10
192.4543349564
 20
310.5128335056
 10
192.4625976503
 20
311.2901008909
 10
192.4693776787
 20
312.2372044937
 10
192.4744217217
 20
313.3177470637
 10
192.4775211633
 20
314.490203954
 10
192.4785716951
 20
315.709518477
  0
LINE
  5
246
330
1F
100
AcDbEntity
  8
0
  6
CONTINUOUS
 62
     7
100
AcDbLine
 10
177.8367652119
 20
251.3053065387
 30
0.0
 11
178.4303455174
 21
250.7117262331
 31
0.0
  0
ELLIPSE
  5
247
330
1F
100
AcDbEntity
  8
0
  6
CONTINUOUS
 62
     7
100
AcDbEllipse
 10
180.4302707974
 20
250.7118796838
 30
0.0
 11
2.000000000000028
 21
0.0
 31
0.0
210
0.0
220
0.0
230
1.0
 40
0.0087268678
 41
3.15031929984973
 42
4.712388980384704
  0
LINE
  5
248
330
1F
100
AcDbEntity
  8
0
  6
CONTINUOUS
 62
     7
100
AcDbLine
 10
189.447645706
 20
250.6944259849
 30
0.0
 11
180.4302676142
 21
250.6944259849
 31
0.0
  0
LINE
  5
249
330
1F
100
AcDbEntity
  8
0
  6
CONTINUOUS
 62
     7
100
AcDbLine
 10
189.447645706
 20
250.6944259849
 30
0.0
 11
189.447645706
 21
250.6595200148
 31
0.0
  0
LINE
  5
24A
330
1F
100
AcDbEntity
  8
0
  6
CONTINUOUS
 62
     7
100
AcDbLine
 10
189.447645706
 20
250.6595200148
 30
0.0
 11
16.3476510465
 21
250.6595200148
 31
0.0
  0
LINE
  5
24B
330
1F
100
AcDbEntity
  8
0
  6
CONTINUOUS
 62
     7
100
AcDbLine
 10
16.3476510465
 20
250.6944259849
 30
0.0
 11
16.3476510465
 21
250.6595200148
 31
0.0
  0
LINE
  5
24C
330
1F
100
AcDbEntity
  8
0
  6
CONTINUOUS
 62
     7
100
AcDbLine
 10
25.3650291384
 20
250.6944259849
 30
0.0
 11
16.3476510465
 21
250.6944259849
 31
0.0
  0
ELLIPSE
  5
24D
330
1F
100
AcDbEntity
  8
0
  6
CONTINUOUS
 62
     7
100
AcDbEllipse
 10
25.3650259551
 20
250.7118796838
 30
0.0
 11
2.000000000000004
 21
0.0
 31
0.0
210
0.0
220
0.0
230
1.0
 40
0.0087268678
 41
4.712388980384725
 42
6.274458660922813
  0
LINE
  5
24E
330
1F
100
AcDbEntity
  8
0
  6
CONTINUOUS
 62
     7
100
AcDbLine
 10
27.3649512351
 20
250.7117262331
 30
0.0
 11
27.9585315407
 21
251.3053065387
 31
0.0
  0
LWPOLYLINE
  5
24F
330
1F
100
AcDbEntity
  8
0
  6
CONTINUOUS
 62
     7
100
AcDbPolyline
 90
       47
 70
   128
 43
0.0
 10
152.8976491213
 20
251.2071302381
 10
151.1615222812
 20
251.2060946074
 10
149.4577384115
 20
251.2030100671
 10
147.8180332601
 20
251.1979213205
 10
146.2729542077
 20
251.1909326759
 10
144.8512753964
 20
251.1821782437
 10
143.5794910908
 20
251.1718144861
 10
142.4812829614
 20
251.1600351182
 10
141.5771103025
 20
251.1470562068
 10
140.8838226021
 20
251.1331310716
 10
140.414327991
 20
251.1185055819
 10
140.1773697257
 20
251.1034628597
 10
140.1773697257
 20
251.0882785765
 10
140.414327991
 20
251.0732358542
 10
140.8838226021
 20
251.0586103645
 10
141.5771103025
 20
251.0446777788
 10
142.4812829614
 20
251.031706318
 10
143.5794910908
 20
251.0199269501
 10
144.8512753964
 20
251.0095631924
 10
146.2729542077
 20
251.0008013097
 10
147.8180332601
 20
250.9938201156
 10
149.4577384115
 20
250.9887313691
 10
151.1615222812
 20
250.9856393782
 10
152.8976491213
 20
250.9846037474
 10
154.6337722361
 20
250.9856393782
 10
156.3375561059
 20
250.9887313691
 10
157.9772612572
 20
250.9938201156
 10
159.5223440349
 20
251.0008013097
 10
160.944019121
 20
251.0095631924
 10
162.2158071518
 20
251.0199269501
 10
163.3140152812
 20
251.031706318
 10
164.2181842149
 20
251.0446777788
 10
164.9114756406
 20
251.0586103645
 10
165.3809702516
 20
251.0732358542
 10
165.6179247916
 20
251.0882785765
 10
165.6179247916
 20
251.1034628597
 10
165.3809702516
 20
251.1185055819
 10
164.9114756406
 20
251.1331310716
 10
164.2181842149
 20
251.1470562068
 10
163.3140152812
 20
251.1600351182
 10
162.2158071518
 20
251.1718144861
 10
160.944019121
 20
251.1821782437
 10
159.5223440349
 20
251.1909326759
 10
157.9772612572
 20
251.1979213205
 10
156.3375561059
 20
251.2030100671
 10
154.6337722361
 20
251.2060946074
 10
152.8976491213
 20
251.2071302381
  0
LWPOLYLINE
  5
250
330
1F
100
AcDbEntity
  8
0
  6
CONTINUOUS
 62
     7
100
AcDbPolyline
 90
       47
 70
   128
 43
0.0
 10
52.8976476312
 20
250.9846037474
 10
54.6337744713
 20
250.9856393782
 10
56.3375583411
 20
250.9887313691
 10
57.9772634924
 20
250.9938201156
 10
59.5223425448
 20
251.0008013097
 10
60.9440213561
 20
251.0095631924
 10
62.2158056617
 20
251.0199269501
 10
63.3140137911
 20
251.031706318
 10
64.21818645
 20
251.0446777788
 10
64.9114741505
 20
251.0586103645
 10
65.3809687615
 20
251.0732358542
 10
65.6179270268
 20
251.0882785765
 10
65.6179270268
 20
251.1034628597
 10
65.3809687615
 20
251.1185055819
 10
64.9114741505
 20
251.1331310716
 10
64.21818645
 20
251.1470562068
 10
63.3140137911
 20
251.1600351182
 10
62.2158056617
 20
251.1718144861
 10
60.9440213561
 20
251.1821782437
 10
59.5223425448
 20
251.1909326759
 10
57.9772634924
 20
251.1979213205
 10
56.3375583411
 20
251.2030100671
 10
54.6337744713
 20
251.2060946074
 10
52.8976476312
 20
251.2071302381
 10
51.1615245164
 20
251.2060946074
 10
49.4577406466
 20
251.2030100671
 10
47.8180354953
 20
251.1979213205
 10
46.2729527176
 20
251.1909326759
 10
44.8512776316
 20
251.1821782437
 10
43.5794896007
 20
251.1718144861
 10
42.4812814713
 20
251.1600351182
 10
41.5771125377
 20
251.1470562068
 10
40.883821112
 20
251.1331310716
 10
40.4143265009
 20
251.1185055819
 10
40.1773719609
 20
251.1034628597
 10
40.1773719609
 20
251.0882785765
 10
40.4143265009
 20
251.0732358542
 10
40.883821112
 20
251.0586103645
 10
41.5771125377
 20
251.0446777788
 10
42.4812814713
 20
251.031706318
 10
43.5794896007
 20
251.0199269501
 10
44.8512776316
 20
251.0095631924
 10
46.2729527176
 20
251.0008013097
 10
47.8180354953
 20
250.9938201156
 10
49.4577406466
 20
250.9887313691
 10
51.1615245164
 20
250.9856393782
 10
52.8976476312
 20
250.9846037474
  0
LWPOLYLINE
  5
251
330
1F
100
AcDbEntity
  8
0
  6
CONTINUOUS
 62
     7
100
AcDbPolyline
 90
       52
 70
   128
 43
0.0
 10
102.8976483763
 20
251.0958707181
 10
100.9314357329
 20
251.0948127356
 10
98.9950289045
 20
251.0916536895
 10
97.1177817814
 20
251.086438283
 10
95.3281513907
 20
251.0792559234
 10
93.6532669261
 20
251.0702034679
 10
92.1185181037
 20
251.0594299284
 10
90.747169827
 20
251.0470843163
 10
89.5600101471
 20
251.0333677975
 10
88.5750359416
 20
251.0184815374
 10
87.8071772427
 20
251.0026490537
 10
87.2680755824
 20
250.9861162153
 10
86.9659023851
 20
250.9691288915
 10
86.9052360326
 20
250.9519478527
 10
87.0870003969
 20
250.9348264185
 10
87.5084378317
 20
250.9180328098
 10
88.1631603957
 20
250.9018203464
 10
89.0412420526
 20
250.8864348975
 10
90.1293723405
 20
250.8720999804
 10
91.4110575363
 20
250.8590465632
 10
92.8668674574
 20
250.847468361
 10
94.4747334838
 20
250.837536737
 10
96.2102829039
 20
250.829400703
 10
98.0472053893
 20
250.8231943694
 10
99.9576560248
 20
250.8189996925
 10
101.9126738215
 20
250.8168837276
 10
103.882622931
 20
250.8168837276
 10
105.8376407277
 20
250.8189996925
 10
107.7480913632
 20
250.8231943694
 10
109.5850138486
 20
250.829400703
 10
111.3205632687
 20
250.837536737
 10
112.9284292952
 20
250.847468361
 10
114.3842392162
 20
250.8590465632
 10
115.665924412
 20
250.8720999804
 10
116.7540546999
 20
250.8864348975
 10
117.6321363569
 20
250.9018203464
 10
118.2868589208
 20
250.9180328098
 10
118.7082963556
 20
250.9348264185
 10
118.8900607199
 20
250.9519478527
 10
118.8293943674
 20
250.9691288915
 10
118.5272211701
 20
250.9861162153
 10
117.9881195098
 20
251.0026490537
 10
117.2202608109
 20
251.0184815374
 10
116.2352866054
 20
251.0333677975
 10
115.0481269256
 20
251.0470843163
 10
113.6767786488
 20
251.0594299284
 10
112.1420298264
 20
251.0702034679
 10
110.4671453618
 20
251.0792559234
 10
108.6775149711
 20
251.086438283
 10
106.800267848
 20
251.0916536895
 10
104.8638610196
 20
251.0948127356
 10
102.8976483763
 20
251.0958707181
  0
LWPOLYLINE
  5
252
330
1F
100
AcDbEntity
  8
0
  6
CONTINUOUS
 62
     7
100
AcDbPolyline
 90
       42
 70
   128
 43
0.0
 10
137.8976485253
 20
250.9235238877
 10
136.3329930723
 20
250.9224733559
 10
134.8050131023
 20
250.9193515626
 10
133.349519831
 20
250.9142330137
 10
132.0006313295
 20
250.9072369185
 10
130.7899659992
 20
250.8985197392
 10
129.745895651
 20
250.8882975427
 10
128.8928973049
 20
250.8768012968
 10
128.2509627313
 20
250.8643066731
 10
127.8351383776
 20
250.8511042443
 10
127.6551696033
 20
250.8374994841
 10
127.7152771622
 20
250.8238127676
 10
128.0140491695
 20
250.8103719202
 10
128.5444858045
 20
250.7974824158
 10
129.2941520483
 20
250.7854497281
 10
130.2454775691
 20
250.7745644298
 10
131.3761627794
 20
250.7650649396
 10
132.6597078264
 20
250.7571896759
 10
134.0660235405
 20
250.7511100021
 10
135.5621485532
 20
250.7469823805
 10
137.1130167067
 20
250.7448887673
 10
138.6822766185
 20
250.7448887673
 10
140.2331484974
 20
250.7469823805
 10
141.72927351
 20
250.7511100021
 10
143.1355892241
 20
250.7571896759
 10
144.4191342712
 20
250.7650649396
 10
145.5498194814
 20
250.7745644298
 10
146.5011431396
 20
250.7854497281
 10
147.2508093834
 20
250.7974824158
 10
147.7812460184
 20
250.8103719202
 10
148.0800180257
 20
250.8238127676
 10
148.1401255846
 20
250.8374994841
 10
147.9601568103
 20
250.8511042443
 10
147.5443324566
 20
250.8643066731
 10
146.902397883
 20
250.8768012968
 10
146.0493995369
 20
250.8882975427
 10
145.0053310514
 20
250.8985197392
 10
143.7946638584
 20
250.9072369185
 10
142.4457772196
 20
250.9142330137
 10
140.9902839482
 20
250.9193515626
 10
139.4623039782
 20
250.9224733559
 10
137.8976485253
 20
250.9235238877
  0
LWPOLYLINE
  5
253
330
1F
100
AcDbEntity
  8
0
  6
CONTINUOUS
 62
     7
100
AcDbPolyline
 90
       42
 70
   128
 43
0.0
 10
67.8976482272
 20
250.9235238877
 10
66.3329927743
 20
250.9224733559
 10
64.8050128043
 20
250.9193515626
 10
63.349519533
 20
250.9142330137
 10
62.0006328941
 20
250.9072369185
 10
60.7899657011
 20
250.8985197392
 10
59.7458972156
 20
250.8882975427
 10
58.8928988695
 20
250.8768012968
 10
58.2509642959
 20
250.8643066731
 10
57.8351399422
 20
250.8511042443
 10
57.6551711679
 20
250.8374994841
 10
57.7152787268
 20
250.8238127676
 10
58.0140507341
 20
250.8103719202
 10
58.5444873691
 20
250.7974824158
 10
59.2941536129
 20
250.7854497281
 10
60.2454772711
 20
250.7745644298
 10
61.3761624813
 20
250.7650649396
 10
62.6597075284
 20
250.7571896759
 10
64.0660232425
 20
250.7511100021
 10
65.5621482551
 20
250.7469823805
 10
67.113020134
 20
250.7448887673
 10
68.6822800458
 20
250.7448887673
 10
70.2331481994
 20
250.7469823805
 10
71.729273212
 20
250.7511100021
 10
73.1355889261
 20
250.7571896759
 10
74.4191339732
 20
250.7650649396
 10
75.5498191834
 20
250.7745644298
 10
76.5011447043
 20
250.7854497281
 10
77.250810948
 20
250.7974824158
 10
77.7812475831
 20
250.8103719202
 10
78.0800195903
 20
250.8238127676
 10
78.1401271493
 20
250.8374994841
 10
77.9601583749
 20
250.8511042443
 10
77.5443340212
 20
250.8643066731
 10
76.9023994476
 20
250.8768012968
 10
76.0494011015
 20
250.8882975427
 10
75.0053307534
 20
250.8985197392
 10
73.7946654231
 20
250.9072369185
 10
72.4457769215
 20
250.9142330137
 10
70.9902836502
 20
250.9193515626
 10
69.4623036802
 20
250.9224733559
 10
67.8976482272
 20
250.9235238877
  0
LINE
  5
254
330
1F
100
AcDbEntity
  8
0
  6
CONTINUOUS
 62
     7
100
AcDbLine
 10
192.230348152
 20
265.1768198458
 30
0.0
 11
192.8954391301
 21
265.1768198458
 31
0.0
  0
LINE
  5
255
330
1F
100
AcDbEntity
  8
0
  6
CONTINUOUS
 62
     7
100
AcDbLine
 10
178.4303455174
 20
250.7117262331
 30
0.0
 11
178.4303455174
 21
251.3768172112
 31
0.0
  0
LINE
  5
256
330
1F
100
AcDbEntity
  8
0
  6
CONTINUOUS
 62
     7
100
AcDbLine
 10
192.8954391301
 20
366.2422171083
 30
0.0
 11
192.230348152
 21
366.2422171083
 31
0.0
  0
ELLIPSE
  5
257
330
1F
100
AcDbEntity
  8
0
  6
CONTINUOUS
 62
     7
100
AcDbEllipse
 10
25.3650259551
 20
380.7071572703
 30
0.0
 11
2.000000000000004
 21
0.0
 31
0.0
210
0.0
220
0.0
230
1.0
 40
0.0087268678
 41
0.0087266462583094
 42
1.570796326794868
  0
LINE
  5
258
330
1F
100
AcDbEntity
  8
0
  6
CONTINUOUS
 62
     7
100
AcDbLine
 10
25.3650291384
 20
380.7246109691
 30
0.0
 11
16.3476510465
 21
380.7246109691
 31
0.0
  0
LINE
  5
259
330
1F
100
AcDbEntity
  8
0
  6
CONTINUOUS
 62
     7
100
AcDbLine
 10
16.3476510465
 20
380.7246109691
 30
0.0
 11
16.3476510465
 21
380.7595169392
 31
0.0
  0
LINE
  5
25A
330
1F
100
AcDbEntity
  8
0
  6
CONTINUOUS
 62
     7
100
AcDbLine
 10
16.3476510465
 20
380.7595169392
 30
0.0
 11
189.447645706
 21
380.7595169392
 31
0.0
  0
LINE
  5
25B
330
1F
100
AcDbEntity
  8
0
  6
CONTINUOUS
 62
     7
100
AcDbLine
 10
189.447645706
 20
380.7246109691
 30
0.0
 11
189.447645706
 21
380.7595169392
 31
0.0
  0
LINE
  5
25C
330
1F
100
AcDbEntity
  8
0
  6
CONTINUOUS
 62
     7
100
AcDbLine
 10
189.447645706
 20
380.7246109691
 30
0.0
 11
180.4302676142
 21
380.7246109691
 31
0.0
  0
ELLIPSE
  5
25D
330
1F
100
AcDbEntity
  8
0
  6
CONTINUOUS
 62
     7
100
AcDbEllipse
 10
180.4302707975
 20
380.7071572703
 30
0.0
 11
2.0
 21
0.0
 31
0.0
210
0.0
220
0.0
230
1.0
 40
0.0087268678
 41
1.570796326794882
 42
3.132866007328214
  0
LINE
  5
25E
330
1F
100
AcDbEntity
  8
0
  6
CONTINUOUS
 62
     7
100
AcDbLine
 10
178.4303455174
 20
380.707310721
 30
0.0
 11
177.8367652119
 21
380.1137304154
 31
0.0
  0
LWPOLYLINE
  5
25F
330
1F
100
AcDbEntity
  8
0
  6
CONTINUOUS
 62
     7
100
AcDbPolyline
 90
       47
 70
   128
 43
0.0
 10
67.8976482272
 20
380.4344332066
 10
66.1615251124
 20
380.4333975759
 10
64.4577412427
 20
380.430305585
 10
62.8180360914
 20
380.4252168384
 10
61.2729533136
 20
380.4182356444
 10
59.8512782276
 20
380.4094737616
 10
58.5794901967
 20
380.399110004
 10
57.4812820673
 20
380.3873306361
 10
56.5771131337
 20
380.3743591753
 10
55.883821708
 20
380.3604265896
 10
55.414327097
 20
380.3458010999
 10
55.177372557
 20
380.3307583776
 10
55.177372557
 20
380.3155740944
 10
55.414327097
 20
380.3005313722
 10
55.883821708
 20
380.2859058824
 10
56.5771131337
 20
380.2719807473
 10
57.4812820673
 20
380.2590018359
 10
58.5794901967
 20
380.247222468
 10
59.8512782276
 20
380.2368587104
 10
61.2729533136
 20
380.2281042782
 10
62.8180360914
 20
380.2211156336
 10
64.4577412427
 20
380.216026887
 10
66.1615251124
 20
380.2129423467
 10
67.8976482272
 20
380.211906716
 10
69.6337713421
 20
380.2129423467
 10
71.3375589371
 20
380.216026887
 10
72.9772622258
 20
380.2211156336
 10
74.5223431409
 20
380.2281042782
 10
75.9440200895
 20
380.2368587104
 10
77.2158062578
 20
380.247222468
 10
78.3140143872
 20
380.2590018359
 10
79.2181851834
 20
380.2719807473
 10
79.9114747465
 20
380.2859058824
 10
80.3809712202
 20
380.3005313722
 10
80.6179257602
 20
380.3155740944
 10
80.6179257602
 20
380.3307583776
 10
80.3809712202
 20
380.3458010999
 10
79.9114747465
 20
380.3604265896
 10
79.2181851834
 20
380.3743591753
 10
78.3140143872
 20
380.3873306361
 10
77.2158062578
 20
380.399110004
 10
75.9440200895
 20
380.4094737616
 10
74.5223431409
 20
380.4182356444
 10
72.9772622258
 20
380.4252168384
 10
71.3375589371
 20
380.430305585
 10
69.6337713421
 20
380.4333975759
 10
67.8976482272
 20
380.4344332066
  0
LWPOLYLINE
  5
260
330
1F
100
AcDbEntity
  8
0
  6
CONTINUOUS
 62
     7
100
AcDbPolyline
 90
       47
 70
   128
 43
0.0
 10
102.8976483763
 20
380.4344332066
 10
101.1615236316
 20
380.4333975759
 10
99.457739529
 20
380.430305585
 10
97.8180343777
 20
380.4252168384
 10
96.272952997
 20
380.4182356444
 10
94.8512774453
 20
380.4094737616
 10
93.5794894144
 20
380.399110004
 10
92.4812822163
 20
380.3873306361
 10
91.5771114201
 20
380.3743591753
 10
90.883821857
 20
380.3604265896
 10
90.4143263147
 20
380.3458010999
 10
90.1773717746
 20
380.3307583776
 10
90.1773717746
 20
380.3155740944
 10
90.4143263147
 20
380.3005313722
 10
90.883821857
 20
380.2859058824
 10
91.5771114201
 20
380.2719807473
 10
92.4812822163
 20
380.2590018359
 10
93.5794894144
 20
380.247222468
 10
94.8512774453
 20
380.2368587104
 10
96.272952997
 20
380.2281042782
 10
97.8180343777
 20
380.2211156336
 10
99.457739529
 20
380.216026887
 10
101.1615236316
 20
380.2129423467
 10
102.8976483763
 20
380.211906716
 10
104.6337731209
 20
380.2129423467
 10
106.3375572235
 20
380.216026887
 10
107.9772623748
 20
380.2211156336
 10
109.5223437555
 20
380.2281042782
 10
110.9440193072
 20
380.2368587104
 10
112.2158073381
 20
380.247222468
 10
113.3140145362
 20
380.2590018359
 10
114.2181853325
 20
380.2719807473
 10
114.9114748955
 20
380.2859058824
 10
115.3809704379
 20
380.3005313722
 10
115.6179249779
 20
380.3155740944
 10
115.6179249779
 20
380.3307583776
 10
115.3809704379
 20
380.3458010999
 10
114.9114748955
 20
380.3604265896
 10
114.2181853325
 20
380.3743591753
 10
113.3140145362
 20
380.3873306361
 10
112.2158073381
 20
380.399110004
 10
110.9440193072
 20
380.4094737616
 10
109.5223437555
 20
380.4182356444
 10
107.9772623748
 20
380.4252168384
 10
106.3375572235
 20
380.430305585
 10
104.6337731209
 20
380.4333975759
 10
102.8976483763
 20
380.4344332066
  0
LWPOLYLINE
  5
261
330
1F
100
AcDbEntity
  8
0
  6
CONTINUOUS
 62
     7
100
AcDbPolyline
 90
       47
 70
   128
 43
0.0
 10
137.8976485253
 20
380.4344332066
 10
136.1615254104
 20
380.4333975759
 10
134.4577378154
 20
380.430305585
 10
132.8180345267
 20
380.4252168384
 10
131.2729536116
 20
380.4182356444
 10
129.851276663
 20
380.4094737616
 10
128.5794904948
 20
380.399110004
 10
127.4812823654
 20
380.3873306361
 10
126.5771115691
 20
380.3743591753
 10
125.883822006
 20
380.3604265896
 10
125.4143255324
 20
380.3458010999
 10
125.1773709923
 20
380.3307583776
 10
125.1773709923
 20
380.3155740944
 10
125.4143255324
 20
380.3005313722
 10
125.883822006
 20
380.2859058824
 10
126.5771115691
 20
380.2719807473
 10
127.4812823654
 20
380.2590018359
 10
128.5794904948
 20
380.247222468
 10
129.851276663
 20
380.2368587104
 10
131.2729536116
 20
380.2281042782
 10
132.8180345267
 20
380.2211156336
 10
134.4577378154
 20
380.216026887
 10
136.1615254104
 20
380.2129423467
 10
137.8976485253
 20
380.211906716
 10
139.6337716401
 20
380.2129423467
 10
141.3375555098
 20
380.216026887
 10
142.9772606612
 20
380.2211156336
 10
144.5223434389
 20
380.2281042782
 10
145.9440185249
 20
380.2368587104
 10
147.2158065558
 20
380.247222468
 10
148.3140146852
 20
380.2590018359
 10
149.2181836188
 20
380.2719807473
 10
149.9114750445
 20
380.2859058824
 10
150.3809696555
 20
380.3005313722
 10
150.6179241956
 20
380.3155740944
 10
150.6179241956
 20
380.3307583776
 10
150.3809696555
 20
380.3458010999
 10
149.9114750445
 20
380.3604265896
 10
149.2181836188
 20
380.3743591753
 10
148.3140146852
 20
380.3873306361
 10
147.2158065558
 20
380.399110004
 10
145.9440185249
 20
380.4094737616
 10
144.5223434389
 20
380.4182356444
 10
142.9772606612
 20
380.4252168384
 10
141.3375555098
 20
380.430305585
 10
139.6337716401
 20
380.4333975759
 10
137.8976485253
 20
380.4344332066
  0
LWPOLYLINE
  5
262
330
1F
100
AcDbEntity
  8
0
  6
CONTINUOUS
 62
     7
100
AcDbPolyline
 90
       42
 70
   128
 43
0.0
 10
50.3976500154
 20
380.6220537272
 10
48.8329945624
 20
380.6210031954
 10
47.3050108672
 20
380.6178814021
 10
45.8495213211
 20
380.6127628532
 10
44.5006309569
 20
380.605766758
 10
43.289963764
 20
380.5970495787
 10
42.2458952785
 20
380.5868273822
 10
41.3928969324
 20
380.5753311363
 10
40.7509623587
 20
380.5628365126
 10
40.3351380051
 20
380.5496340838
 10
40.1551692307
 20
380.5360293237
 10
40.215280515
 20
380.5223426071
 10
40.5140487969
 20
380.5089017597
 10
41.0444854319
 20
380.4960122553
 10
41.7941516757
 20
380.4839870182
 10
42.7454790593
 20
380.4730942694
 10
43.8761642695
 20
380.4635947791
 10
45.1597055912
 20
380.4557195154
 10
46.5660250306
 20
380.4496398416
 10
48.0621500433
 20
380.44551222
 10
49.6130181969
 20
380.4434186068
 10
51.1822781086
 20
380.4434186068
 10
52.7331462622
 20
380.44551222
 10
54.2292750001
 20
380.4496398416
 10
55.6355907142
 20
380.4557195154
 10
56.919132036
 20
380.4635947791
 10
58.0498172462
 20
380.4730942694
 10
59.0011446298
 20
380.4839870182
 10
59.7508108735
 20
380.4960122553
 10
60.2812475086
 20
380.5089017597
 10
60.5800195158
 20
380.5223426071
 10
60.6401270748
 20
380.5360293237
 10
60.4601583004
 20
380.5496340838
 10
60.0443339467
 20
380.5628365126
 10
59.4023993731
 20
380.5753311363
 10
58.549401027
 20
380.5868273822
 10
57.5053325415
 20
380.5970495787
 10
56.2946653486
 20
380.605766758
 10
54.9457749844
 20
380.6127628532
 10
53.4902854383
 20
380.6178814021
 10
51.9623017431
 20
380.6210031954
 10
50.3976500154
 20
380.6220537272
  0
LWPOLYLINE
  5
263
330
1F
100
AcDbEntity
  8
0
  6
CONTINUOUS
 62
     7
100
AcDbPolyline
 90
       42
 70
   128
 43
0.0
 10
85.3976483018
 20
380.6220537272
 10
83.8329928488
 20
380.6210031954
 10
82.3050128788
 20
380.6178814021
 10
80.8495196075
 20
380.6127628532
 10
79.5006329686
 20
380.605766758
 10
78.2899657756
 20
380.5970495787
 10
77.2458972901
 20
380.5868273822
 10
76.3928970814
 20
380.5753311363
 10
75.7509625078
 20
380.5628365126
 10
75.3351381541
 20
380.5496340838
 10
75.1551693797
 20
380.5360293237
 10
75.2152769387
 20
380.5223426071
 10
75.5140508086
 20
380.5089017597
 10
76.044485581
 20
380.4960122553
 10
76.7941536874
 20
380.4839870182
 10
77.7454773456
 20
380.4730942694
 10
78.8761625558
 20
380.4635947791
 10
80.1597076029
 20
380.4557195154
 10
81.566023317
 20
380.4496398416
 10
83.0621501923
 20
380.44551222
 10
84.6130183459
 20
380.4434186068
 10
86.1822782576
 20
380.4434186068
 10
87.7331464112
 20
380.44551222
 10
89.2292732865
 20
380.4496398416
 10
90.6355899319
 20
380.4557195154
 10
91.9191331163
 20
380.4635947791
 10
93.0498192579
 20
380.4730942694
 10
94.0011438474
 20
380.4839870182
 10
94.7508100912
 20
380.4960122553
 10
95.2812467262
 20
380.5089017597
 10
95.5800196648
 20
380.5223426071
 10
95.6401267581
 20
380.5360293237
 10
95.4601584494
 20
380.5496340838
 10
95.0443340958
 20
380.5628365126
 10
94.4023985908
 20
380.5753311363
 10
93.5494002447
 20
380.5868273822
 10
92.5053317592
 20
380.5970495787
 10
91.2946645663
 20
380.605766758
 10
89.9457769961
 20
380.6127628532
 10
88.490284656
 20
380.6178814021
 10
86.9623037547
 20
380.6210031954
 10
85.3976483018
 20
380.6220537272
  0
LWPOLYLINE
  5
264
330
1F
100
AcDbEntity
  8
0
  6
CONTINUOUS
 62
     7
100
AcDbPolyline
 90
       42
 70
   128
 43
0.0
 10
120.3976484508
 20
380.4431578365
 10
121.9623039037
 20
380.4442083684
 10
123.4902838737
 20
380.4473227111
 10
124.9457771451
 20
380.4524412599
 10
126.2946637839
 20
380.4594448057
 10
127.5053309769
 20
380.4681545344
 10
128.5493994624
 20
380.478376731
 10
129.4023996711
 20
380.4898729769
 10
130.0443342448
 20
380.5023676005
 10
130.4601585985
 20
380.5155774799
 10
130.6401273728
 20
380.5291747895
 10
130.5800198138
 20
380.5428615061
 10
130.2812459439
 20
380.5563023535
 10
129.7508111716
 20
380.5691918579
 10
129.0011430651
 20
380.5812245456
 10
128.0498194069
 20
380.5921172944
 10
126.9191341967
 20
380.6016093341
 10
125.6355891496
 20
380.6094920483
 10
124.2292734355
 20
380.6155642715
 10
122.7331465602
 20
380.6196993438
 10
121.1822784067
 20
380.6217855063
 10
119.6130184949
 20
380.6217855063
 10
118.0621503413
 20
380.6196993438
 10
116.566023466
 20
380.6155642715
 10
115.1597068206
 20
380.6094920483
 10
113.8761636362
 20
380.6016093341
 10
112.7454774946
 20
380.5921172944
 10
111.7941529051
 20
380.5812245456
 10
111.0444866613
 20
380.5691918579
 10
110.5140500263
 20
380.5563023535
 10
110.2152770877
 20
380.5428615061
 10
110.1551699944
 20
380.5291747895
 10
110.3351383031
 20
380.5155774799
 10
110.7509626568
 20
380.5023676005
 10
111.3928981617
 20
380.4898729769
 10
112.2458965078
 20
380.478376731
 10
113.2899649933
 20
380.4681545344
 10
114.5006321863
 20
380.4594448057
 10
115.8495197565
 20
380.4524412599
 10
117.3050120965
 20
380.4473227111
 10
118.8329929978
 20
380.4442083684
 10
120.3976484508
 20
380.4431578365
  0
LWPOLYLINE
  5
265
330
1F
100
AcDbEntity
  8
0
  6
CONTINUOUS
 62
     7
100
AcDbPolyline
 90
       42
 70
   128
 43
0.0
 10
155.3976467371
 20
380.4431578365
 10
156.9623021901
 20
380.4442083684
 10
158.4902858854
 20
380.4473227111
 10
159.9457754314
 20
380.4524412599
 10
161.2946657956
 20
380.4594448057
 10
162.5053329885
 20
380.4681545344
 10
163.549401474
 20
380.478376731
 10
164.4023998201
 20
380.4898729769
 10
165.0443343938
 20
380.5023676005
 10
165.4601587475
 20
380.5155774799
 10
165.6401275218
 20
380.5291747895
 10
165.5800162375
 20
380.5428615061
 10
165.2812479556
 20
380.5563023535
 10
164.7508113206
 20
380.5691918579
 10
164.0011450768
 20
380.5812245456
 10
163.0498176933
 20
380.5921172944
 10
161.919132483
 20
380.6016093341
 10
160.6355911613
 20
380.6094920483
 10
159.2292717219
 20
380.6155642715
 10
157.7331467092
 20
380.6196993438
 10
156.1822785557
 20
380.6217855063
 10
154.6130186439
 20
380.6217855063
 10
153.0621504903
 20
380.6196993438
 10
151.5660217524
 20
380.6155642715
 10
150.1597060383
 20
380.6094920483
 10
148.8761647165
 20
380.6016093341
 10
147.7454795063
 20
380.5921172944
 10
146.7941521228
 20
380.5812245456
 10
146.044485879
 20
380.5691918579
 10
145.514049244
 20
380.5563023535
 10
145.2152772367
 20
380.5428615061
 10
145.1551696778
 20
380.5291747895
 10
145.3351384521
 20
380.5155774799
 10
145.7509628058
 20
380.5023676005
 10
146.3928973794
 20
380.4898729769
 10
147.2458957255
 20
380.478376731
 10
148.289964211
 20
380.4681545344
 10
149.500631404
 20
380.4594448057
 10
150.8495217681
 20
380.4524412599
 10
152.3050113142
 20
380.4473227111
 10
153.8329950095
 20
380.4442083684
 10
155.3976467371
 20
380.4431578365
  0
LINE
  5
266
330
1F
100
AcDbEntity
  8
0
  6
CONTINUOUS
 62
     7
100
AcDbLine
 10
178.4303455174
 20
380.0422197429
 30
0.0
 11
178.4303455174
 21
380.707310721
 31
0.0
  0
LINE
  5
267
330
1F
100
AcDbEntity
  8
0
  6
CONTINUOUS
 62
     7
100
AcDbLine
 10
27.3649512351
 20
251.3768172112
 30
0.0
 11
27.3649512351
 21
250.7117262331
 31
0.0
  0
LINE
  5
268
330
1F
100
AcDbEntity
  8
0
  6
CONTINUOUS
 62
     7
100
AcDbLine
 10
13.493437928
 20
265.7704001513
 30
0.0
 11
12.8998576224
 21
265.1768198458
 31
0.0
  0
ELLIPSE
  5
269
330
1F
100
AcDbEntity
  8
0
  6
CONTINUOUS
 62
     7
100
AcDbEllipse
 10
12.900009583
 20
263.1768960559
 30
0.0
 11
1.421085471520200E-14
 21
2.0
 31
0.0
210
0.0
220
0.0
230
1.0
 40
0.0087268678
 41
0.0087266462604528
 42
1.570796326794897
  0
LINE
  5
26A
330
1F
100
AcDbEntity
  8
0
  6
CONTINUOUS
 62
     7
100
AcDbLine
 10
12.8825573743
 20
254.1595196572
 30
0.0
 11
12.8825573743
 21
263.176897749
 31
0.0
  0
LINE
  5
26B
330
1F
100
AcDbEntity
  8
0
  6
CONTINUOUS
 62
     7
100
AcDbLine
 10
12.8825573743
 20
254.1595196572
 30
0.0
 11
12.8476514042
 21
254.1595196572
 31
0.0
  0
LINE
  5
26C
330
1F
100
AcDbEntity
  8
0
  6
CONTINUOUS
 62
     7
100
AcDbLine
 10
12.8476514042
 20
254.1595196572
 30
0.0
 11
12.8476514042
 21
377.2595172969
 31
0.0
  0
LINE
  5
26D
330
1F
100
AcDbEntity
  8
0
  6
CONTINUOUS
 62
     7
100
AcDbLine
 10
12.8825573743
 20
377.2595172969
 30
0.0
 11
12.8476514042
 21
377.2595172969
 31
0.0
  0
LINE
  5
26E
330
1F
100
AcDbEntity
  8
0
  6
CONTINUOUS
 62
     7
100
AcDbLine
 10
12.8825573743
 20
377.2595172969
 30
0.0
 11
12.8825573743
 21
368.2421392051
 31
0.0
  0
ELLIPSE
  5
26F
330
1F
100
AcDbEntity
  8
0
  6
CONTINUOUS
 62
     7
100
AcDbEllipse
 10
12.900009583
 20
368.2421408982
 30
0.0
 11
1.421085471520200E-14
 21
2.0
 31
0.0
210
0.0
220
0.0
230
1.0
 40
0.0087268678
 41
1.570796326794897
 42
3.132866007330956
  0
LWPOLYLINE
  5
270
330
1F
100
AcDbEntity
  8
0
  6
CONTINUOUS
 62
     7
100
AcDbPolyline
 90
       33
 70
   128
 43
0.0
 10
13.4258090079
 20
280.709518328
 10
13.4247584761
 20
281.9288319198
 10
13.4216515839
 20
283.1012888101
 10
13.4166149915
 20
284.1818316129
 10
13.4098349631
 20
285.1289363799
 10
13.4015648187
 20
285.9062032995
 10
13.3921398342
 20
286.4837648568
 10
13.3819027365
 20
286.8394257722
 10
13.3712633074
 20
286.9595179555
 10
13.3606238783
 20
286.8394257722
 10
13.3503942311
 20
286.4837648568
 10
13.3409617961
 20
285.9062032995
 10
13.3326991022
 20
285.1289363799
 10
13.3259190739
 20
284.1818316129
 10
13.3208750308
 20
283.1012888101
 10
13.3177755893
 20
281.9288319198
 10
13.3167250574
 20
280.709518328
 10
13.3177755893
 20
279.4902047363
 10
13.3208750308
 20
278.317747846
 10
13.3259190739
 20
277.2372050432
 10
13.3326991022
 20
276.2901021388
 10
13.3409617961
 20
275.5128352192
 10
13.3503942311
 20
274.9352699366
 10
13.3606238783
 20
274.5796090213
 10
13.3712633074
 20
274.4595168379
 10
13.3819027365
 20
274.5796090213
 10
13.3921398342
 20
274.9352699366
 10
13.4015648187
 20
275.5128352192
 10
13.4098349631
 20
276.2901021388
 10
13.4166149915
 20
277.2372050432
 10
13.4216515839
 20
278.317747846
 10
13.4247584761
 20
279.4902047363
 10
13.4258090079
 20
280.709518328
  0
LWPOLYLINE
  5
271
330
1F
100
AcDbEntity
  8
0
  6
CONTINUOUS
 62
     7
100
AcDbPolyline
 90
       33
 70
   128
 43
0.0
 10
13.3167250574
 20
350.7095186261
 10
13.3177755893
 20
349.4902050343
 10
13.3208750308
 20
348.317748144
 10
13.3259190739
 20
347.2372053412
 10
13.3326991022
 20
346.2901005742
 10
13.3409617961
 20
345.5128336546
 10
13.3503942311
 20
344.9352720973
 10
13.3606238783
 20
344.5796111819
 10
13.3712633074
 20
344.4595189986
 10
13.3819027365
 20
344.5796111819
 10
13.3921398342
 20
344.9352720973
 10
13.4015648187
 20
345.5128336546
 10
13.4098349631
 20
346.2901005742
 10
13.4166149915
 20
347.2372053412
 10
13.4216515839
 20
348.317748144
 10
13.4247584761
 20
349.4902050343
 10
13.4258090079
 20
350.7095186261
 10
13.4247584761
 20
351.9288322178
 10
13.4216515839
 20
353.1012891081
 10
13.4166149915
 20
354.1818319109
 10
13.4098349631
 20
355.1289348152
 10
13.4015648187
 20
355.9062017349
 10
13.3921398342
 20
356.4837670174
 10
13.3819027365
 20
356.8394279328
 10
13.3712633074
 20
356.9595201162
 10
13.3606238783
 20
356.8394279328
 10
13.3503942311
 20
356.4837670174
 10
13.3409617961
 20
355.9062017349
 10
13.3326991022
 20
355.1289348152
 10
13.3259190739
 20
354.1818319109
 10
13.3208750308
 20
353.1012891081
 10
13.3177755893
 20
351.9288322178
 10
13.3167250574
 20
350.7095186261
  0
LWPOLYLINE
  5
272
330
1F
100
AcDbEntity
  8
0
  6
CONTINUOUS
 62
     7
100
AcDbPolyline
 90
       66
 70
   128
 43
0.0
 10
13.3734239757
 20
315.709518477
 10
13.3723957956
 20
318.1464948912
 10
13.3693187058
 20
320.5607181636
 10
13.3642225087
 20
322.9296470282
 10
13.3571519077
 20
325.2311630395
 10
13.3481814087
 20
327.4437787232
 10
13.3373855174
 20
329.5468345505
 10
13.3248759926
 20
331.5206954476
 10
13.3107571423
 20
333.3469296095
 10
13.2951630771
 20
335.008491039
 10
13.2782502592
 20
336.4898601768
 10
13.2601602495
 20
337.7772106078
 10
13.241071862
 20
338.8585208205
 10
13.2211639107
 20
339.7236952779
 10
13.20062266
 20
340.3646556881
 10
13.1796343744
 20
340.7754173723
 10
13.1584002197
 20
340.9521451441
 10
13.1371139109
 20
340.8931905624
 10
13.1159840644
 20
340.5991012451
 10
13.0951894939
 20
340.0726264563
 10
13.0749388159
 20
339.3186779914
 10
13.0554257453
 20
338.3442985115
 10
13.036814195
 20
337.1585833129
 10
13.0192904294
 20
335.7726039586
 10
13.0030183614
 20
334.1993021068
 10
12.9881470025
 20
332.4533647147
 10
12.9748179138
 20
330.5510964465
 10
12.963142854
 20
328.5102548298
 10
12.953248483
 20
326.3498965872
 10
12.9452242077
 20
324.0901913715
 10
12.9391370833
 20
321.752239227
 10
12.9350467146
 20
319.3578668625
 10
12.9329903543
 20
316.9294312584
 10
12.9329903543
 20
314.4896056957
 10
12.9350467146
 20
312.0611700916
 10
12.9391370833
 20
309.6667977271
 10
12.9452242077
 20
307.3288455826
 10
12.953248483
 20
305.0691403669
 10
12.963142854
 20
302.9087821242
 10
12.9748179138
 20
300.8679405076
 10
12.9881470025
 20
298.9656722394
 10
13.0030183614
 20
297.2197348473
 10
13.0192904294
 20
295.6464329955
 10
13.036814195
 20
294.2604536411
 10
13.0554257453
 20
293.0747384426
 10
13.0749388159
 20
292.1003589627
 10
13.0951894939
 20
291.3464104977
 10
13.1159840644
 20
290.819935709
 10
13.1371139109
 20
290.5258463916
 10
13.1584002197
 20
290.46689181
 10
13.1796343744
 20
290.6436195818
 10
13.20062266
 20
291.054381266
 10
13.2211639107
 20
291.6953416762
 10
13.241071862
 20
292.5605161336
 10
13.2601602495
 20
293.6418263462
 10
13.2782502592
 20
294.9291767773
 10
13.2951630771
 20
296.4105459151
 10
13.3107571423
 20
298.0721073446
 10
13.3248759926
 20
299.8983415064
 10
13.3373855174
 20
301.8722024036
 10
13.3481814087
 20
303.9752582309
 10
13.3571519077
 20
306.1878739146
 10
13.3642225087
 20
308.4893899259
 10
13.3693187058
 20
310.8583187905
 10
13.3723957956
 20
313.2725420629
 10
13.3734239757
 20
315.709518477
  0
LINE
  5
273
330
1F
100
AcDbEntity
  8
0
  6
CONTINUOUS
 62
     7
100
AcDbLine
 10
12.8998576224
 20
265.1768198458
 30
0.0
 11
13.5649486006
 21
265.1768198458
 31
0.0
  0
CIRCLE
  5
274
330
1F
100
AcDbEntity
  8
0
  6
CONTINUOUS
 62
     7
100
AcDbCircle
 10
184.6476483763
 20
258.959518477
 30
0.0
 40
2.249999999999972
  0
CIRCLE
  5
275
330
1F
100
AcDbEntity
  8
0
  6
CONTINUOUS
 62
     7
100
AcDbCircle
 10
184.6476483763
 20
372.459518477
 30
0.0
 40
2.249999999999972
  0
CIRCLE
  5
276
330
1F
100
AcDbEntity
  8
0
  6
CONTINUOUS
 62
     7
100
AcDbCircle
 10
21.1476483763
 20
258.959518477
 30
0.0
 40
2.25
  0
CIRCLE
  5
277
330
1F
100
AcDbEntity
  8
0
  6
CONTINUOUS
 62
     7
100
AcDbCircle
 10
21.1476483763
 20
372.459518477
 30
0.0
 40
2.25
  0
LWPOLYLINE
  5
278
330
1F
100
AcDbEntity
  8
0
  6
CONTINUOUS
 62
     7
100
AcDbPolyline
 90
        9
 70
   128
 43
0.0
 10
147.3068601013
 20
251.1958649603
 10
147.8180332601
 20
251.1938086
 10
149.4577384115
 20
251.1887273041
 10
151.1615222812
 20
251.1856353131
 10
152.8976491213
 20
251.1845996824
 10
154.6337722361
 20
251.1856353131
 10
156.3375561059
 20
251.1887273041
 10
157.9772612572
 20
251.1938086
 10
158.4884381414
 20
251.1958649603
  0
LWPOLYLINE
  5
279
330
1F
100
AcDbEntity
  8
0
  6
CONTINUOUS
 62
     7
100
AcDbPolyline
 90
        5
 70
   128
 43
0.0
 10
137.8976485253
 20
380.2344372717
 10
136.1615254104
 20
380.233401641
 10
134.4577378154
 20
380.23030965
 10
132.8180345267
 20
380.2252283541
 10
132.3068595052
 20
380.2231719938
  0
LWPOLYLINE
  5
27A
330
1F
100
AcDbEntity
  8
0
  6
CONTINUOUS
 62
     7
100
AcDbPolyline
 90
        5
 70
   128
 43
0.0
 10
143.4884375453
 20
380.2231719938
 10
142.9772606612
 20
380.2252283541
 10
141.3375555098
 20
380.23030965
 10
139.6337716401
 20
380.233401641
 10
137.8976485253
 20
380.2344372717
  0
LWPOLYLINE
  5
27B
330
1F
100
AcDbEntity
  8
0
  6
CONTINUOUS
 62
     7
100
AcDbPolyline
 90
        5
 70
   128
 43
0.0
 10
52.8976476312
 20
251.1845996824
 10
54.6337744713
 20
251.1856353131
 10
56.3375583411
 20
251.1887273041
 10
57.9772634924
 20
251.1938086
 10
58.4884366513
 20
251.1958649603
  0
LWPOLYLINE
  5
27C
330
1F
100
AcDbEntity
  8
0
  6
CONTINUOUS
 62
     7
100
AcDbPolyline
 90
        5
 70
   128
 43
0.0
 10
47.3068586111
 20
251.1958649603
 10
47.8180354953
 20
251.1938086
 10
49.4577406466
 20
251.1887273041
 10
51.1615245164
 20
251.1856353131
 10
52.8976476312
 20
251.1845996824
  0
LWPOLYLINE
  5
27D
330
1F
100
AcDbEntity
  8
0
  6
CONTINUOUS
 62
     7
100
AcDbPolyline
 90
        5
 70
   128
 43
0.0
 10
102.8976483763
 20
380.2344372717
 10
101.1615236316
 20
380.233401641
 10
99.457739529
 20
380.23030965
 10
97.8180343777
 20
380.2252283541
 10
97.3068602875
 20
380.2231719938
  0
LWPOLYLINE
  5
27E
330
1F
100
AcDbEntity
  8
0
  6
CONTINUOUS
 62
     7
100
AcDbPolyline
 90
        5
 70
   128
 43
0.0
 10
108.488436465
 20
380.2231719938
 10
107.9772623748
 20
380.2252283541
 10
106.3375572235
 20
380.23030965
 10
104.6337731209
 20
380.233401641
 10
102.8976483763
 20
380.2344372717
  0
LWPOLYLINE
  5
27F
330
1F
100
AcDbEntity
  8
0
  6
CONTINUOUS
 62
     7
100
AcDbPolyline
 90
        5
 70
   128
 43
0.0
 10
67.8976482272
 20
380.2344372717
 10
66.1615251124
 20
380.233401641
 10
64.4577412427
 20
380.23030965
 10
62.8180360914
 20
380.2252283541
 10
62.3068592072
 20
380.2231719938
  0
LWPOLYLINE
  5
280
330
1F
100
AcDbEntity
  8
0
  6
CONTINUOUS
 62
     7
100
AcDbPolyline
 90
        5
 70
   128
 43
0.0
 10
73.4884372473
 20
380.2231719938
 10
72.9772622258
 20
380.2252283541
 10
71.3375589371
 20
380.23030965
 10
69.6337713421
 20
380.233401641
 10
67.8976482272
 20
380.2344372717
  0
LWPOLYLINE
  5
281
330
1F
100
AcDbEntity
  8
0
  6
CONTINUOUS
 62
     7
100
AcDbPolyline
 90
       24
 70
   128
 43
0.0
 10
13.2530747474
 20
338.209672108
 10
13.2368101299
 20
337.1585833129
 10
13.2192863644
 20
335.7726039586
 10
13.2030142963
 20
334.1993021068
 10
13.1881354869
 20
332.4533647147
 10
13.1748063982
 20
330.5510964465
 10
13.163138789
 20
328.5102548298
 10
13.1532444179
 20
326.3498965872
 10
13.1452126921
 20
324.0901913715
 10
13.1391255677
 20
321.752239227
 10
13.135035199
 20
319.3578668625
 10
13.1329788387
 20
316.9294312584
 10
13.1329788387
 20
314.4896056957
 10
13.135035199
 20
312.0611700916
 10
13.1391255677
 20
309.6667977271
 10
13.1452126921
 20
307.3288455826
 10
13.1532444179
 20
305.0691403669
 10
13.163138789
 20
302.9087821242
 10
13.1748063982
 20
300.8679405076
 10
13.1881354869
 20
298.9656722394
 10
13.2030142963
 20
297.2197348473
 10
13.2192863644
 20
295.6464329955
 10
13.2368101299
 20
294.2604536411
 10
13.2530747474
 20
293.2093648461
  0
LWPOLYLINE
  5
282
330
1F
100
AcDbEntity
  8
0
  6
CONTINUOUS
 62
     7
100
AcDbPolyline
 90
       22
 70
   128
 43
0.0
 10
13.3615030468
 20
323.9027664286
 10
13.3561237276
 20
323.9520846155
 10
13.3439271272
 20
323.8926969689
 10
13.331991297
 20
323.5978942585
 10
13.320658964
 20
323.076156642
 10
13.3102579534
 20
322.342494711
 10
13.3010937393
 20
321.4180140977
 10
13.2934196413
 20
320.3293105808
 10
13.2874666274
 20
319.1077038401
 10
13.2833986104
 20
317.7883375657
 10
13.2813347996
 20
316.4091673435
 10
13.2813347996
 20
315.0098696106
 10
13.2833986104
 20
313.6306993884
 10
13.2874666274
 20
312.311333114
 10
13.2934196413
 20
311.0897263733
 10
13.3010937393
 20
310.0010228564
 10
13.3102579534
 20
309.0765422431
 10
13.320658964
 20
308.3428803121
 10
13.331991297
 20
307.8211426956
 10
13.3439271272
 20
307.5263399852
 10
13.3561237276
 20
307.4669523385
 10
13.3615030468
 20
307.5162705255
  0
LWPOLYLINE
  5
283
330
1F
100
AcDbEntity
  8
0
  6
CONTINUOUS
 62
     7
100
AcDbPolyline
 90
       14
 70
   128
 43
0.0
 10
91.7309826732
 20
251.0562410799
 10
92.8668674574
 20
251.0474568454
 10
94.4747334838
 20
251.0375252214
 10
96.2102829039
 20
251.029396638
 10
98.0472053893
 20
251.0231828538
 10
99.9576560248
 20
251.0189881769
 10
101.9126738215
 20
251.0168796626
 10
103.882622931
 20
251.0168796626
 10
105.8376407277
 20
251.0189881769
 10
107.7480913632
 20
251.0231828538
 10
109.5850138486
 20
251.029396638
 10
111.3205632687
 20
251.0375252214
 10
112.9284292952
 20
251.0474568454
 10
114.0643140793
 20
251.0562410799
  0
LWPOLYLINE
  5
284
330
1F
100
AcDbEntity
  8
0
  6
CONTINUOUS
 62
     7
100
AcDbPolyline
 90
       11
 70
   128
 43
0.0
 10
96.972216063
 20
251.0859390941
 10
97.0197959364
 20
251.0856410709
 10
98.3577432603
 20
251.078481063
 10
99.807478397
 20
251.0732433048
 10
101.3333037522
 20
251.0700470057
 10
102.8976483763
 20
251.0689741221
 10
104.4619930003
 20
251.0700470057
 10
105.9878183555
 20
251.0732433048
 10
107.4375534922
 20
251.078481063
 10
108.7755008161
 20
251.0856410709
 10
108.8230806895
 20
251.0859390941
  0
LINE
  5
285
330
1F
100
AcDbEntity
  8
0
  6
CONTINUOUS
 62
     7
100
AcDbLine
 10
192.9127393782
 20
263.176897749
 30
0.0
 11
192.2476484001
 21
263.176897749
 31
0.0
  0
LINE
  5
286
330
1F
100
AcDbEntity
  8
0
  6
CONTINUOUS
 62
     7
100
AcDbLine
 10
180.4302676142
 20
251.3595169631
 30
0.0
 11
180.4302676142
 21
250.6944259849
 31
0.0
  0
LINE
  5
287
330
1F
100
AcDbEntity
  8
0
  6
CONTINUOUS
 62
     7
100
AcDbLine
 10
192.2476484001
 20
368.2421392051
 30
0.0
 11
192.9127393782
 21
368.2421392051
 31
0.0
  0
LINE
  5
288
330
1F
100
AcDbEntity
  8
0
  6
CONTINUOUS
 62
     7
100
AcDbLine
 10
180.4302676142
 20
380.7246109691
 30
0.0
 11
180.4302676142
 21
380.059519991
 31
0.0
  0
LINE
  5
289
330
1F
100
AcDbEntity
  8
0
  6
CONTINUOUS
 62
     7
100
AcDbLine
 10
25.3650291384
 20
250.6944259849
 30
0.0
 11
25.3650291384
 21
251.3595169631
 31
0.0
  0
LINE
  5
28A
330
1F
100
AcDbEntity
  8
0
  6
CONTINUOUS
 62
     7
100
AcDbLine
 10
13.5476483524
 20
263.176897749
 30
0.0
 11
12.8825573743
 21
263.176897749
 31
0.0
  0
LINE
  5
28B
330
1F
100
AcDbEntity
  8
0
  6
CONTINUOUS
 62
     7
100
AcDbLine
 10
25.3650291384
 20
380.059519991
 30
0.0
 11
25.3650291384
 21
380.7246109691
 31
0.0
  0
LINE
  5
28C
330
1F
100
AcDbEntity
  8
0
  6
CONTINUOUS
 62
     7
100
AcDbLine
 10
12.8825573743
 20
368.2421392051
 30
0.0
 11
13.5476483524
 21
368.2421392051
 31
0.0
  0
ARC
  5
28D
330
1F
100
AcDbEntity
  8
0
  6
CONTINUOUS
 62
     7
100
AcDbCircle
 10
189.4476483763
 20
254.159518477
 30
0.0
 40
3.465092528836976
100
AcDbArc
 50
270.0
 51
0.0
  0
ARC
  5
28E
330
1F
100
AcDbEntity
  8
0
  6
CONTINUOUS
 62
     7
100
AcDbCircle
 10
189.4476483763
 20
254.159518477
 30
0.0
 40
3.5
100
AcDbArc
 50
270.0
 51
0.0
  0
ARC
  5
28F
330
1F
100
AcDbEntity
  8
0
  6
CONTINUOUS
 62
     7
100
AcDbCircle
 10
189.4476483763
 20
377.259518477
 30
0.0
 40
3.465092528836919
100
AcDbArc
 50
0.0
 51
90.0
  0
ARC
  5
290
330
1F
100
AcDbEntity
  8
0
  6
CONTINUOUS
 62
     7
100
AcDbCircle
 10
189.4476483763
 20
377.259518477
 30
0.0
 40
3.500000000000057
100
AcDbArc
 50
0.0
 51
90.0
  0
ARC
  5
291
330
1F
100
AcDbEntity
  8
0
  6
CONTINUOUS
 62
     7
100
AcDbCircle
 10
16.3476483763
 20
254.159518477
 30
0.0
 40
3.465092528836934
100
AcDbArc
 50
180.0
 51
270.0
  0
ARC
  5
292
330
1F
100
AcDbEntity
  8
0
  6
CONTINUOUS
 62
     7
100
AcDbCircle
 10
16.3476483763
 20
254.159518477
 30
0.0
 40
3.499999999999975
100
AcDbArc
 50
180.0
 51
270.0
  0
ARC
  5
293
330
1F
100
AcDbEntity
  8
0
  6
CONTINUOUS
 62
     7
100
AcDbCircle
 10
16.3476483763
 20
377.259518477
 30
0.0
 40
3.465092528836962
100
AcDbArc
 50
90.0
 51
180.0
  0
ARC
  5
294
330
1F
100
AcDbEntity
  8
0
  6
CONTINUOUS
 62
     7
100
AcDbCircle
 10
16.3476483763
 20
377.259518477
 30
0.0
 40
3.500000000000002
100
AcDbArc
 50
90.0
 51
180.0
  0
LINE
  5
295
330
1F
100
AcDbEntity
  8
0
  6
CONTINUOUS
 62
     7
100
AcDbLine
 10
517.319150695
 20
154.535198452
 30
0.0
 11
517.319150695
 21
154.5334531535
 31
0.0
  0
LINE
  5
296
330
1F
100
AcDbEntity
  8
0
  6
CONTINUOUS
 62
     7
100
AcDbLine
 10
537.819147536
 20
154.5334531535
 30
0.0
 11
537.819147536
 21
154.535198452
 31
0.0
  0
LINE
  5
297
330
1F
100
AcDbEntity
  8
0
  6
CONTINUOUS
 62
     7
100
AcDbLine
 10
482.319150546
 20
154.535198452
 30
0.0
 11
482.319150546
 21
154.5334531535
 31
0.0
  0
LINE
  5
298
330
1F
100
AcDbEntity
  8
0
  6
CONTINUOUS
 62
     7
100
AcDbLine
 10
502.8191511123
 20
154.5334531535
 30
0.0
 11
502.8191511123
 21
154.535198452
 31
0.0
  0
LINE
  5
299
330
1F
100
AcDbEntity
  8
0
  6
CONTINUOUS
 62
     7
100
AcDbLine
 10
447.319150397
 20
154.535198452
 30
0.0
 11
447.319150397
 21
154.5334531535
 31
0.0
  0
LINE
  5
29A
330
1F
100
AcDbEntity
  8
0
  6
CONTINUOUS
 62
     7
100
AcDbLine
 10
467.8191509632
 20
154.5334531535
 30
0.0
 11
467.8191509632
 21
154.535198452
 31
0.0
  0
LINE
  5
29B
330
1F
100
AcDbEntity
  8
0
  6
CONTINUOUS
 62
     7
100
AcDbLine
 10
412.3191539733
 20
154.535198452
 30
0.0
 11
412.3191539733
 21
154.5334531535
 31
0.0
  0
LINE
  5
29C
330
1F
100
AcDbEntity
  8
0
  6
CONTINUOUS
 62
     7
100
AcDbLine
 10
432.8191508142
 20
154.5334531535
 30
0.0
 11
432.8191508142
 21
154.535198452
 31
0.0
  0
LINE
  5
29D
330
1F
100
AcDbEntity
  8
0
  6
CONTINUOUS
 62
     7
100
AcDbLine
 10
497.3191511421
 20
178.5342841019
 30
0.0
 11
497.3191511421
 21
178.532540666
 31
0.0
  0
LINE
  5
29E
330
1F
100
AcDbEntity
  8
0
  6
CONTINUOUS
 62
     7
100
AcDbLine
 10
462.319150993
 20
178.5342841019
 30
0.0
 11
462.319150993
 21
178.532540666
 31
0.0
  0
LINE
  5
29F
330
1F
100
AcDbEntity
  8
0
  6
CONTINUOUS
 62
     7
100
AcDbLine
 10
427.319150844
 20
178.5342841019
 30
0.0
 11
427.319150844
 21
178.532540666
 31
0.0
  0
ARC
  5
2A0
330
1F
100
AcDbEntity
  8
0
  6
CONTINUOUS
 62
     7
100
AcDbCircle
 10
552.6017731758
 20
134.5333706607
 30
0.0
 40
2.000000000000012
100
AcDbArc
 50
180.5
 51
270.0
  0
LINE
  5
2A1
330
1F
100
AcDbEntity
  8
0
  6
CONTINUOUS
 62
     7
100
AcDbLine
 10
552.6017699925
 20
132.5333708507
 30
0.0
 11
561.6191480843
 21
132.5333708507
 31
0.0
  0
LINE
  5
2A2
330
1F
100
AcDbEntity
  8
0
  6
CONTINUOUS
 62
     7
100
AcDbLine
 10
561.6191480843
 20
132.5333708507
 30
0.0
 11
561.6191480843
 21
128.5333706607
 31
0.0
  0
LINE
  5
2A3
330
1F
100
AcDbEntity
  8
0
  6
CONTINUOUS
 62
     7
100
AcDbLine
 10
561.6191480843
 20
128.5333706607
 30
0.0
 11
388.5191534249
 21
128.5333706607
 31
0.0
  0
LINE
  5
2A4
330
1F
100
AcDbEntity
  8
0
  6
CONTINUOUS
 62
     7
100
AcDbLine
 10
388.5191534249
 20
132.5333708507
 30
0.0
 11
388.5191534249
 21
128.5333706607
 31
0.0
  0
LINE
  5
2A5
330
1F
100
AcDbEntity
  8
0
  6
CONTINUOUS
 62
     7
100
AcDbLine
 10
388.5191534249
 20
132.5333708507
 30
0.0
 11
397.5365315167
 21
132.5333708507
 31
0.0
  0
ARC
  5
2A6
330
1F
100
AcDbEntity
  8
0
  6
CONTINUOUS
 62
     7
100
AcDbCircle
 10
397.5365283334
 20
134.5333706607
 30
0.0
 40
2.000000000000012
100
AcDbArc
 50
270.0
 51
359.5
  0
LINE
  5
2A7
330
1F
100
AcDbEntity
  8
0
  6
CONTINUOUS
 62
     7
100
AcDbLine
 10
399.5364536135
 20
134.5159177278
 30
0.0
 11
400.130033919
 21
202.5333716144
 31
0.0
  0
LINE
  5
2A8
330
1F
100
AcDbEntity
  8
0
  6
CONTINUOUS
 62
     7
100
AcDbLine
 10
550.0082675902
 20
202.5333716144
 30
0.0
 11
400.130033919
 21
202.5333716144
 31
0.0
  0
LINE
  5
2A9
330
1F
100
AcDbEntity
  8
0
  6
CONTINUOUS
 62
     7
100
AcDbLine
 10
550.0082675902
 20
202.5333716144
 30
0.0
 11
550.6018478958
 21
134.5159177278
 31
0.0
  0
CIRCLE
  5
2AA
330
1F
100
AcDbEntity
  8
0
  6
CONTINUOUS
 62
     7
100
AcDbCircle
 10
510.0691203265
 20
178.5346280263
 30
0.0
 40
12.74985939829767
  0
CIRCLE
  5
2AB
330
1F
100
AcDbEntity
  8
0
  6
CONTINUOUS
 62
     7
100
AcDbCircle
 10
475.0691185385
 20
178.5346278917
 30
0.0
 40
12.74985926367705
  0
CIRCLE
  5
2AC
330
1F
100
AcDbEntity
  8
0
  6
CONTINUOUS
 62
     7
100
AcDbCircle
 10
440.0691200218
 20
178.5346279284
 30
0.0
 40
12.74985930038871
  0
CIRCLE
  5
2AD
330
1F
100
AcDbEntity
  8
0
  6
CONTINUOUS
 62
     7
100
AcDbCircle
 10
527.5691073484
 20
154.5354671503
 30
0.0
 40
10.24987782599445
  0
CIRCLE
  5
2AE
330
1F
100
AcDbEntity
  8
0
  6
CONTINUOUS
 62
     7
100
AcDbCircle
 10
492.5691053136
 20
154.5354668476
 30
0.0
 40
10.24987752328109
  0
CIRCLE
  5
2AF
330
1F
100
AcDbEntity
  8
0
  6
CONTINUOUS
 62
     7
100
AcDbCircle
 10
457.5691840733
 20
154.5349292313
 30
0.0
 40
10.24987834842463
  0
CIRCLE
  5
2B0
330
1F
100
AcDbEntity
  8
0
  6
CONTINUOUS
 62
     7
100
AcDbCircle
 10
422.5691820385
 20
154.5349289286
 30
0.0
 40
10.24987865114614
  0
LINE
  5
2B1
330
1F
100
AcDbEntity
  8
0
  6
CONTINUOUS
 62
     7
100
AcDbLine
 10
565.0842417566
 20
132.5333708507
 30
0.0
 11
565.1191477267
 21
128.5333706607
 31
0.0
  0
LINE
  5
2B2
330
1F
100
AcDbEntity
  8
0
  6
CONTINUOUS
 62
     7
100
AcDbLine
 10
565.1191477267
 20
128.5333706607
 30
0.0
 11
561.6191480843
 21
128.5333706607
 31
0.0
  0
LINE
  5
2B3
330
1F
100
AcDbEntity
  8
0
  6
CONTINUOUS
 62
     7
100
AcDbLine
 10
561.6191480843
 20
132.5333708507
 30
0.0
 11
565.0842417566
 21
132.5333708507
 31
0.0
  0
LINE
  5
2B4
330
1F
100
AcDbEntity
  8
0
  6
CONTINUOUS
 62
     7
100
AcDbLine
 10
385.0540597526
 20
132.5333708507
 30
0.0
 11
385.0191537825
 21
128.5333706607
 31
0.0
  0
LINE
  5
2B5
330
1F
100
AcDbEntity
  8
0
  6
CONTINUOUS
 62
     7
100
AcDbLine
 10
385.0540597526
 20
132.5333708507
 30
0.0
 11
388.5191534249
 21
132.5333708507
 31
0.0
  0
LINE
  5
2B6
330
1F
100
AcDbEntity
  8
0
  6
CONTINUOUS
 62
     7
100
AcDbLine
 10
388.5191534249
 20
128.5333706607
 30
0.0
 11
385.0191537825
 21
128.5333706607
 31
0.0
  0
ARC
  5
2B7
330
1F
100
AcDbEntity
  8
0
  6
CONTINUOUS
 62
     7
100
AcDbCircle
 10
527.5691491155
 20
154.5331527182
 30
0.0
 40
10.24999842487991
100
AcDbArc
 50
0.001679383
 51
179.998320617
  0
ARC
  5
2B8
330
1F
100
AcDbEntity
  8
0
  6
CONTINUOUS
 62
     7
100
AcDbCircle
 10
492.5691508291
 20
154.5331516701
 30
0.0
 40
10.25000028755583
100
AcDbArc
 50
0.0016852415
 51
179.9983147585
  0
ARC
  5
2B9
330
1F
100
AcDbEntity
  8
0
  6
CONTINUOUS
 62
     7
100
AcDbCircle
 10
457.5689236921
 20
154.5332908499
 30
0.0
 40
10.24977329643573
100
AcDbArc
 50
89.9987311473
 51
179.9990927298
  0
ARC
  5
2BA
330
1F
100
AcDbEntity
  8
0
  6
CONTINUOUS
 62
     7
100
AcDbCircle
 10
457.5693354709
 20
154.5332486511
 30
0.0
 40
10.24981549437763
100
AcDbArc
 50
0.0011431548
 51
90.0010329681
  0
ARC
  5
2BB
330
1F
100
AcDbEntity
  8
0
  6
CONTINUOUS
 62
     7
100
AcDbCircle
 10
422.5689156854
 20
154.5333024333
 30
0.0
 40
10.2497617132439
100
AcDbArc
 50
89.9986768093
 51
179.9991574797
  0
ARC
  5
2BC
330
1F
100
AcDbEntity
  8
0
  6
CONTINUOUS
 62
     7
100
AcDbCircle
 10
422.5693362091
 20
154.5332495383
 30
0.0
 40
10.24981460714065
100
AcDbArc
 50
0.0011381954
 51
90.0010275156
  0
ARC
  5
2BD
330
1F
100
AcDbEntity
  8
0
  6
CONTINUOUS
 62
     7
100
AcDbCircle
 10
510.0691509036
 20
178.5321563997
 30
0.0
 40
12.74999976737215
100
AcDbArc
 50
0.0017268108
 51
179.9982731892
  0
ARC
  5
2BE
330
1F
100
AcDbEntity
  8
0
  6
CONTINUOUS
 62
     7
100
AcDbCircle
 10
475.0691507546
 20
178.5321570645
 30
0.0
 40
12.74999976735201
100
AcDbArc
 50
0.0017238232
 51
179.9982761768
  0
ARC
  5
2BF
330
1F
100
AcDbEntity
  8
0
  6
CONTINUOUS
 62
     7
100
AcDbCircle
 10
440.0691506056
 20
178.5321563997
 30
0.0
 40
12.74999976737203
100
AcDbArc
 50
0.0017268108
 51
179.9982731892
  0
LINE
  5
2C0
330
1F
100
AcDbEntity
  8
0
  6
CONTINUOUS
 62
     7
100
AcDbLine
 10
561.6191480843
 20
203.5333736409
 30
0.0
 11
561.6191480843
 21
132.5333708507
 31
0.0
  0
LINE
  5
2C1
330
1F
100
AcDbEntity
  8
0
  6
CONTINUOUS
 62
     7
100
AcDbLine
 10
561.6191480843
 20
203.5333736409
 30
0.0
 11
563.7995455949
 21
203.5333736409
 31
0.0
  0
LINE
  5
2C2
330
1F
100
AcDbEntity
  8
0
  6
CONTINUOUS
 62
     7
100
AcDbLine
 10
563.7995455949
 20
203.5333736409
 30
0.0
 11
564.4191507785
 21
132.5333708507
 31
0.0
  0
LINE
  5
2C3
330
1F
100
AcDbEntity
  8
0
  6
CONTINUOUS
 62
     7
100
AcDbLine
 10
549.8169962851
 20
203.5333736409
 30
0.0
 11
549.8082716553
 21
202.5333716144
 31
0.0
  0
LINE
  5
2C4
330
1F
100
AcDbEntity
  8
0
  6
CONTINUOUS
 62
     7
100
AcDbLine
 10
549.8169962851
 20
203.5333736409
 30
0.0
 11
561.6191480843
 21
203.5333736409
 31
0.0
  0
LINE
  5
2C5
330
1F
100
AcDbEntity
  8
0
  6
CONTINUOUS
 62
     7
100
AcDbLine
 10
388.5191534249
 20
203.5333736409
 30
0.0
 11
388.5191534249
 21
132.5333708507
 31
0.0
  0
LINE
  5
2C6
330
1F
100
AcDbEntity
  8
0
  6
CONTINUOUS
 62
     7
100
AcDbLine
 10
388.5191534249
 20
203.5333736409
 30
0.0
 11
400.3213052241
 21
203.5333736409
 31
0.0
  0
LINE
  5
2C7
330
1F
100
AcDbEntity
  8
0
  6
CONTINUOUS
 62
     7
100
AcDbLine
 10
400.3213052241
 20
203.5333736409
 30
0.0
 11
400.330029854
 21
202.5333716144
 31
0.0
  0
LINE
  5
2C8
330
1F
100
AcDbEntity
  8
0
  6
CONTINUOUS
 62
     7
100
AcDbLine
 10
386.3387559144
 20
203.5333736409
 30
0.0
 11
385.7191507308
 21
132.5333708507
 31
0.0
  0
LINE
  5
2C9
330
1F
100
AcDbEntity
  8
0
  6
CONTINUOUS
 62
     7
100
AcDbLine
 10
386.3387559144
 20
203.5333736409
 30
0.0
 11
388.5191534249
 21
203.5333736409
 31
0.0
  0
LINE
  5
2CA
330
1F
100
AcDbEntity
  8
0
  6
CONTINUOUS
 62
     7
100
AcDbLine
 10
564.4018505303
 20
134.5159177278
 30
0.0
 11
565.0669415085
 21
134.5159177278
 31
0.0
  0
LWPOLYLINE
  5
2CB
330
1F
100
AcDbEntity
  8
0
  6
CONTINUOUS
 62
     7
100
AcDbPolyline
 90
        9
 70
   128
 43
0.0
 10
565.0669415085
 20
134.5159177278
 10
565.0703240721
 20
134.1282235068
 10
565.0735725252
 20
133.7559268419
 10
565.0765676586
 20
133.4131768514
 10
565.0791828124
 20
133.1129999441
 10
565.0813360302
 20
132.8668043558
 10
565.0829304544
 20
132.6839461532
 10
565.0839139311
 20
132.5713757966
 10
565.0842417566
 20
132.5333708507
  0
LINE
  5
2CC
330
1F
100
AcDbEntity
  8
0
  6
CONTINUOUS
 62
     7
100
AcDbLine
 10
385.0713600008
 20
134.5159177278
 30
0.0
 11
385.7364509789
 21
134.5159177278
 31
0.0
  0
LWPOLYLINE
  5
2CD
330
1F
100
AcDbEntity
  8
0
  6
CONTINUOUS
 62
     7
100
AcDbPolyline
 90
        9
 70
   128
 43
0.0
 10
385.0540597526
 20
132.5333708507
 10
385.0543875782
 20
132.5713757966
 10
385.0553710548
 20
132.6839461532
 10
385.0569654791
 20
132.8668043558
 10
385.0591186969
 20
133.1129999441
 10
385.0617338507
 20
133.4131768514
 10
385.0647289841
 20
133.7559268419
 10
385.0679774372
 20
134.1282235068
 10
385.0713600008
 20
134.5159177278
  0
LINE
  5
2CE
330
1F
100
AcDbEntity
  8
0
  6
CONTINUOUS
 62
     7
100
AcDbLine
 10
565.0669415085
 20
134.5159177278
 30
0.0
 11
564.4733612029
 21
202.5333716144
 31
0.0
  0
LINE
  5
2CF
330
1F
100
AcDbEntity
  8
0
  6
CONTINUOUS
 62
     7
100
AcDbLine
 10
563.8082702247
 20
202.5333716144
 30
0.0
 11
564.4733612029
 21
202.5333716144
 31
0.0
  0
LINE
  5
2D0
330
1F
100
AcDbEntity
  8
0
  6
CONTINUOUS
 62
     7
100
AcDbLine
 10
385.6649403064
 20
202.5333716144
 30
0.0
 11
385.0713600008
 21
134.5159177278
 31
0.0
  0
LINE
  5
2D1
330
1F
100
AcDbEntity
  8
0
  6
CONTINUOUS
 62
     7
100
AcDbLine
 10
386.3300312845
 20
202.5333716144
 30
0.0
 11
385.6649403064
 21
202.5333716144
 31
0.0
  0
ENDSEC
  0
SECTION
  2
OBJECTS
  0
DICTIONARY
  5
C
330
0
100
AcDbDictionary
  3
ACAD_GROUP
350
D
  3
ACAD_LAYOUT
350
1A
  3
ACAD_MLINESTYLE
350
17
  3
ACAD_PLOTSETTINGS
350
19
  3
ACDBHEADERROUNDTRIPXREC
350
2D2
  0
DICTIONARY
  5
D
102
{ACAD_REACTORS
330
C
102
}
330
C
100
AcDbDictionary
  0
DICTIONARY
  5
1A
102
{ACAD_REACTORS
330
C
102
}
330
C
100
AcDbDictionary
  0
DICTIONARY
  5
17
102
{ACAD_REACTORS
330
C
102
}
330
C
100
AcDbDictionary
  3
STANDARD
350
18
  0
DICTIONARY
  5
19
102
{ACAD_REACTORS
330
C
102
}
330
C
100
AcDbDictionary
  0
DICTIONARY
  5
2D2
102
{ACAD_REACTORS
330
C
102
}
330
C
100
AcDbDictionary
  3
CEPSNTYPE
350
2DB
  3
DIMSTYLEDATA
350
2F1
  3
FINGERPRINTGUID
350
2DC
  3
HYPERLINKBASE
350
2D5
  3
INSUNITS
350
2DA
  3
LAYOUTDICT
350
2D7
  3
LWETCUNION
350
2D9
  3
PLOTSETDICT
350
2D8
  3
PSVPSCALE
350
2DE
  3
PUCSBASE
350
2E1
  3
PUCSORGBACK
350
2E7
  3
PUCSORGBOTTOM
350
2E3
  3
PUCSORGFRONT
350
2E6
  3
PUCSORGLEFT
350
2E4
  3
PUCSORGRIGHT
350
2E5
  3
PUCSORGTOP
350
2E2
  3
PUCSORTHOREF
350
2DF
  3
PUCSORTHOVIEW
350
2E0
  3
STYLESHEET
350
2D6
  3
TSTACKALIGN
350
2D3
  3
TSTACKSIZE
350
2D4
  3
UCSBASE
350
2EA
  3
UCSORGBACK
350
2F0
  3
UCSORGBOTTOM
350
2EC
  3
UCSORGFRONT
350
2EF
  3
UCSORGLEFT
350
2ED
  3
UCSORGRIGHT
350
2EE
  3
UCSORGTOP
350
2EB
  3
UCSORTHOREF
350
2E8
  3
UCSORTHOVIEW
350
2E9
  3
VERSIONGUID
350
2DD
  0
MLINESTYLE
  5
18
102
{ACAD_REACTORS
330
17
102
}
330
17
100
AcDbMlineStyle
  2
Standard
 70
     0
  3

 62
   256
 51
90.0
 52
90.0
 71
     2
 49
0.5
 62
   256
  6
BYLAYER
 49
-0.5
 62
   256
  6
BYLAYER
  0
XRECORD
  5
2DB
102
{ACAD_REACTORS
330
2D2
102
}
330
2D2
100
AcDbXrecord
 90
        0
  0
XRECORD
  5
2F1
102
{ACAD_REACTORS
330
2D2
102
}
330
2D2
100
AcDbXrecord
1000
DSTYLE
1002
{
1070
   143
 40
0.0393700787
1070
    41
 40
12.0
1070
    44
 40
2.0
1070
    42
 40
2.0
1070
   147
 40
3.048
1070
    73
 70
     1
1070
    74
 70
     1
1070
   340
340
11
1070
   140
 40
7.0
1070
   284
 70
     0
1070
    78
 70
     0
1002
}
  0
XRECORD
  5
2DC
102
{ACAD_REACTORS
330
2D2
102
}
330
2D2
100
AcDbXrecord
  1
{C21AA92C-394F-4773-AA3E-725A059F6760}
  0
XRECORD
  5
2D5
102
{ACAD_REACTORS
330
2D2
102
}
330
2D2
100
AcDbXrecord
  1

  0
XRECORD
  5
2DA
102
{ACAD_REACTORS
330
2D2
102
}
330
2D2
100
AcDbXrecord
 90
        4
  0
XRECORD
  5
2D7
102
{ACAD_REACTORS
330
2D2
102
}
330
2D2
100
AcDbXrecord
340
1A
  0
XRECORD
  5
2D9
102
{ACAD_REACTORS
330
2D2
102
}
330
2D2
100
AcDbXrecord
 90
    10269
  0
XRECORD
  5
2D8
102
{ACAD_REACTORS
330
2D2
102
}
330
2D2
100
AcDbXrecord
340
19
  0
XRECORD
  5
2DE
102
{ACAD_REACTORS
330
2D2
102
}
330
2D2
100
AcDbXrecord
 40
0.0
  0
XRECORD
  5
2E1
102
{ACAD_REACTORS
330
2D2
102
}
330
2D2
100
AcDbXrecord
340
0
  0
XRECORD
  5
2E7
102
{ACAD_REACTORS
330
2D2
102
}
330
2D2
100
AcDbXrecord
 10
0.0
 20
0.0
 30
0.0
  0
XRECORD
  5
2E3
102
{ACAD_REACTORS
330
2D2
102
}
330
2D2
100
AcDbXrecord
 10
0.0
 20
0.0
 30
0.0
  0
XRECORD
  5
2E6
102
{ACAD_REACTORS
330
2D2
102
}
330
2D2
100
AcDbXrecord
 10
0.0
 20
0.0
 30
0.0
  0
XRECORD
  5
2E4
102
{ACAD_REACTORS
330
2D2
102
}
330
2D2
100
AcDbXrecord
 10
0.0
 20
0.0
 30
0.0
  0
XRECORD
  5
2E5
102
{ACAD_REACTORS
330
2D2
102
}
330
2D2
100
AcDbXrecord
 10
0.0
 20
0.0
 30
0.0
  0
XRECORD
  5
2E2
102
{ACAD_REACTORS
330
2D2
102
}
330
2D2
100
AcDbXrecord
 10
0.0
 20
0.0
 30
0.0
  0
XRECORD
  5
2DF
102
{ACAD_REACTORS
330
2D2
102
}
330
2D2
100
AcDbXrecord
340
0
  0
XRECORD
  5
2E0
102
{ACAD_REACTORS
330
2D2
102
}
330
2D2
100
AcDbXrecord
 70
     0
  0
XRECORD
  5
2D6
102
{ACAD_REACTORS
330
2D2
102
}
330
2D2
100
AcDbXrecord
  1

  0
XRECORD
  5
2D3
102
{ACAD_REACTORS
330
2D2
102
}
330
2D2
100
AcDbXrecord
 90
        1
  0
XRECORD
  5
2D4
102
{ACAD_REACTORS
330
2D2
102
}
330
2D2
100
AcDbXrecord
 90
       70
  0
XRECORD
  5
2EA
102
{ACAD_REACTORS
330
2D2
102
}
330
2D2
100
AcDbXrecord
340
0
  0
XRECORD
  5
2F0
102
{ACAD_REACTORS
330
2D2
102
}
330
2D2
100
AcDbXrecord
 10
0.0
 20
0.0
 30
0.0
  0
XRECORD
  5
2EC
102
{ACAD_REACTORS
330
2D2
102
}
330
2D2
100
AcDbXrecord
 10
0.0
 20
0.0
 30
0.0
  0
XRECORD
  5
2EF
102
{ACAD_REACTORS
330
2D2
102
}
330
2D2
100
AcDbXrecord
 10
0.0
 20
0.0
 30
0.0
  0
XRECORD
  5
2ED
102
{ACAD_REACTORS
330
2D2
102
}
330
2D2
100
AcDbXrecord
 10
0.0
 20
0.0
 30
0.0
  0
XRECORD
  5
2EE
102
{ACAD_REACTORS
330
2D2
102
}
330
2D2
100
AcDbXrecord
 10
0.0
 20
0.0
 30
0.0
  0
XRECORD
  5
2EB
102
{ACAD_REACTORS
330
2D2
102
}
330
2D2
100
AcDbXrecord
 10
0.0
 20
0.0
 30
0.0
  0
XRECORD
  5
2E8
102
{ACAD_REACTORS
330
2D2
102
}
330
2D2
100
AcDbXrecord
340
0
  0
XRECORD
  5
2E9
102
{ACAD_REACTORS
330
2D2
102
}
330
2D2
100
AcDbXrecord
 70
     0
  0
XRECORD
  5
2DD
102
{ACAD_REACTORS
330
2D2
102
}
330
2D2
100
AcDbXrecord
  1
{FAEB1C32-E019-11D5-929B-00C0DF256EC4}
  0
ENDSEC
  0
EOF
