  0
SECTION
  2
HEADER
  9
$ACADVER
  1
AC1014
  9
$ACADMAINTVER
 70
     9
  9
$DWGCODEPAGE
  3
ANSI_1252
  9
$INSBASE
 10
0.0
 20
0.0
 30
0.0
  9
$EXTMIN
 10
0.0
 20
0.0
 30
0.0
  9
$EXTMAX
 10
840.0
 20
594.0
 30
0.0
  9
$LIMMIN
 10
0.0
 20
0.0
  9
$LIMMAX
 10
840.0
 20
594.0
  9
$ORTHOMODE
 70
     0
  9
$REGENMODE
 70
     1
  9
$FILLMODE
 70
     1
  9
$QTEXTMODE
 70
     0
  9
$MIRRTEXT
 70
     1
  9
$DRAGMODE
 70
     2
  9
$LTSCALE
 40
2.0
  9
$OSMODE
 70
    37
  9
$ATTMODE
 70
     1
  9
$TEXTSIZE
 40
7.0
  9
$TRACEWID
 40
1.0
  9
$TEXTSTYLE
  7
STANDARD
  9
$CLAYER
  8
0
  9
$CELTYPE
  6
BYLAYER
  9
$CECOLOR
 62
   256
  9
$CELTSCALE
 40
1.0
  9
$DELOBJ
 70
     1
  9
$DISPSILH
 70
     0
  9
$DIMSCALE
 40
1.0
  9
$DIMASZ
 40
12.0
  9
$DIMEXO
 40
2.0
  9
$DIMDLI
 40
3.75
  9
$DIMRND
 40
0.0
  9
$DIMDLE
 40
0.0
  9
$DIMEXE
 40
2.0
  9
$DIMTP
 40
0.0
  9
$DIMTM
 40
0.0
  9
$DIMTXT
 40
7.0
  9
$DIMCEN
 40
2.5
  9
$DIMTSZ
 40
0.0
  9
$DIMTOL
 70
     0
  9
$DIMLIM
 70
     0
  9
$DIMTIH
 70
     1
  9
$DIMTOH
 70
     1
  9
$DIMSE1
 70
     0
  9
$DIMSE2
 70
     0
  9
$DIMTAD
 70
     1
  9
$DIMZIN
 70
     0
  9
$DIMBLK
  1

  9
$DIMASO
 70
     1
  9
$DIMSHO
 70
     1
  9
$DIMPOST
  1

  9
$DIMAPOST
  1

  9
$DIMALT
 70
     0
  9
$DIMALTD
 70
     3
  9
$DIMALTF
 40
0.0393700787
  9
$DIMLFAC
 40
1.0
  9
$DIMTOFL
 70
     1
  9
$DIMTVP
 40
0.0
  9
$DIMTIX
 70
     0
  9
$DIMSOXD
 70
     0
  9
$DIMSAH
 70
     0
  9
$DIMBLK1
  1

  9
$DIMBLK2
  1

  9
$DIMSTYLE
  2
ISO-25
  9
$DIMCLRD
 70
     0
  9
$DIMCLRE
 70
     0
  9
$DIMCLRT
 70
     0
  9
$DIMTFAC
 40
1.0
  9
$DIMGAP
 40
3.048
  9
$DIMJUST
 70
     0
  9
$DIMSD1
 70
     0
  9
$DIMSD2
 70
     0
  9
$DIMTOLJ
 70
     0
  9
$DIMTZIN
 70
     0
  9
$DIMALTZ
 70
     0
  9
$DIMALTTZ
 70
     0
  9
$DIMFIT
 70
     3
  9
$DIMUPT
 70
     0
  9
$DIMUNIT
 70
     2
  9
$DIMDEC
 70
     2
  9
$DIMTDEC
 70
     2
  9
$DIMALTU
 70
     2
  9
$DIMALTTD
 70
     3
  9
$DIMTXSTY
  7
STANDARD
  9
$DIMAUNIT
 70
     0
  9
$LUNITS
 70
     2
  9
$LUPREC
 70
     2
  9
$SKETCHINC
 40
1.0
  9
$FILLETRAD
 40
10.0
  9
$AUNITS
 70
     0
  9
$AUPREC
 70
     2
  9
$MENU
  1
.
  9
$ELEVATION
 40
0.0
  9
$PELEVATION
 40
0.0
  9
$THICKNESS
 40
0.0
  9
$LIMCHECK
 70
     0
  9
$CHAMFERA
 40
10.0
  9
$CHAMFERB
 40
10.0
  9
$CHAMFERC
 40
20.0
  9
$CHAMFERD
 40
0.0
  9
$SKPOLY
 70
     0
  9
$TDCREATE
 40
2456122.51370971
  9
$TDUPDATE
 40
2456122.513709722
  9
$TDINDWG
 40
0.0000000116
  9
$TDUSRTIMER
 40
0.0000000116
  9
$USRTIMER
 70
     1
  9
$ANGBASE
 50
0.0
  9
$ANGDIR
 70
     0
  9
$PDMODE
 70
     0
  9
$PDSIZE
 40
-1.0
  9
$PLINEWID
 40
0.0
  9
$COORDS
 70
     1
  9
$SPLFRAME
 70
     0
  9
$SPLINETYPE
 70
     6
  9
$SPLINESEGS
 70
     8
  9
$ATTDIA
 70
     0
  9
$ATTREQ
 70
     1
  9
$HANDLING
 70
     1
  9
$HANDSEED
  5
2DB
  9
$SURFTAB1
 70
     6
  9
$SURFTAB2
 70
     6
  9
$SURFTYPE
 70
     6
  9
$SURFU
 70
     6
  9
$SURFV
 70
     6
  9
$UCSNAME
  2

  9
$UCSORG
 10
0.0
 20
0.0
 30
0.0
  9
$UCSXDIR
 10
1.0
 20
0.0
 30
0.0
  9
$UCSYDIR
 10
0.0
 20
1.0
 30
0.0
  9
$PUCSNAME
  2

  9
$PUCSORG
 10
0.0
 20
0.0
 30
0.0
  9
$PUCSXDIR
 10
1.0
 20
0.0
 30
0.0
  9
$PUCSYDIR
 10
0.0
 20
1.0
 30
0.0
  9
$USERI1
 70
     0
  9
$USERI2
 70
     0
  9
$USERI3
 70
     0
  9
$USERI4
 70
     0
  9
$USERI5
 70
     0
  9
$USERR1
 40
0.0
  9
$USERR2
 40
0.0
  9
$USERR3
 40
0.0
  9
$USERR4
 40
0.0
  9
$USERR5
 40
0.0
  9
$WORLDVIEW
 70
     1
  9
$SHADEDGE
 70
     3
  9
$SHADEDIF
 70
    70
  9
$TILEMODE
 70
     1
  9
$MAXACTVP
 70
    64
  9
$PINSBASE
 10
0.0
 20
0.0
 30
0.0
  9
$PLIMCHECK
 70
     0
  9
$PEXTMIN
 10
1.0000000000E+20
 20
1.0000000000E+20
 30
1.0000000000E+20
  9
$PEXTMAX
 10
-1.0000000000E+20
 20
-1.0000000000E+20
 30
-1.0000000000E+20
  9
$PLIMMIN
 10
0.0
 20
0.0
  9
$PLIMMAX
 10
420.0
 20
297.0
  9
$UNITMODE
 70
     0
  9
$VISRETAIN
 70
     1
  9
$PLINEGEN
 70
     0
  9
$PSLTSCALE
 70
     1
  9
$TREEDEPTH
 70
  3020
  9
$PICKSTYLE
 70
     1
  9
$CMLSTYLE
  2
STANDARD
  9
$CMLJUST
 70
     0
  9
$CMLSCALE
 40
20.0
  9
$PROXYGRAPHICS
 70
     1
  9
$MEASUREMENT
 70
     1
  0
ENDSEC
  0
SECTION
  2
CLASSES
  0
CLASS
  1
ACDBDICTIONARYWDFLT
  2
AcDbDictionaryWithDefault
  3
ObjectDBX Classes
 90
        0
280
     0
281
     0
  0
CLASS
  1
VISUALSTYLE
  2
AcDbVisualStyle
  3
ObjectDBX Classes
 90
     4095
280
     0
281
     0
  0
CLASS
  1
MATERIAL
  2
AcDbMaterial
  3
ObjectDBX Classes
 90
     1153
280
     0
281
     0
  0
CLASS
  1
XRECORD
  2
AcDbXrecord
  3
AutoCAD 2000
 90
        0
280
     0
281
     0
  0
CLASS
  1
LWPOLYLINE
  2
AcDbPolyline
  3
AutoCAD 2000
 90
        0
280
     0
281
     1
  0
CLASS
  1
HATCH
  2
AcDbHatch
  3
AutoCAD 2000
 90
        0
280
     0
281
     1
  0
ENDSEC
  0
SECTION
  2
TABLES
  0
TABLE
  2
VPORT
  5
8
330
0
100
AcDbSymbolTable
 70
     1
  0
VPORT
  5
29
330
8
100
AcDbSymbolTableRecord
100
AcDbViewportTableRecord
  2
*ACTIVE
 70
     0
 10
0.0
 20
0.0
 11
1.0
 21
1.0
 12
420.0
 22
297.0
 13
0.0
 23
0.0
 14
10.0
 24
10.0
 15
10.0
 25
10.0
 16
0.0
 26
0.0
 36
1.0
 17
0.0
 27
0.0
 37
0.0
 40
594.0
 41
1.4141414141
 42
50.0
 43
0.0
 44
0.0
 50
0.0
 51
0.0
 71
     0
 72
  2000
 73
     1
 74
     3
 75
     0
 76
     0
 77
     0
 78
     0
  0
ENDTAB
  0
TABLE
  2
LTYPE
  5
5
330
0
100
AcDbSymbolTable
 70
     6
  0
LTYPE
  5
14
330
5
100
AcDbSymbolTableRecord
100
AcDbLinetypeTableRecord
  2
BYBLOCK
 70
     0
  3

 72
    65
 73
     0
 40
0.0
  0
LTYPE
  5
15
330
5
100
AcDbSymbolTableRecord
100
AcDbLinetypeTableRecord
  2
BYLAYER
 70
     0
  3

 72
    65
 73
     0
 40
0.0
  0
LTYPE
  5
16
330
5
100
AcDbSymbolTableRecord
100
AcDbLinetypeTableRecord
  2
CONTINUOUS
 70
     0
  3
Solid line
 72
    65
 73
     0
 40
0.0
  0
LTYPE
  5
3F
330
5
100
AcDbSymbolTableRecord
100
AcDbLinetypeTableRecord
  2
HIDDEN
 70
     0
  3
Hidden __ __ __ __ __ __ __ __ __ __ __ __ __ __
 72
    65
 73
     2
 40
1.905
 49
1.27
 74
     0
 49
-0.635
 74
     0
  0
LTYPE
  5
40
330
5
100
AcDbSymbolTableRecord
100
AcDbLinetypeTableRecord
  2
PHANTOM
 70
     0
  3
Phantom ______  __  __  ______  __  __  ______
 72
    65
 73
     6
 40
12.7
 49
6.35
 74
     0
 49
-1.27
 74
     0
 49
1.27
 74
     0
 49
-1.27
 74
     0
 49
1.27
 74
     0
 49
-1.27
 74
     0
  0
LTYPE
  5
41
330
5
100
AcDbSymbolTableRecord
100
AcDbLinetypeTableRecord
  2
CENTER
 70
     0
  3
Center ____ _ ____ _ ____ _ ____ _ ____ _ ____
 72
    65
 73
     4
 40
10.16
 49
6.35
 74
     0
 49
-1.27
 74
     0
 49
1.27
 74
     0
 49
-1.27
 74
     0
  0
LTYPE
  5
42
330
5
100
AcDbSymbolTableRecord
100
AcDbLinetypeTableRecord
  2
CENTERX2
 70
     0
  3
Center (2x) ________  __  ________  __  _____
 72
    65
 73
     4
 40
20.32
 49
12.7
 74
     0
 49
-2.54
 74
     0
 49
2.54
 74
     0
 49
-2.54
 74
     0
  0
LTYPE
  5
43
330
5
100
AcDbSymbolTableRecord
100
AcDbLinetypeTableRecord
  2
DOT2
 70
     0
  3
Dot (.5x) ........................................
 72
    65
 73
     2
 40
0.635
 49
0.0
 74
     0
 49
-0.635
 74
     0
  0
ENDTAB
  0
TABLE
  2
LAYER
  5
2
330
0
100
AcDbSymbolTable
 70
     1
  0
LAYER
  5
10
330
2
100
AcDbSymbolTableRecord
100
AcDbLayerTableRecord
  2
0
 70
     0
 62
     7
  6
CONTINUOUS
  0
ENDTAB
  0
TABLE
  2
STYLE
  5
3
330
0
100
AcDbSymbolTable
 70
     1
  0
STYLE
  5
11
330
3
100
AcDbSymbolTableRecord
100
AcDbTextStyleTableRecord
  2
STANDARD
 70
     0
 40
0.0
 41
1.0
 50
0.0
 71
     0
 42
2.5
  3
txt
  4

  0
ENDTAB
  0
TABLE
  2
VIEW
  5
6
330
0
100
AcDbSymbolTable
 70
     0
  0
ENDTAB
  0
TABLE
  2
UCS
  5
7
330
0
100
AcDbSymbolTable
 70
     0
  0
ENDTAB
  0
TABLE
  2
APPID
  5
9
330
0
100
AcDbSymbolTable
 70
     1
  0
APPID
  5
12
330
9
100
AcDbSymbolTableRecord
100
AcDbRegAppTableRecord
  2
ACAD
 70
     0
  0
ENDTAB
  0
TABLE
  2
DIMSTYLE
  5
A
330
0
100
AcDbSymbolTable
 70
     1
  0
DIMSTYLE
105
27
330
A
100
AcDbSymbolTableRecord
100
AcDbDimStyleTableRecord
  2
ISO-25
 70
     0
  3

  4

  5

  6

  7

 40
1.0
 41
2.5
 42
0.625
 43
3.75
 44
1.25
 45
0.0
 46
0.0
 47
0.0
 48
0.0
140
2.5
141
2.5
142
0.0
143
0.0393700787
144
1.0
145
0.0
146
1.0
147
0.625
 71
     0
 72
     0
 73
     0
 74
     0
 75
     0
 76
     0
 77
     1
 78
     8
170
     0
171
     3
172
     1
173
     0
174
     0
175
     0
176
     0
177
     0
178
     0
270
     2
271
     2
272
     2
273
     2
274
     3
340
11
275
     0
280
     0
281
     0
282
     0
283
     0
284
     8
285
     0
286
     0
287
     3
288
     0
  0
ENDTAB
  0
TABLE
  2
BLOCK_RECORD
  5
1
330
0
100
AcDbSymbolTable
 70
     1
  0
BLOCK_RECORD
  5
1F
330
1
100
AcDbSymbolTableRecord
100
AcDbBlockTableRecord
  2
*MODEL_SPACE
  0
BLOCK_RECORD
  5
1B
330
1
100
AcDbSymbolTableRecord
100
AcDbBlockTableRecord
  2
*PAPER_SPACE
  0
BLOCK_RECORD
  5
23
330
1
100
AcDbSymbolTableRecord
100
AcDbBlockTableRecord
  2
*PAPER_SPACE0
  0
ENDTAB
  0
ENDSEC
  0
SECTION
  2
BLOCKS
  0
BLOCK
  5
20
330
1F
100
AcDbEntity
  8
0
100
AcDbBlockBegin
  2
*MODEL_SPACE
 70
     0
 10
0.0
 20
0.0
 30
0.0
  3
*MODEL_SPACE
  1

  0
ENDBLK
  5
21
330
1F
100
AcDbEntity
  8
0
100
AcDbBlockEnd
  0
BLOCK
  5
1C
330
1B
100
AcDbEntity
 67
     1
  8
0
100
AcDbBlockBegin
  2
*PAPER_SPACE
 70
     0
 10
0.0
 20
0.0
 30
0.0
  3
*PAPER_SPACE
  1

  0
ENDBLK
  5
1D
330
1B
100
AcDbEntity
 67
     1
  8
0
100
AcDbBlockEnd
  0
BLOCK
  5
24
330
23
100
AcDbEntity
  8
0
100
AcDbBlockBegin
  2
*PAPER_SPACE0
 70
     0
 10
0.0
 20
0.0
 30
0.0
  3
*PAPER_SPACE0
  1

  0
ENDBLK
  5
25
330
23
100
AcDbEntity
  8
0
100
AcDbBlockEnd
  0
ENDSEC
  0
SECTION
  2
ENTITIES
  0
LINE
  5
44
330
1F
100
AcDbEntity
  8
0
  6
CONTINUOUS
 62
     7
100
AcDbLine
 10
563.49306044
 20
381.409484612
 30
0.0
 11
559.3930618168
 21
381.409484612
 31
0.0
  0
LINE
  5
45
330
1F
100
AcDbEntity
  8
0
  6
CONTINUOUS
 62
     7
100
AcDbLine
 10
563.0916268827
 20
381.0080473295
 30
0.0
 11
563.49306044
 21
381.409484612
 31
0.0
  0
LINE
  5
46
330
1F
100
AcDbEntity
  8
0
  6
CONTINUOUS
 62
     7
100
AcDbLine
 10
563.0916268827
 20
381.0080473295
 30
0.0
 11
560.9930628242
 21
381.0080473295
 31
0.0
  0
LINE
  5
47
330
1F
100
AcDbEntity
  8
0
  6
CONTINUOUS
 62
     7
100
AcDbLine
 10
560.9791004361
 20
381.0220097175
 30
0.0
 11
560.9930628242
 21
381.0080473295
 31
0.0
  0
LINE
  5
48
330
1F
100
AcDbEntity
  8
0
  6
CONTINUOUS
 62
     7
100
AcDbLine
 10
559.4070242049
 20
381.0220097175
 30
0.0
 11
560.9791004361
 21
381.0220097175
 31
0.0
  0
LINE
  5
49
330
1F
100
AcDbEntity
  8
0
  6
CONTINUOUS
 62
     7
100
AcDbLine
 10
559.3930618168
 20
381.0080473295
 30
0.0
 11
559.4070242049
 21
381.0220097175
 31
0.0
  0
LINE
  5
4A
330
1F
100
AcDbEntity
  8
0
  6
CONTINUOUS
 62
     7
100
AcDbLine
 10
559.3930618168
 20
381.0080473295
 30
0.0
 11
559.3930618168
 21
381.409484612
 31
0.0
  0
ARC
  5
4B
330
1F
100
AcDbEntity
  8
0
  6
CONTINUOUS
 62
     7
100
AcDbCircle
 10
559.3930622937
 20
390.4094824663
 30
0.0
 40
9.0
100
AcDbArc
 50
180.0
 51
270.0
  0
ARC
  5
4C
330
1F
100
AcDbEntity
  8
0
  6
CONTINUOUS
 62
     7
100
AcDbCircle
 10
559.3930622937
 20
390.4094824663
 30
0.0
 40
9.401435918374887
100
AcDbArc
 50
232.2348299182
 51
270.0
  0
LINE
  5
4D
330
1F
100
AcDbEntity
  8
0
  6
CONTINUOUS
 62
     7
100
AcDbLine
 10
553.6353723408
 20
382.9773922434
 30
0.0
 11
553.6075891258
 21
383.4926371446
 31
0.0
  0
ARC
  5
4E
330
1F
100
AcDbEntity
  8
0
  6
CONTINUOUS
 62
     7
100
AcDbCircle
 10
559.3930622937
 20
390.4094824663
 30
0.0
 40
9.017453735581508
100
AcDbArc
 50
219.9102078627
 51
230.0897921373
  0
LWPOLYLINE
  5
4F
330
1F
100
AcDbEntity
  8
0
  6
CONTINUOUS
 62
     7
100
AcDbPolyline
 90
        3
 70
   128
 43
0.0
 10
552.4762184621
 20
384.6240078083
 10
552.2657581867
 20
384.6341853014
 10
551.9609698357
 20
384.6517910233
  0
ARC
  5
50
330
1F
100
AcDbEntity
  8
0
  6
CONTINUOUS
 62
     7
100
AcDbCircle
 10
559.3930622937
 20
390.4094824663
 30
0.0
 40
9.401435918374887
100
AcDbArc
 50
180.0
 51
217.7651700818
  0
LINE
  5
51
330
1F
100
AcDbEntity
  8
0
  6
CONTINUOUS
 62
     7
100
AcDbLine
 10
549.9916249217
 20
390.4094804993
 30
0.0
 11
550.3930622043
 21
390.4094804993
 31
0.0
  0
LINE
  5
52
330
1F
100
AcDbEntity
  8
0
  6
CONTINUOUS
 62
     7
100
AcDbLine
 10
549.9916249217
 20
392.0094852319
 30
0.0
 11
550.005591035
 21
391.9955228439
 31
0.0
  0
LINE
  5
53
330
1F
100
AcDbEntity
  8
0
  6
CONTINUOUS
 62
     7
100
AcDbLine
 10
549.9916249217
 20
392.0094852319
 30
0.0
 11
549.9916249217
 21
394.1080455652
 31
0.0
  0
LINE
  5
54
330
1F
100
AcDbEntity
  8
0
  6
CONTINUOUS
 62
     7
100
AcDbLine
 10
549.9916249217
 20
394.1080455652
 30
0.0
 11
550.3930622043
 21
394.5094828477
 31
0.0
  0
LINE
  5
55
330
1F
100
AcDbEntity
  8
0
  6
CONTINUOUS
 62
     7
100
AcDbLine
 10
550.3930622043
 20
390.4094804993
 30
0.0
 11
550.3930622043
 21
394.5094828477
 31
0.0
  0
LINE
  5
56
330
1F
100
AcDbEntity
  8
0
  6
CONTINUOUS
 62
     7
100
AcDbLine
 10
550.005591035
 20
390.4234428874
 30
0.0
 11
549.9916249217
 21
390.4094804993
 31
0.0
  0
LINE
  5
57
330
1F
100
AcDbEntity
  8
0
  6
CONTINUOUS
 62
     7
100
AcDbLine
 10
550.005591035
 20
391.9955228439
 30
0.0
 11
550.005591035
 21
390.4234428874
 31
0.0
  0
LINE
  5
58
330
1F
100
AcDbEntity
  8
0
  6
CONTINUOUS
 62
     7
100
AcDbLine
 10
547.7748909296
 20
393.8898776641
 30
0.0
 11
457.5112336577
 21
393.8898776641
 31
0.0
  0
LINE
  5
59
330
1F
100
AcDbEntity
  8
0
  6
CONTINUOUS
 62
     7
100
AcDbLine
 10
457.5112336577
 20
393.8898776641
 30
0.0
 11
457.2930620314
 21
394.1080455652
 31
0.0
  0
LINE
  5
5A
330
1F
100
AcDbEntity
  8
0
  6
CONTINUOUS
 62
     7
100
AcDbLine
 10
457.2930620314
 20
394.1080455652
 30
0.0
 11
455.2944996656
 21
394.1080455652
 31
0.0
  0
LINE
  5
5B
330
1F
100
AcDbEntity
  8
0
  6
CONTINUOUS
 62
     7
100
AcDbLine
 10
455.2944996656
 20
394.1080455652
 30
0.0
 11
454.8930623831
 21
394.5094828477
 31
0.0
  0
LINE
  5
5C
330
1F
100
AcDbEntity
  8
0
  6
CONTINUOUS
 62
     7
100
AcDbLine
 10
550.3930622043
 20
394.5094828477
 30
0.0
 11
454.8930623831
 21
394.5094828477
 31
0.0
  0
LINE
  5
5D
330
1F
100
AcDbEntity
  8
0
  6
CONTINUOUS
 62
     7
100
AcDbLine
 10
549.9916249217
 20
394.1080455652
 30
0.0
 11
547.9930625559
 21
394.1080455652
 31
0.0
  0
LINE
  5
5E
330
1F
100
AcDbEntity
  8
0
  6
CONTINUOUS
 62
     7
100
AcDbLine
 10
547.7748909296
 20
393.8898776641
 30
0.0
 11
547.9930625559
 21
394.1080455652
 31
0.0
  0
LINE
  5
5F
330
1F
100
AcDbEntity
  8
0
  6
CONTINUOUS
 62
     7
100
AcDbLine
 10
550.005591035
 20
226.8955220452
 30
0.0
 11
550.005591035
 21
225.3234420887
 31
0.0
  0
LINE
  5
60
330
1F
100
AcDbEntity
  8
0
  6
CONTINUOUS
 62
     7
100
AcDbLine
 10
550.005591035
 20
226.8955220452
 30
0.0
 11
549.9916249217
 21
226.9094844332
 31
0.0
  0
LINE
  5
61
330
1F
100
AcDbEntity
  8
0
  6
CONTINUOUS
 62
     7
100
AcDbLine
 10
549.9916249217
 20
226.9094844332
 30
0.0
 11
550.3930622043
 21
226.9094844332
 31
0.0
  0
LINE
  5
62
330
1F
100
AcDbEntity
  8
0
  6
CONTINUOUS
 62
     7
100
AcDbLine
 10
550.3930622043
 20
222.8094820848
 30
0.0
 11
550.3930622043
 21
226.9094844332
 31
0.0
  0
LINE
  5
63
330
1F
100
AcDbEntity
  8
0
  6
CONTINUOUS
 62
     7
100
AcDbLine
 10
549.9916249217
 20
223.2109193674
 30
0.0
 11
550.3930622043
 21
222.8094820848
 31
0.0
  0
LINE
  5
64
330
1F
100
AcDbEntity
  8
0
  6
CONTINUOUS
 62
     7
100
AcDbLine
 10
549.9916249217
 20
223.2109193674
 30
0.0
 11
549.9916249217
 21
225.3094797006
 31
0.0
  0
LINE
  5
65
330
1F
100
AcDbEntity
  8
0
  6
CONTINUOUS
 62
     7
100
AcDbLine
 10
549.9916249217
 20
225.3094797006
 30
0.0
 11
550.005591035
 21
225.3234420887
 31
0.0
  0
LINE
  5
66
330
1F
100
AcDbEntity
  8
0
  6
CONTINUOUS
 62
     7
100
AcDbLine
 10
560.9791004361
 20
236.296955215
 30
0.0
 11
559.4070242049
 21
236.296955215
 31
0.0
  0
LINE
  5
67
330
1F
100
AcDbEntity
  8
0
  6
CONTINUOUS
 62
     7
100
AcDbLine
 10
560.9791004361
 20
236.296955215
 30
0.0
 11
560.9930628242
 21
236.3109176031
 31
0.0
  0
LINE
  5
68
330
1F
100
AcDbEntity
  8
0
  6
CONTINUOUS
 62
     7
100
AcDbLine
 10
560.9930628242
 20
236.3109176031
 30
0.0
 11
563.0916268827
 21
236.3109176031
 31
0.0
  0
LINE
  5
69
330
1F
100
AcDbEntity
  8
0
  6
CONTINUOUS
 62
     7
100
AcDbLine
 10
563.0916268827
 20
236.3109176031
 30
0.0
 11
563.49306044
 21
235.9094803205
 31
0.0
  0
LINE
  5
6A
330
1F
100
AcDbEntity
  8
0
  6
CONTINUOUS
 62
     7
100
AcDbLine
 10
559.3930618168
 20
235.9094803205
 30
0.0
 11
563.49306044
 21
235.9094803205
 31
0.0
  0
LINE
  5
6B
330
1F
100
AcDbEntity
  8
0
  6
CONTINUOUS
 62
     7
100
AcDbLine
 10
559.3930618168
 20
236.3109176031
 30
0.0
 11
559.3930618168
 21
235.9094803205
 31
0.0
  0
LINE
  5
6C
330
1F
100
AcDbEntity
  8
0
  6
CONTINUOUS
 62
     7
100
AcDbLine
 10
559.3930618168
 20
236.3109176031
 30
0.0
 11
559.4070242049
 21
236.296955215
 31
0.0
  0
ARC
  5
6D
330
1F
100
AcDbEntity
  8
0
  6
CONTINUOUS
 62
     7
100
AcDbCircle
 10
564.1930622937
 20
395.2094824663
 30
0.0
 40
3.499999999999943
100
AcDbArc
 50
0.0
 51
90.0
  0
LINE
  5
6E
330
1F
100
AcDbEntity
  8
0
  6
CONTINUOUS
 62
     7
100
AcDbLine
 10
567.6930607559
 20
222.1094851366
 30
0.0
 11
567.6930607559
 21
395.209479796
 31
0.0
  0
ARC
  5
6F
330
1F
100
AcDbEntity
  8
0
  6
CONTINUOUS
 62
     7
100
AcDbCircle
 10
441.0930622937
 20
222.1094824663
 30
0.0
 40
3.499999999999972
100
AcDbArc
 50
180.0
 51
270.0
  0
ARC
  5
70
330
1F
100
AcDbEntity
  8
0
  6
CONTINUOUS
 62
     7
100
AcDbCircle
 10
441.0930622937
 20
395.2094824663
 30
0.0
 40
3.499999999999943
100
AcDbArc
 50
90.0
 51
180.0
  0
CIRCLE
  5
71
330
1F
100
AcDbEntity
  8
0
  6
CONTINUOUS
 62
     7
100
AcDbCircle
 10
559.3930622937
 20
226.9094824663
 30
0.0
 40
4.0
  0
CIRCLE
  5
72
330
1F
100
AcDbEntity
  8
0
  6
CONTINUOUS
 62
     7
100
AcDbCircle
 10
559.3930622937
 20
390.4094824663
 30
0.0
 40
4.000000000000057
  0
CIRCLE
  5
73
330
1F
100
AcDbEntity
  8
0
  6
CONTINUOUS
 62
     7
100
AcDbCircle
 10
445.8930622937
 20
226.9094824663
 30
0.0
 40
4.0
  0
CIRCLE
  5
74
330
1F
100
AcDbEntity
  8
0
  6
CONTINUOUS
 62
     7
100
AcDbCircle
 10
445.8930622937
 20
390.4094824663
 30
0.0
 40
4.0
  0
LINE
  5
75
330
1F
100
AcDbEntity
  8
0
  6
CONTINUOUS
 62
     7
100
AcDbLine
 10
445.8930627705
 20
381.409484612
 30
0.0
 11
441.7930641474
 21
381.409484612
 31
0.0
  0
LINE
  5
76
330
1F
100
AcDbEntity
  8
0
  6
CONTINUOUS
 62
     7
100
AcDbLine
 10
441.7930641474
 20
381.409484612
 30
0.0
 11
441.7930641474
 21
235.9094803205
 31
0.0
  0
LINE
  5
77
330
1F
100
AcDbEntity
  8
0
  6
CONTINUOUS
 62
     7
100
AcDbLine
 10
441.7930641474
 20
235.9094803205
 30
0.0
 11
445.8930627705
 21
235.9094803205
 31
0.0
  0
ARC
  5
78
330
1F
100
AcDbEntity
  8
0
  6
CONTINUOUS
 62
     7
100
AcDbCircle
 10
445.8930622937
 20
226.9094824663
 30
0.0
 40
9.0
100
AcDbArc
 50
0.0
 51
90.0
  0
LINE
  5
79
330
1F
100
AcDbEntity
  8
0
  6
CONTINUOUS
 62
     7
100
AcDbLine
 10
454.8930623831
 20
226.9094844332
 30
0.0
 11
454.8930623831
 21
222.8094820848
 31
0.0
  0
LINE
  5
7A
330
1F
100
AcDbEntity
  8
0
  6
CONTINUOUS
 62
     7
100
AcDbLine
 10
454.8930623831
 20
222.8094820848
 30
0.0
 11
550.3930622043
 21
222.8094820848
 31
0.0
  0
ARC
  5
7B
330
1F
100
AcDbEntity
  8
0
  6
CONTINUOUS
 62
     7
100
AcDbCircle
 10
559.3930622937
 20
226.9094824663
 30
0.0
 40
9.0
100
AcDbArc
 50
90.0
 51
180.0
  0
LINE
  5
7C
330
1F
100
AcDbEntity
  8
0
  6
CONTINUOUS
 62
     7
100
AcDbLine
 10
563.49306044
 20
235.9094803205
 30
0.0
 11
563.49306044
 21
381.409484612
 31
0.0
  0
LINE
  5
7D
330
1F
100
AcDbEntity
  8
0
  6
CONTINUOUS
 62
     7
100
AcDbLine
 10
454.8930623831
 20
394.5094828477
 30
0.0
 11
454.8930623831
 21
390.4094804993
 31
0.0
  0
ARC
  5
7E
330
1F
100
AcDbEntity
  8
0
  6
CONTINUOUS
 62
     7
100
AcDbCircle
 10
445.8930622937
 20
390.4094824663
 30
0.0
 40
9.0
100
AcDbArc
 50
270.0
 51
0.0
  0
LINE
  5
7F
330
1F
100
AcDbEntity
  8
0
  6
CONTINUOUS
 62
     7
100
AcDbLine
 10
437.5930638315
 20
395.209479796
 30
0.0
 11
437.5930638315
 21
222.1094851366
 31
0.0
  0
LINE
  5
80
330
1F
100
AcDbEntity
  8
0
  6
CONTINUOUS
 62
     7
100
AcDbLine
 10
441.0930634738
 20
218.6094854942
 30
0.0
 11
564.1930611135
 21
218.6094854942
 31
0.0
  0
ARC
  5
81
330
1F
100
AcDbEntity
  8
0
  6
CONTINUOUS
 62
     7
100
AcDbCircle
 10
564.1930622937
 20
222.1094824663
 30
0.0
 40
3.5
100
AcDbArc
 50
270.0
 51
0.0
  0
LINE
  5
82
330
1F
100
AcDbEntity
  8
0
  6
CONTINUOUS
 62
     7
100
AcDbLine
 10
564.1930611135
 20
398.7094794384
 30
0.0
 11
441.0930634738
 21
398.7094794384
 31
0.0
  0
LINE
  5
83
330
1F
100
AcDbEntity
  8
0
  6
CONTINUOUS
 62
     7
100
AcDbLine
 10
442.1944977047
 20
381.0080473295
 30
0.0
 11
441.7930641474
 21
381.409484612
 31
0.0
  0
LINE
  5
84
330
1F
100
AcDbEntity
  8
0
  6
CONTINUOUS
 62
     7
100
AcDbLine
 10
442.1944977047
 20
381.0080473295
 30
0.0
 11
442.1944977047
 21
379.0094812384
 31
0.0
  0
LINE
  5
85
330
1F
100
AcDbEntity
  8
0
  6
CONTINUOUS
 62
     7
100
AcDbLine
 10
442.1944977047
 20
379.0094812384
 30
0.0
 11
442.412669331
 21
378.7913133374
 31
0.0
  0
LINE
  5
86
330
1F
100
AcDbEntity
  8
0
  6
CONTINUOUS
 62
     7
100
AcDbLine
 10
442.412669331
 20
378.7913133374
 30
0.0
 11
442.412669331
 21
238.5276515952
 31
0.0
  0
LINE
  5
87
330
1F
100
AcDbEntity
  8
0
  6
CONTINUOUS
 62
     7
100
AcDbLine
 10
442.1944977047
 20
238.3094836941
 30
0.0
 11
442.412669331
 21
238.5276515952
 31
0.0
  0
LINE
  5
88
330
1F
100
AcDbEntity
  8
0
  6
CONTINUOUS
 62
     7
100
AcDbLine
 10
442.1944977047
 20
238.3094836941
 30
0.0
 11
442.1944977047
 21
236.3109176031
 31
0.0
  0
LINE
  5
89
330
1F
100
AcDbEntity
  8
0
  6
CONTINUOUS
 62
     7
100
AcDbLine
 10
442.1944977047
 20
236.3109176031
 30
0.0
 11
441.7930641474
 21
235.9094803205
 31
0.0
  0
LINE
  5
8A
330
1F
100
AcDbEntity
  8
0
  6
CONTINUOUS
 62
     7
100
AcDbLine
 10
455.2805335523
 20
390.4234428874
 30
0.0
 11
455.2805335523
 21
391.9955228439
 31
0.0
  0
LINE
  5
8B
330
1F
100
AcDbEntity
  8
0
  6
CONTINUOUS
 62
     7
100
AcDbLine
 10
455.2805335523
 20
390.4234428874
 30
0.0
 11
455.2944996656
 21
390.4094804993
 31
0.0
  0
LINE
  5
8C
330
1F
100
AcDbEntity
  8
0
  6
CONTINUOUS
 62
     7
100
AcDbLine
 10
455.2944996656
 20
390.4094804993
 30
0.0
 11
454.8930623831
 21
390.4094804993
 31
0.0
  0
LINE
  5
8D
330
1F
100
AcDbEntity
  8
0
  6
CONTINUOUS
 62
     7
100
AcDbLine
 10
455.2944996656
 20
394.1080455652
 30
0.0
 11
455.2944996656
 21
392.0094852319
 31
0.0
  0
LINE
  5
8E
330
1F
100
AcDbEntity
  8
0
  6
CONTINUOUS
 62
     7
100
AcDbLine
 10
455.2944996656
 20
392.0094852319
 30
0.0
 11
455.2805335523
 21
391.9955228439
 31
0.0
  0
LINE
  5
8F
330
1F
100
AcDbEntity
  8
0
  6
CONTINUOUS
 62
     7
100
AcDbLine
 10
444.3070241512
 20
381.0220097175
 30
0.0
 11
445.8791003825
 21
381.0220097175
 31
0.0
  0
LINE
  5
90
330
1F
100
AcDbEntity
  8
0
  6
CONTINUOUS
 62
     7
100
AcDbLine
 10
444.3070241512
 20
381.0220097175
 30
0.0
 11
444.2930617632
 21
381.0080473295
 31
0.0
  0
LINE
  5
91
330
1F
100
AcDbEntity
  8
0
  6
CONTINUOUS
 62
     7
100
AcDbLine
 10
444.2930617632
 20
381.0080473295
 30
0.0
 11
442.1944977047
 21
381.0080473295
 31
0.0
  0
LINE
  5
92
330
1F
100
AcDbEntity
  8
0
  6
CONTINUOUS
 62
     7
100
AcDbLine
 10
445.8930627705
 20
381.0080473295
 30
0.0
 11
445.8930627705
 21
381.409484612
 31
0.0
  0
LINE
  5
93
330
1F
100
AcDbEntity
  8
0
  6
CONTINUOUS
 62
     7
100
AcDbLine
 10
445.8930627705
 20
381.0080473295
 30
0.0
 11
445.8791003825
 21
381.0220097175
 31
0.0
  0
ARC
  5
94
330
1F
100
AcDbEntity
  8
0
  6
CONTINUOUS
 62
     7
100
AcDbCircle
 10
559.3930622937
 20
226.9094824663
 30
0.0
 40
9.401435918374887
100
AcDbArc
 50
142.2348299182
 51
180.0
  0
LINE
  5
95
330
1F
100
AcDbEntity
  8
0
  6
CONTINUOUS
 62
     7
100
AcDbLine
 10
551.9609698357
 20
232.6671739092
 30
0.0
 11
552.4762184621
 21
232.6949571243
 31
0.0
  0
ARC
  5
96
330
1F
100
AcDbEntity
  8
0
  6
CONTINUOUS
 62
     7
100
AcDbCircle
 10
559.3930622937
 20
226.9094824663
 30
0.0
 40
9.01745373558153
100
AcDbArc
 50
129.9102078627
 51
140.0897921373
  0
LWPOLYLINE
  5
97
330
1F
100
AcDbEntity
  8
0
  6
CONTINUOUS
 62
     7
100
AcDbPolyline
 90
        3
 70
   128
 43
0.0
 10
553.6075891258
 20
233.8263277879
 10
553.6177666189
 20
234.0367843381
 10
553.6353723408
 20
234.3415726891
  0
ARC
  5
98
330
1F
100
AcDbEntity
  8
0
  6
CONTINUOUS
 62
     7
100
AcDbCircle
 10
559.3930622937
 20
226.9094824663
 30
0.0
 40
9.401435918374887
100
AcDbArc
 50
90.0
 51
127.7651700818
  0
LINE
  5
99
330
1F
100
AcDbEntity
  8
0
  6
CONTINUOUS
 62
     7
100
AcDbLine
 10
445.8930627705
 20
236.3109176031
 30
0.0
 11
445.8930627705
 21
235.9094803205
 31
0.0
  0
ARC
  5
9A
330
1F
100
AcDbEntity
  8
0
  6
CONTINUOUS
 62
     7
100
AcDbCircle
 10
445.8930622937
 20
226.9094824663
 30
0.0
 40
9.401435918374942
100
AcDbArc
 50
52.2348299182
 51
90.0
  0
LINE
  5
9B
330
1F
100
AcDbEntity
  8
0
  6
CONTINUOUS
 62
     7
100
AcDbLine
 10
451.6507522465
 20
234.3415726891
 30
0.0
 11
451.6785354616
 21
233.8263277879
 31
0.0
  0
ARC
  5
9C
330
1F
100
AcDbEntity
  8
0
  6
CONTINUOUS
 62
     7
100
AcDbCircle
 10
445.8930622937
 20
226.9094824663
 30
0.0
 40
9.017453735581558
100
AcDbArc
 50
39.9102078627
 51
50.0897921373
  0
LWPOLYLINE
  5
9D
330
1F
100
AcDbEntity
  8
0
  6
CONTINUOUS
 62
     7
100
AcDbPolyline
 90
        3
 70
   128
 43
0.0
 10
452.8099061252
 20
232.6949571243
 10
453.0203664006
 20
232.6847796312
 10
453.3251547517
 20
232.6671739092
  0
ARC
  5
9E
330
1F
100
AcDbEntity
  8
0
  6
CONTINUOUS
 62
     7
100
AcDbCircle
 10
445.8930622937
 20
226.9094824663
 30
0.0
 40
9.401435918374943
100
AcDbArc
 50
0.0
 51
37.7651700818
  0
LINE
  5
9F
330
1F
100
AcDbEntity
  8
0
  6
CONTINUOUS
 62
     7
100
AcDbLine
 10
455.2944996656
 20
226.9094844332
 30
0.0
 11
454.8930623831
 21
226.9094844332
 31
0.0
  0
LINE
  5
A0
330
1F
100
AcDbEntity
  8
0
  6
CONTINUOUS
 62
     7
100
AcDbLine
 10
562.8734552564
 20
238.5276515952
 30
0.0
 11
562.8734552564
 21
378.7913133374
 31
0.0
  0
LINE
  5
A1
330
1F
100
AcDbEntity
  8
0
  6
CONTINUOUS
 62
     7
100
AcDbLine
 10
563.0916268827
 20
379.0094812384
 30
0.0
 11
562.8734552564
 21
378.7913133374
 31
0.0
  0
LINE
  5
A2
330
1F
100
AcDbEntity
  8
0
  6
CONTINUOUS
 62
     7
100
AcDbLine
 10
563.0916268827
 20
379.0094812384
 30
0.0
 11
563.0916268827
 21
381.0080473295
 31
0.0
  0
LINE
  5
A3
330
1F
100
AcDbEntity
  8
0
  6
CONTINUOUS
 62
     7
100
AcDbLine
 10
563.0916268827
 20
236.3109176031
 30
0.0
 11
563.0916268827
 21
238.3094836941
 31
0.0
  0
LINE
  5
A4
330
1F
100
AcDbEntity
  8
0
  6
CONTINUOUS
 62
     7
100
AcDbLine
 10
563.0916268827
 20
238.3094836941
 30
0.0
 11
562.8734552564
 21
238.5276515952
 31
0.0
  0
ARC
  5
A5
330
1F
100
AcDbEntity
  8
0
  6
CONTINUOUS
 62
     7
100
AcDbCircle
 10
445.8930622937
 20
390.4094824663
 30
0.0
 40
9.401435918374917
100
AcDbArc
 50
322.2348299182
 51
0.0
  0
LINE
  5
A6
330
1F
100
AcDbEntity
  8
0
  6
CONTINUOUS
 62
     7
100
AcDbLine
 10
453.3251547517
 20
384.6517910233
 30
0.0
 11
452.8099061252
 21
384.6240078083
 31
0.0
  0
ARC
  5
A7
330
1F
100
AcDbEntity
  8
0
  6
CONTINUOUS
 62
     7
100
AcDbCircle
 10
445.8930622937
 20
390.4094824663
 30
0.0
 40
9.017453735581544
100
AcDbArc
 50
309.9102078627
 51
320.0897921373
  0
LWPOLYLINE
  5
A8
330
1F
100
AcDbEntity
  8
0
  6
CONTINUOUS
 62
     7
100
AcDbPolyline
 90
        3
 70
   128
 43
0.0
 10
451.6785354616
 20
383.4926371446
 10
451.6683579685
 20
383.2821805945
 10
451.6507522465
 20
382.9773922434
  0
ARC
  5
A9
330
1F
100
AcDbEntity
  8
0
  6
CONTINUOUS
 62
     7
100
AcDbCircle
 10
445.8930622937
 20
390.4094824663
 30
0.0
 40
9.401435918374943
100
AcDbArc
 50
270.0
 51
307.7651700818
  0
LINE
  5
AA
330
1F
100
AcDbEntity
  8
0
  6
CONTINUOUS
 62
     7
100
AcDbLine
 10
442.1944977047
 20
236.3109176031
 30
0.0
 11
444.2930617632
 21
236.3109176031
 31
0.0
  0
LINE
  5
AB
330
1F
100
AcDbEntity
  8
0
  6
CONTINUOUS
 62
     7
100
AcDbLine
 10
444.3070241512
 20
236.296955215
 30
0.0
 11
444.2930617632
 21
236.3109176031
 31
0.0
  0
LINE
  5
AC
330
1F
100
AcDbEntity
  8
0
  6
CONTINUOUS
 62
     7
100
AcDbLine
 10
445.8791003825
 20
236.296955215
 30
0.0
 11
444.3070241512
 21
236.296955215
 31
0.0
  0
LINE
  5
AD
330
1F
100
AcDbEntity
  8
0
  6
CONTINUOUS
 62
     7
100
AcDbLine
 10
445.8930627705
 20
236.3109176031
 30
0.0
 11
445.8791003825
 21
236.296955215
 31
0.0
  0
LINE
  5
AE
330
1F
100
AcDbEntity
  8
0
  6
CONTINUOUS
 62
     7
100
AcDbLine
 10
457.5112336577
 20
223.4290872684
 30
0.0
 11
547.7748909296
 21
223.4290872684
 31
0.0
  0
LINE
  5
AF
330
1F
100
AcDbEntity
  8
0
  6
CONTINUOUS
 62
     7
100
AcDbLine
 10
547.7748909296
 20
223.4290872684
 30
0.0
 11
547.9930625559
 21
223.2109193674
 31
0.0
  0
LINE
  5
B0
330
1F
100
AcDbEntity
  8
0
  6
CONTINUOUS
 62
     7
100
AcDbLine
 10
547.9930625559
 20
223.2109193674
 30
0.0
 11
549.9916249217
 21
223.2109193674
 31
0.0
  0
LINE
  5
B1
330
1F
100
AcDbEntity
  8
0
  6
CONTINUOUS
 62
     7
100
AcDbLine
 10
455.2944996656
 20
223.2109193674
 30
0.0
 11
454.8930623831
 21
222.8094820848
 31
0.0
  0
LINE
  5
B2
330
1F
100
AcDbEntity
  8
0
  6
CONTINUOUS
 62
     7
100
AcDbLine
 10
455.2944996656
 20
223.2109193674
 30
0.0
 11
457.2930620314
 21
223.2109193674
 31
0.0
  0
LINE
  5
B3
330
1F
100
AcDbEntity
  8
0
  6
CONTINUOUS
 62
     7
100
AcDbLine
 10
457.5112336577
 20
223.4290872684
 30
0.0
 11
457.2930620314
 21
223.2109193674
 31
0.0
  0
LINE
  5
B4
330
1F
100
AcDbEntity
  8
0
  6
CONTINUOUS
 62
     7
100
AcDbLine
 10
455.2944996656
 20
225.3094797006
 30
0.0
 11
455.2805335523
 21
225.3234420887
 31
0.0
  0
LINE
  5
B5
330
1F
100
AcDbEntity
  8
0
  6
CONTINUOUS
 62
     7
100
AcDbLine
 10
455.2944996656
 20
225.3094797006
 30
0.0
 11
455.2944996656
 21
223.2109193674
 31
0.0
  0
LINE
  5
B6
330
1F
100
AcDbEntity
  8
0
  6
CONTINUOUS
 62
     7
100
AcDbLine
 10
455.2805335523
 20
226.8955220452
 30
0.0
 11
455.2944996656
 21
226.9094844332
 31
0.0
  0
LINE
  5
B7
330
1F
100
AcDbEntity
  8
0
  6
CONTINUOUS
 62
     7
100
AcDbLine
 10
455.2805335523
 20
225.3234420887
 30
0.0
 11
455.2805335523
 21
226.8955220452
 31
0.0
  0
ARC
  5
B8
330
1F
100
AcDbEntity
  8
0
  6
CONTINUOUS
 62
     7
100
AcDbCircle
 10
559.3930622937
 20
226.9094824663
 30
0.0
 40
11.0
100
AcDbArc
 50
130.8293520881
 51
139.1706479119
  0
LINE
  5
B9
330
1F
100
AcDbEntity
  8
0
  6
CONTINUOUS
 62
     7
100
AcDbLine
 10
553.6075891258
 20
233.8263277879
 30
0.0
 11
552.2011691035
 21
235.2327440849
 31
0.0
  0
LINE
  5
BA
330
1F
100
AcDbEntity
  8
0
  6
CONTINUOUS
 62
     7
100
AcDbLine
 10
551.0697984399
 20
234.1013734212
 30
0.0
 11
552.4762184621
 21
232.6949571243
 31
0.0
  0
LINE
  5
BB
330
1F
100
AcDbEntity
  8
0
  6
CONTINUOUS
 62
     7
100
AcDbLine
 10
552.2242286505
 20
235.7527201048
 30
0.0
 11
552.2011691035
 21
235.2327440849
 31
0.0
  0
LINE
  5
BC
330
1F
100
AcDbEntity
  8
0
  6
CONTINUOUS
 62
     7
100
AcDbLine
 10
553.6353723408
 20
234.3415726891
 30
0.0
 11
552.2242286505
 21
235.7527201048
 31
0.0
  0
LINE
  5
BD
330
1F
100
AcDbEntity
  8
0
  6
CONTINUOUS
 62
     7
100
AcDbLine
 10
454.7363021673
 20
234.0783138743
 30
0.0
 11
454.2163261475
 21
234.1013734212
 31
0.0
  0
ARC
  5
BE
330
1F
100
AcDbEntity
  8
0
  6
CONTINUOUS
 62
     7
100
AcDbCircle
 10
445.8930622937
 20
226.9094824663
 30
0.0
 40
11.00000000000003
100
AcDbArc
 50
40.8293520881
 51
49.1706479119
  0
LINE
  5
BF
330
1F
100
AcDbEntity
  8
0
  6
CONTINUOUS
 62
     7
100
AcDbLine
 10
453.0618959369
 20
235.7527201048
 30
0.0
 11
453.0849554838
 21
235.2327440849
 31
0.0
  0
ARC
  5
C0
330
1F
100
AcDbEntity
  8
0
  6
CONTINUOUS
 62
     7
100
AcDbCircle
 10
445.8930622937
 20
226.9094824663
 30
0.0
 40
11.38398218279344
100
AcDbArc
 50
39.0302015666
 51
50.9697984334
  0
LINE
  5
C1
330
1F
100
AcDbEntity
  8
0
  6
CONTINUOUS
 62
     7
100
AcDbLine
 10
550.54982242
 20
383.2406510583
 30
0.0
 11
551.0697984399
 21
383.2175915113
 31
0.0
  0
ARC
  5
C2
330
1F
100
AcDbEntity
  8
0
  6
CONTINUOUS
 62
     7
100
AcDbCircle
 10
559.3930622937
 20
390.4094824663
 30
0.0
 40
11.0
100
AcDbArc
 50
220.8293520881
 51
229.1706479119
  0
LINE
  5
C3
330
1F
100
AcDbEntity
  8
0
  6
CONTINUOUS
 62
     7
100
AcDbLine
 10
552.2242286505
 20
381.5662448278
 30
0.0
 11
552.2011691035
 21
382.0862208477
 31
0.0
  0
ARC
  5
C4
330
1F
100
AcDbEntity
  8
0
  6
CONTINUOUS
 62
     7
100
AcDbCircle
 10
559.3930622937
 20
390.4094824663
 30
0.0
 40
11.38398218279338
100
AcDbArc
 50
219.0302015666
 51
230.9697984334
  0
LINE
  5
C5
330
1F
100
AcDbEntity
  8
0
  6
CONTINUOUS
 62
     7
100
AcDbLine
 10
552.4762184621
 20
384.6240078083
 30
0.0
 11
551.0697984399
 21
383.2175915113
 31
0.0
  0
LINE
  5
C6
330
1F
100
AcDbEntity
  8
0
  6
CONTINUOUS
 62
     7
100
AcDbLine
 10
551.9609698357
 20
384.6517910233
 30
0.0
 11
550.54982242
 21
383.2406510583
 31
0.0
  0
LINE
  5
C7
330
1F
100
AcDbEntity
  8
0
  6
CONTINUOUS
 62
     7
100
AcDbLine
 10
453.0849554838
 20
235.2327440849
 30
0.0
 11
451.6785354616
 21
233.8263277879
 31
0.0
  0
LINE
  5
C8
330
1F
100
AcDbEntity
  8
0
  6
CONTINUOUS
 62
     7
100
AcDbLine
 10
452.8099061252
 20
232.6949571243
 30
0.0
 11
454.2163261475
 21
234.1013734212
 31
0.0
  0
ARC
  5
C9
330
1F
100
AcDbEntity
  8
0
  6
CONTINUOUS
 62
     7
100
AcDbCircle
 10
445.8930622937
 20
390.4094824663
 30
0.0
 40
11.0
100
AcDbArc
 50
310.8293520881
 51
319.1706479119
  0
LINE
  5
CA
330
1F
100
AcDbEntity
  8
0
  6
CONTINUOUS
 62
     7
100
AcDbLine
 10
451.6785354616
 20
383.4926371446
 30
0.0
 11
453.0849554838
 21
382.0862208477
 31
0.0
  0
LINE
  5
CB
330
1F
100
AcDbEntity
  8
0
  6
CONTINUOUS
 62
     7
100
AcDbLine
 10
454.2163261475
 20
383.2175915113
 30
0.0
 11
452.8099061252
 21
384.6240078083
 31
0.0
  0
LINE
  5
CC
330
1F
100
AcDbEntity
  8
0
  6
CONTINUOUS
 62
     7
100
AcDbLine
 10
550.54982242
 20
234.0783138743
 30
0.0
 11
551.0697984399
 21
234.1013734212
 31
0.0
  0
LINE
  5
CD
330
1F
100
AcDbEntity
  8
0
  6
CONTINUOUS
 62
     7
100
AcDbLine
 10
550.54982242
 20
234.0783138743
 30
0.0
 11
551.9609698357
 21
232.6671739092
 31
0.0
  0
LINE
  5
CE
330
1F
100
AcDbEntity
  8
0
  6
CONTINUOUS
 62
     7
100
AcDbLine
 10
454.7363021673
 20
383.2406510583
 30
0.0
 11
454.2163261475
 21
383.2175915113
 31
0.0
  0
LINE
  5
CF
330
1F
100
AcDbEntity
  8
0
  6
CONTINUOUS
 62
     7
100
AcDbLine
 10
454.7363021673
 20
383.2406510583
 30
0.0
 11
453.3251547517
 21
384.6517910233
 31
0.0
  0
LINE
  5
D0
330
1F
100
AcDbEntity
  8
0
  6
CONTINUOUS
 62
     7
100
AcDbLine
 10
552.2011691035
 20
382.0862208477
 30
0.0
 11
553.6075891258
 21
383.4926371446
 31
0.0
  0
LINE
  5
D1
330
1F
100
AcDbEntity
  8
0
  6
CONTINUOUS
 62
     7
100
AcDbLine
 10
552.2242286505
 20
381.5662448278
 30
0.0
 11
553.6353723408
 21
382.9773922434
 31
0.0
  0
LINE
  5
D2
330
1F
100
AcDbEntity
  8
0
  6
CONTINUOUS
 62
     7
100
AcDbLine
 10
453.3251547517
 20
232.6671739092
 30
0.0
 11
454.7363021673
 21
234.0783138743
 31
0.0
  0
LINE
  5
D3
330
1F
100
AcDbEntity
  8
0
  6
CONTINUOUS
 62
     7
100
AcDbLine
 10
453.0618959369
 20
235.7527201048
 30
0.0
 11
451.6507522465
 21
234.3415726891
 31
0.0
  0
LINE
  5
D4
330
1F
100
AcDbEntity
  8
0
  6
CONTINUOUS
 62
     7
100
AcDbLine
 10
453.0618959369
 20
381.5662448278
 30
0.0
 11
453.0849554838
 21
382.0862208477
 31
0.0
  0
ARC
  5
D5
330
1F
100
AcDbEntity
  8
0
  6
CONTINUOUS
 62
     7
100
AcDbCircle
 10
445.8930622937
 20
390.4094824663
 30
0.0
 40
11.38398218279341
100
AcDbArc
 50
309.0302015666
 51
320.9697984334
  0
ARC
  5
D6
330
1F
100
AcDbEntity
  8
0
  6
CONTINUOUS
 62
     7
100
AcDbCircle
 10
559.3930622937
 20
226.9094824663
 30
0.0
 40
11.38398218279338
100
AcDbArc
 50
129.0302015666
 51
140.9697984334
  0
LINE
  5
D7
330
1F
100
AcDbEntity
  8
0
  6
CONTINUOUS
 62
     7
100
AcDbLine
 10
451.6507522465
 20
382.9773922434
 30
0.0
 11
453.0618959369
 21
381.5662448278
 31
0.0
  0
LINE
  5
D8
330
1F
100
AcDbEntity
  8
0
  6
CONTINUOUS
 62
     7
100
AcDbLine
 10
457.2790996434
 20
391.9955228439
 30
0.0
 11
455.2805335523
 21
391.9955228439
 31
0.0
  0
LINE
  5
D9
330
1F
100
AcDbEntity
  8
0
  6
CONTINUOUS
 62
     7
100
AcDbLine
 10
457.2790996434
 20
390.4234428874
 30
0.0
 11
457.2790996434
 21
391.9955228439
 31
0.0
  0
LINE
  5
DA
330
1F
100
AcDbEntity
  8
0
  6
CONTINUOUS
 62
     7
100
AcDbLine
 10
455.2805335523
 20
390.4234428874
 30
0.0
 11
457.2790996434
 21
390.4234428874
 31
0.0
  0
LINE
  5
DB
330
1F
100
AcDbEntity
  8
0
  6
CONTINUOUS
 62
     7
100
AcDbLine
 10
455.2944996656
 20
226.9094844332
 30
0.0
 11
457.2930620314
 21
226.9094844332
 31
0.0
  0
LINE
  5
DC
330
1F
100
AcDbEntity
  8
0
  6
CONTINUOUS
 62
     7
100
AcDbLine
 10
457.2790996434
 20
226.8955220452
 30
0.0
 11
457.2930620314
 21
226.9094844332
 31
0.0
  0
LINE
  5
DD
330
1F
100
AcDbEntity
  8
0
  6
CONTINUOUS
 62
     7
100
AcDbLine
 10
455.2805335523
 20
226.8955220452
 30
0.0
 11
457.2790996434
 21
226.8955220452
 31
0.0
  0
LINE
  5
DE
330
1F
100
AcDbEntity
  8
0
  6
CONTINUOUS
 62
     7
100
AcDbLine
 10
548.007024944
 20
226.8955220452
 30
0.0
 11
547.9930625559
 21
226.9094844332
 31
0.0
  0
LINE
  5
DF
330
1F
100
AcDbEntity
  8
0
  6
CONTINUOUS
 62
     7
100
AcDbLine
 10
549.9916249217
 20
226.9094844332
 30
0.0
 11
547.9930625559
 21
226.9094844332
 31
0.0
  0
LINE
  5
E0
330
1F
100
AcDbEntity
  8
0
  6
CONTINUOUS
 62
     7
100
AcDbLine
 10
550.005591035
 20
226.8955220452
 30
0.0
 11
548.007024944
 21
226.8955220452
 31
0.0
  0
LINE
  5
E1
330
1F
100
AcDbEntity
  8
0
  6
CONTINUOUS
 62
     7
100
AcDbLine
 10
548.007024944
 20
225.3234420887
 30
0.0
 11
550.005591035
 21
225.3234420887
 31
0.0
  0
LINE
  5
E2
330
1F
100
AcDbEntity
  8
0
  6
CONTINUOUS
 62
     7
100
AcDbLine
 10
548.007024944
 20
226.8955220452
 30
0.0
 11
548.007024944
 21
225.3234420887
 31
0.0
  0
LINE
  5
E3
330
1F
100
AcDbEntity
  8
0
  6
CONTINUOUS
 62
     7
100
AcDbLine
 10
457.2790996434
 20
391.9955228439
 30
0.0
 11
457.2930620314
 21
392.0094852319
 31
0.0
  0
LINE
  5
E4
330
1F
100
AcDbEntity
  8
0
  6
CONTINUOUS
 62
     7
100
AcDbLine
 10
457.2930620314
 20
392.0094852319
 30
0.0
 11
455.2944996656
 21
392.0094852319
 31
0.0
  0
LINE
  5
E5
330
1F
100
AcDbEntity
  8
0
  6
CONTINUOUS
 62
     7
100
AcDbLine
 10
548.007024944
 20
225.3234420887
 30
0.0
 11
547.9930625559
 21
225.3094797006
 31
0.0
  0
LINE
  5
E6
330
1F
100
AcDbEntity
  8
0
  6
CONTINUOUS
 62
     7
100
AcDbLine
 10
547.9930625559
 20
225.3094797006
 30
0.0
 11
549.9916249217
 21
225.3094797006
 31
0.0
  0
LINE
  5
E7
330
1F
100
AcDbEntity
  8
0
  6
CONTINUOUS
 62
     7
100
AcDbLine
 10
444.3070241512
 20
379.0234436265
 30
0.0
 11
444.2930617632
 21
379.0094812384
 31
0.0
  0
LINE
  5
E8
330
1F
100
AcDbEntity
  8
0
  6
CONTINUOUS
 62
     7
100
AcDbLine
 10
444.2930617632
 20
381.0080473295
 30
0.0
 11
444.2930617632
 21
379.0094812384
 31
0.0
  0
LINE
  5
E9
330
1F
100
AcDbEntity
  8
0
  6
CONTINUOUS
 62
     7
100
AcDbLine
 10
444.3070241512
 20
381.0220097175
 30
0.0
 11
444.3070241512
 21
379.0234436265
 31
0.0
  0
LINE
  5
EA
330
1F
100
AcDbEntity
  8
0
  6
CONTINUOUS
 62
     7
100
AcDbLine
 10
442.1944977047
 20
379.0094812384
 30
0.0
 11
444.2930617632
 21
379.0094812384
 31
0.0
  0
LINE
  5
EB
330
1F
100
AcDbEntity
  8
0
  6
CONTINUOUS
 62
     7
100
AcDbLine
 10
444.3070241512
 20
379.0234436265
 30
0.0
 11
445.8791003825
 21
379.0234436265
 31
0.0
  0
LINE
  5
EC
330
1F
100
AcDbEntity
  8
0
  6
CONTINUOUS
 62
     7
100
AcDbLine
 10
445.8791003825
 20
379.0234436265
 30
0.0
 11
445.8930627705
 21
379.0094812384
 31
0.0
  0
LINE
  5
ED
330
1F
100
AcDbEntity
  8
0
  6
CONTINUOUS
 62
     7
100
AcDbLine
 10
445.8930627705
 20
378.7913133374
 30
0.0
 11
445.8930627705
 21
379.0094812384
 31
0.0
  0
LINE
  5
EE
330
1F
100
AcDbEntity
  8
0
  6
CONTINUOUS
 62
     7
100
AcDbLine
 10
442.412669331
 20
378.7913133374
 30
0.0
 11
445.8930627705
 21
378.7913133374
 31
0.0
  0
LINE
  5
EF
330
1F
100
AcDbEntity
  8
0
  6
CONTINUOUS
 62
     7
100
AcDbLine
 10
547.9930625559
 20
225.3094797006
 30
0.0
 11
547.9930625559
 21
223.2109193674
 31
0.0
  0
LINE
  5
F0
330
1F
100
AcDbEntity
  8
0
  6
CONTINUOUS
 62
     7
100
AcDbLine
 10
547.7748909296
 20
226.9094844332
 30
0.0
 11
547.7748909296
 21
223.4290872684
 31
0.0
  0
LINE
  5
F1
330
1F
100
AcDbEntity
  8
0
  6
CONTINUOUS
 62
     7
100
AcDbLine
 10
547.7748909296
 20
226.9094844332
 30
0.0
 11
547.9930625559
 21
226.9094844332
 31
0.0
  0
LINE
  5
F2
330
1F
100
AcDbEntity
  8
0
  6
CONTINUOUS
 62
     7
100
AcDbLine
 10
548.007024944
 20
391.9955228439
 30
0.0
 11
550.005591035
 21
391.9955228439
 31
0.0
  0
LINE
  5
F3
330
1F
100
AcDbEntity
  8
0
  6
CONTINUOUS
 62
     7
100
AcDbLine
 10
548.007024944
 20
391.9955228439
 30
0.0
 11
547.9930625559
 21
392.0094852319
 31
0.0
  0
LINE
  5
F4
330
1F
100
AcDbEntity
  8
0
  6
CONTINUOUS
 62
     7
100
AcDbLine
 10
547.9930625559
 20
392.0094852319
 30
0.0
 11
549.9916249217
 21
392.0094852319
 31
0.0
  0
LINE
  5
F5
330
1F
100
AcDbEntity
  8
0
  6
CONTINUOUS
 62
     7
100
AcDbLine
 10
457.2790996434
 20
390.4234428874
 30
0.0
 11
457.2930620314
 21
390.4094804993
 31
0.0
  0
LINE
  5
F6
330
1F
100
AcDbEntity
  8
0
  6
CONTINUOUS
 62
     7
100
AcDbLine
 10
455.2944996656
 20
390.4094804993
 30
0.0
 11
457.2930620314
 21
390.4094804993
 31
0.0
  0
LINE
  5
F7
330
1F
100
AcDbEntity
  8
0
  6
CONTINUOUS
 62
     7
100
AcDbLine
 10
560.9791004361
 20
381.0220097175
 30
0.0
 11
560.9791004361
 21
379.0234436265
 31
0.0
  0
LINE
  5
F8
330
1F
100
AcDbEntity
  8
0
  6
CONTINUOUS
 62
     7
100
AcDbLine
 10
560.9791004361
 20
379.0234436265
 30
0.0
 11
559.4070242049
 21
379.0234436265
 31
0.0
  0
LINE
  5
F9
330
1F
100
AcDbEntity
  8
0
  6
CONTINUOUS
 62
     7
100
AcDbLine
 10
559.4070242049
 20
379.0234436265
 30
0.0
 11
559.4070242049
 21
381.0220097175
 31
0.0
  0
LINE
  5
FA
330
1F
100
AcDbEntity
  8
0
  6
CONTINUOUS
 62
     7
100
AcDbLine
 10
445.8791003825
 20
379.0234436265
 30
0.0
 11
445.8791003825
 21
381.0220097175
 31
0.0
  0
LINE
  5
FB
330
1F
100
AcDbEntity
  8
0
  6
CONTINUOUS
 62
     7
100
AcDbLine
 10
445.8930627705
 20
379.0094812384
 30
0.0
 11
445.8930627705
 21
381.0080473295
 31
0.0
  0
LINE
  5
FC
330
1F
100
AcDbEntity
  8
0
  6
CONTINUOUS
 62
     7
100
AcDbLine
 10
559.4070242049
 20
379.0234436265
 30
0.0
 11
559.3930618168
 21
379.0094812384
 31
0.0
  0
LINE
  5
FD
330
1F
100
AcDbEntity
  8
0
  6
CONTINUOUS
 62
     7
100
AcDbLine
 10
559.3930618168
 20
379.0094812384
 30
0.0
 11
559.3930618168
 21
381.0080473295
 31
0.0
  0
LINE
  5
FE
330
1F
100
AcDbEntity
  8
0
  6
CONTINUOUS
 62
     7
100
AcDbLine
 10
559.4070242049
 20
238.2955213061
 30
0.0
 11
559.4070242049
 21
236.296955215
 31
0.0
  0
LINE
  5
FF
330
1F
100
AcDbEntity
  8
0
  6
CONTINUOUS
 62
     7
100
AcDbLine
 10
560.9791004361
 20
238.2955213061
 30
0.0
 11
559.4070242049
 21
238.2955213061
 31
0.0
  0
LINE
  5
100
330
1F
100
AcDbEntity
  8
0
  6
CONTINUOUS
 62
     7
100
AcDbLine
 10
560.9791004361
 20
236.296955215
 30
0.0
 11
560.9791004361
 21
238.2955213061
 31
0.0
  0
LINE
  5
101
330
1F
100
AcDbEntity
  8
0
  6
CONTINUOUS
 62
     7
100
AcDbLine
 10
550.005591035
 20
390.4234428874
 30
0.0
 11
548.007024944
 21
390.4234428874
 31
0.0
  0
LINE
  5
102
330
1F
100
AcDbEntity
  8
0
  6
CONTINUOUS
 62
     7
100
AcDbLine
 10
548.007024944
 20
390.4234428874
 30
0.0
 11
548.007024944
 21
391.9955228439
 31
0.0
  0
LINE
  5
103
330
1F
100
AcDbEntity
  8
0
  6
CONTINUOUS
 62
     7
100
AcDbLine
 10
563.0916268827
 20
238.3094836941
 30
0.0
 11
560.9930628242
 21
238.3094836941
 31
0.0
  0
LINE
  5
104
330
1F
100
AcDbEntity
  8
0
  6
CONTINUOUS
 62
     7
100
AcDbLine
 10
560.9791004361
 20
238.2955213061
 30
0.0
 11
560.9930628242
 21
238.3094836941
 31
0.0
  0
LINE
  5
105
330
1F
100
AcDbEntity
  8
0
  6
CONTINUOUS
 62
     7
100
AcDbLine
 10
559.4070242049
 20
238.2955213061
 30
0.0
 11
559.3930618168
 21
238.3094836941
 31
0.0
  0
LINE
  5
106
330
1F
100
AcDbEntity
  8
0
  6
CONTINUOUS
 62
     7
100
AcDbLine
 10
559.3930618168
 20
238.5276515952
 30
0.0
 11
559.3930618168
 21
238.3094836941
 31
0.0
  0
LINE
  5
107
330
1F
100
AcDbEntity
  8
0
  6
CONTINUOUS
 62
     7
100
AcDbLine
 10
562.8734552564
 20
238.5276515952
 30
0.0
 11
559.3930618168
 21
238.5276515952
 31
0.0
  0
LINE
  5
108
330
1F
100
AcDbEntity
  8
0
  6
CONTINUOUS
 62
     7
100
AcDbLine
 10
457.2930620314
 20
225.3094797006
 30
0.0
 11
457.2930620314
 21
223.2109193674
 31
0.0
  0
LINE
  5
109
330
1F
100
AcDbEntity
  8
0
  6
CONTINUOUS
 62
     7
100
AcDbLine
 10
457.2790996434
 20
225.3234420887
 30
0.0
 11
457.2930620314
 21
225.3094797006
 31
0.0
  0
LINE
  5
10A
330
1F
100
AcDbEntity
  8
0
  6
CONTINUOUS
 62
     7
100
AcDbLine
 10
457.2790996434
 20
226.8955220452
 30
0.0
 11
457.2790996434
 21
225.3234420887
 31
0.0
  0
LINE
  5
10B
330
1F
100
AcDbEntity
  8
0
  6
CONTINUOUS
 62
     7
100
AcDbLine
 10
457.5112336577
 20
226.9094844332
 30
0.0
 11
457.2930620314
 21
226.9094844332
 31
0.0
  0
LINE
  5
10C
330
1F
100
AcDbEntity
  8
0
  6
CONTINUOUS
 62
     7
100
AcDbLine
 10
457.5112336577
 20
226.9094844332
 30
0.0
 11
457.5112336577
 21
223.4290872684
 31
0.0
  0
LINE
  5
10D
330
1F
100
AcDbEntity
  8
0
  6
CONTINUOUS
 62
     7
100
AcDbLine
 10
457.2790996434
 20
225.3234420887
 30
0.0
 11
455.2805335523
 21
225.3234420887
 31
0.0
  0
LINE
  5
10E
330
1F
100
AcDbEntity
  8
0
  6
CONTINUOUS
 62
     7
100
AcDbLine
 10
560.9930628242
 20
236.3109176031
 30
0.0
 11
560.9930628242
 21
238.3094836941
 31
0.0
  0
LINE
  5
10F
330
1F
100
AcDbEntity
  8
0
  6
CONTINUOUS
 62
     7
100
AcDbLine
 10
559.3930618168
 20
238.3094836941
 30
0.0
 11
559.3930618168
 21
236.3109176031
 31
0.0
  0
LINE
  5
110
330
1F
100
AcDbEntity
  8
0
  6
CONTINUOUS
 62
     7
100
AcDbLine
 10
457.2930620314
 20
225.3094797006
 30
0.0
 11
455.2944996656
 21
225.3094797006
 31
0.0
  0
LINE
  5
111
330
1F
100
AcDbEntity
  8
0
  6
CONTINUOUS
 62
     7
100
AcDbLine
 10
560.9930628242
 20
381.0080473295
 30
0.0
 11
560.9930628242
 21
379.0094812384
 31
0.0
  0
LINE
  5
112
330
1F
100
AcDbEntity
  8
0
  6
CONTINUOUS
 62
     7
100
AcDbLine
 10
560.9791004361
 20
379.0234436265
 30
0.0
 11
560.9930628242
 21
379.0094812384
 31
0.0
  0
LINE
  5
113
330
1F
100
AcDbEntity
  8
0
  6
CONTINUOUS
 62
     7
100
AcDbLine
 10
444.3070241512
 20
236.296955215
 30
0.0
 11
444.3070241512
 21
238.2955213061
 31
0.0
  0
LINE
  5
114
330
1F
100
AcDbEntity
  8
0
  6
CONTINUOUS
 62
     7
100
AcDbLine
 10
444.3070241512
 20
238.2955213061
 30
0.0
 11
445.8791003825
 21
238.2955213061
 31
0.0
  0
LINE
  5
115
330
1F
100
AcDbEntity
  8
0
  6
CONTINUOUS
 62
     7
100
AcDbLine
 10
445.8791003825
 20
238.2955213061
 30
0.0
 11
445.8791003825
 21
236.296955215
 31
0.0
  0
LINE
  5
116
330
1F
100
AcDbEntity
  8
0
  6
CONTINUOUS
 62
     7
100
AcDbLine
 10
444.2930617632
 20
236.3109176031
 30
0.0
 11
444.2930617632
 21
238.3094836941
 31
0.0
  0
LINE
  5
117
330
1F
100
AcDbEntity
  8
0
  6
CONTINUOUS
 62
     7
100
AcDbLine
 10
444.3070241512
 20
238.2955213061
 30
0.0
 11
444.2930617632
 21
238.3094836941
 31
0.0
  0
LINE
  5
118
330
1F
100
AcDbEntity
  8
0
  6
CONTINUOUS
 62
     7
100
AcDbLine
 10
445.8930627705
 20
238.5276515952
 30
0.0
 11
445.8930627705
 21
238.3094836941
 31
0.0
  0
LINE
  5
119
330
1F
100
AcDbEntity
  8
0
  6
CONTINUOUS
 62
     7
100
AcDbLine
 10
445.8791003825
 20
238.2955213061
 30
0.0
 11
445.8930627705
 21
238.3094836941
 31
0.0
  0
LINE
  5
11A
330
1F
100
AcDbEntity
  8
0
  6
CONTINUOUS
 62
     7
100
AcDbLine
 10
442.1944977047
 20
238.3094836941
 30
0.0
 11
444.2930617632
 21
238.3094836941
 31
0.0
  0
LINE
  5
11B
330
1F
100
AcDbEntity
  8
0
  6
CONTINUOUS
 62
     7
100
AcDbLine
 10
442.412669331
 20
238.5276515952
 30
0.0
 11
445.8930627705
 21
238.5276515952
 31
0.0
  0
LINE
  5
11C
330
1F
100
AcDbEntity
  8
0
  6
CONTINUOUS
 62
     7
100
AcDbLine
 10
549.9916249217
 20
390.4094804993
 30
0.0
 11
547.9930625559
 21
390.4094804993
 31
0.0
  0
LINE
  5
11D
330
1F
100
AcDbEntity
  8
0
  6
CONTINUOUS
 62
     7
100
AcDbLine
 10
548.007024944
 20
390.4234428874
 30
0.0
 11
547.9930625559
 21
390.4094804993
 31
0.0
  0
LINE
  5
11E
330
1F
100
AcDbEntity
  8
0
  6
CONTINUOUS
 62
     7
100
AcDbLine
 10
445.8930627705
 20
238.3094836941
 30
0.0
 11
445.8930627705
 21
236.3109176031
 31
0.0
  0
LINE
  5
11F
330
1F
100
AcDbEntity
  8
0
  6
CONTINUOUS
 62
     7
100
AcDbLine
 10
457.2930620314
 20
392.0094852319
 30
0.0
 11
457.2930620314
 21
394.1080455652
 31
0.0
  0
LINE
  5
120
330
1F
100
AcDbEntity
  8
0
  6
CONTINUOUS
 62
     7
100
AcDbLine
 10
457.5112336577
 20
390.4094804993
 30
0.0
 11
457.5112336577
 21
393.8898776641
 31
0.0
  0
LINE
  5
121
330
1F
100
AcDbEntity
  8
0
  6
CONTINUOUS
 62
     7
100
AcDbLine
 10
457.5112336577
 20
390.4094804993
 30
0.0
 11
457.2930620314
 21
390.4094804993
 31
0.0
  0
LINE
  5
122
330
1F
100
AcDbEntity
  8
0
  6
CONTINUOUS
 62
     7
100
AcDbLine
 10
547.9930625559
 20
392.0094852319
 30
0.0
 11
547.9930625559
 21
394.1080455652
 31
0.0
  0
LINE
  5
123
330
1F
100
AcDbEntity
  8
0
  6
CONTINUOUS
 62
     7
100
AcDbLine
 10
547.7748909296
 20
390.4094804993
 30
0.0
 11
547.9930625559
 21
390.4094804993
 31
0.0
  0
LINE
  5
124
330
1F
100
AcDbEntity
  8
0
  6
CONTINUOUS
 62
     7
100
AcDbLine
 10
547.7748909296
 20
390.4094804993
 30
0.0
 11
547.7748909296
 21
393.8898776641
 31
0.0
  0
LINE
  5
125
330
1F
100
AcDbEntity
  8
0
  6
CONTINUOUS
 62
     7
100
AcDbLine
 10
559.3930618168
 20
378.7913133374
 30
0.0
 11
559.3930618168
 21
379.0094812384
 31
0.0
  0
LINE
  5
126
330
1F
100
AcDbEntity
  8
0
  6
CONTINUOUS
 62
     7
100
AcDbLine
 10
563.0916268827
 20
379.0094812384
 30
0.0
 11
560.9930628242
 21
379.0094812384
 31
0.0
  0
LINE
  5
127
330
1F
100
AcDbEntity
  8
0
  6
CONTINUOUS
 62
     7
100
AcDbLine
 10
562.8734552564
 20
378.7913133374
 30
0.0
 11
559.3930618168
 21
378.7913133374
 31
0.0
  0
ARC
  5
128
330
1F
100
AcDbEntity
  8
0
  6
CONTINUOUS
 62
     7
100
AcDbCircle
 10
559.3930622937
 20
226.9094824663
 30
0.0
 40
11.39999999999998
100
AcDbArc
 50
90.0
 51
180.0
  0
ARC
  5
129
330
1F
100
AcDbEntity
  8
0
  6
CONTINUOUS
 62
     7
100
AcDbCircle
 10
559.3930622937
 20
390.4094824663
 30
0.0
 40
11.39999999999998
100
AcDbArc
 50
180.0
 51
270.0
  0
ARC
  5
12A
330
1F
100
AcDbEntity
  8
0
  6
CONTINUOUS
 62
     7
100
AcDbCircle
 10
445.8930622937
 20
390.4094824663
 30
0.0
 40
11.39999999999998
100
AcDbArc
 50
270.0
 51
0.0
  0
ARC
  5
12B
330
1F
100
AcDbEntity
  8
0
  6
CONTINUOUS
 62
     7
100
AcDbCircle
 10
445.8930622937
 20
226.9094824663
 30
0.0
 40
11.39999999999998
100
AcDbArc
 50
0.0
 51
90.0
  0
ARC
  5
12C
330
1F
100
AcDbEntity
  8
0
  6
CONTINUOUS
 62
     7
100
AcDbCircle
 10
445.8930622937
 20
226.9094824663
 30
0.0
 40
11.61817169476899
100
AcDbArc
 50
0.0
 51
90.0
  0
ARC
  5
12D
330
1F
100
AcDbEntity
  8
0
  6
CONTINUOUS
 62
     7
100
AcDbCircle
 10
445.8930622937
 20
390.4094824663
 30
0.0
 40
11.61817169476899
100
AcDbArc
 50
270.0
 51
0.0
  0
ARC
  5
12E
330
1F
100
AcDbEntity
  8
0
  6
CONTINUOUS
 62
     7
100
AcDbCircle
 10
559.3930622937
 20
390.4094824663
 30
0.0
 40
11.61817169476899
100
AcDbArc
 50
180.0
 51
270.0
  0
ARC
  5
12F
330
1F
100
AcDbEntity
  8
0
  6
CONTINUOUS
 62
     7
100
AcDbCircle
 10
559.3930622937
 20
226.9094824663
 30
0.0
 40
11.61817169476899
100
AcDbArc
 50
90.0
 51
180.0
  0
CIRCLE
  5
130
330
1F
100
AcDbEntity
  8
0
  6
CONTINUOUS
 62
     7
100
AcDbCircle
 10
457.6430622937
 20
318.6594824663
 30
0.0
 40
1.249999999999943
  0
CIRCLE
  5
131
330
1F
100
AcDbEntity
  8
0
  6
CONTINUOUS
 62
     7
100
AcDbCircle
 10
502.6430622937
 20
378.6594824663
 30
0.0
 40
4.0
  0
CIRCLE
  5
132
330
1F
100
AcDbEntity
  8
0
  6
CONTINUOUS
 62
     7
100
AcDbCircle
 10
502.6430622937
 20
378.6594824663
 30
0.0
 40
2.0
  0
CIRCLE
  5
133
330
1F
100
AcDbEntity
  8
0
  6
CONTINUOUS
 62
     7
100
AcDbCircle
 10
512.6430622937
 20
378.6594824663
 30
0.0
 40
1.249999999999943
  0
CIRCLE
  5
134
330
1F
100
AcDbEntity
  8
0
  6
CONTINUOUS
 62
     7
100
AcDbCircle
 10
457.6430622937
 20
358.6594824663
 30
0.0
 40
4.000000000000057
  0
CIRCLE
  5
135
330
1F
100
AcDbEntity
  8
0
  6
CONTINUOUS
 62
     7
100
AcDbCircle
 10
457.6430622937
 20
358.6594824663
 30
0.0
 40
2.0
  0
CIRCLE
  5
136
330
1F
100
AcDbEntity
  8
0
  6
CONTINUOUS
 62
     7
100
AcDbCircle
 10
547.6430622937
 20
358.6594824663
 30
0.0
 40
2.0
  0
CIRCLE
  5
137
330
1F
100
AcDbEntity
  8
0
  6
CONTINUOUS
 62
     7
100
AcDbCircle
 10
547.6430622937
 20
358.6594824663
 30
0.0
 40
4.000000000000057
  0
CIRCLE
  5
138
330
1F
100
AcDbEntity
  8
0
  6
CONTINUOUS
 62
     7
100
AcDbCircle
 10
547.6430622937
 20
308.6594824663
 30
0.0
 40
4.0
  0
CIRCLE
  5
139
330
1F
100
AcDbEntity
  8
0
  6
CONTINUOUS
 62
     7
100
AcDbCircle
 10
547.6430622937
 20
308.6594824663
 30
0.0
 40
2.0
  0
CIRCLE
  5
13A
330
1F
100
AcDbEntity
  8
0
  6
CONTINUOUS
 62
     7
100
AcDbCircle
 10
457.6430622937
 20
308.6594824663
 30
0.0
 40
4.0
  0
CIRCLE
  5
13B
330
1F
100
AcDbEntity
  8
0
  6
CONTINUOUS
 62
     7
100
AcDbCircle
 10
457.6430622937
 20
308.6594824663
 30
0.0
 40
2.0
  0
CIRCLE
  5
13C
330
1F
100
AcDbEntity
  8
0
  6
CONTINUOUS
 62
     7
100
AcDbCircle
 10
457.6430622937
 20
258.6594824663
 30
0.0
 40
2.0
  0
CIRCLE
  5
13D
330
1F
100
AcDbEntity
  8
0
  6
CONTINUOUS
 62
     7
100
AcDbCircle
 10
457.6430622937
 20
258.6594824663
 30
0.0
 40
4.0
  0
CIRCLE
  5
13E
330
1F
100
AcDbEntity
  8
0
  6
CONTINUOUS
 62
     7
100
AcDbCircle
 10
502.6430622937
 20
238.6594824663
 30
0.0
 40
4.0
  0
CIRCLE
  5
13F
330
1F
100
AcDbEntity
  8
0
  6
CONTINUOUS
 62
     7
100
AcDbCircle
 10
502.6430622937
 20
238.6594824663
 30
0.0
 40
2.0
  0
CIRCLE
  5
140
330
1F
100
AcDbEntity
  8
0
  6
CONTINUOUS
 62
     7
100
AcDbCircle
 10
492.6430622937
 20
238.6594824663
 30
0.0
 40
1.250000000000028
  0
CIRCLE
  5
141
330
1F
100
AcDbEntity
  8
0
  6
CONTINUOUS
 62
     7
100
AcDbCircle
 10
457.6430622937
 20
298.6594824663
 30
0.0
 40
1.250000000000057
  0
CIRCLE
  5
142
330
1F
100
AcDbEntity
  8
0
  6
CONTINUOUS
 62
     7
100
AcDbCircle
 10
547.6430622937
 20
318.6594824663
 30
0.0
 40
1.249999999999943
  0
CIRCLE
  5
143
330
1F
100
AcDbEntity
  8
0
  6
CONTINUOUS
 62
     7
100
AcDbCircle
 10
547.6430622937
 20
298.6594824663
 30
0.0
 40
1.250000000000057
  0
CIRCLE
  5
144
330
1F
100
AcDbEntity
  8
0
  6
CONTINUOUS
 62
     7
100
AcDbCircle
 10
492.6430622937
 20
378.6594824663
 30
0.0
 40
1.249999999999943
  0
CIRCLE
  5
145
330
1F
100
AcDbEntity
  8
0
  6
CONTINUOUS
 62
     7
100
AcDbCircle
 10
547.6430622937
 20
258.6594824663
 30
0.0
 40
2.0
  0
CIRCLE
  5
146
330
1F
100
AcDbEntity
  8
0
  6
CONTINUOUS
 62
     7
100
AcDbCircle
 10
547.6430622937
 20
258.6594824663
 30
0.0
 40
4.0
  0
CIRCLE
  5
147
330
1F
100
AcDbEntity
  8
0
  6
CONTINUOUS
 62
     7
100
AcDbCircle
 10
512.6430622937
 20
238.6594824663
 30
0.0
 40
1.250000000000028
  0
CIRCLE
  5
148
330
1F
100
AcDbEntity
  8
0
  6
CONTINUOUS
 62
     7
100
AcDbCircle
 10
502.6430622937
 20
378.6594824663
 30
0.0
 40
1.600000000000023
  0
CIRCLE
  5
149
330
1F
100
AcDbEntity
  8
0
  6
CONTINUOUS
 62
     7
100
AcDbCircle
 10
457.6430622937
 20
258.6594824663
 30
0.0
 40
1.600000000000023
  0
CIRCLE
  5
14A
330
1F
100
AcDbEntity
  8
0
  6
CONTINUOUS
 62
     7
100
AcDbCircle
 10
547.6430622937
 20
308.6594824663
 30
0.0
 40
1.600000000000023
  0
CIRCLE
  5
14B
330
1F
100
AcDbEntity
  8
0
  6
CONTINUOUS
 62
     7
100
AcDbCircle
 10
502.6430622937
 20
238.6594824663
 30
0.0
 40
1.599999999999994
  0
CIRCLE
  5
14C
330
1F
100
AcDbEntity
  8
0
  6
CONTINUOUS
 62
     7
100
AcDbCircle
 10
547.6430622937
 20
358.6594824663
 30
0.0
 40
1.599999999999966
  0
CIRCLE
  5
14D
330
1F
100
AcDbEntity
  8
0
  6
CONTINUOUS
 62
     7
100
AcDbCircle
 10
457.6430622937
 20
308.6594824663
 30
0.0
 40
1.600000000000023
  0
CIRCLE
  5
14E
330
1F
100
AcDbEntity
  8
0
  6
CONTINUOUS
 62
     7
100
AcDbCircle
 10
457.6430622937
 20
358.6594824663
 30
0.0
 40
1.599999999999966
  0
CIRCLE
  5
14F
330
1F
100
AcDbEntity
  8
0
  6
CONTINUOUS
 62
     7
100
AcDbCircle
 10
547.6430622937
 20
258.6594824663
 30
0.0
 40
1.600000000000023
  0
CIRCLE
  5
150
330
1F
100
AcDbEntity
  8
0
  6
CONTINUOUS
 62
     7
100
AcDbCircle
 10
445.8930622937
 20
226.9094824663
 30
0.0
 40
2.25
  0
CIRCLE
  5
151
330
1F
100
AcDbEntity
  8
0
  6
CONTINUOUS
 62
     7
100
AcDbCircle
 10
445.8930622937
 20
390.4094824663
 30
0.0
 40
2.25
  0
CIRCLE
  5
152
330
1F
100
AcDbEntity
  8
0
  6
CONTINUOUS
 62
     7
100
AcDbCircle
 10
559.3930622937
 20
390.4094824663
 30
0.0
 40
2.25
  0
CIRCLE
  5
153
330
1F
100
AcDbEntity
  8
0
  6
CONTINUOUS
 62
     7
100
AcDbCircle
 10
559.3930622937
 20
226.9094824663
 30
0.0
 40
2.25
  0
LINE
  5
154
330
1F
100
AcDbEntity
  8
0
  6
CONTINUOUS
 62
     7
100
AcDbLine
 10
496.8679277489
 20
366.4911423793
 30
0.0
 11
496.8679277489
 21
361.4911396971
 31
0.0
  0
LINE
  5
155
330
1F
100
AcDbEntity
  8
0
  6
CONTINUOUS
 62
     7
100
AcDbLine
 10
498.1179274881
 20
366.4911423793
 30
0.0
 11
496.8679277489
 21
366.4911423793
 31
0.0
  0
LINE
  5
156
330
1F
100
AcDbEntity
  8
0
  6
CONTINUOUS
 62
     7
100
AcDbLine
 10
498.1179274881
 20
361.4911396971
 30
0.0
 11
498.1179274881
 21
366.4911423793
 31
0.0
  0
LINE
  5
157
330
1F
100
AcDbEntity
  8
0
  6
CONTINUOUS
 62
     7
100
AcDbLine
 10
496.8679277489
 20
361.4911396971
 30
0.0
 11
498.1179274881
 21
361.4911396971
 31
0.0
  0
LINE
  5
158
330
1F
100
AcDbEntity
  8
0
  6
CONTINUOUS
 62
     7
100
AcDbLine
 10
500.2607847826
 20
363.5447134247
 30
0.0
 11
500.2607847826
 21
362.3839986494
 31
0.0
  0
ARC
  5
159
330
1F
100
AcDbEntity
  8
0
  6
CONTINUOUS
 62
     7
100
AcDbCircle
 10
503.1179275459
 20
362.9643550373
 30
0.0
 40
0.5803571428571672
100
AcDbArc
 50
270.0
 51
90.0
  0
LINE
  5
15A
330
1F
100
AcDbEntity
  8
0
  6
CONTINUOUS
 62
     7
100
AcDbLine
 10
503.1179275509
 20
363.5447134247
 30
0.0
 11
500.2607847826
 21
363.5447134247
 31
0.0
  0
ARC
  5
15B
330
1F
100
AcDbEntity
  8
0
  6
CONTINUOUS
 62
     7
100
AcDbCircle
 10
503.6536418316
 20
362.9197121802
 30
0.0
 40
1.428571428571502
100
AcDbArc
 50
270.0
 51
48.5903778907
  0
LINE
  5
15C
330
1F
100
AcDbEntity
  8
0
  6
CONTINUOUS
 62
     7
100
AcDbLine
 10
499.0107845777
 20
361.4911396971
 30
0.0
 11
503.6536418164
 21
361.4911396971
 31
0.0
  0
LINE
  5
15D
330
1F
100
AcDbEntity
  8
0
  6
CONTINUOUS
 62
     7
100
AcDbLine
 10
499.0107845777
 20
366.4911423793
 30
0.0
 11
499.0107845777
 21
361.4911396971
 31
0.0
  0
LINE
  5
15E
330
1F
100
AcDbEntity
  8
0
  6
CONTINUOUS
 62
     7
100
AcDbLine
 10
503.6536418164
 20
366.4911423793
 30
0.0
 11
499.0107845777
 21
366.4911423793
 31
0.0
  0
ARC
  5
15F
330
1F
100
AcDbEntity
  8
0
  6
CONTINUOUS
 62
     7
100
AcDbCircle
 10
503.6536418316
 20
365.062569323
 30
0.0
 40
1.428571428571445
100
AcDbArc
 50
311.4096221093
 51
90.0
  0
LINE
  5
160
330
1F
100
AcDbEntity
  8
0
  6
CONTINUOUS
 62
     7
100
AcDbLine
 10
500.2607847826
 20
365.5982834271
 30
0.0
 11
500.2607847826
 21
364.4375686517
 31
0.0
  0
LINE
  5
161
330
1F
100
AcDbEntity
  8
0
  6
CONTINUOUS
 62
     7
100
AcDbLine
 10
500.2607847826
 20
364.4375686517
 30
0.0
 11
503.1179275509
 21
364.4375686517
 31
0.0
  0
ARC
  5
162
330
1F
100
AcDbEntity
  8
0
  6
CONTINUOUS
 62
     7
100
AcDbCircle
 10
503.1179275459
 20
365.0179264659
 30
0.0
 40
0.5803571428571672
100
AcDbArc
 50
270.0
 51
90.0
  0
LINE
  5
163
330
1F
100
AcDbEntity
  8
0
  6
CONTINUOUS
 62
     7
100
AcDbLine
 10
503.1179275509
 20
365.5982834271
 30
0.0
 11
500.2607847826
 21
365.5982834271
 31
0.0
  0
LINE
  5
164
330
1F
100
AcDbEntity
  8
0
  6
CONTINUOUS
 62
     7
100
AcDbLine
 10
500.2607847826
 20
362.3839986494
 30
0.0
 11
503.1179275509
 21
362.3839986494
 31
0.0
  0
LINE
  5
165
330
1F
100
AcDbEntity
  8
0
  6
CONTINUOUS
 62
     7
100
AcDbLine
 10
495.4393562192
 20
363.5447134247
 30
0.0
 11
495.4393562192
 21
364.4375686517
 31
0.0
  0
LINE
  5
166
330
1F
100
AcDbEntity
  8
0
  6
CONTINUOUS
 62
     7
100
AcDbLine
 10
491.867927395
 20
363.5447134247
 30
0.0
 11
495.4393562192
 21
363.5447134247
 31
0.0
  0
LINE
  5
167
330
1F
100
AcDbEntity
  8
0
  6
CONTINUOUS
 62
     7
100
AcDbLine
 10
491.867927395
 20
361.4911396971
 30
0.0
 11
491.867927395
 21
363.5447134247
 31
0.0
  0
LINE
  5
168
330
1F
100
AcDbEntity
  8
0
  6
CONTINUOUS
 62
     7
100
AcDbLine
 10
490.6179276557
 20
361.4911396971
 30
0.0
 11
491.867927395
 21
361.4911396971
 31
0.0
  0
LINE
  5
169
330
1F
100
AcDbEntity
  8
0
  6
CONTINUOUS
 62
     7
100
AcDbLine
 10
490.6179276557
 20
366.4911423793
 30
0.0
 11
490.6179276557
 21
361.4911396971
 31
0.0
  0
LINE
  5
16A
330
1F
100
AcDbEntity
  8
0
  6
CONTINUOUS
 62
     7
100
AcDbLine
 10
495.9750701936
 20
366.4911423793
 30
0.0
 11
490.6179276557
 21
366.4911423793
 31
0.0
  0
LINE
  5
16B
330
1F
100
AcDbEntity
  8
0
  6
CONTINUOUS
 62
     7
100
AcDbLine
 10
495.9750701936
 20
365.5982834271
 30
0.0
 11
495.9750701936
 21
366.4911423793
 31
0.0
  0
LINE
  5
16C
330
1F
100
AcDbEntity
  8
0
  6
CONTINUOUS
 62
     7
100
AcDbLine
 10
491.867927395
 20
365.5982834271
 30
0.0
 11
495.9750701936
 21
365.5982834271
 31
0.0
  0
LINE
  5
16D
330
1F
100
AcDbEntity
  8
0
  6
CONTINUOUS
 62
     7
100
AcDbLine
 10
491.867927395
 20
364.4375686517
 30
0.0
 11
491.867927395
 21
365.5982834271
 31
0.0
  0
LINE
  5
16E
330
1F
100
AcDbEntity
  8
0
  6
CONTINUOUS
 62
     7
100
AcDbLine
 10
495.4393562192
 20
364.4375686517
 30
0.0
 11
491.867927395
 21
364.4375686517
 31
0.0
  0
LINE
  5
16F
330
1F
100
AcDbEntity
  8
0
  6
CONTINUOUS
 62
     7
100
AcDbLine
 10
507.4522202165
 20
362.4307920209
 30
0.0
 11
509.7050634475
 21
362.4307920209
 31
0.0
  0
ARC
  5
170
330
1F
100
AcDbEntity
  8
0
  6
CONTINUOUS
 62
     7
100
AcDbCircle
 10
507.452220206
 20
365.0179264659
 30
0.0
 40
0.5335644827829924
100
AcDbArc
 50
90.0
 51
180.0
  0
LINE
  5
171
330
1F
100
AcDbEntity
  8
0
  6
CONTINUOUS
 62
     7
100
AcDbLine
 10
506.9186557347
 20
365.017927902
 30
0.0
 11
506.9186557347
 21
362.9643541744
 31
0.0
  0
LINE
  5
172
330
1F
100
AcDbEntity
  8
0
  6
CONTINUOUS
 62
     7
100
AcDbLine
 10
505.8250704577
 20
365.0625680557
 30
0.0
 11
505.8250704577
 21
362.9197140208
 31
0.0
  0
ARC
  5
173
330
1F
100
AcDbEntity
  8
0
  6
CONTINUOUS
 62
     7
100
AcDbCircle
 10
507.2536418316
 20
365.062569323
 30
0.0
 40
1.428571428571445
100
AcDbArc
 50
90.0
 51
180.0
  0
LINE
  5
174
330
1F
100
AcDbEntity
  8
0
  6
CONTINUOUS
 62
     7
100
AcDbLine
 10
509.9036419095
 20
366.4911423793
 30
0.0
 11
507.2536417545
 21
366.4911423793
 31
0.0
  0
ARC
  5
175
330
1F
100
AcDbEntity
  8
0
  6
CONTINUOUS
 62
     7
100
AcDbCircle
 10
509.9036418316
 20
365.062569323
 30
0.0
 40
1.428571428571445
100
AcDbArc
 50
0.0
 51
90.0
  0
LINE
  5
176
330
1F
100
AcDbEntity
  8
0
  6
CONTINUOUS
 62
     7
100
AcDbLine
 10
511.3322134392
 20
362.9197140208
 30
0.0
 11
511.3322134392
 21
365.0625680557
 31
0.0
  0
ARC
  5
177
330
1F
100
AcDbEntity
  8
0
  6
CONTINUOUS
 62
     7
100
AcDbCircle
 10
509.9036418316
 20
362.9197121802
 30
0.0
 40
1.428571428571445
100
AcDbArc
 50
270.0
 51
0.0
  0
LINE
  5
178
330
1F
100
AcDbEntity
  8
0
  6
CONTINUOUS
 62
     7
100
AcDbLine
 10
507.2536417545
 20
361.4911396971
 30
0.0
 11
509.9036419095
 21
361.4911396971
 31
0.0
  0
ARC
  5
179
330
1F
100
AcDbEntity
  8
0
  6
CONTINUOUS
 62
     7
100
AcDbCircle
 10
507.2536418316
 20
362.9197121802
 30
0.0
 40
1.428571428571445
100
AcDbArc
 50
180.0
 51
270.0
  0
LINE
  5
17A
330
1F
100
AcDbEntity
  8
0
  6
CONTINUOUS
 62
     7
100
AcDbLine
 10
509.7050634475
 20
365.5514900556
 30
0.0
 11
507.4522202165
 21
365.5514900556
 31
0.0
  0
ARC
  5
17B
330
1F
100
AcDbEntity
  8
0
  6
CONTINUOUS
 62
     7
100
AcDbCircle
 10
509.7050634573
 20
365.0179264659
 30
0.0
 40
0.5335644827829924
100
AcDbArc
 50
0.0
 51
90.0
  0
LINE
  5
17C
330
1F
100
AcDbEntity
  8
0
  6
CONTINUOUS
 62
     7
100
AcDbLine
 10
510.2386279294
 20
362.9643541744
 30
0.0
 11
510.2386279294
 21
365.017927902
 31
0.0
  0
ARC
  5
17D
330
1F
100
AcDbEntity
  8
0
  6
CONTINUOUS
 62
     7
100
AcDbCircle
 10
509.7050634573
 20
362.9643550373
 30
0.0
 40
0.5335644827830492
100
AcDbArc
 50
270.0
 51
0.0
  0
ARC
  5
17E
330
1F
100
AcDbEntity
  8
0
  6
CONTINUOUS
 62
     7
100
AcDbCircle
 10
507.452220206
 20
362.9643550373
 30
0.0
 40
0.5335644827830492
100
AcDbArc
 50
180.0
 51
270.0
  0
LINE
  5
17F
330
1F
100
AcDbEntity
  8
0
  6
CONTINUOUS
 62
     7
100
AcDbLine
 10
515.6855886133
 20
361.4911396971
 30
0.0
 11
517.207213238
 21
361.4911396971
 31
0.0
  0
LINE
  5
180
330
1F
100
AcDbEntity
  8
0
  6
CONTINUOUS
 62
     7
100
AcDbLine
 10
512.871695243
 20
361.4911396971
 30
0.0
 11
514.2786414625
 21
362.9993421009
 31
0.0
  0
LINE
  5
181
330
1F
100
AcDbEntity
  8
0
  6
CONTINUOUS
 62
     7
100
AcDbLine
 10
511.3500706182
 20
361.4911396971
 30
0.0
 11
512.871695243
 21
361.4911396971
 31
0.0
  0
LINE
  5
182
330
1F
100
AcDbEntity
  8
0
  6
CONTINUOUS
 62
     7
100
AcDbLine
 10
513.5178291501
 20
363.9911410382
 30
0.0
 11
511.3500706182
 21
361.4911396971
 31
0.0
  0
LINE
  5
183
330
1F
100
AcDbEntity
  8
0
  6
CONTINUOUS
 62
     7
100
AcDbLine
 10
517.207213238
 20
366.4911423793
 30
0.0
 11
515.6855886133
 21
366.4911423793
 31
0.0
  0
LINE
  5
184
330
1F
100
AcDbEntity
  8
0
  6
CONTINUOUS
 62
     7
100
AcDbLine
 10
514.2786414625
 20
362.9993421009
 30
0.0
 11
515.6855886133
 21
361.4911396971
 31
0.0
  0
LINE
  5
185
330
1F
100
AcDbEntity
  8
0
  6
CONTINUOUS
 62
     7
100
AcDbLine
 10
514.2786414625
 20
364.9829399756
 30
0.0
 11
512.871695243
 21
366.4911423793
 31
0.0
  0
LINE
  5
186
330
1F
100
AcDbEntity
  8
0
  6
CONTINUOUS
 62
     7
100
AcDbLine
 10
511.3500706182
 20
366.4911423793
 30
0.0
 11
513.5178291501
 21
363.9911410382
 31
0.0
  0
LINE
  5
187
330
1F
100
AcDbEntity
  8
0
  6
CONTINUOUS
 62
     7
100
AcDbLine
 10
517.207213238
 20
361.4911396971
 30
0.0
 11
515.0394537748
 21
363.9911410382
 31
0.0
  0
LINE
  5
188
330
1F
100
AcDbEntity
  8
0
  6
CONTINUOUS
 62
     7
100
AcDbLine
 10
515.6855886133
 20
366.4911423793
 30
0.0
 11
514.2786414625
 21
364.9829399756
 31
0.0
  0
LINE
  5
189
330
1F
100
AcDbEntity
  8
0
  6
CONTINUOUS
 62
     7
100
AcDbLine
 10
515.0394537748
 20
363.9911410382
 30
0.0
 11
517.207213238
 21
366.4911423793
 31
0.0
  0
LINE
  5
18A
330
1F
100
AcDbEntity
  8
0
  6
CONTINUOUS
 62
     7
100
AcDbLine
 10
512.871695243
 20
366.4911423793
 30
0.0
 11
511.3500706182
 21
366.4911423793
 31
0.0
  0
ARC
  5
18B
330
1F
100
AcDbEntity
  8
0
  6
CONTINUOUS
 62
     7
100
AcDbCircle
 10
295.8747129619
 20
231.1268600451
 30
0.0
 40
2.000000000000012
100
AcDbArc
 50
90.5
 51
180.0
  0
LINE
  5
18C
330
1F
100
AcDbEntity
  8
0
  6
CONTINUOUS
 62
     7
100
AcDbLine
 10
293.8747131519
 20
231.1268632284
 30
0.0
 11
293.8747131519
 21
222.1094851366
 31
0.0
  0
LINE
  5
18D
330
1F
100
AcDbEntity
  8
0
  6
CONTINUOUS
 62
     7
100
AcDbLine
 10
293.8747131519
 20
222.1094851366
 30
0.0
 11
289.8747129619
 21
222.1094851366
 31
0.0
  0
LINE
  5
18E
330
1F
100
AcDbEntity
  8
0
  6
CONTINUOUS
 62
     7
100
AcDbLine
 10
289.8747129619
 20
222.1094851366
 30
0.0
 11
289.8747129619
 21
395.209479796
 31
0.0
  0
LINE
  5
18F
330
1F
100
AcDbEntity
  8
0
  6
CONTINUOUS
 62
     7
100
AcDbLine
 10
293.8747131519
 20
395.209479796
 30
0.0
 11
289.8747129619
 21
395.209479796
 31
0.0
  0
LINE
  5
190
330
1F
100
AcDbEntity
  8
0
  6
CONTINUOUS
 62
     7
100
AcDbLine
 10
293.8747131519
 20
395.209479796
 30
0.0
 11
293.8747131519
 21
386.1921017042
 31
0.0
  0
ARC
  5
191
330
1F
100
AcDbEntity
  8
0
  6
CONTINUOUS
 62
     7
100
AcDbCircle
 10
295.8747129619
 20
386.1921048875
 30
0.0
 40
2.000000000000012
100
AcDbArc
 50
180.0
 51
269.5
  0
LINE
  5
192
330
1F
100
AcDbEntity
  8
0
  6
CONTINUOUS
 62
     7
100
AcDbLine
 10
295.857260029
 20
384.1921796074
 30
0.0
 11
363.8747139155
 21
383.5985993019
 31
0.0
  0
LINE
  5
193
330
1F
100
AcDbEntity
  8
0
  6
CONTINUOUS
 62
     7
100
AcDbLine
 10
363.8747139155
 20
233.7203656307
 30
0.0
 11
363.8747139155
 21
383.5985993019
 31
0.0
  0
LINE
  5
194
330
1F
100
AcDbEntity
  8
0
  6
CONTINUOUS
 62
     7
100
AcDbLine
 10
363.8747139155
 20
233.7203656307
 30
0.0
 11
295.857260029
 21
233.1267853251
 31
0.0
  0
LINE
  5
195
330
1F
100
AcDbEntity
  8
0
  6
CONTINUOUS
 62
     7
100
AcDbLine
 10
289.8747129619
 20
395.209479796
 30
0.0
 11
289.8747129619
 21
398.7094794384
 31
0.0
  0
LINE
  5
196
330
1F
100
AcDbEntity
  8
0
  6
CONTINUOUS
 62
     7
100
AcDbLine
 10
293.8747131519
 20
398.6745734683
 30
0.0
 11
289.8747129619
 21
398.7094794384
 31
0.0
  0
LINE
  5
197
330
1F
100
AcDbEntity
  8
0
  6
CONTINUOUS
 62
     7
100
AcDbLine
 10
293.8747131519
 20
398.6745734683
 30
0.0
 11
293.8747131519
 21
395.209479796
 31
0.0
  0
LINE
  5
198
330
1F
100
AcDbEntity
  8
0
  6
CONTINUOUS
 62
     7
100
AcDbLine
 10
293.8747131519
 20
218.6443914643
 30
0.0
 11
289.8747129619
 21
218.6094854942
 31
0.0
  0
LINE
  5
199
330
1F
100
AcDbEntity
  8
0
  6
CONTINUOUS
 62
     7
100
AcDbLine
 10
289.8747129619
 20
218.6094854942
 30
0.0
 11
289.8747129619
 21
222.1094851366
 31
0.0
  0
LINE
  5
19A
330
1F
100
AcDbEntity
  8
0
  6
CONTINUOUS
 62
     7
100
AcDbLine
 10
293.8747131519
 20
222.1094851366
 30
0.0
 11
293.8747131519
 21
218.6443914643
 31
0.0
  0
LINE
  5
19B
330
1F
100
AcDbEntity
  8
0
  6
CONTINUOUS
 62
     7
100
AcDbLine
 10
364.8747159421
 20
233.9116369358
 30
0.0
 11
363.8747139155
 21
233.9203615656
 31
0.0
  0
LINE
  5
19C
330
1F
100
AcDbEntity
  8
0
  6
CONTINUOUS
 62
     7
100
AcDbLine
 10
364.8747159421
 20
233.9116369358
 30
0.0
 11
364.8747159421
 21
222.1094851366
 31
0.0
  0
LINE
  5
19D
330
1F
100
AcDbEntity
  8
0
  6
CONTINUOUS
 62
     7
100
AcDbLine
 10
364.8747159421
 20
222.1094851366
 30
0.0
 11
293.8747131519
 21
222.1094851366
 31
0.0
  0
LINE
  5
19E
330
1F
100
AcDbEntity
  8
0
  6
CONTINUOUS
 62
     7
100
AcDbLine
 10
364.8747159421
 20
222.1094851366
 30
0.0
 11
364.8747159421
 21
219.929087626
 31
0.0
  0
LINE
  5
19F
330
1F
100
AcDbEntity
  8
0
  6
CONTINUOUS
 62
     7
100
AcDbLine
 10
364.8747159421
 20
219.929087626
 30
0.0
 11
293.8747131519
 21
219.3094824424
 31
0.0
  0
LINE
  5
1A0
330
1F
100
AcDbEntity
  8
0
  6
CONTINUOUS
 62
     7
100
AcDbLine
 10
364.8747159421
 20
395.209479796
 30
0.0
 11
293.8747131519
 21
395.209479796
 31
0.0
  0
LINE
  5
1A1
330
1F
100
AcDbEntity
  8
0
  6
CONTINUOUS
 62
     7
100
AcDbLine
 10
364.8747159421
 20
395.209479796
 30
0.0
 11
364.8747159421
 21
383.4073279968
 31
0.0
  0
LINE
  5
1A2
330
1F
100
AcDbEntity
  8
0
  6
CONTINUOUS
 62
     7
100
AcDbLine
 10
364.8747159421
 20
383.4073279968
 30
0.0
 11
363.8747139155
 21
383.3986033669
 31
0.0
  0
LINE
  5
1A3
330
1F
100
AcDbEntity
  8
0
  6
CONTINUOUS
 62
     7
100
AcDbLine
 10
364.8747159421
 20
397.3898773065
 30
0.0
 11
293.8747131519
 21
398.0094824901
 31
0.0
  0
LINE
  5
1A4
330
1F
100
AcDbEntity
  8
0
  6
CONTINUOUS
 62
     7
100
AcDbLine
 10
364.8747159421
 20
397.3898773065
 30
0.0
 11
364.8747159421
 21
395.209479796
 31
0.0
  0
LINE
  5
1A5
330
1F
100
AcDbEntity
  8
0
  6
CONTINUOUS
 62
     7
100
AcDbLine
 10
295.857260029
 20
219.3267826906
 30
0.0
 11
295.857260029
 21
218.6616917124
 31
0.0
  0
LWPOLYLINE
  5
1A6
330
1F
100
AcDbEntity
  8
0
  6
CONTINUOUS
 62
     7
100
AcDbPolyline
 90
        9
 70
   128
 43
0.0
 10
295.857260029
 20
218.6616917124
 10
295.469565808
 20
218.6583091488
 10
295.0972691431
 20
218.6550606957
 10
294.7545191526
 20
218.6520655623
 10
294.4543422453
 20
218.6494504085
 10
294.208146657
 20
218.6472971907
 10
294.0252884544
 20
218.6457027665
 10
293.9127180978
 20
218.6447192898
 10
293.8747131519
 20
218.6443914643
  0
LINE
  5
1A7
330
1F
100
AcDbEntity
  8
0
  6
CONTINUOUS
 62
     7
100
AcDbLine
 10
295.857260029
 20
398.6572732201
 30
0.0
 11
295.857260029
 21
397.992182242
 31
0.0
  0
LWPOLYLINE
  5
1A8
330
1F
100
AcDbEntity
  8
0
  6
CONTINUOUS
 62
     7
100
AcDbPolyline
 90
        9
 70
   128
 43
0.0
 10
293.8747131519
 20
398.6745734683
 10
293.9127180978
 20
398.6742456427
 10
294.0252884544
 20
398.6732621661
 10
294.208146657
 20
398.6716677418
 10
294.4543422453
 20
398.669514524
 10
294.7545191526
 20
398.6668993703
 10
295.0972691431
 20
398.6639042369
 10
295.469565808
 20
398.6606557837
 10
295.857260029
 20
398.6572732201
  0
LINE
  5
1A9
330
1F
100
AcDbEntity
  8
0
  6
CONTINUOUS
 62
     7
100
AcDbLine
 10
295.857260029
 20
218.6616917124
 30
0.0
 11
363.8747139155
 21
219.255272018
 31
0.0
  0
LINE
  5
1AA
330
1F
100
AcDbEntity
  8
0
  6
CONTINUOUS
 62
     7
100
AcDbLine
 10
363.8747139155
 20
219.9203629962
 30
0.0
 11
363.8747139155
 21
219.255272018
 31
0.0
  0
LINE
  5
1AB
330
1F
100
AcDbEntity
  8
0
  6
CONTINUOUS
 62
     7
100
AcDbLine
 10
363.8747139155
 20
398.0636929145
 30
0.0
 11
295.857260029
 21
398.6572732201
 31
0.0
  0
LINE
  5
1AC
330
1F
100
AcDbEntity
  8
0
  6
CONTINUOUS
 62
     7
100
AcDbLine
 10
363.8747139155
 20
397.3986019364
 30
0.0
 11
363.8747139155
 21
398.0636929145
 31
0.0
  0
LINE
  5
1AD
330
1F
100
AcDbEntity
  8
0
  6
CONTINUOUS
 62
     7
100
AcDbLine
 10
452.703943968
 20
451.9411788959
 30
0.0
 11
552.5821806194
 21
451.9411788959
 31
0.0
  0
LINE
  5
1AE
330
1F
100
AcDbEntity
  8
0
  6
CONTINUOUS
 62
     7
100
AcDbLine
 10
452.703943968
 20
451.9411788959
 30
0.0
 11
452.1103636624
 21
519.9586327824
 31
0.0
  0
ARC
  5
1AF
330
1F
100
AcDbEntity
  8
0
  6
CONTINUOUS
 62
     7
100
AcDbCircle
 10
450.1104398725
 20
519.9411798495
 30
0.0
 40
2.000000000000012
100
AcDbArc
 50
0.5
 51
90.0
  0
LINE
  5
1B0
330
1F
100
AcDbEntity
  8
0
  6
CONTINUOUS
 62
     7
100
AcDbLine
 10
441.0930634738
 20
521.9411796596
 30
0.0
 11
450.1104415657
 21
521.9411796596
 31
0.0
  0
LINE
  5
1B1
330
1F
100
AcDbEntity
  8
0
  6
CONTINUOUS
 62
     7
100
AcDbLine
 10
441.0930634738
 20
521.9411796596
 30
0.0
 11
441.0930634738
 21
525.9411798495
 31
0.0
  0
LINE
  5
1B2
330
1F
100
AcDbEntity
  8
0
  6
CONTINUOUS
 62
     7
100
AcDbLine
 10
441.0930634738
 20
525.9411798495
 30
0.0
 11
564.1930611135
 21
525.9411798495
 31
0.0
  0
LINE
  5
1B3
330
1F
100
AcDbEntity
  8
0
  6
CONTINUOUS
 62
     7
100
AcDbLine
 10
564.1930611135
 20
521.9411796596
 30
0.0
 11
564.1930611135
 21
525.9411798495
 31
0.0
  0
LINE
  5
1B4
330
1F
100
AcDbEntity
  8
0
  6
CONTINUOUS
 62
     7
100
AcDbLine
 10
564.1930611135
 20
521.9411796596
 30
0.0
 11
555.1756830217
 21
521.9411796596
 31
0.0
  0
ARC
  5
1B5
330
1F
100
AcDbEntity
  8
0
  6
CONTINUOUS
 62
     7
100
AcDbCircle
 10
555.1756847149
 20
519.9411798495
 30
0.0
 40
2.000000000000012
100
AcDbArc
 50
90.0
 51
179.5
  0
LINE
  5
1B6
330
1F
100
AcDbEntity
  8
0
  6
CONTINUOUS
 62
     7
100
AcDbLine
 10
553.175760925
 20
519.9586327824
 30
0.0
 11
552.5821806194
 21
451.9411788959
 31
0.0
  0
LINE
  5
1B7
330
1F
100
AcDbEntity
  8
0
  6
CONTINUOUS
 62
     7
100
AcDbLine
 10
567.6581547858
 20
521.9411796596
 30
0.0
 11
567.6930607559
 21
525.9411798495
 31
0.0
  0
LINE
  5
1B8
330
1F
100
AcDbEntity
  8
0
  6
CONTINUOUS
 62
     7
100
AcDbLine
 10
567.6581547858
 20
521.9411796596
 30
0.0
 11
564.1930611135
 21
521.9411796596
 31
0.0
  0
LINE
  5
1B9
330
1F
100
AcDbEntity
  8
0
  6
CONTINUOUS
 62
     7
100
AcDbLine
 10
564.1930611135
 20
525.9411798495
 30
0.0
 11
567.6930607559
 21
525.9411798495
 31
0.0
  0
LINE
  5
1BA
330
1F
100
AcDbEntity
  8
0
  6
CONTINUOUS
 62
     7
100
AcDbLine
 10
437.6279698016
 20
521.9411796596
 30
0.0
 11
441.0930634738
 21
521.9411796596
 31
0.0
  0
LINE
  5
1BB
330
1F
100
AcDbEntity
  8
0
  6
CONTINUOUS
 62
     7
100
AcDbLine
 10
437.6279698016
 20
521.9411796596
 30
0.0
 11
437.5930638315
 21
525.9411798495
 31
0.0
  0
LINE
  5
1BC
330
1F
100
AcDbEntity
  8
0
  6
CONTINUOUS
 62
     7
100
AcDbLine
 10
437.5930638315
 20
525.9411798495
 30
0.0
 11
441.0930634738
 21
525.9411798495
 31
0.0
  0
LINE
  5
1BD
330
1F
100
AcDbEntity
  8
0
  6
CONTINUOUS
 62
     7
100
AcDbLine
 10
441.0930634738
 20
450.9411768693
 30
0.0
 11
441.0930634738
 21
521.9411796596
 31
0.0
  0
LINE
  5
1BE
330
1F
100
AcDbEntity
  8
0
  6
CONTINUOUS
 62
     7
100
AcDbLine
 10
441.0930634738
 20
450.9411768693
 30
0.0
 11
438.9126734139
 21
450.9411768693
 31
0.0
  0
LINE
  5
1BF
330
1F
100
AcDbEntity
  8
0
  6
CONTINUOUS
 62
     7
100
AcDbLine
 10
438.9126734139
 20
450.9411768693
 30
0.0
 11
438.2930607797
 21
521.9411796596
 31
0.0
  0
LINE
  5
1C0
330
1F
100
AcDbEntity
  8
0
  6
CONTINUOUS
 62
     7
100
AcDbLine
 10
452.895215273
 20
450.9411768693
 30
0.0
 11
452.9039436282
 21
451.9411788959
 31
0.0
  0
LINE
  5
1C1
330
1F
100
AcDbEntity
  8
0
  6
CONTINUOUS
 62
     7
100
AcDbLine
 10
452.895215273
 20
450.9411768693
 30
0.0
 11
441.0930634738
 21
450.9411768693
 31
0.0
  0
LINE
  5
1C2
330
1F
100
AcDbEntity
  8
0
  6
CONTINUOUS
 62
     7
100
AcDbLine
 10
566.3734511735
 20
450.9411768693
 30
0.0
 11
566.9930638076
 21
521.9411796596
 31
0.0
  0
LINE
  5
1C3
330
1F
100
AcDbEntity
  8
0
  6
CONTINUOUS
 62
     7
100
AcDbLine
 10
566.3734511735
 20
450.9411768693
 30
0.0
 11
564.1930611135
 21
450.9411768693
 31
0.0
  0
LINE
  5
1C4
330
1F
100
AcDbEntity
  8
0
  6
CONTINUOUS
 62
     7
100
AcDbLine
 10
564.1930611135
 20
450.9411768693
 30
0.0
 11
564.1930611135
 21
521.9411796596
 31
0.0
  0
LINE
  5
1C5
330
1F
100
AcDbEntity
  8
0
  6
CONTINUOUS
 62
     7
100
AcDbLine
 10
564.1930611135
 20
450.9411768693
 30
0.0
 11
552.3909093143
 21
450.9411768693
 31
0.0
  0
LINE
  5
1C6
330
1F
100
AcDbEntity
  8
0
  6
CONTINUOUS
 62
     7
100
AcDbLine
 10
552.3909093143
 20
450.9411768693
 30
0.0
 11
552.3821809591
 21
451.9411788959
 31
0.0
  0
LINE
  5
1C7
330
1F
100
AcDbEntity
  8
0
  6
CONTINUOUS
 62
     7
100
AcDbLine
 10
438.3103610279
 20
519.9586327824
 30
0.0
 11
437.6452700497
 21
519.9586327824
 31
0.0
  0
LWPOLYLINE
  5
1C8
330
1F
100
AcDbEntity
  8
0
  6
CONTINUOUS
 62
     7
100
AcDbPolyline
 90
        9
 70
   128
 43
0.0
 10
437.6452700497
 20
519.9586327824
 10
437.6418874861
 20
520.3463270034
 10
437.638639033
 20
520.7186236683
 10
437.6356513502
 20
521.0613736588
 10
437.6330287458
 20
521.3615505661
 10
437.6308829786
 20
521.6077461544
 10
437.6292811038
 20
521.790604357
 10
437.6283050777
 20
521.9031747136
 10
437.6279698016
 20
521.9411796596
  0
LINE
  5
1C9
330
1F
100
AcDbEntity
  8
0
  6
CONTINUOUS
 62
     7
100
AcDbLine
 10
567.6408545376
 20
519.9586327824
 30
0.0
 11
566.9757635595
 21
519.9586327824
 31
0.0
  0
LWPOLYLINE
  5
1CA
330
1F
100
AcDbEntity
  8
0
  6
CONTINUOUS
 62
     7
100
AcDbPolyline
 90
        9
 70
   128
 43
0.0
 10
567.6581547858
 20
521.9411796596
 10
567.6578195097
 20
521.9031747136
 10
567.6568434836
 20
521.790604357
 10
567.6552416088
 20
521.6077461544
 10
567.6530958416
 20
521.3615505661
 10
567.6504732372
 20
521.0613736588
 10
567.6474855544
 20
520.7186236683
 10
567.6442371012
 20
520.3463270034
 10
567.6408545376
 20
519.9586327824
  0
LINE
  5
1CB
330
1F
100
AcDbEntity
  8
0
  6
CONTINUOUS
 62
     7
100
AcDbLine
 10
567.0472742321
 20
451.9411788959
 30
0.0
 11
567.6408545376
 21
519.9586327824
 31
0.0
  0
LINE
  5
1CC
330
1F
100
AcDbEntity
  8
0
  6
CONTINUOUS
 62
     7
100
AcDbLine
 10
566.3821832539
 20
451.9411788959
 30
0.0
 11
567.0472742321
 21
451.9411788959
 31
0.0
  0
LINE
  5
1CD
330
1F
100
AcDbEntity
  8
0
  6
CONTINUOUS
 62
     7
100
AcDbLine
 10
437.6452700497
 20
519.9586327824
 30
0.0
 11
438.2388503553
 21
451.9411788959
 31
0.0
  0
LINE
  5
1CE
330
1F
100
AcDbEntity
  8
0
  6
CONTINUOUS
 62
     7
100
AcDbLine
 10
438.9039413334
 20
451.9411788959
 30
0.0
 11
438.2388503553
 21
451.9411788959
 31
0.0
  0
ARC
  5
1CF
330
1F
100
AcDbEntity
  8
0
  6
CONTINUOUS
 62
     7
100
AcDbCircle
 10
555.1756847149
 20
103.395582485
 30
0.0
 40
2.000000000000011
100
AcDbArc
 50
180.5
 51
270.0
  0
LINE
  5
1D0
330
1F
100
AcDbEntity
  8
0
  6
CONTINUOUS
 62
     7
100
AcDbLine
 10
555.1756830217
 20
101.395582675
 30
0.0
 11
564.1930611135
 21
101.395582675
 31
0.0
  0
LINE
  5
1D1
330
1F
100
AcDbEntity
  8
0
  6
CONTINUOUS
 62
     7
100
AcDbLine
 10
564.1930611135
 20
101.395582675
 30
0.0
 11
564.1930611135
 21
97.395582485
 31
0.0
  0
LINE
  5
1D2
330
1F
100
AcDbEntity
  8
0
  6
CONTINUOUS
 62
     7
100
AcDbLine
 10
564.1930611135
 20
97.395582485
 30
0.0
 11
441.0930634738
 21
97.395582485
 31
0.0
  0
LINE
  5
1D3
330
1F
100
AcDbEntity
  8
0
  6
CONTINUOUS
 62
     7
100
AcDbLine
 10
441.0930634738
 20
101.395582675
 30
0.0
 11
441.0930634738
 21
97.395582485
 31
0.0
  0
LINE
  5
1D4
330
1F
100
AcDbEntity
  8
0
  6
CONTINUOUS
 62
     7
100
AcDbLine
 10
450.1104415657
 20
101.395582675
 30
0.0
 11
441.0930634738
 21
101.395582675
 31
0.0
  0
ARC
  5
1D5
330
1F
100
AcDbEntity
  8
0
  6
CONTINUOUS
 62
     7
100
AcDbCircle
 10
450.1104398725
 20
103.395582485
 30
0.0
 40
2.000000000000011
100
AcDbArc
 50
270.0
 51
359.5
  0
LINE
  5
1D6
330
1F
100
AcDbEntity
  8
0
  6
CONTINUOUS
 62
     7
100
AcDbLine
 10
452.1103636624
 20
103.3781295521
 30
0.0
 11
452.703943968
 21
171.3955834386
 31
0.0
  0
LINE
  5
1D7
330
1F
100
AcDbEntity
  8
0
  6
CONTINUOUS
 62
     7
100
AcDbLine
 10
552.5821806194
 20
171.3955834386
 30
0.0
 11
452.703943968
 21
171.3955834386
 31
0.0
  0
LINE
  5
1D8
330
1F
100
AcDbEntity
  8
0
  6
CONTINUOUS
 62
     7
100
AcDbLine
 10
552.5821806194
 20
171.3955834386
 30
0.0
 11
553.175760925
 21
103.3781295521
 31
0.0
  0
LINE
  5
1D9
330
1F
100
AcDbEntity
  8
0
  6
CONTINUOUS
 62
     7
100
AcDbLine
 10
441.0930634738
 20
97.395582485
 30
0.0
 11
437.5930638315
 21
97.395582485
 31
0.0
  0
LINE
  5
1DA
330
1F
100
AcDbEntity
  8
0
  6
CONTINUOUS
 62
     7
100
AcDbLine
 10
437.6279698016
 20
101.395582675
 30
0.0
 11
437.5930638315
 21
97.395582485
 31
0.0
  0
LINE
  5
1DB
330
1F
100
AcDbEntity
  8
0
  6
CONTINUOUS
 62
     7
100
AcDbLine
 10
441.0930634738
 20
101.395582675
 30
0.0
 11
437.6279698016
 21
101.395582675
 31
0.0
  0
LINE
  5
1DC
330
1F
100
AcDbEntity
  8
0
  6
CONTINUOUS
 62
     7
100
AcDbLine
 10
567.6581547858
 20
101.395582675
 30
0.0
 11
567.6930607559
 21
97.395582485
 31
0.0
  0
LINE
  5
1DD
330
1F
100
AcDbEntity
  8
0
  6
CONTINUOUS
 62
     7
100
AcDbLine
 10
564.1930611135
 20
101.395582675
 30
0.0
 11
567.6581547858
 21
101.395582675
 31
0.0
  0
LINE
  5
1DE
330
1F
100
AcDbEntity
  8
0
  6
CONTINUOUS
 62
     7
100
AcDbLine
 10
567.6930607559
 20
97.395582485
 30
0.0
 11
564.1930611135
 21
97.395582485
 31
0.0
  0
LINE
  5
1DF
330
1F
100
AcDbEntity
  8
0
  6
CONTINUOUS
 62
     7
100
AcDbLine
 10
564.1930611135
 20
172.3955854652
 30
0.0
 11
564.1930611135
 21
101.395582675
 31
0.0
  0
LINE
  5
1E0
330
1F
100
AcDbEntity
  8
0
  6
CONTINUOUS
 62
     7
100
AcDbLine
 10
564.1930611135
 20
172.3955854652
 30
0.0
 11
566.3734511735
 21
172.3955854652
 31
0.0
  0
LINE
  5
1E1
330
1F
100
AcDbEntity
  8
0
  6
CONTINUOUS
 62
     7
100
AcDbLine
 10
566.3734511735
 20
172.3955854652
 30
0.0
 11
566.9930638076
 21
101.395582675
 31
0.0
  0
LINE
  5
1E2
330
1F
100
AcDbEntity
  8
0
  6
CONTINUOUS
 62
     7
100
AcDbLine
 10
552.3909093143
 20
172.3955854652
 30
0.0
 11
552.3821809591
 21
171.3955834386
 31
0.0
  0
LINE
  5
1E3
330
1F
100
AcDbEntity
  8
0
  6
CONTINUOUS
 62
     7
100
AcDbLine
 10
552.3909093143
 20
172.3955854652
 30
0.0
 11
564.1930611135
 21
172.3955854652
 31
0.0
  0
LINE
  5
1E4
330
1F
100
AcDbEntity
  8
0
  6
CONTINUOUS
 62
     7
100
AcDbLine
 10
438.9126734139
 20
172.3955854652
 30
0.0
 11
438.2930607797
 21
101.395582675
 31
0.0
  0
LINE
  5
1E5
330
1F
100
AcDbEntity
  8
0
  6
CONTINUOUS
 62
     7
100
AcDbLine
 10
438.9126734139
 20
172.3955854652
 30
0.0
 11
441.0930634738
 21
172.3955854652
 31
0.0
  0
LINE
  5
1E6
330
1F
100
AcDbEntity
  8
0
  6
CONTINUOUS
 62
     7
100
AcDbLine
 10
441.0930634738
 20
172.3955854652
 30
0.0
 11
441.0930634738
 21
101.395582675
 31
0.0
  0
LINE
  5
1E7
330
1F
100
AcDbEntity
  8
0
  6
CONTINUOUS
 62
     7
100
AcDbLine
 10
441.0930634738
 20
172.3955854652
 30
0.0
 11
452.895215273
 21
172.3955854652
 31
0.0
  0
LINE
  5
1E8
330
1F
100
AcDbEntity
  8
0
  6
CONTINUOUS
 62
     7
100
AcDbLine
 10
452.895215273
 20
172.3955854652
 30
0.0
 11
452.9039436282
 21
171.3955834386
 31
0.0
  0
LINE
  5
1E9
330
1F
100
AcDbEntity
  8
0
  6
CONTINUOUS
 62
     7
100
AcDbLine
 10
566.9757635595
 20
103.3781295521
 30
0.0
 11
567.6408545376
 21
103.3781295521
 31
0.0
  0
LWPOLYLINE
  5
1EA
330
1F
100
AcDbEntity
  8
0
  6
CONTINUOUS
 62
     7
100
AcDbPolyline
 90
        9
 70
   128
 43
0.0
 10
567.6408545376
 20
103.3781295521
 10
567.6442371012
 20
102.9904353311
 10
567.6474855544
 20
102.6181386662
 10
567.6504732372
 20
102.2753886757
 10
567.6530958416
 20
101.9752117684
 10
567.6552416088
 20
101.7290161801
 10
567.6568434836
 20
101.5461579775
 10
567.6578195097
 20
101.4335876209
 10
567.6581547858
 20
101.395582675
  0
LINE
  5
1EB
330
1F
100
AcDbEntity
  8
0
  6
CONTINUOUS
 62
     7
100
AcDbLine
 10
437.6452700497
 20
103.3781295521
 30
0.0
 11
438.3103610279
 21
103.3781295521
 31
0.0
  0
LWPOLYLINE
  5
1EC
330
1F
100
AcDbEntity
  8
0
  6
CONTINUOUS
 62
     7
100
AcDbPolyline
 90
        9
 70
   128
 43
0.0
 10
437.6279698016
 20
101.395582675
 10
437.6283050777
 20
101.4335876209
 10
437.6292811038
 20
101.5461579775
 10
437.6308829786
 20
101.7290161801
 10
437.6330287458
 20
101.9752117684
 10
437.6356513502
 20
102.2753886757
 10
437.638639033
 20
102.6181386662
 10
437.6418874861
 20
102.9904353311
 10
437.6452700497
 20
103.3781295521
  0
LINE
  5
1ED
330
1F
100
AcDbEntity
  8
0
  6
CONTINUOUS
 62
     7
100
AcDbLine
 10
567.6408545376
 20
103.3781295521
 30
0.0
 11
567.0472742321
 21
171.3955834386
 31
0.0
  0
LINE
  5
1EE
330
1F
100
AcDbEntity
  8
0
  6
CONTINUOUS
 62
     7
100
AcDbLine
 10
566.3821832539
 20
171.3955834386
 30
0.0
 11
567.0472742321
 21
171.3955834386
 31
0.0
  0
LINE
  5
1EF
330
1F
100
AcDbEntity
  8
0
  6
CONTINUOUS
 62
     7
100
AcDbLine
 10
438.2388503553
 20
171.3955834386
 30
0.0
 11
437.6452700497
 21
103.3781295521
 31
0.0
  0
LINE
  5
1F0
330
1F
100
AcDbEntity
  8
0
  6
CONTINUOUS
 62
     7
100
AcDbLine
 10
438.9039413334
 20
171.3955834386
 30
0.0
 11
438.2388503553
 21
171.3955834386
 31
0.0
  0
LINE
  5
1F1
330
1F
100
AcDbEntity
  8
0
  6
CONTINUOUS
 62
     7
100
AcDbLine
 10
636.8980626203
 20
383.5985993019
 30
0.0
 11
636.8980626203
 21
233.7203656307
 31
0.0
  0
LINE
  5
1F2
330
1F
100
AcDbEntity
  8
0
  6
CONTINUOUS
 62
     7
100
AcDbLine
 10
636.8980626203
 20
383.5985993019
 30
0.0
 11
704.9155165069
 21
384.1921796074
 31
0.0
  0
ARC
  5
1F3
330
1F
100
AcDbEntity
  8
0
  6
CONTINUOUS
 62
     7
100
AcDbCircle
 10
704.898063574
 20
386.1921048875
 30
0.0
 40
2.000000000000012
100
AcDbArc
 50
270.5
 51
0.0
  0
LINE
  5
1F4
330
1F
100
AcDbEntity
  8
0
  6
CONTINUOUS
 62
     7
100
AcDbLine
 10
706.898063384
 20
395.209479796
 30
0.0
 11
706.898063384
 21
386.1921017042
 31
0.0
  0
LINE
  5
1F5
330
1F
100
AcDbEntity
  8
0
  6
CONTINUOUS
 62
     7
100
AcDbLine
 10
706.898063384
 20
395.209479796
 30
0.0
 11
710.898063574
 21
395.209479796
 31
0.0
  0
LINE
  5
1F6
330
1F
100
AcDbEntity
  8
0
  6
CONTINUOUS
 62
     7
100
AcDbLine
 10
710.898063574
 20
395.209479796
 30
0.0
 11
710.898063574
 21
222.1094851366
 31
0.0
  0
LINE
  5
1F7
330
1F
100
AcDbEntity
  8
0
  6
CONTINUOUS
 62
     7
100
AcDbLine
 10
706.898063384
 20
222.1094851366
 30
0.0
 11
710.898063574
 21
222.1094851366
 31
0.0
  0
LINE
  5
1F8
330
1F
100
AcDbEntity
  8
0
  6
CONTINUOUS
 62
     7
100
AcDbLine
 10
706.898063384
 20
231.1268632284
 30
0.0
 11
706.898063384
 21
222.1094851366
 31
0.0
  0
ARC
  5
1F9
330
1F
100
AcDbEntity
  8
0
  6
CONTINUOUS
 62
     7
100
AcDbCircle
 10
704.898063574
 20
231.1268600451
 30
0.0
 40
2.00000000000004
100
AcDbArc
 50
0.0
 51
89.5
  0
LINE
  5
1FA
330
1F
100
AcDbEntity
  8
0
  6
CONTINUOUS
 62
     7
100
AcDbLine
 10
704.9155165069
 20
233.1267853251
 30
0.0
 11
636.8980626203
 21
233.7203656307
 31
0.0
  0
LINE
  5
1FB
330
1F
100
AcDbEntity
  8
0
  6
CONTINUOUS
 62
     7
100
AcDbLine
 10
710.898063574
 20
398.7094794384
 30
0.0
 11
710.898063574
 21
395.209479796
 31
0.0
  0
LINE
  5
1FC
330
1F
100
AcDbEntity
  8
0
  6
CONTINUOUS
 62
     7
100
AcDbLine
 10
706.898063384
 20
398.6745734683
 30
0.0
 11
706.898063384
 21
395.209479796
 31
0.0
  0
LINE
  5
1FD
330
1F
100
AcDbEntity
  8
0
  6
CONTINUOUS
 62
     7
100
AcDbLine
 10
706.898063384
 20
398.6745734683
 30
0.0
 11
710.898063574
 21
398.7094794384
 31
0.0
  0
LINE
  5
1FE
330
1F
100
AcDbEntity
  8
0
  6
CONTINUOUS
 62
     7
100
AcDbLine
 10
710.898063574
 20
222.1094851366
 30
0.0
 11
710.898063574
 21
218.6094854942
 31
0.0
  0
LINE
  5
1FF
330
1F
100
AcDbEntity
  8
0
  6
CONTINUOUS
 62
     7
100
AcDbLine
 10
706.898063384
 20
218.6443914643
 30
0.0
 11
710.898063574
 21
218.6094854942
 31
0.0
  0
LINE
  5
200
330
1F
100
AcDbEntity
  8
0
  6
CONTINUOUS
 62
     7
100
AcDbLine
 10
706.898063384
 20
222.1094851366
 30
0.0
 11
706.898063384
 21
218.6443914643
 31
0.0
  0
LINE
  5
201
330
1F
100
AcDbEntity
  8
0
  6
CONTINUOUS
 62
     7
100
AcDbLine
 10
635.8980605938
 20
395.209479796
 30
0.0
 11
706.898063384
 21
395.209479796
 31
0.0
  0
LINE
  5
202
330
1F
100
AcDbEntity
  8
0
  6
CONTINUOUS
 62
     7
100
AcDbLine
 10
635.8980605938
 20
395.209479796
 30
0.0
 11
635.8980605938
 21
397.3898773065
 31
0.0
  0
LINE
  5
203
330
1F
100
AcDbEntity
  8
0
  6
CONTINUOUS
 62
     7
100
AcDbLine
 10
635.8980605938
 20
397.3898773065
 30
0.0
 11
706.898063384
 21
398.0094824901
 31
0.0
  0
LINE
  5
204
330
1F
100
AcDbEntity
  8
0
  6
CONTINUOUS
 62
     7
100
AcDbLine
 10
635.8980605938
 20
219.929087626
 30
0.0
 11
706.898063384
 21
219.3094824424
 31
0.0
  0
LINE
  5
205
330
1F
100
AcDbEntity
  8
0
  6
CONTINUOUS
 62
     7
100
AcDbLine
 10
635.8980605938
 20
219.929087626
 30
0.0
 11
635.8980605938
 21
222.1094851366
 31
0.0
  0
LINE
  5
206
330
1F
100
AcDbEntity
  8
0
  6
CONTINUOUS
 62
     7
100
AcDbLine
 10
635.8980605938
 20
222.1094851366
 30
0.0
 11
706.898063384
 21
222.1094851366
 31
0.0
  0
LINE
  5
207
330
1F
100
AcDbEntity
  8
0
  6
CONTINUOUS
 62
     7
100
AcDbLine
 10
635.8980605938
 20
222.1094851366
 30
0.0
 11
635.8980605938
 21
233.9116369358
 31
0.0
  0
LINE
  5
208
330
1F
100
AcDbEntity
  8
0
  6
CONTINUOUS
 62
     7
100
AcDbLine
 10
635.8980605938
 20
233.9116369358
 30
0.0
 11
636.8980626203
 21
233.9203615656
 31
0.0
  0
LINE
  5
209
330
1F
100
AcDbEntity
  8
0
  6
CONTINUOUS
 62
     7
100
AcDbLine
 10
635.8980605938
 20
383.4073279968
 30
0.0
 11
636.8980626203
 21
383.3986033669
 31
0.0
  0
LINE
  5
20A
330
1F
100
AcDbEntity
  8
0
  6
CONTINUOUS
 62
     7
100
AcDbLine
 10
635.8980605938
 20
383.4073279968
 30
0.0
 11
635.8980605938
 21
395.209479796
 31
0.0
  0
LINE
  5
20B
330
1F
100
AcDbEntity
  8
0
  6
CONTINUOUS
 62
     7
100
AcDbLine
 10
704.9155165069
 20
397.992182242
 30
0.0
 11
704.9155165069
 21
398.6572732201
 31
0.0
  0
LWPOLYLINE
  5
20C
330
1F
100
AcDbEntity
  8
0
  6
CONTINUOUS
 62
     7
100
AcDbPolyline
 90
        9
 70
   128
 43
0.0
 10
704.9155165069
 20
398.6572732201
 10
705.3032107279
 20
398.6606557837
 10
705.6755073928
 20
398.6639042369
 10
706.0182573833
 20
398.6668993703
 10
706.3184342906
 20
398.669514524
 10
706.5646298789
 20
398.6716677418
 10
706.7474880815
 20
398.6732621661
 10
706.8600584381
 20
398.6742456427
 10
706.898063384
 20
398.6745734683
  0
LINE
  5
20D
330
1F
100
AcDbEntity
  8
0
  6
CONTINUOUS
 62
     7
100
AcDbLine
 10
704.9155165069
 20
218.6616917124
 30
0.0
 11
704.9155165069
 21
219.3267826906
 31
0.0
  0
LWPOLYLINE
  5
20E
330
1F
100
AcDbEntity
  8
0
  6
CONTINUOUS
 62
     7
100
AcDbPolyline
 90
        9
 70
   128
 43
0.0
 10
706.898063384
 20
218.6443914643
 10
706.8600584381
 20
218.6447192898
 10
706.7474880815
 20
218.6457027665
 10
706.5646298789
 20
218.6472971907
 10
706.3184342906
 20
218.6494504085
 10
706.0182573833
 20
218.6520655623
 10
705.6755073928
 20
218.6550606957
 10
705.3032107279
 20
218.6583091488
 10
704.9155165069
 20
218.6616917124
  0
LINE
  5
20F
330
1F
100
AcDbEntity
  8
0
  6
CONTINUOUS
 62
     7
100
AcDbLine
 10
704.9155165069
 20
398.6572732201
 30
0.0
 11
636.8980626203
 21
398.0636929145
 31
0.0
  0
LINE
  5
210
330
1F
100
AcDbEntity
  8
0
  6
CONTINUOUS
 62
     7
100
AcDbLine
 10
636.8980626203
 20
397.3986019364
 30
0.0
 11
636.8980626203
 21
398.0636929145
 31
0.0
  0
LINE
  5
211
330
1F
100
AcDbEntity
  8
0
  6
CONTINUOUS
 62
     7
100
AcDbLine
 10
636.8980626203
 20
219.255272018
 30
0.0
 11
704.9155165069
 21
218.6616917124
 31
0.0
  0
LINE
  5
212
330
1F
100
AcDbEntity
  8
0
  6
CONTINUOUS
 62
     7
100
AcDbLine
 10
636.8980626203
 20
219.9203629962
 30
0.0
 11
636.8980626203
 21
219.255272018
 31
0.0
  0
LINE
  5
213
330
1F
100
AcDbEntity
  8
0
  6
CONTINUOUS
 62
     7
100
AcDbLine
 10
202.6064353259
 20
219.929087626
 30
0.0
 11
214.4085871251
 21
219.929087626
 31
0.0
  0
LINE
  5
214
330
1F
100
AcDbEntity
  8
0
  6
CONTINUOUS
 62
     7
100
AcDbLine
 10
202.6064353259
 20
221.9116349688
 30
0.0
 11
202.6064353259
 21
219.929087626
 31
0.0
  0
LINE
  5
215
330
1F
100
AcDbEntity
  8
0
  6
CONTINUOUS
 62
     7
100
AcDbLine
 10
214.4085871251
 20
221.9116349688
 30
0.0
 11
202.6064353259
 21
221.9116349688
 31
0.0
  0
ARC
  5
216
330
1F
100
AcDbEntity
  8
0
  6
CONTINUOUS
 62
     7
100
AcDbCircle
 10
214.4085883053
 20
222.1094824663
 30
0.0
 40
0.1978461224376247
100
AcDbArc
 50
270.0
 51
0.0
  0
LINE
  5
217
330
1F
100
AcDbEntity
  8
0
  6
CONTINUOUS
 62
     7
100
AcDbLine
 10
214.6064335676
 20
233.9116369358
 30
0.0
 11
214.6064335676
 21
222.1094851366
 31
0.0
  0
LINE
  5
218
330
1F
100
AcDbEntity
  8
0
  6
CONTINUOUS
 62
     7
100
AcDbLine
 10
216.5889771851
 20
233.9116369358
 30
0.0
 11
214.6064335676
 21
233.9116369358
 31
0.0
  0
LINE
  5
219
330
1F
100
AcDbEntity
  8
0
  6
CONTINUOUS
 62
     7
100
AcDbLine
 10
216.5889771851
 20
222.1094851366
 30
0.0
 11
216.5889771851
 21
233.9116369358
 31
0.0
  0
ARC
  5
21A
330
1F
100
AcDbEntity
  8
0
  6
CONTINUOUS
 62
     7
100
AcDbCircle
 10
214.4085883053
 20
222.1094824663
 30
0.0
 40
2.180392386856141
100
AcDbArc
 50
270.0
 51
0.0
  0
LINE
  5
21B
330
1F
100
AcDbEntity
  8
0
  6
CONTINUOUS
 62
     7
100
AcDbLine
 10
216.5889771851
 20
383.4073279968
 30
0.0
 11
216.5889771851
 21
395.209479796
 31
0.0
  0
LINE
  5
21C
330
1F
100
AcDbEntity
  8
0
  6
CONTINUOUS
 62
     7
100
AcDbLine
 10
214.6064335676
 20
383.4073279968
 30
0.0
 11
216.5889771851
 21
383.4073279968
 31
0.0
  0
LINE
  5
21D
330
1F
100
AcDbEntity
  8
0
  6
CONTINUOUS
 62
     7
100
AcDbLine
 10
214.6064335676
 20
395.209479796
 30
0.0
 11
214.6064335676
 21
383.4073279968
 31
0.0
  0
ARC
  5
21E
330
1F
100
AcDbEntity
  8
0
  6
CONTINUOUS
 62
     7
100
AcDbCircle
 10
214.4085883053
 20
395.2094824663
 30
0.0
 40
0.1978461224375678
100
AcDbArc
 50
0.0
 51
90.0
  0
LINE
  5
21F
330
1F
100
AcDbEntity
  8
0
  6
CONTINUOUS
 62
     7
100
AcDbLine
 10
202.6064353259
 20
395.4073299637
 30
0.0
 11
214.4085871251
 21
395.4073299637
 31
0.0
  0
LINE
  5
220
330
1F
100
AcDbEntity
  8
0
  6
CONTINUOUS
 62
     7
100
AcDbLine
 10
202.6064353259
 20
397.3898773065
 30
0.0
 11
202.6064353259
 21
395.4073299637
 31
0.0
  0
LINE
  5
221
330
1F
100
AcDbEntity
  8
0
  6
CONTINUOUS
 62
     7
100
AcDbLine
 10
214.4085871251
 20
397.3898773065
 30
0.0
 11
202.6064353259
 21
397.3898773065
 31
0.0
  0
ARC
  5
222
330
1F
100
AcDbEntity
  8
0
  6
CONTINUOUS
 62
     7
100
AcDbCircle
 10
214.4085883053
 20
395.2094824663
 30
0.0
 40
2.180392386856084
100
AcDbArc
 50
360.0
 51
90.0
  0
LINE
  5
223
330
1F
100
AcDbEntity
  8
0
  6
CONTINUOUS
 62
     7
100
AcDbLine
 10
216.5977092656
 20
383.3986033669
 30
0.0
 11
216.5977092656
 21
383.5985993019
 31
0.0
  0
LINE
  5
224
330
1F
100
AcDbEntity
  8
0
  6
CONTINUOUS
 62
     7
100
AcDbLine
 10
216.5889771851
 20
383.4073279968
 30
0.0
 11
216.5977092656
 21
383.3986033669
 31
0.0
  0
LINE
  5
225
330
1F
100
AcDbEntity
  8
0
  6
CONTINUOUS
 62
     7
100
AcDbLine
 10
216.5889771851
 20
395.209479796
 30
0.0
 11
217.2085898193
 21
395.209479796
 31
0.0
  0
LINE
  5
226
330
1F
100
AcDbEntity
  8
0
  6
CONTINUOUS
 62
     7
100
AcDbLine
 10
217.2085898193
 20
386.1921017042
 30
0.0
 11
217.2085898193
 21
395.209479796
 31
0.0
  0
ELLIPSE
  5
227
330
1F
100
AcDbEntity
  8
0
  6
CONTINUOUS
 62
     7
100
AcDbEllipse
 10
217.1911345697
 20
386.1921048875
 30
0.0
 11
0.0
 21
2.0
 31
0.0
210
0.0
220
0.0
230
1.0
 40
0.0087268678
 41
3.150319299849702
 42
4.71238898038469
  0
LINE
  5
228
330
1F
100
AcDbEntity
  8
0
  6
CONTINUOUS
 62
     7
100
AcDbLine
 10
216.5977092656
 20
383.5985993019
 30
0.0
 11
217.1912895711
 21
384.1921796074
 31
0.0
  0
LINE
  5
229
330
1F
100
AcDbEntity
  8
0
  6
CONTINUOUS
 62
     7
100
AcDbLine
 10
214.4085871251
 20
219.929087626
 30
0.0
 11
214.4085871251
 21
219.3094824424
 31
0.0
  0
LINE
  5
22A
330
1F
100
AcDbEntity
  8
0
  6
CONTINUOUS
 62
     7
100
AcDbLine
 10
216.5889771851
 20
222.1094851366
 30
0.0
 11
217.2085898193
 21
222.1094851366
 31
0.0
  0
ARC
  5
22B
330
1F
100
AcDbEntity
  8
0
  6
CONTINUOUS
 62
     7
100
AcDbCircle
 10
214.4085883053
 20
222.1094824663
 30
0.0
 40
2.799999999999983
100
AcDbArc
 50
270.0
 51
0.0
  0
LINE
  5
22C
330
1F
100
AcDbEntity
  8
0
  6
CONTINUOUS
 62
     7
100
AcDbLine
 10
214.6064335676
 20
383.4073279968
 30
0.0
 11
214.5977089377
 21
383.3986033669
 31
0.0
  0
LINE
  5
22D
330
1F
100
AcDbEntity
  8
0
  6
CONTINUOUS
 62
     7
100
AcDbLine
 10
214.5977089377
 20
383.3986033669
 30
0.0
 11
216.5977092656
 21
383.3986033669
 31
0.0
  0
LINE
  5
22E
330
1F
100
AcDbEntity
  8
0
  6
CONTINUOUS
 62
     7
100
AcDbLine
 10
216.5889771851
 20
233.9116369358
 30
0.0
 11
216.5977092656
 21
233.9203615656
 31
0.0
  0
LINE
  5
22F
330
1F
100
AcDbEntity
  8
0
  6
CONTINUOUS
 62
     7
100
AcDbLine
 10
216.5977092656
 20
233.7203656307
 30
0.0
 11
216.5977092656
 21
233.9203615656
 31
0.0
  0
LINE
  5
230
330
1F
100
AcDbEntity
  8
0
  6
CONTINUOUS
 62
     7
100
AcDbLine
 10
216.5977092656
 20
233.7203656307
 30
0.0
 11
217.1912895711
 21
233.1267853251
 31
0.0
  0
ELLIPSE
  5
231
330
1F
100
AcDbEntity
  8
0
  6
CONTINUOUS
 62
     7
100
AcDbEllipse
 10
217.1911345697
 20
231.1268600451
 30
0.0
 11
-2.842170943040401E-14
 21
2.0
 31
0.0
210
0.0
220
0.0
230
1.0
 40
0.0087268678
 41
4.71238898038469
 42
6.274458660921213
  0
LINE
  5
232
330
1F
100
AcDbEntity
  8
0
  6
CONTINUOUS
 62
     7
100
AcDbLine
 10
217.2085898193
 20
222.1094851366
 30
0.0
 11
217.2085898193
 21
231.1268632284
 31
0.0
  0
LINE
  5
233
330
1F
100
AcDbEntity
  8
0
  6
CONTINUOUS
 62
     7
100
AcDbLine
 10
214.6064335676
 20
233.9116369358
 30
0.0
 11
214.5977089377
 21
233.9203615656
 31
0.0
  0
LINE
  5
234
330
1F
100
AcDbEntity
  8
0
  6
CONTINUOUS
 62
     7
100
AcDbLine
 10
216.5977092656
 20
233.9203615656
 30
0.0
 11
214.5977089377
 21
233.9203615656
 31
0.0
  0
LINE
  5
235
330
1F
100
AcDbEntity
  8
0
  6
CONTINUOUS
 62
     7
100
AcDbLine
 10
214.4085871251
 20
397.3898773065
 30
0.0
 11
214.4085871251
 21
398.0094824901
 31
0.0
  0
ARC
  5
236
330
1F
100
AcDbEntity
  8
0
  6
CONTINUOUS
 62
     7
100
AcDbCircle
 10
214.4085883053
 20
395.2094824663
 30
0.0
 40
2.799999999999926
100
AcDbArc
 50
0.0
 51
90.0
  0
LINE
  5
237
330
1F
100
AcDbEntity
  8
0
  6
CONTINUOUS
 62
     7
100
AcDbLine
 10
202.6064353259
 20
397.3898773065
 30
0.0
 11
202.5977069708
 21
397.3986019364
 31
0.0
  0
LINE
  5
238
330
1F
100
AcDbEntity
  8
0
  6
CONTINUOUS
 62
     7
100
AcDbLine
 10
202.797706631
 20
397.3986019364
 30
0.0
 11
202.5977069708
 21
397.3986019364
 31
0.0
  0
LINE
  5
239
330
1F
100
AcDbEntity
  8
0
  6
CONTINUOUS
 62
     7
100
AcDbLine
 10
202.797706631
 20
397.3986019364
 30
0.0
 11
203.3912869366
 21
397.992182242
 31
0.0
  0
ELLIPSE
  5
23A
330
1F
100
AcDbEntity
  8
0
  6
CONTINUOUS
 62
     7
100
AcDbEllipse
 10
205.3912107265
 20
397.9920287307
 30
0.0
 11
2.0
 21
0.0
 31
0.0
210
0.0
220
0.0
230
1.0
 40
0.0087268678
 41
1.570796326794897
 42
3.132866007331471
  0
LINE
  5
23B
330
1F
100
AcDbEntity
  8
0
  6
CONTINUOUS
 62
     7
100
AcDbLine
 10
214.4085871251
 20
398.0094824901
 30
0.0
 11
205.3912090333
 21
398.0094824901
 31
0.0
  0
LINE
  5
23C
330
1F
100
AcDbEntity
  8
0
  6
CONTINUOUS
 62
     7
100
AcDbLine
 10
214.6064335676
 20
395.209479796
 30
0.0
 11
214.5977089377
 21
395.209479796
 31
0.0
  0
LINE
  5
23D
330
1F
100
AcDbEntity
  8
0
  6
CONTINUOUS
 62
     7
100
AcDbLine
 10
214.5977089377
 20
395.209479796
 30
0.0
 11
214.5977089377
 21
383.3986033669
 31
0.0
  0
LINE
  5
23E
330
1F
100
AcDbEntity
  8
0
  6
CONTINUOUS
 62
     7
100
AcDbLine
 10
214.4085871251
 20
395.4073299637
 30
0.0
 11
214.4085871251
 21
395.3986053339
 31
0.0
  0
ARC
  5
23F
330
1F
100
AcDbEntity
  8
0
  6
CONTINUOUS
 62
     7
100
AcDbCircle
 10
214.4085883053
 20
395.2094824663
 30
0.0
 40
0.1891192546468119
100
AcDbArc
 50
0.0
 51
90.0
  0
LINE
  5
240
330
1F
100
AcDbEntity
  8
0
  6
CONTINUOUS
 62
     7
100
AcDbLine
 10
214.4085871251
 20
221.9116349688
 30
0.0
 11
214.4085871251
 21
221.9203595987
 31
0.0
  0
LINE
  5
241
330
1F
100
AcDbEntity
  8
0
  6
CONTINUOUS
 62
     7
100
AcDbLine
 10
202.6064353259
 20
221.9116349688
 30
0.0
 11
202.5977069708
 21
221.9203595987
 31
0.0
  0
LINE
  5
242
330
1F
100
AcDbEntity
  8
0
  6
CONTINUOUS
 62
     7
100
AcDbLine
 10
214.4085871251
 20
221.9203595987
 30
0.0
 11
202.5977069708
 21
221.9203595987
 31
0.0
  0
LINE
  5
243
330
1F
100
AcDbEntity
  8
0
  6
CONTINUOUS
 62
     7
100
AcDbLine
 10
214.6064335676
 20
222.1094851366
 30
0.0
 11
214.5977089377
 21
222.1094851366
 31
0.0
  0
LINE
  5
244
330
1F
100
AcDbEntity
  8
0
  6
CONTINUOUS
 62
     7
100
AcDbLine
 10
214.5977089377
 20
233.9203615656
 30
0.0
 11
214.5977089377
 21
222.1094851366
 31
0.0
  0
LINE
  5
245
330
1F
100
AcDbEntity
  8
0
  6
CONTINUOUS
 62
     7
100
AcDbLine
 10
202.6064353259
 20
395.4073299637
 30
0.0
 11
202.5977069708
 21
395.3986053339
 31
0.0
  0
LINE
  5
246
330
1F
100
AcDbEntity
  8
0
  6
CONTINUOUS
 62
     7
100
AcDbLine
 10
202.5977069708
 20
395.3986053339
 30
0.0
 11
214.4085871251
 21
395.3986053339
 31
0.0
  0
LINE
  5
247
330
1F
100
AcDbEntity
  8
0
  6
CONTINUOUS
 62
     7
100
AcDbLine
 10
202.5977069708
 20
219.9203629962
 30
0.0
 11
202.797706631
 21
219.9203629962
 31
0.0
  0
LINE
  5
248
330
1F
100
AcDbEntity
  8
0
  6
CONTINUOUS
 62
     7
100
AcDbLine
 10
202.6064353259
 20
219.929087626
 30
0.0
 11
202.5977069708
 21
219.9203629962
 31
0.0
  0
LINE
  5
249
330
1F
100
AcDbEntity
  8
0
  6
CONTINUOUS
 62
     7
100
AcDbLine
 10
205.3912090333
 20
219.3094824424
 30
0.0
 11
214.4085871251
 21
219.3094824424
 31
0.0
  0
ELLIPSE
  5
24A
330
1F
100
AcDbEntity
  8
0
  6
CONTINUOUS
 62
     7
100
AcDbEllipse
 10
205.3912107265
 20
219.3269362019
 30
0.0
 11
2.0
 21
0.0
 31
0.0
210
0.0
220
0.0
230
1.0
 40
0.0087268678
 41
3.150319299851344
 42
4.71238898038469
  0
LINE
  5
24B
330
1F
100
AcDbEntity
  8
0
  6
CONTINUOUS
 62
     7
100
AcDbLine
 10
202.797706631
 20
219.9203629962
 30
0.0
 11
203.3912869366
 21
219.3267826906
 31
0.0
  0
ARC
  5
24C
330
1F
100
AcDbEntity
  8
0
  6
CONTINUOUS
 62
     7
100
AcDbCircle
 10
214.4085883053
 20
222.1094824663
 30
0.0
 40
0.1891192546468403
100
AcDbArc
 50
270.0
 51
0.0
  0
LINE
  5
24D
330
1F
100
AcDbEntity
  8
0
  6
CONTINUOUS
 62
     7
100
AcDbLine
 10
202.5977069708
 20
221.9203595987
 30
0.0
 11
202.5977069708
 21
219.9203629962
 31
0.0
  0
LINE
  5
24E
330
1F
100
AcDbEntity
  8
0
  6
CONTINUOUS
 62
     7
100
AcDbLine
 10
202.5977069708
 20
397.3986019364
 30
0.0
 11
202.5977069708
 21
395.3986053339
 31
0.0
  0
LINE
  5
24F
330
1F
100
AcDbEntity
  8
0
  6
CONTINUOUS
 62
     7
100
AcDbLine
 10
103.1107412847
 20
221.9116349688
 30
0.0
 11
103.1194696399
 21
221.9203595987
 31
0.0
  0
LINE
  5
250
330
1F
100
AcDbEntity
  8
0
  6
CONTINUOUS
 62
     7
100
AcDbLine
 10
103.1107412847
 20
221.9116349688
 30
0.0
 11
91.3085894855
 21
221.9116349688
 31
0.0
  0
LINE
  5
251
330
1F
100
AcDbEntity
  8
0
  6
CONTINUOUS
 62
     7
100
AcDbLine
 10
91.3085894855
 20
221.9116349688
 30
0.0
 11
91.3085894855
 21
221.9203595987
 31
0.0
  0
LINE
  5
252
330
1F
100
AcDbEntity
  8
0
  6
CONTINUOUS
 62
     7
100
AcDbLine
 10
103.1194696399
 20
221.9203595987
 30
0.0
 11
91.3085894855
 21
221.9203595987
 31
0.0
  0
LINE
  5
253
330
1F
100
AcDbEntity
  8
0
  6
CONTINUOUS
 62
     7
100
AcDbLine
 10
103.1107412847
 20
397.3898773065
 30
0.0
 11
91.3085894855
 21
397.3898773065
 31
0.0
  0
LINE
  5
254
330
1F
100
AcDbEntity
  8
0
  6
CONTINUOUS
 62
     7
100
AcDbLine
 10
103.1107412847
 20
395.4073299637
 30
0.0
 11
103.1107412847
 21
397.3898773065
 31
0.0
  0
LINE
  5
255
330
1F
100
AcDbEntity
  8
0
  6
CONTINUOUS
 62
     7
100
AcDbLine
 10
91.3085894855
 20
395.4073299637
 30
0.0
 11
103.1107412847
 21
395.4073299637
 31
0.0
  0
ARC
  5
256
330
1F
100
AcDbEntity
  8
0
  6
CONTINUOUS
 62
     7
100
AcDbCircle
 10
91.3085883053
 20
395.2094824663
 30
0.0
 40
0.1978461224376247
100
AcDbArc
 50
90.0
 51
180.0
  0
LINE
  5
257
330
1F
100
AcDbEntity
  8
0
  6
CONTINUOUS
 62
     7
100
AcDbLine
 10
91.110743043
 20
383.4073279968
 30
0.0
 11
91.110743043
 21
395.209479796
 31
0.0
  0
LINE
  5
258
330
1F
100
AcDbEntity
  8
0
  6
CONTINUOUS
 62
     7
100
AcDbLine
 10
89.1281994255
 20
383.4073279968
 30
0.0
 11
91.110743043
 21
383.4073279968
 31
0.0
  0
LINE
  5
259
330
1F
100
AcDbEntity
  8
0
  6
CONTINUOUS
 62
     7
100
AcDbLine
 10
89.1281994255
 20
395.209479796
 30
0.0
 11
89.1281994255
 21
383.4073279968
 31
0.0
  0
ARC
  5
25A
330
1F
100
AcDbEntity
  8
0
  6
CONTINUOUS
 62
     7
100
AcDbCircle
 10
91.3085883053
 20
395.2094824663
 30
0.0
 40
2.180392386856141
100
AcDbArc
 50
90.0
 51
180.0
  0
LINE
  5
25B
330
1F
100
AcDbEntity
  8
0
  6
CONTINUOUS
 62
     7
100
AcDbLine
 10
103.1107412847
 20
219.929087626
 30
0.0
 11
103.1194696399
 21
219.9203629962
 31
0.0
  0
LINE
  5
25C
330
1F
100
AcDbEntity
  8
0
  6
CONTINUOUS
 62
     7
100
AcDbLine
 10
103.1107412847
 20
219.929087626
 30
0.0
 11
103.1107412847
 21
221.9116349688
 31
0.0
  0
LINE
  5
25D
330
1F
100
AcDbEntity
  8
0
  6
CONTINUOUS
 62
     7
100
AcDbLine
 10
103.1194696399
 20
219.9203629962
 30
0.0
 11
103.1194696399
 21
221.9203595987
 31
0.0
  0
LINE
  5
25E
330
1F
100
AcDbEntity
  8
0
  6
CONTINUOUS
 62
     7
100
AcDbLine
 10
91.110743043
 20
233.9116369358
 30
0.0
 11
89.1281994255
 21
233.9116369358
 31
0.0
  0
LINE
  5
25F
330
1F
100
AcDbEntity
  8
0
  6
CONTINUOUS
 62
     7
100
AcDbLine
 10
91.110743043
 20
222.1094851366
 30
0.0
 11
91.110743043
 21
233.9116369358
 31
0.0
  0
ARC
  5
260
330
1F
100
AcDbEntity
  8
0
  6
CONTINUOUS
 62
     7
100
AcDbCircle
 10
91.3085883053
 20
222.1094824663
 30
0.0
 40
0.1978461224376247
100
AcDbArc
 50
180.0
 51
270.0
  0
LINE
  5
261
330
1F
100
AcDbEntity
  8
0
  6
CONTINUOUS
 62
     7
100
AcDbLine
 10
91.3085894855
 20
219.929087626
 30
0.0
 11
103.1107412847
 21
219.929087626
 31
0.0
  0
ARC
  5
262
330
1F
100
AcDbEntity
  8
0
  6
CONTINUOUS
 62
     7
100
AcDbCircle
 10
91.3085883053
 20
222.1094824663
 30
0.0
 40
2.180392386856141
100
AcDbArc
 50
180.0
 51
270.0
  0
LINE
  5
263
330
1F
100
AcDbEntity
  8
0
  6
CONTINUOUS
 62
     7
100
AcDbLine
 10
89.1281994255
 20
233.9116369358
 30
0.0
 11
89.1281994255
 21
222.1094851366
 31
0.0
  0
LINE
  5
264
330
1F
100
AcDbEntity
  8
0
  6
CONTINUOUS
 62
     7
100
AcDbLine
 10
103.1107412847
 20
395.4073299637
 30
0.0
 11
103.1194696399
 21
395.3986053339
 31
0.0
  0
LINE
  5
265
330
1F
100
AcDbEntity
  8
0
  6
CONTINUOUS
 62
     7
100
AcDbLine
 10
103.1107412847
 20
397.3898773065
 30
0.0
 11
103.1194696399
 21
397.3986019364
 31
0.0
  0
LINE
  5
266
330
1F
100
AcDbEntity
  8
0
  6
CONTINUOUS
 62
     7
100
AcDbLine
 10
103.1194696399
 20
395.3986053339
 30
0.0
 11
103.1194696399
 21
397.3986019364
 31
0.0
  0
LINE
  5
267
330
1F
100
AcDbEntity
  8
0
  6
CONTINUOUS
 62
     7
100
AcDbLine
 10
91.3085894855
 20
395.4073299637
 30
0.0
 11
91.3085894855
 21
395.3986053339
 31
0.0
  0
LINE
  5
268
330
1F
100
AcDbEntity
  8
0
  6
CONTINUOUS
 62
     7
100
AcDbLine
 10
91.3085894855
 20
395.3986053339
 30
0.0
 11
103.1194696399
 21
395.3986053339
 31
0.0
  0
LINE
  5
269
330
1F
100
AcDbEntity
  8
0
  6
CONTINUOUS
 62
     7
100
AcDbLine
 10
103.1194696399
 20
397.3986019364
 30
0.0
 11
102.9194699796
 21
397.3986019364
 31
0.0
  0
LINE
  5
26A
330
1F
100
AcDbEntity
  8
0
  6
CONTINUOUS
 62
     7
100
AcDbLine
 10
91.3085894855
 20
397.3898773065
 30
0.0
 11
91.3085894855
 21
398.0094824901
 31
0.0
  0
LINE
  5
26B
330
1F
100
AcDbEntity
  8
0
  6
CONTINUOUS
 62
     7
100
AcDbLine
 10
100.3259675773
 20
398.0094824901
 30
0.0
 11
91.3085894855
 21
398.0094824901
 31
0.0
  0
ELLIPSE
  5
26C
330
1F
100
AcDbEntity
  8
0
  6
CONTINUOUS
 62
     7
100
AcDbEllipse
 10
100.3259658841
 20
397.9920287307
 30
0.0
 11
2.0
 21
0.0
 31
0.0
210
0.0
220
0.0
230
1.0
 40
0.0087268678
 41
0.0087266462615661
 42
1.570796326794897
  0
LINE
  5
26D
330
1F
100
AcDbEntity
  8
0
  6
CONTINUOUS
 62
     7
100
AcDbLine
 10
102.9194699796
 20
397.3986019364
 30
0.0
 11
102.325889674
 21
397.992182242
 31
0.0
  0
LINE
  5
26E
330
1F
100
AcDbEntity
  8
0
  6
CONTINUOUS
 62
     7
100
AcDbLine
 10
91.3085894855
 20
219.929087626
 30
0.0
 11
91.3085894855
 21
219.3094824424
 31
0.0
  0
LINE
  5
26F
330
1F
100
AcDbEntity
  8
0
  6
CONTINUOUS
 62
     7
100
AcDbLine
 10
102.9194699796
 20
219.9203629962
 30
0.0
 11
103.1194696399
 21
219.9203629962
 31
0.0
  0
LINE
  5
270
330
1F
100
AcDbEntity
  8
0
  6
CONTINUOUS
 62
     7
100
AcDbLine
 10
102.9194699796
 20
219.9203629962
 30
0.0
 11
102.325889674
 21
219.3267826906
 31
0.0
  0
ELLIPSE
  5
271
330
1F
100
AcDbEntity
  8
0
  6
CONTINUOUS
 62
     7
100
AcDbEllipse
 10
100.3259658841
 20
219.3269362019
 30
0.0
 11
2.0
 21
0.0
 31
0.0
210
0.0
220
0.0
230
1.0
 40
0.0087268678
 41
4.71238898038469
 42
6.274458660919571
  0
LINE
  5
272
330
1F
100
AcDbEntity
  8
0
  6
CONTINUOUS
 62
     7
100
AcDbLine
 10
91.3085894855
 20
219.3094824424
 30
0.0
 11
100.3259675773
 21
219.3094824424
 31
0.0
  0
LINE
  5
273
330
1F
100
AcDbEntity
  8
0
  6
CONTINUOUS
 62
     7
100
AcDbLine
 10
91.110743043
 20
383.4073279968
 30
0.0
 11
91.1194676729
 21
383.3986033669
 31
0.0
  0
LINE
  5
274
330
1F
100
AcDbEntity
  8
0
  6
CONTINUOUS
 62
     7
100
AcDbLine
 10
91.110743043
 20
395.209479796
 30
0.0
 11
91.1194676729
 21
395.209479796
 31
0.0
  0
LINE
  5
275
330
1F
100
AcDbEntity
  8
0
  6
CONTINUOUS
 62
     7
100
AcDbLine
 10
91.1194676729
 20
383.3986033669
 30
0.0
 11
91.1194676729
 21
395.209479796
 31
0.0
  0
LINE
  5
276
330
1F
100
AcDbEntity
  8
0
  6
CONTINUOUS
 62
     7
100
AcDbLine
 10
89.1281994255
 20
395.209479796
 30
0.0
 11
88.5085867914
 21
395.209479796
 31
0.0
  0
ARC
  5
277
330
1F
100
AcDbEntity
  8
0
  6
CONTINUOUS
 62
     7
100
AcDbCircle
 10
91.3085883053
 20
395.2094824663
 30
0.0
 40
2.800000000000011
100
AcDbArc
 50
90.0
 51
180.0
  0
ARC
  5
278
330
1F
100
AcDbEntity
  8
0
  6
CONTINUOUS
 62
     7
100
AcDbCircle
 10
91.3085883053
 20
395.2094824663
 30
0.0
 40
0.1891192546468687
100
AcDbArc
 50
90.0
 51
180.0
  0
LINE
  5
279
330
1F
100
AcDbEntity
  8
0
  6
CONTINUOUS
 62
     7
100
AcDbLine
 10
91.110743043
 20
233.9116369358
 30
0.0
 11
91.1194676729
 21
233.9203615656
 31
0.0
  0
LINE
  5
27A
330
1F
100
AcDbEntity
  8
0
  6
CONTINUOUS
 62
     7
100
AcDbLine
 10
89.1281994255
 20
233.9116369358
 30
0.0
 11
89.1194673451
 21
233.9203615656
 31
0.0
  0
LINE
  5
27B
330
1F
100
AcDbEntity
  8
0
  6
CONTINUOUS
 62
     7
100
AcDbLine
 10
91.1194676729
 20
233.9203615656
 30
0.0
 11
89.1194673451
 21
233.9203615656
 31
0.0
  0
LINE
  5
27C
330
1F
100
AcDbEntity
  8
0
  6
CONTINUOUS
 62
     7
100
AcDbLine
 10
89.1281994255
 20
222.1094851366
 30
0.0
 11
88.5085867914
 21
222.1094851366
 31
0.0
  0
ARC
  5
27D
330
1F
100
AcDbEntity
  8
0
  6
CONTINUOUS
 62
     7
100
AcDbCircle
 10
91.3085883053
 20
222.1094824663
 30
0.0
 40
2.800000000000011
100
AcDbArc
 50
180.0
 51
270.0
  0
LINE
  5
27E
330
1F
100
AcDbEntity
  8
0
  6
CONTINUOUS
 62
     7
100
AcDbLine
 10
89.1281994255
 20
383.4073279968
 30
0.0
 11
89.1194673451
 21
383.3986033669
 31
0.0
  0
LINE
  5
27F
330
1F
100
AcDbEntity
  8
0
  6
CONTINUOUS
 62
     7
100
AcDbLine
 10
89.1194673451
 20
383.3986033669
 30
0.0
 11
91.1194676729
 21
383.3986033669
 31
0.0
  0
LINE
  5
280
330
1F
100
AcDbEntity
  8
0
  6
CONTINUOUS
 62
     7
100
AcDbLine
 10
91.110743043
 20
222.1094851366
 30
0.0
 11
91.1194676729
 21
222.1094851366
 31
0.0
  0
LINE
  5
281
330
1F
100
AcDbEntity
  8
0
  6
CONTINUOUS
 62
     7
100
AcDbLine
 10
91.1194676729
 20
222.1094851366
 30
0.0
 11
91.1194676729
 21
233.9203615656
 31
0.0
  0
ARC
  5
282
330
1F
100
AcDbEntity
  8
0
  6
CONTINUOUS
 62
     7
100
AcDbCircle
 10
91.3085883053
 20
222.1094824663
 30
0.0
 40
0.1891192546468545
100
AcDbArc
 50
180.0
 51
270.0
  0
LINE
  5
283
330
1F
100
AcDbEntity
  8
0
  6
CONTINUOUS
 62
     7
100
AcDbLine
 10
89.1194673451
 20
383.5985993019
 30
0.0
 11
89.1194673451
 21
383.3986033669
 31
0.0
  0
LINE
  5
284
330
1F
100
AcDbEntity
  8
0
  6
CONTINUOUS
 62
     7
100
AcDbLine
 10
89.1194673451
 20
383.5985993019
 30
0.0
 11
88.5258870395
 21
384.1921796074
 31
0.0
  0
ELLIPSE
  5
285
330
1F
100
AcDbEntity
  8
0
  6
CONTINUOUS
 62
     7
100
AcDbEllipse
 10
88.5260420409
 20
386.1921048875
 30
0.0
 11
-1.421085471520200E-14
 21
2.0
 31
0.0
210
0.0
220
0.0
230
1.0
 40
0.0087268678
 41
1.570796326794897
 42
3.132866007329028
  0
LINE
  5
286
330
1F
100
AcDbEntity
  8
0
  6
CONTINUOUS
 62
     7
100
AcDbLine
 10
88.5085867914
 20
395.209479796
 30
0.0
 11
88.5085867914
 21
386.1921017042
 31
0.0
  0
LINE
  5
287
330
1F
100
AcDbEntity
  8
0
  6
CONTINUOUS
 62
     7
100
AcDbLine
 10
89.1194673451
 20
233.9203615656
 30
0.0
 11
89.1194673451
 21
233.7203656307
 31
0.0
  0
LINE
  5
288
330
1F
100
AcDbEntity
  8
0
  6
CONTINUOUS
 62
     7
100
AcDbLine
 10
88.5085867914
 20
231.1268632284
 30
0.0
 11
88.5085867914
 21
222.1094851366
 31
0.0
  0
ELLIPSE
  5
289
330
1F
100
AcDbEntity
  8
0
  6
CONTINUOUS
 62
     7
100
AcDbEllipse
 10
88.5260420409
 20
231.1268600451
 30
0.0
 11
1.421085471520200E-14
 21
2.0
 31
0.0
210
0.0
220
0.0
230
1.0
 40
0.0087268678
 41
0.0087266462607519
 42
1.570796326794897
  0
LINE
  5
28A
330
1F
100
AcDbEntity
  8
0
  6
CONTINUOUS
 62
     7
100
AcDbLine
 10
89.1194673451
 20
233.7203656307
 30
0.0
 11
88.5258870395
 21
233.1267853251
 31
0.0
  0
LINE
  5
28B
330
1F
100
AcDbEntity
  8
0
  6
CONTINUOUS
 62
     7
100
AcDbLine
 10
102.9194699796
 20
397.3986019364
 30
0.0
 11
102.9194699796
 21
398.0636929145
 31
0.0
  0
LINE
  5
28C
330
1F
100
AcDbEntity
  8
0
  6
CONTINUOUS
 62
     7
100
AcDbLine
 10
102.9194699796
 20
398.0636929145
 30
0.0
 11
202.797706631
 21
398.0636929145
 31
0.0
  0
LINE
  5
28D
330
1F
100
AcDbEntity
  8
0
  6
CONTINUOUS
 62
     7
100
AcDbLine
 10
202.797706631
 20
397.3986019364
 30
0.0
 11
202.797706631
 21
398.0636929145
 31
0.0
  0
LINE
  5
28E
330
1F
100
AcDbEntity
  8
0
  6
CONTINUOUS
 62
     7
100
AcDbLine
 10
216.5977092656
 20
383.5985993019
 30
0.0
 11
217.2628002437
 21
383.5985993019
 31
0.0
  0
LINE
  5
28F
330
1F
100
AcDbEntity
  8
0
  6
CONTINUOUS
 62
     7
100
AcDbLine
 10
217.2628002437
 20
383.5985993019
 30
0.0
 11
217.2628002437
 21
233.7203656307
 31
0.0
  0
LINE
  5
290
330
1F
100
AcDbEntity
  8
0
  6
CONTINUOUS
 62
     7
100
AcDbLine
 10
216.5977092656
 20
233.7203656307
 30
0.0
 11
217.2628002437
 21
233.7203656307
 31
0.0
  0
LINE
  5
291
330
1F
100
AcDbEntity
  8
0
  6
CONTINUOUS
 62
     7
100
AcDbLine
 10
202.797706631
 20
219.9203629962
 30
0.0
 11
202.797706631
 21
219.255272018
 31
0.0
  0
LINE
  5
292
330
1F
100
AcDbEntity
  8
0
  6
CONTINUOUS
 62
     7
100
AcDbLine
 10
202.797706631
 20
219.255272018
 30
0.0
 11
102.9194699796
 21
219.255272018
 31
0.0
  0
LINE
  5
293
330
1F
100
AcDbEntity
  8
0
  6
CONTINUOUS
 62
     7
100
AcDbLine
 10
102.9194699796
 20
219.9203629962
 30
0.0
 11
102.9194699796
 21
219.255272018
 31
0.0
  0
LINE
  5
294
330
1F
100
AcDbEntity
  8
0
  6
CONTINUOUS
 62
     7
100
AcDbLine
 10
89.1194673451
 20
233.7203656307
 30
0.0
 11
88.4543763669
 21
233.7203656307
 31
0.0
  0
LINE
  5
295
330
1F
100
AcDbEntity
  8
0
  6
CONTINUOUS
 62
     7
100
AcDbLine
 10
88.4543763669
 20
233.7203656307
 30
0.0
 11
88.4543763669
 21
383.5985993019
 31
0.0
  0
LINE
  5
296
330
1F
100
AcDbEntity
  8
0
  6
CONTINUOUS
 62
     7
100
AcDbLine
 10
89.1194673451
 20
383.5985993019
 30
0.0
 11
88.4543763669
 21
383.5985993019
 31
0.0
  0
CIRCLE
  5
297
330
1F
100
AcDbEntity
  8
0
  6
CONTINUOUS
 62
     7
100
AcDbCircle
 10
96.1085883053
 20
390.4094824663
 30
0.0
 40
4.000000000000057
  0
CIRCLE
  5
298
330
1F
100
AcDbEntity
  8
0
  6
CONTINUOUS
 62
     7
100
AcDbCircle
 10
209.6085883053
 20
390.4094824663
 30
0.0
 40
4.000000000000057
  0
CIRCLE
  5
299
330
1F
100
AcDbEntity
  8
0
  6
CONTINUOUS
 62
     7
100
AcDbCircle
 10
209.6085883053
 20
226.9094824663
 30
0.0
 40
4.0
  0
CIRCLE
  5
29A
330
1F
100
AcDbEntity
  8
0
  6
CONTINUOUS
 62
     7
100
AcDbCircle
 10
96.1085883053
 20
226.9094824663
 30
0.0
 40
4.0
  0
LINE
  5
29B
330
1F
100
AcDbEntity
  8
0
  6
CONTINUOUS
 62
     7
100
AcDbLine
 10
102.325889674
 20
218.6616917124
 30
0.0
 11
102.9194699796
 21
219.255272018
 31
0.0
  0
LINE
  5
29C
330
1F
100
AcDbEntity
  8
0
  6
CONTINUOUS
 62
     7
100
AcDbLine
 10
102.325889674
 20
219.3267826906
 30
0.0
 11
102.325889674
 21
218.6616917124
 31
0.0
  0
LINE
  5
29D
330
1F
100
AcDbEntity
  8
0
  6
CONTINUOUS
 62
     7
100
AcDbLine
 10
87.8607960614
 20
233.1267853251
 30
0.0
 11
88.5258870395
 21
233.1267853251
 31
0.0
  0
LINE
  5
29E
330
1F
100
AcDbEntity
  8
0
  6
CONTINUOUS
 62
     7
100
AcDbLine
 10
88.4543763669
 20
233.7203656307
 30
0.0
 11
87.8607960614
 21
233.1267853251
 31
0.0
  0
LINE
  5
29F
330
1F
100
AcDbEntity
  8
0
  6
CONTINUOUS
 62
     7
100
AcDbLine
 10
217.8563805493
 20
384.1921796074
 30
0.0
 11
217.1912895711
 21
384.1921796074
 31
0.0
  0
LINE
  5
2A0
330
1F
100
AcDbEntity
  8
0
  6
CONTINUOUS
 62
     7
100
AcDbLine
 10
217.2628002437
 20
383.5985993019
 30
0.0
 11
217.8563805493
 21
384.1921796074
 31
0.0
  0
ELLIPSE
  5
2A1
330
1F
100
AcDbEntity
  8
0
  6
CONTINUOUS
 62
     7
100
AcDbEllipse
 10
217.8562270986
 20
386.1921048875
 30
0.0
 11
0.0
 21
2.0
 31
0.0
210
0.0
220
0.0
230
1.0
 40
0.0087268678
 41
3.150319299849716
 42
4.71238898038469
  0
LINE
  5
2A2
330
1F
100
AcDbEntity
  8
0
  6
CONTINUOUS
 62
     7
100
AcDbLine
 10
217.8736807974
 20
395.209479796
 30
0.0
 11
217.8736807974
 21
386.1921017042
 31
0.0
  0
LINE
  5
2A3
330
1F
100
AcDbEntity
  8
0
  6
CONTINUOUS
 62
     7
100
AcDbLine
 10
217.8736807974
 20
395.209479796
 30
0.0
 11
217.9085867675
 21
395.209479796
 31
0.0
  0
LINE
  5
2A4
330
1F
100
AcDbEntity
  8
0
  6
CONTINUOUS
 62
     7
100
AcDbLine
 10
217.9085867675
 20
395.209479796
 30
0.0
 11
217.9085867675
 21
222.1094851366
 31
0.0
  0
LINE
  5
2A5
330
1F
100
AcDbEntity
  8
0
  6
CONTINUOUS
 62
     7
100
AcDbLine
 10
217.8736807974
 20
222.1094851366
 30
0.0
 11
217.9085867675
 21
222.1094851366
 31
0.0
  0
LINE
  5
2A6
330
1F
100
AcDbEntity
  8
0
  6
CONTINUOUS
 62
     7
100
AcDbLine
 10
217.8736807974
 20
231.1268632284
 30
0.0
 11
217.8736807974
 21
222.1094851366
 31
0.0
  0
ELLIPSE
  5
2A7
330
1F
100
AcDbEntity
  8
0
  6
CONTINUOUS
 62
     7
100
AcDbEllipse
 10
217.8562270986
 20
231.1268600451
 30
0.0
 11
0.0
 21
2.0
 31
0.0
210
0.0
220
0.0
230
1.0
 40
0.0087268678
 41
4.712388980384718
 42
6.274458660922827
  0
LINE
  5
2A8
330
1F
100
AcDbEntity
  8
0
  6
CONTINUOUS
 62
     7
100
AcDbLine
 10
217.8563805493
 20
233.1267853251
 30
0.0
 11
217.2628002437
 21
233.7203656307
 31
0.0
  0
LINE
  5
2A9
330
1F
100
AcDbEntity
  8
0
  6
CONTINUOUS
 62
     7
100
AcDbLine
 10
217.1912895711
 20
233.1267853251
 30
0.0
 11
217.8563805493
 21
233.1267853251
 31
0.0
  0
ELLIPSE
  5
2AA
330
1F
100
AcDbEntity
  8
0
  6
CONTINUOUS
 62
     7
100
AcDbEllipse
 10
100.3259658841
 20
398.6571212595
 30
0.0
 11
2.0
 21
0.0
 31
0.0
210
0.0
220
0.0
230
1.0
 40
0.0087268678
 41
0.0087266462583094
 42
1.570796326794897
  0
LINE
  5
2AB
330
1F
100
AcDbEntity
  8
0
  6
CONTINUOUS
 62
     7
100
AcDbLine
 10
100.3259675773
 20
398.6745734683
 30
0.0
 11
91.3085894855
 21
398.6745734683
 31
0.0
  0
LINE
  5
2AC
330
1F
100
AcDbEntity
  8
0
  6
CONTINUOUS
 62
     7
100
AcDbLine
 10
91.3085894855
 20
398.6745734683
 30
0.0
 11
91.3085894855
 21
398.7094794384
 31
0.0
  0
LINE
  5
2AD
330
1F
100
AcDbEntity
  8
0
  6
CONTINUOUS
 62
     7
100
AcDbLine
 10
91.3085894855
 20
398.7094794384
 30
0.0
 11
214.4085871251
 21
398.7094794384
 31
0.0
  0
LINE
  5
2AE
330
1F
100
AcDbEntity
  8
0
  6
CONTINUOUS
 62
     7
100
AcDbLine
 10
214.4085871251
 20
398.6745734683
 30
0.0
 11
214.4085871251
 21
398.7094794384
 31
0.0
  0
LINE
  5
2AF
330
1F
100
AcDbEntity
  8
0
  6
CONTINUOUS
 62
     7
100
AcDbLine
 10
205.3912090333
 20
398.6745734683
 30
0.0
 11
214.4085871251
 21
398.6745734683
 31
0.0
  0
ELLIPSE
  5
2B0
330
1F
100
AcDbEntity
  8
0
  6
CONTINUOUS
 62
     7
100
AcDbEllipse
 10
205.3912107265
 20
398.6571212595
 30
0.0
 11
2.0
 21
0.0
 31
0.0
210
0.0
220
0.0
230
1.0
 40
0.0087268678
 41
1.570796326794897
 42
3.132866007331471
  0
LINE
  5
2B1
330
1F
100
AcDbEntity
  8
0
  6
CONTINUOUS
 62
     7
100
AcDbLine
 10
203.3912869366
 20
398.6572732201
 30
0.0
 11
202.797706631
 21
398.0636929145
 31
0.0
  0
LINE
  5
2B2
330
1F
100
AcDbEntity
  8
0
  6
CONTINUOUS
 62
     7
100
AcDbLine
 10
102.9194699796
 20
398.0636929145
 30
0.0
 11
102.325889674
 21
398.6572732201
 31
0.0
  0
LINE
  5
2B3
330
1F
100
AcDbEntity
  8
0
  6
CONTINUOUS
 62
     7
100
AcDbLine
 10
202.797706631
 20
219.255272018
 30
0.0
 11
203.3912869366
 21
218.6616917124
 31
0.0
  0
ELLIPSE
  5
2B4
330
1F
100
AcDbEntity
  8
0
  6
CONTINUOUS
 62
     7
100
AcDbEllipse
 10
205.3912107265
 20
218.661843673
 30
0.0
 11
2.0
 21
0.0
 31
0.0
210
0.0
220
0.0
230
1.0
 40
0.0087268678
 41
3.15031929984973
 42
4.71238898038469
  0
LINE
  5
2B5
330
1F
100
AcDbEntity
  8
0
  6
CONTINUOUS
 62
     7
100
AcDbLine
 10
214.4085871251
 20
218.6443914643
 30
0.0
 11
205.3912090333
 21
218.6443914643
 31
0.0
  0
LINE
  5
2B6
330
1F
100
AcDbEntity
  8
0
  6
CONTINUOUS
 62
     7
100
AcDbLine
 10
214.4085871251
 20
218.6443914643
 30
0.0
 11
214.4085871251
 21
218.6094854942
 31
0.0
  0
LINE
  5
2B7
330
1F
100
AcDbEntity
  8
0
  6
CONTINUOUS
 62
     7
100
AcDbLine
 10
214.4085871251
 20
218.6094854942
 30
0.0
 11
91.3085894855
 21
218.6094854942
 31
0.0
  0
LINE
  5
2B8
330
1F
100
AcDbEntity
  8
0
  6
CONTINUOUS
 62
     7
100
AcDbLine
 10
91.3085894855
 20
218.6443914643
 30
0.0
 11
91.3085894855
 21
218.6094854942
 31
0.0
  0
LINE
  5
2B9
330
1F
100
AcDbEntity
  8
0
  6
CONTINUOUS
 62
     7
100
AcDbLine
 10
91.3085894855
 20
218.6443914643
 30
0.0
 11
100.3259675773
 21
218.6443914643
 31
0.0
  0
ELLIPSE
  5
2BA
330
1F
100
AcDbEntity
  8
0
  6
CONTINUOUS
 62
     7
100
AcDbEllipse
 10
100.3259658841
 20
218.661843673
 30
0.0
 11
2.0
 21
0.0
 31
0.0
210
0.0
220
0.0
230
1.0
 40
0.0087268678
 41
4.71238898038469
 42
6.274458660922813
  0
LINE
  5
2BB
330
1F
100
AcDbEntity
  8
0
  6
CONTINUOUS
 62
     7
100
AcDbLine
 10
203.3912869366
 20
218.6616917124
 30
0.0
 11
203.3912869366
 21
219.3267826906
 31
0.0
  0
LINE
  5
2BC
330
1F
100
AcDbEntity
  8
0
  6
CONTINUOUS
 62
     7
100
AcDbLine
 10
203.3912869366
 20
397.992182242
 30
0.0
 11
203.3912869366
 21
398.6572732201
 31
0.0
  0
LINE
  5
2BD
330
1F
100
AcDbEntity
  8
0
  6
CONTINUOUS
 62
     7
100
AcDbLine
 10
102.325889674
 20
398.6572732201
 30
0.0
 11
102.325889674
 21
397.992182242
 31
0.0
  0
LINE
  5
2BE
330
1F
100
AcDbEntity
  8
0
  6
CONTINUOUS
 62
     7
100
AcDbLine
 10
87.8607960614
 20
384.1921796074
 30
0.0
 11
88.4543763669
 21
383.5985993019
 31
0.0
  0
LINE
  5
2BF
330
1F
100
AcDbEntity
  8
0
  6
CONTINUOUS
 62
     7
100
AcDbLine
 10
88.5258870395
 20
384.1921796074
 30
0.0
 11
87.8607960614
 21
384.1921796074
 31
0.0
  0
ELLIPSE
  5
2C0
330
1F
100
AcDbEntity
  8
0
  6
CONTINUOUS
 62
     7
100
AcDbEllipse
 10
87.8609495121
 20
231.1268600451
 30
0.0
 11
0.0
 21
2.0
 31
0.0
210
0.0
220
0.0
230
1.0
 40
0.0087268678
 41
0.0087266462599377
 42
1.570796326794882
  0
LINE
  5
2C1
330
1F
100
AcDbEntity
  8
0
  6
CONTINUOUS
 62
     7
100
AcDbLine
 10
87.8434958132
 20
231.1268632284
 30
0.0
 11
87.8434958132
 21
222.1094851366
 31
0.0
  0
LINE
  5
2C2
330
1F
100
AcDbEntity
  8
0
  6
CONTINUOUS
 62
     7
100
AcDbLine
 10
87.8434958132
 20
222.1094851366
 30
0.0
 11
87.8085898431
 21
222.1094851366
 31
0.0
  0
LINE
  5
2C3
330
1F
100
AcDbEntity
  8
0
  6
CONTINUOUS
 62
     7
100
AcDbLine
 10
87.8085898431
 20
222.1094851366
 30
0.0
 11
87.8085898431
 21
395.209479796
 31
0.0
  0
LINE
  5
2C4
330
1F
100
AcDbEntity
  8
0
  6
CONTINUOUS
 62
     7
100
AcDbLine
 10
87.8434958132
 20
395.209479796
 30
0.0
 11
87.8085898431
 21
395.209479796
 31
0.0
  0
LINE
  5
2C5
330
1F
100
AcDbEntity
  8
0
  6
CONTINUOUS
 62
     7
100
AcDbLine
 10
87.8434958132
 20
395.209479796
 30
0.0
 11
87.8434958132
 21
386.1921017042
 31
0.0
  0
ELLIPSE
  5
2C6
330
1F
100
AcDbEntity
  8
0
  6
CONTINUOUS
 62
     7
100
AcDbEllipse
 10
87.8609495121
 20
386.1921048875
 30
0.0
 11
0.0
 21
2.0
 31
0.0
210
0.0
220
0.0
230
1.0
 40
0.0087268678
 41
1.570796326794897
 42
3.132866007329842
  0
CIRCLE
  5
2C7
330
1F
100
AcDbEntity
  8
0
  6
CONTINUOUS
 62
     7
100
AcDbCircle
 10
209.6085883053
 20
390.4094824663
 30
0.0
 40
2.25
  0
CIRCLE
  5
2C8
330
1F
100
AcDbEntity
  8
0
  6
CONTINUOUS
 62
     7
100
AcDbCircle
 10
209.6085883053
 20
226.9094824663
 30
0.0
 40
2.25
  0
CIRCLE
  5
2C9
330
1F
100
AcDbEntity
  8
0
  6
CONTINUOUS
 62
     7
100
AcDbCircle
 10
96.1085883053
 20
390.4094824663
 30
0.0
 40
2.25
  0
CIRCLE
  5
2CA
330
1F
100
AcDbEntity
  8
0
  6
CONTINUOUS
 62
     7
100
AcDbCircle
 10
96.1085883053
 20
226.9094824663
 30
0.0
 40
2.25
  0
LINE
  5
2CB
330
1F
100
AcDbEntity
  8
0
  6
CONTINUOUS
 62
     7
100
AcDbLine
 10
217.2085898193
 20
386.1921017042
 30
0.0
 11
217.8736807974
 21
386.1921017042
 31
0.0
  0
LINE
  5
2CC
330
1F
100
AcDbEntity
  8
0
  6
CONTINUOUS
 62
     7
100
AcDbLine
 10
217.8736807974
 20
231.1268632284
 30
0.0
 11
217.2085898193
 21
231.1268632284
 31
0.0
  0
LINE
  5
2CD
330
1F
100
AcDbEntity
  8
0
  6
CONTINUOUS
 62
     7
100
AcDbLine
 10
205.3912090333
 20
219.3094824424
 30
0.0
 11
205.3912090333
 21
218.6443914643
 31
0.0
  0
LINE
  5
2CE
330
1F
100
AcDbEntity
  8
0
  6
CONTINUOUS
 62
     7
100
AcDbLine
 10
205.3912090333
 20
398.6745734683
 30
0.0
 11
205.3912090333
 21
398.0094824901
 31
0.0
  0
LINE
  5
2CF
330
1F
100
AcDbEntity
  8
0
  6
CONTINUOUS
 62
     7
100
AcDbLine
 10
100.3259675773
 20
398.0094824901
 30
0.0
 11
100.3259675773
 21
398.6745734683
 31
0.0
  0
LINE
  5
2D0
330
1F
100
AcDbEntity
  8
0
  6
CONTINUOUS
 62
     7
100
AcDbLine
 10
100.3259675773
 20
218.6443914643
 30
0.0
 11
100.3259675773
 21
219.3094824424
 31
0.0
  0
LINE
  5
2D1
330
1F
100
AcDbEntity
  8
0
  6
CONTINUOUS
 62
     7
100
AcDbLine
 10
88.5085867914
 20
231.1268632284
 30
0.0
 11
87.8434958132
 21
231.1268632284
 31
0.0
  0
LINE
  5
2D2
330
1F
100
AcDbEntity
  8
0
  6
CONTINUOUS
 62
     7
100
AcDbLine
 10
87.8434958132
 20
386.1921017042
 30
0.0
 11
88.5085867914
 21
386.1921017042
 31
0.0
  0
ARC
  5
2D3
330
1F
100
AcDbEntity
  8
0
  6
CONTINUOUS
 62
     7
100
AcDbCircle
 10
214.4085883053
 20
222.1094824663
 30
0.0
 40
3.499999999999972
100
AcDbArc
 50
270.0
 51
0.0
  0
ARC
  5
2D4
330
1F
100
AcDbEntity
  8
0
  6
CONTINUOUS
 62
     7
100
AcDbCircle
 10
214.4085883053
 20
222.1094824663
 30
0.0
 40
3.465092528836948
100
AcDbArc
 50
270.0
 51
0.0
  0
ARC
  5
2D5
330
1F
100
AcDbEntity
  8
0
  6
CONTINUOUS
 62
     7
100
AcDbCircle
 10
214.4085883053
 20
395.2094824663
 30
0.0
 40
3.499999999999972
100
AcDbArc
 50
0.0
 51
90.0
  0
ARC
  5
2D6
330
1F
100
AcDbEntity
  8
0
  6
CONTINUOUS
 62
     7
100
AcDbCircle
 10
214.4085883053
 20
395.2094824663
 30
0.0
 40
3.465092528836919
100
AcDbArc
 50
0.0
 51
90.0
  0
ARC
  5
2D7
330
1F
100
AcDbEntity
  8
0
  6
CONTINUOUS
 62
     7
100
AcDbCircle
 10
91.3085883053
 20
395.2094824663
 30
0.0
 40
3.465092528836919
100
AcDbArc
 50
90.0
 51
180.0
  0
ARC
  5
2D8
330
1F
100
AcDbEntity
  8
0
  6
CONTINUOUS
 62
     7
100
AcDbCircle
 10
91.3085883053
 20
222.1094824663
 30
0.0
 40
3.465092528836948
100
AcDbArc
 50
180.0
 51
270.0
  0
ARC
  5
2D9
330
1F
100
AcDbEntity
  8
0
  6
CONTINUOUS
 62
     7
100
AcDbCircle
 10
91.3085883053
 20
222.1094824663
 30
0.0
 40
3.5
100
AcDbArc
 50
180.0
 51
270.0
  0
ARC
  5
2DA
330
1F
100
AcDbEntity
  8
0
  6
CONTINUOUS
 62
     7
100
AcDbCircle
 10
91.3085883053
 20
395.2094824663
 30
0.0
 40
3.499999999999972
100
AcDbArc
 50
90.0
 51
180.0
  0
ENDSEC
  0
SECTION
  2
OBJECTS
  0
DICTIONARY
  5
C
330
0
100
AcDbDictionary
  3
ACAD_GROUP
350
D
  3
ACAD_MLINESTYLE
350
17
  0
DICTIONARY
  5
D
102
{ACAD_REACTORS
330
C
102
}
330
C
100
AcDbDictionary
  0
DICTIONARY
  5
17
102
{ACAD_REACTORS
330
C
102
}
330
C
100
AcDbDictionary
  3
STANDARD
350
18
  0
MLINESTYLE
  5
18
102
{ACAD_REACTORS
330
17
102
}
330
17
100
AcDbMlineStyle
  2
Standard
 70
     0
  3

 62
   256
 51
90.0
 52
90.0
 71
     2
 49
0.5
 62
   256
  6
BYLAYER
 49
-0.5
 62
   256
  6
BYLAYER
  0
ENDSEC
  0
EOF
