  0
SECTION
  2
HEADER
  9
$ACADVER
  1
AC1009
  9
$INSBASE
 10
0.0
 20
0.0
 30
0.0
  9
$EXTMIN
 10
-2105.1645072920528
 20
-22.59864948572908
 30
-70.002136067489801
  9
$EXTMAX
 10
-1351.9073725410419
 20
569.48102210207469
 30
0.0021363934526732
  9
$LIMMIN
 10
0.0
 20
0.0
  9
$LIMMAX
 10
420.0
 20
297.0
  9
$ORTHOMODE
 70
     1
  9
$REGENMODE
 70
     1
  9
$FILLMODE
 70
     1
  9
$QTEXTMODE
 70
     0
  9
$MIRRTEXT
 70
     1
  9
$DRAGMODE
 70
     2
  9
$LTSCALE
 40
1.0
  9
$OSMODE
 70
    37
  9
$ATTMODE
 70
     1
  9
$TEXTSIZE
 40
5.0
  9
$TRACEWID
 40
1.0
  9
$TEXTSTYLE
  7
STANDARD
  9
$CLAYER
  8
AM_VIS
  9
$CELTYPE
  6
BYLAYER
  9
$CECOLOR
 62
   256
  9
$DIMSCALE
 40
1.0
  9
$DIMASZ
 40
3.5
  9
$DIMEXO
 40
0.0625
  9
$DIMDLI
 40
0.38
  9
$DIMRND
 40
0.0
  9
$DIMDLE
 40
0.0
  9
$DIMEXE
 40
0.18
  9
$DIMTP
 40
0.0
  9
$DIMTM
 40
0.0
  9
$DIMTXT
 40
3.5
  9
$DIMCEN
 40
1.0
  9
$DIMTSZ
 40
0.0
  9
$DIMTOL
 70
     0
  9
$DIMLIM
 70
     0
  9
$DIMTIH
 70
     0
  9
$DIMTOH
 70
     0
  9
$DIMSE1
 70
     0
  9
$DIMSE2
 70
     0
  9
$DIMTAD
 70
     1
  9
$DIMZIN
 70
     8
  9
$DIMBLK
  1

  9
$DIMASO
 70
     1
  9
$DIMSHO
 70
     1
  9
$DIMPOST
  1

  9
$DIMAPOST
  1

  9
$DIMALT
 70
     0
  9
$DIMALTD
 70
     2
  9
$DIMALTF
 40
25.399999999999999
  9
$DIMLFAC
 40
1.0
  9
$DIMTOFL
 70
     1
  9
$DIMTVP
 40
0.0
  9
$DIMTIX
 70
     0
  9
$DIMSOXD
 70
     0
  9
$DIMSAH
 70
     0
  9
$DIMBLK1
  1

  9
$DIMBLK2
  1

  9
$DIMSTYLE
  2
FIBOX
  9
$DIMCLRD
 70
     1
  9
$DIMCLRE
 70
     1
  9
$DIMCLRT
 70
     3
  9
$DIMTFAC
 40
1.0
  9
$DIMGAP
 40
1.0
  9
$LUNITS
 70
     2
  9
$LUPREC
 70
     4
  9
$SKETCHINC
 40
1.0
  9
$FILLETRAD
 40
3.5
  9
$AUNITS
 70
     0
  9
$AUPREC
 70
     0
  9
$MENU
  1
.
  9
$ELEVATION
 40
-70.0
  9
$PELEVATION
 40
0.0
  9
$THICKNESS
 40
0.0
  9
$LIMCHECK
 70
     0
  9
$BLIPMODE
 70
     0
  9
$CHAMFERA
 40
10.0
  9
$CHAMFERB
 40
10.0
  9
$SKPOLY
 70
     0
  9
$TDCREATE
 40
2451401.5528018521
  9
$TDUPDATE
 40
2453691.6155511448
  9
$TDINDWG
 40
0.9140853009
  9
$TDUSRTIMER
 40
0.9140853009
  9
$USRTIMER
 70
     1
  9
$ANGBASE
 50
0.0
  9
$ANGDIR
 70
     0
  9
$PDMODE
 70
     0
  9
$PDSIZE
 40
0.0
  9
$PLINEWID
 40
0.0
  9
$COORDS
 70
     2
  9
$SPLFRAME
 70
     0
  9
$SPLINETYPE
 70
     6
  9
$SPLINESEGS
 70
     8
  9
$ATTDIA
 70
     0
  9
$ATTREQ
 70
     1
  9
$HANDLING
 70
-16383
  9
$HANDSEED
  5
4101
  9
$SURFTAB1
 70
     6
  9
$SURFTAB2
 70
     6
  9
$SURFTYPE
 70
     6
  9
$SURFU
 70
     6
  9
$SURFV
 70
     6
  9
$UCSNAME
  2

  9
$UCSORG
 10
0.0
 20
0.0
 30
0.0
  9
$UCSXDIR
 10
1.0
 20
0.0
 30
0.0
  9
$UCSYDIR
 10
0.0
 20
1.0
 30
0.0
  9
$PUCSNAME
  2

  9
$PUCSORG
 10
0.0
 20
0.0
 30
0.0
  9
$PUCSXDIR
 10
1.0
 20
0.0
 30
0.0
  9
$PUCSYDIR
 10
0.0
 20
1.0
 30
0.0
  9
$USERI1
 70
     0
  9
$USERI2
 70
     0
  9
$USERI3
 70
     0
  9
$USERI4
 70
     0
  9
$USERI5
 70
     0
  9
$USERR1
 40
0.0
  9
$USERR2
 40
0.0
  9
$USERR3
 40
0.0
  9
$USERR4
 40
0.0
  9
$USERR5
 40
0.0
  9
$WORLDVIEW
 70
     1
  9
$SHADEDGE
 70
     3
  9
$SHADEDIF
 70
    70
  9
$TILEMODE
 70
     1
  9
$MAXACTVP
 70
    16
  9
$PLIMCHECK
 70
     0
  9
$PEXTMIN
 10
-973.95081603648453
 20
-5.0
 30
-0.0000000000000005
  9
$PEXTMAX
 10
163.72461013682511
 20
756.25366010605455
 30
0.0
  9
$PLIMMIN
 10
0.0
 20
0.0
  9
$PLIMMAX
 10
420.0
 20
297.0
  9
$UNITMODE
 70
     0
  9
$VISRETAIN
 70
     0
  9
$PLINEGEN
 70
     0
  9
$PSLTSCALE
 70
     1
  0
ENDSEC
  0
SECTION
  2
TABLES
  0
TABLE
  2
VPORT
 70
     3
  0
VPORT
  2
*ACTIVE
 70
     0
 10
0.0
 20
0.0
 11
1.0
 21
1.0
 12
-1761.35734635841
 22
135.55485799099651
 13
0.0
 23
0.0
 14
10.0
 24
10.0
 15
10.0
 25
10.0
 16
0.0
 26
0.0
 36
1.0
 17
32.821406441862671
 27
137.88632831717629
 37
200.19400765584129
 40
595.64283911992709
 41
1.5552208835341359
 42
50.0
 43
0.0
 44
0.0
 50
0.0
 51
0.0
 71
     0
 72
  1000
 73
     1
 74
     1
 75
     0
 76
     0
 77
     0
 78
     0
  0
ENDTAB
  0
TABLE
  2
LTYPE
 70
     3
  0
LTYPE
  2
CONTINUOUS
 70
     0
  3
Solid line
 72
    65
 73
     0
 40
0.0
  0
LTYPE
  2
HIDDEN
 70
     0
  3
Hidden __ __ __ __ __ __ __ __ __ __ __ __ __ _
 72
    65
 73
     2
 40
9.5249999999999986
 49
6.3499999999999988
 49
-3.1749999999999989
  0
LTYPE
  2
CENTER2
 70
     0
  3
Center (.5x) ___ _ ___ _ ___ _ ___ _ ___ _ ___
 72
    65
 73
     4
 40
28.574999999999989
 49
19.050000000000001
 49
-3.1749999999999989
 49
3.1749999999999989
 49
-3.1749999999999989
  0
ENDTAB
  0
TABLE
  2
LAYER
 70
     7
  0
LAYER
  2
0
 70
     0
 62
     7
  6
CONTINUOUS
  0
LAYER
  2
AM_VIS
 70
     0
 62
     7
  6
CONTINUOUS
  0
LAYER
  2
L1
 70
     0
 62
     2
  6
CONTINUOUS
  0
LAYER
  2
AMV_5_HATCH
 70
     2
 62
     4
  6
CONTINUOUS
  0
LAYER
  2
AMV_6_HATCH
 70
     2
 62
     4
  6
CONTINUOUS
  0
LAYER
  2
AMV_9_HATCH
 70
     2
 62
     4
  6
CONTINUOUS
  0
LAYER
  2
DEFPOINTS
 70
     0
 62
     7
  6
CONTINUOUS
  0
ENDTAB
  0
TABLE
  2
STYLE
 70
     2
  0
STYLE
  2
STANDARD
 70
     0
 40
0.0
 41
1.0
 50
0.0
 71
     0
 42
5.0
  3
isocp.shx
  4

  0
STYLE
  2
SIMPLEX
 70
     0
 40
0.0
 41
0.8
 50
0.0
 71
     0
 42
2.5
  3
simplex.shx
  4

  0
ENDTAB
  0
TABLE
  2
VIEW
 70
     0
  0
ENDTAB
  0
TABLE
  2
UCS
 70
     0
  0
ENDTAB
  0
TABLE
  2
APPID
 70
     6
  0
APPID
  2
ACAD
 70
     0
  0
APPID
  2
MCAD_NO_VIS
 70
     0
  0
APPID
  2
ACAD_TEMP_GRAPHIC
 70
     0
  0
APPID
  2
AD_DRAW
 70
     0
  0
APPID
  2
DESIGNERASSEMBLIES
 70
     0
  0
APPID
  2
ASURF_PCURVE_APPNAME
 70
     0
  0
ENDTAB
  0
TABLE
  2
DIMSTYLE
 70
     1
  0
DIMSTYLE
  2
FIBOX
 70
     0
  3

  4

  5

  6

  7

 40
1.0
 41
3.5
 42
0.1
 43
0.38
 44
0.18
 45
0.0
 46
0.0
 47
0.0
 48
0.0
140
3.5
141
1.0
142
0.0
143
25.399999999999999
144
1.0
145
0.0
146
1.0
147
1.0
 71
     0
 72
     0
 73
     0
 74
     0
 75
     0
 76
     0
 77
     1
 78
     8
170
     0
171
     2
172
     1
173
     0
174
     0
175
     0
176
     1
177
     1
178
     3
  0
ENDTAB
  0
ENDSEC
  0
SECTION
  2
BLOCKS
  0
BLOCK
  8
0
  2
$MODEL_SPACE
 70
     0
 10
0.0
 20
0.0
 30
0.0
  3
$MODEL_SPACE
  1

  0
ENDBLK
  5
7
  8
0
  0
BLOCK
 67
     1
  8
0
  2
$PAPER_SPACE
 70
     0
 10
0.0
 20
0.0
 30
0.0
  3
$PAPER_SPACE
  1

  0
ENDBLK
  5
A
 67
     1
  8
0
  0
BLOCK
  8
0
  2
*U0
 70
     1
 10
0.0
 20
0.0
 30
0.0
  3
*U0
  1

  0
ENDBLK
  5
1159
  8
0
  0
ENDSEC
  0
SECTION
  2
ENTITIES
  0
LINE
  5
3E4
  8
AM_VIS
 10
-1678.19126498892
 20
545.79954282206415
 30
0.0
 11
-1678.4280063836579
 21
545.79954282206415
 31
0.0
  0
LINE
  5
3E6
  8
AM_VIS
 10
-1678.19126498892
 20
545.79954282206415
 30
0.0
 11
-1533.8912649889201
 21
545.79954282206415
 31
0.0
  0
LINE
  5
3E7
  8
AM_VIS
 10
-1533.654523594206
 20
545.79954282206415
 30
0.0
 11
-1533.8912649889201
 21
545.79954282206415
 31
0.0
  0
ARC
  5
3E8
  8
AM_VIS
 10
-1516.44628241553
 20
539.49691551349235
 30
0.0
 40
0.3
 50
90.0
 51
179.50000000000341
  0
LINE
  5
3E9
  8
AM_VIS
 10
-1695.3362589853909
 20
539.4995334741418
 30
0.0
 11
-1694.739318463485
 21
471.09692486141489
 31
0.0
  0
POLYLINE
  5
3EA
  8
AM_VIS
 66
     1
 10
0.0
 20
0.0
 30
0.0
  0
VERTEX
  5
389F
  8
AM_VIS
 10
-1696.038880854001
 20
539.79691551349219
 30
0.0
  0
VERTEX
  5
38A0
  8
AM_VIS
 10
-1695.013809788609
 20
539.79691551349219
 30
0.0
  0
VERTEX
  5
38A1
  8
AM_VIS
 10
-1692.539014123276
 20
539.79691551349219
 30
0.0
  0
SEQEND
  5
38A2
  8
AM_VIS
  0
ARC
  5
3EB
  8
AM_VIS
 10
-1695.6362475623109
 20
539.49691551349235
 30
0.0
 40
0.3
 50
0.49999999999792
 51
90.0
  0
LINE
  5
3EC
  8
AM_VIS
 10
-1532.3587187245021
 20
472.79954282206421
 30
0.0
 11
-1532.3438602026611
 21
471.09692486141438
 31
0.0
  0
LINE
  5
3ED
  8
AM_VIS
 10
-1679.738669775179
 20
471.09692486141461
 30
0.0
 11
-1679.7238112533389
 21
472.79954282206398
 31
0.0
  0
ARC
  5
3F1
  8
AM_VIS
 10
-1680.0386583520981
 20
471.09954282206428
 30
0.0
 40
0.2999999999999999
 50
270.0
 51
359.49999999998289
  0
ARC
  5
3F2
  8
AM_VIS
 10
-1694.4393298865659
 20
471.09954282206428
 30
0.0
 40
0.3
 50
180.49999999999531
 51
270.0
  0
LINE
  5
3F3
  8
AM_VIS
 10
-1517.3432115143551
 20
471.09692486141489
 30
0.0
 11
-1516.7462709924489
 21
539.49953347414146
 31
0.0
  0
ARC
  5
3F7
  8
AM_VIS
 10
-1517.643200091275
 20
471.09954282206428
 30
0.0
 40
0.2999999999999999
 50
270.0
 51
359.4999999999992
  0
ARC
  5
3F8
  8
AM_VIS
 10
-1532.043871625742
 20
471.09954282206428
 30
0.0
 40
0.3
 50
180.50000000002521
 51
270.0
  0
LINE
  5
3F9
  8
AM_VIS
 10
-1696.08422257043
 20
544.99256159366564
 30
0.0
 11
-1696.038880854001
 21
539.79691551349219
 31
0.0
  0
LINE
  5
3FA
  8
AM_VIS
 10
-1696.021580082049
 20
537.81444340931762
 30
0.0
 11
-1696.038880854001
 21
539.79691551349219
 31
0.0
  0
LINE
  5
3FB
  8
AM_VIS
 10
-1695.4585289964291
 20
473.2951795543151
 30
0.0
 11
-1696.021580082049
 21
537.81444340931762
 31
0.0
  0
POLYLINE
  5
3FC
  8
AM_VIS
 66
     1
 10
0.0
 20
0.0
 30
0.0
  0
VERTEX
  5
38A3
  8
AM_VIS
 10
-1694.9585480348969
 20
472.79954282206421
 30
0.0
  0
VERTEX
  5
38A4
  8
AM_VIS
 10
-1695.051646654553
 20
472.80828662920948
 30
0.0
  0
SEQEND
  5
38A5
  8
AM_VIS
  0
POLYLINE
  5
3FD
  8
AM_VIS
 66
     1
 10
0.0
 20
0.0
 30
0.0
  0
VERTEX
  5
38A6
  8
AM_VIS
 10
-1695.051646654553
 20
472.80828662920948
 30
0.0
  0
VERTEX
  5
38A7
  8
AM_VIS
 10
-1695.3422171990669
 20
472.97892159309617
 30
0.0
  0
VERTEX
  5
38A8
  8
AM_VIS
 10
-1695.4585289964291
 20
473.2951795543151
 30
0.0
  0
SEQEND
  5
38A9
  8
AM_VIS
  0
POLYLINE
  5
3FE
  8
AM_VIS
 66
     1
 10
0.0
 20
0.0
 30
0.0
  0
VERTEX
  5
38AA
  8
AM_VIS
 10
-1531.127867626145
 20
472.79954282206421
 30
0.0
  0
VERTEX
  5
38AB
  8
AM_VIS
 10
-1531.1434257068679
 20
472.80828662913081
 30
0.0
  0
SEQEND
  5
38AC
  8
AM_VIS
  0
POLYLINE
  5
3FF
  8
AM_VIS
 66
     1
 10
0.0
 20
0.0
 30
0.0
  0
VERTEX
  5
38AD
  8
AM_VIS
 10
-1680.957210917692
 20
472.80828662913081
 30
0.0
  0
VERTEX
  5
38AE
  8
AM_VIS
 10
-1680.972768998414
 20
472.79954282206421
 30
0.0
  0
SEQEND
  5
38AF
  8
AM_VIS
  0
POLYLINE
  5
400
  8
AM_VIS
 66
     1
 10
0.0
 20
0.0
 30
0.0
  0
VERTEX
  5
38B0
  8
AM_VIS
 10
-1680.9579769018801
 20
473.2951795543151
 30
0.0
  0
VERTEX
  5
38B1
  8
AM_VIS
 10
-1680.9561992652471
 20
472.97892159293428
 30
0.0
  0
VERTEX
  5
38B2
  8
AM_VIS
 10
-1680.957210917692
 20
472.80828662913109
 30
0.0
  0
SEQEND
  5
38B3
  8
AM_VIS
  0
POLYLINE
  5
401
  8
AM_VIS
 66
     1
 10
0.0
 20
0.0
 30
0.0
  0
VERTEX
  5
38B4
  8
AM_VIS
 10
-1531.1434257068679
 20
472.80828662913081
 30
0.0
  0
VERTEX
  5
38B5
  8
AM_VIS
 10
-1531.144437359312
 20
472.97892159293428
 30
0.0
  0
VERTEX
  5
38B6
  8
AM_VIS
 10
-1531.1426597226789
 20
473.2951795543151
 30
0.0
  0
SEQEND
  5
38B7
  8
AM_VIS
  0
POLYLINE
  5
402
  8
AM_VIS
 66
     1
 10
0.0
 20
0.0
 30
0.0
  0
VERTEX
  5
38B8
  8
AM_VIS
 10
-1694.9585480348969
 20
472.79954282206421
 30
0.0
  0
VERTEX
  5
38B9
  8
AM_VIS
 10
-1694.810569794023
 20
472.79954282206421
 30
0.0
  0
VERTEX
  5
38BA
  8
AM_VIS
 10
-1694.754176985326
 20
472.79954282206421
 30
0.0
  0
SEQEND
  5
38BB
  8
AM_VIS
  0
POLYLINE
  5
403
  8
AM_VIS
 66
     1
 10
0.0
 20
0.0
 30
0.0
  0
VERTEX
  5
38BC
  8
AM_VIS
 10
-1681.2571119635491
 20
472.79954282206421
 30
0.0
  0
VERTEX
  5
38BD
  8
AM_VIS
 10
-1681.082025354071
 20
472.79954282206421
 30
0.0
  0
VERTEX
  5
38BE
  8
AM_VIS
 10
-1680.972768998414
 20
472.79954282206421
 30
0.0
  0
SEQEND
  5
38BF
  8
AM_VIS
  0
LINE
  5
404
  8
AM_VIS
 10
-1680.972768998414
 20
472.79954282206421
 30
0.0
 11
-1531.127867626145
 21
472.79954282206421
 31
0.0
  0
POLYLINE
  5
405
  8
AM_VIS
 66
     1
 10
0.0
 20
0.0
 30
0.0
  0
VERTEX
  5
38C0
  8
AM_VIS
 10
-1531.127867626145
 20
472.79954282206421
 30
0.0
  0
VERTEX
  5
38C1
  8
AM_VIS
 10
-1531.018611270488
 20
472.79954282206421
 30
0.0
  0
VERTEX
  5
38C2
  8
AM_VIS
 10
-1530.8435246610111
 20
472.79954282206421
 30
0.0
  0
SEQEND
  5
38C3
  8
AM_VIS
  0
POLYLINE
  5
406
  8
AM_VIS
 66
     1
 10
0.0
 20
0.0
 30
0.0
  0
VERTEX
  5
38C4
  8
AM_VIS
 10
-1517.328352992515
 20
472.79954282206421
 30
0.0
  0
VERTEX
  5
38C5
  8
AM_VIS
 10
-1517.271960183818
 20
472.79954282206421
 30
0.0
  0
VERTEX
  5
38C6
  8
AM_VIS
 10
-1517.1239819429429
 20
472.79954282206421
 30
0.0
  0
SEQEND
  5
38C7
  8
AM_VIS
  0
POLYLINE
  5
407
  8
AM_VIS
 66
     1
 10
0.0
 20
0.0
 30
0.0
  0
VERTEX
  5
38C8
  8
AM_VIS
 10
-1517.0308833232871
 20
472.80828662920948
 30
0.0
  0
VERTEX
  5
38C9
  8
AM_VIS
 10
-1517.1239819429429
 20
472.79954282206421
 30
0.0
  0
SEQEND
  5
38CA
  8
AM_VIS
  0
POLYLINE
  5
408
  8
AM_VIS
 66
     1
 10
0.0
 20
0.0
 30
0.0
  0
VERTEX
  5
38CB
  8
AM_VIS
 10
-1516.624000981411
 20
473.2951795543151
 30
0.0
  0
VERTEX
  5
38CC
  8
AM_VIS
 10
-1516.7403127787729
 20
472.97892159309617
 30
0.0
  0
VERTEX
  5
38CD
  8
AM_VIS
 10
-1517.0308833232871
 20
472.80828662920948
 30
0.0
  0
SEQEND
  5
38CE
  8
AM_VIS
  0
LINE
  5
40F
  8
AM_VIS
 10
-1528.57968478513
 20
539.79691551349219
 30
0.0
 11
-1519.543515854564
 21
539.79691551349219
 31
0.0
  0
POLYLINE
  5
410
  8
AM_VIS
 10
-1528.57968478513
 20
539.79691551349208
 30
0.0
 66
     1
 70
     8
  0
VERTEX
  8
0
  5
3CF1
 10
-1528.58
 20
539.797
 30
0.000000
  70
    32
  0
VERTEX
  8
0
  5
3CF2
 10
-1528.60
 20
539.797
 30
0.000000
  70
    32
  0
VERTEX
  8
0
  5
3CF3
 10
-1528.63
 20
539.796
 30
0.000000
  70
    32
  0
VERTEX
  8
0
  5
3CF4
 10
-1528.65
 20
539.796
 30
0.000000
  70
    32
  0
VERTEX
  8
0
  5
3CF5
 10
-1528.68
 20
539.795
 30
0.000000
  70
    32
  0
VERTEX
  8
0
  5
3CF6
 10
-1528.70
 20
539.793
 30
0.000000
  70
    32
  0
VERTEX
  8
0
  5
3CF7
 10
-1528.73
 20
539.792
 30
0.000000
  70
    32
  0
VERTEX
  8
0
  5
3CF8
 10
-1528.75
 20
539.790
 30
0.000000
  70
    32
  0
VERTEX
  8
0
  5
3CF9
 10
-1528.77
 20
539.787
 30
0.000000
  70
    32
  0
VERTEX
  8
0
  5
3CFA
 10
-1528.80
 20
539.785
 30
0.000000
  70
    32
  0
VERTEX
  8
0
  5
3CFB
 10
-1528.82
 20
539.782
 30
0.000000
  70
    32
  0
VERTEX
  8
0
  5
3CFC
 10
-1528.85
 20
539.779
 30
0.000000
  70
    32
  0
VERTEX
  8
0
  5
3CFD
 10
-1528.87
 20
539.776
 30
0.000000
  70
    32
  0
VERTEX
  8
0
  5
3CFE
 10
-1528.90
 20
539.772
 30
0.000000
  70
    32
  0
VERTEX
  8
0
  5
3CFF
 10
-1528.92
 20
539.768
 30
0.000000
  70
    32
  0
VERTEX
  8
0
  5
3D00
 10
-1528.94
 20
539.764
 30
0.000000
  70
    32
  0
VERTEX
  8
0
  5
3D01
 10
-1528.97
 20
539.759
 30
0.000000
  70
    32
  0
VERTEX
  8
0
  5
3D02
 10
-1528.99
 20
539.754
 30
0.000000
  70
    32
  0
VERTEX
  8
0
  5
3D03
 10
-1529.02
 20
539.749
 30
0.000000
  70
    32
  0
VERTEX
  8
0
  5
3D04
 10
-1529.04
 20
539.743
 30
0.000000
  70
    32
  0
VERTEX
  8
0
  5
3D05
 10
-1529.06
 20
539.738
 30
0.000000
  70
    32
  0
VERTEX
  8
0
  5
3D06
 10
-1529.09
 20
539.732
 30
0.000000
  70
    32
  0
VERTEX
  8
0
  5
3D07
 10
-1529.11
 20
539.725
 30
0.000000
  70
    32
  0
VERTEX
  8
0
  5
3D08
 10
-1529.13
 20
539.719
 30
0.000000
  70
    32
  0
VERTEX
  8
0
  5
3D09
 10
-1529.16
 20
539.712
 30
0.000000
  70
    32
  0
VERTEX
  8
0
  5
3D0A
 10
-1529.18
 20
539.705
 30
0.000000
  70
    32
  0
VERTEX
  8
0
  5
3D0B
 10
-1529.20
 20
539.697
 30
0.000000
  70
    32
  0
VERTEX
  8
0
  5
3D0C
 10
-1529.23
 20
539.689
 30
0.000000
  70
    32
  0
VERTEX
  8
0
  5
3D0D
 10
-1529.25
 20
539.681
 30
0.000000
  70
    32
  0
VERTEX
  8
0
  5
3D0E
 10
-1529.27
 20
539.673
 30
0.000000
  70
    32
  0
VERTEX
  8
0
  5
3D0F
 10
-1529.30
 20
539.664
 30
0.000000
  70
    32
  0
VERTEX
  8
0
  5
3D10
 10
-1529.32
 20
539.655
 30
0.000000
  70
    32
  0
VERTEX
  8
0
  5
3D11
 10
-1529.34
 20
539.646
 30
0.000000
  70
    32
  0
VERTEX
  8
0
  5
3D12
 10
-1529.36
 20
539.637
 30
0.000000
  70
    32
  0
VERTEX
  8
0
  5
3D13
 10
-1529.39
 20
539.627
 30
0.000000
  70
    32
  0
VERTEX
  8
0
  5
3D14
 10
-1529.41
 20
539.617
 30
0.000000
  70
    32
  0
VERTEX
  8
0
  5
3D15
 10
-1529.43
 20
539.607
 30
0.000000
  70
    32
  0
VERTEX
  8
0
  5
3D16
 10
-1529.45
 20
539.596
 30
0.000000
  70
    32
  0
VERTEX
  8
0
  5
3D17
 10
-1529.47
 20
539.586
 30
0.000000
  70
    32
  0
VERTEX
  8
0
  5
3D18
 10
-1529.50
 20
539.575
 30
0.000000
  70
    32
  0
VERTEX
  8
0
  5
3D19
 10
-1529.52
 20
539.563
 30
0.000000
  70
    32
  0
VERTEX
  8
0
  5
3D1A
 10
-1529.54
 20
539.552
 30
0.000000
  70
    32
  0
VERTEX
  8
0
  5
3D1B
 10
-1529.56
 20
539.540
 30
0.000000
  70
    32
  0
VERTEX
  8
0
  5
3D1C
 10
-1529.58
 20
539.528
 30
0.000000
  70
    32
  0
VERTEX
  8
0
  5
3D1D
 10
-1529.60
 20
539.515
 30
0.000000
  70
    32
  0
VERTEX
  8
0
  5
3D1E
 10
-1529.62
 20
539.503
 30
0.000000
  70
    32
  0
VERTEX
  8
0
  5
3D1F
 10
-1529.64
 20
539.490
 30
0.000000
  70
    32
  0
VERTEX
  8
0
  5
3D20
 10
-1529.66
 20
539.477
 30
0.000000
  70
    32
  0
VERTEX
  8
0
  5
3D21
 10
-1529.69
 20
539.463
 30
0.000000
  70
    32
  0
VERTEX
  8
0
  5
3D22
 10
-1529.71
 20
539.450
 30
0.000000
  70
    32
  0
VERTEX
  8
0
  5
3D23
 10
-1529.73
 20
539.436
 30
0.000000
  70
    32
  0
VERTEX
  8
0
  5
3D24
 10
-1529.75
 20
539.422
 30
0.000000
  70
    32
  0
VERTEX
  8
0
  5
3D25
 10
-1529.77
 20
539.408
 30
0.000000
  70
    32
  0
VERTEX
  8
0
  5
3D26
 10
-1529.78
 20
539.393
 30
0.000000
  70
    32
  0
VERTEX
  8
0
  5
3D27
 10
-1529.80
 20
539.378
 30
0.000000
  70
    32
  0
VERTEX
  8
0
  5
3D28
 10
-1529.82
 20
539.363
 30
0.000000
  70
    32
  0
VERTEX
  8
0
  5
3D29
 10
-1529.84
 20
539.348
 30
0.000000
  70
    32
  0
VERTEX
  8
0
  5
3D2A
 10
-1529.86
 20
539.332
 30
0.000000
  70
    32
  0
VERTEX
  8
0
  5
3D2B
 10
-1529.88
 20
539.317
 30
0.000000
  70
    32
  0
VERTEX
  8
0
  5
3D2C
 10
-1529.90
 20
539.301
 30
0.000000
  70
    32
  0
VERTEX
  8
0
  5
3D2D
 10
-1529.92
 20
539.284
 30
0.000000
  70
    32
  0
VERTEX
  8
0
  5
3D2E
 10
-1529.93
 20
539.268
 30
0.000000
  70
    32
  0
VERTEX
  8
0
  5
3D2F
 10
-1529.95
 20
539.251
 30
0.000000
  70
    32
  0
VERTEX
  8
0
  5
3D30
 10
-1529.97
 20
539.234
 30
0.000000
  70
    32
  0
VERTEX
  8
0
  5
3D31
 10
-1529.99
 20
539.217
 30
0.000000
  70
    32
  0
VERTEX
  8
0
  5
3D32
 10
-1530.00
 20
539.200
 30
0.000000
  70
    32
  0
VERTEX
  8
0
  5
3D33
 10
-1530.02
 20
539.183
 30
0.000000
  70
    32
  0
VERTEX
  8
0
  5
3D34
 10
-1530.04
 20
539.165
 30
0.000000
  70
    32
  0
VERTEX
  8
0
  5
3D35
 10
-1530.06
 20
539.147
 30
0.000000
  70
    32
  0
VERTEX
  8
0
  5
3D36
 10
-1530.07
 20
539.129
 30
0.000000
  70
    32
  0
VERTEX
  8
0
  5
3D37
 10
-1530.09
 20
539.110
 30
0.000000
  70
    32
  0
VERTEX
  8
0
  5
3D38
 10
-1530.10
 20
539.092
 30
0.000000
  70
    32
  0
VERTEX
  8
0
  5
3D39
 10
-1530.12
 20
539.073
 30
0.000000
  70
    32
  0
VERTEX
  8
0
  5
3D3A
 10
-1530.13
 20
539.054
 30
0.000000
  70
    32
  0
VERTEX
  8
0
  5
3D3B
 10
-1530.15
 20
539.035
 30
0.000000
  70
    32
  0
VERTEX
  8
0
  5
3D3C
 10
-1530.17
 20
539.016
 30
0.000000
  70
    32
  0
VERTEX
  8
0
  5
3D3D
 10
-1530.18
 20
538.997
 30
0.000000
  70
    32
  0
VERTEX
  8
0
  5
3D3E
 10
-1530.19
 20
538.977
 30
0.000000
  70
    32
  0
VERTEX
  8
0
  5
3D3F
 10
-1530.21
 20
538.957
 30
0.000000
  70
    32
  0
VERTEX
  8
0
  5
3D40
 10
-1530.22
 20
538.937
 30
0.000000
  70
    32
  0
VERTEX
  8
0
  5
3D41
 10
-1530.24
 20
538.917
 30
0.000000
  70
    32
  0
VERTEX
  8
0
  5
3D42
 10
-1530.25
 20
538.897
 30
0.000000
  70
    32
  0
VERTEX
  8
0
  5
3D43
 10
-1530.26
 20
538.876
 30
0.000000
  70
    32
  0
VERTEX
  8
0
  5
3D44
 10
-1530.28
 20
538.856
 30
0.000000
  70
    32
  0
VERTEX
  8
0
  5
3D45
 10
-1530.29
 20
538.835
 30
0.000000
  70
    32
  0
VERTEX
  8
0
  5
3D46
 10
-1530.30
 20
538.814
 30
0.000000
  70
    32
  0
VERTEX
  8
0
  5
3D47
 10
-1530.31
 20
538.793
 30
0.000000
  70
    32
  0
VERTEX
  8
0
  5
3D48
 10
-1530.33
 20
538.772
 30
0.000000
  70
    32
  0
VERTEX
  8
0
  5
3D49
 10
-1530.34
 20
538.750
 30
0.000000
  70
    32
  0
VERTEX
  8
0
  5
3D4A
 10
-1530.35
 20
538.729
 30
0.000000
  70
    32
  0
VERTEX
  8
0
  5
3D4B
 10
-1530.36
 20
538.707
 30
0.000000
  70
    32
  0
VERTEX
  8
0
  5
3D4C
 10
-1530.37
 20
538.685
 30
0.000000
  70
    32
  0
VERTEX
  8
0
  5
3D4D
 10
-1530.38
 20
538.663
 30
0.000000
  70
    32
  0
VERTEX
  8
0
  5
3D4E
 10
-1530.39
 20
538.641
 30
0.000000
  70
    32
  0
VERTEX
  8
0
  5
3D4F
 10
-1530.40
 20
538.619
 30
0.000000
  70
    32
  0
VERTEX
  8
0
  5
3D50
 10
-1530.41
 20
538.597
 30
0.000000
  70
    32
  0
VERTEX
  8
0
  5
3D51
 10
-1530.42
 20
538.574
 30
0.000000
  70
    32
  0
VERTEX
  8
0
  5
3D52
 10
-1530.43
 20
538.552
 30
0.000000
  70
    32
  0
VERTEX
  8
0
  5
3D53
 10
-1530.44
 20
538.529
 30
0.000000
  70
    32
  0
VERTEX
  8
0
  5
3D54
 10
-1530.45
 20
538.506
 30
0.000000
  70
    32
  0
VERTEX
  8
0
  5
3D55
 10
-1530.46
 20
538.484
 30
0.000000
  70
    32
  0
VERTEX
  8
0
  5
3D56
 10
-1530.47
 20
538.461
 30
0.000000
  70
    32
  0
VERTEX
  8
0
  5
3D57
 10
-1530.47
 20
538.438
 30
0.000000
  70
    32
  0
VERTEX
  8
0
  5
3D58
 10
-1530.48
 20
538.414
 30
0.000000
  70
    32
  0
VERTEX
  8
0
  5
3D59
 10
-1530.49
 20
538.391
 30
0.000000
  70
    32
  0
VERTEX
  8
0
  5
3D5A
 10
-1530.50
 20
538.368
 30
0.000000
  70
    32
  0
VERTEX
  8
0
  5
3D5B
 10
-1530.50
 20
538.344
 30
0.000000
  70
    32
  0
VERTEX
  8
0
  5
3D5C
 10
-1530.51
 20
538.321
 30
0.000000
  70
    32
  0
VERTEX
  8
0
  5
3D5D
 10
-1530.52
 20
538.297
 30
0.000000
  70
    32
  0
VERTEX
  8
0
  5
3D5E
 10
-1530.52
 20
538.274
 30
0.000000
  70
    32
  0
VERTEX
  8
0
  5
3D5F
 10
-1530.53
 20
538.250
 30
0.000000
  70
    32
  0
VERTEX
  8
0
  5
3D60
 10
-1530.53
 20
538.226
 30
0.000000
  70
    32
  0
VERTEX
  8
0
  5
3D61
 10
-1530.54
 20
538.202
 30
0.000000
  70
    32
  0
VERTEX
  8
0
  5
3D62
 10
-1530.54
 20
538.178
 30
0.000000
  70
    32
  0
VERTEX
  8
0
  5
3D63
 10
-1530.55
 20
538.154
 30
0.000000
  70
    32
  0
VERTEX
  8
0
  5
3D64
 10
-1530.55
 20
538.130
 30
0.000000
  70
    32
  0
VERTEX
  8
0
  5
3D65
 10
-1530.56
 20
538.106
 30
0.000000
  70
    32
  0
VERTEX
  8
0
  5
3D66
 10
-1530.56
 20
538.082
 30
0.000000
  70
    32
  0
VERTEX
  8
0
  5
3D67
 10
-1530.56
 20
538.058
 30
0.000000
  70
    32
  0
VERTEX
  8
0
  5
3D68
 10
-1530.57
 20
538.034
 30
0.000000
  70
    32
  0
VERTEX
  8
0
  5
3D69
 10
-1530.57
 20
538.009
 30
0.000000
  70
    32
  0
VERTEX
  8
0
  5
3D6A
 10
-1530.57
 20
537.985
 30
0.000000
  70
    32
  0
VERTEX
  8
0
  5
3D6B
 10
-1530.57
 20
537.961
 30
0.000000
  70
    32
  0
VERTEX
  8
0
  5
3D6C
 10
-1530.57
 20
537.936
 30
0.000000
  70
    32
  0
VERTEX
  8
0
  5
3D6D
 10
-1530.58
 20
537.912
 30
0.000000
  70
    32
  0
VERTEX
  8
0
  5
3D6E
 10
-1530.58
 20
537.888
 30
0.000000
  70
    32
  0
VERTEX
  8
0
  5
3D6F
 10
-1530.58
 20
537.863
 30
0.000000
  70
    32
  0
VERTEX
  8
0
  5
3D70
 10
-1530.58
 20
537.839
 30
0.000000
  70
    32
  0
VERTEX
  8
0
  5
3D71
 10
-1530.58
 20
537.814
 30
0.000000
  70
    32
  0
SEQEND
  8
0
  5
3D72
  0
LINE
  5
411
  8
AM_VIS
 10
-1531.1426597226789
 20
473.2951795543151
 30
0.0
 11
-1530.5796086370569
 21
537.81444340931762
 31
0.0
  0
LINE
  5
412
  8
AM_VIS
 10
-1681.5210279875009
 20
537.81444340931762
 30
0.0
 11
-1680.9579769018801
 21
473.2951795543151
 31
0.0
  0
POLYLINE
  5
413
  8
AM_VIS
 10
-1681.5210279817031
 20
537.81444274485921
 30
0.0
 66
     1
 70
     8
  0
VERTEX
  8
0
  5
3D73
 10
-1681.52
 20
537.814
 30
0.000000
  70
    32
  0
VERTEX
  8
0
  5
3D74
 10
-1681.52
 20
537.839
 30
0.000000
  70
    32
  0
VERTEX
  8
0
  5
3D75
 10
-1681.52
 20
537.863
 30
0.000000
  70
    32
  0
VERTEX
  8
0
  5
3D76
 10
-1681.52
 20
537.888
 30
0.000000
  70
    32
  0
VERTEX
  8
0
  5
3D77
 10
-1681.52
 20
537.912
 30
0.000000
  70
    32
  0
VERTEX
  8
0
  5
3D78
 10
-1681.53
 20
537.936
 30
0.000000
  70
    32
  0
VERTEX
  8
0
  5
3D79
 10
-1681.53
 20
537.961
 30
0.000000
  70
    32
  0
VERTEX
  8
0
  5
3D7A
 10
-1681.53
 20
537.985
 30
0.000000
  70
    32
  0
VERTEX
  8
0
  5
3D7B
 10
-1681.53
 20
538.009
 30
0.000000
  70
    32
  0
VERTEX
  8
0
  5
3D7C
 10
-1681.53
 20
538.034
 30
0.000000
  70
    32
  0
VERTEX
  8
0
  5
3D7D
 10
-1681.54
 20
538.058
 30
0.000000
  70
    32
  0
VERTEX
  8
0
  5
3D7E
 10
-1681.54
 20
538.082
 30
0.000000
  70
    32
  0
VERTEX
  8
0
  5
3D7F
 10
-1681.54
 20
538.106
 30
0.000000
  70
    32
  0
VERTEX
  8
0
  5
3D80
 10
-1681.55
 20
538.130
 30
0.000000
  70
    32
  0
VERTEX
  8
0
  5
3D81
 10
-1681.55
 20
538.154
 30
0.000000
  70
    32
  0
VERTEX
  8
0
  5
3D82
 10
-1681.56
 20
538.178
 30
0.000000
  70
    32
  0
VERTEX
  8
0
  5
3D83
 10
-1681.56
 20
538.202
 30
0.000000
  70
    32
  0
VERTEX
  8
0
  5
3D84
 10
-1681.57
 20
538.226
 30
0.000000
  70
    32
  0
VERTEX
  8
0
  5
3D85
 10
-1681.57
 20
538.250
 30
0.000000
  70
    32
  0
VERTEX
  8
0
  5
3D86
 10
-1681.58
 20
538.274
 30
0.000000
  70
    32
  0
VERTEX
  8
0
  5
3D87
 10
-1681.58
 20
538.297
 30
0.000000
  70
    32
  0
VERTEX
  8
0
  5
3D88
 10
-1681.59
 20
538.321
 30
0.000000
  70
    32
  0
VERTEX
  8
0
  5
3D89
 10
-1681.60
 20
538.344
 30
0.000000
  70
    32
  0
VERTEX
  8
0
  5
3D8A
 10
-1681.60
 20
538.368
 30
0.000000
  70
    32
  0
VERTEX
  8
0
  5
3D8B
 10
-1681.61
 20
538.391
 30
0.000000
  70
    32
  0
VERTEX
  8
0
  5
3D8C
 10
-1681.62
 20
538.414
 30
0.000000
  70
    32
  0
VERTEX
  8
0
  5
3D8D
 10
-1681.63
 20
538.438
 30
0.000000
  70
    32
  0
VERTEX
  8
0
  5
3D8E
 10
-1681.63
 20
538.461
 30
0.000000
  70
    32
  0
VERTEX
  8
0
  5
3D8F
 10
-1681.64
 20
538.484
 30
0.000000
  70
    32
  0
VERTEX
  8
0
  5
3D90
 10
-1681.65
 20
538.506
 30
0.000000
  70
    32
  0
VERTEX
  8
0
  5
3D91
 10
-1681.66
 20
538.529
 30
0.000000
  70
    32
  0
VERTEX
  8
0
  5
3D92
 10
-1681.67
 20
538.552
 30
0.000000
  70
    32
  0
VERTEX
  8
0
  5
3D93
 10
-1681.68
 20
538.574
 30
0.000000
  70
    32
  0
VERTEX
  8
0
  5
3D94
 10
-1681.69
 20
538.597
 30
0.000000
  70
    32
  0
VERTEX
  8
0
  5
3D95
 10
-1681.70
 20
538.619
 30
0.000000
  70
    32
  0
VERTEX
  8
0
  5
3D96
 10
-1681.71
 20
538.641
 30
0.000000
  70
    32
  0
VERTEX
  8
0
  5
3D97
 10
-1681.72
 20
538.663
 30
0.000000
  70
    32
  0
VERTEX
  8
0
  5
3D98
 10
-1681.73
 20
538.685
 30
0.000000
  70
    32
  0
VERTEX
  8
0
  5
3D99
 10
-1681.74
 20
538.707
 30
0.000000
  70
    32
  0
VERTEX
  8
0
  5
3D9A
 10
-1681.75
 20
538.729
 30
0.000000
  70
    32
  0
VERTEX
  8
0
  5
3D9B
 10
-1681.76
 20
538.750
 30
0.000000
  70
    32
  0
VERTEX
  8
0
  5
3D9C
 10
-1681.77
 20
538.772
 30
0.000000
  70
    32
  0
VERTEX
  8
0
  5
3D9D
 10
-1681.79
 20
538.793
 30
0.000000
  70
    32
  0
VERTEX
  8
0
  5
3D9E
 10
-1681.80
 20
538.814
 30
0.000000
  70
    32
  0
VERTEX
  8
0
  5
3D9F
 10
-1681.81
 20
538.835
 30
0.000000
  70
    32
  0
VERTEX
  8
0
  5
3DA0
 10
-1681.82
 20
538.856
 30
0.000000
  70
    32
  0
VERTEX
  8
0
  5
3DA1
 10
-1681.84
 20
538.876
 30
0.000000
  70
    32
  0
VERTEX
  8
0
  5
3DA2
 10
-1681.85
 20
538.897
 30
0.000000
  70
    32
  0
VERTEX
  8
0
  5
3DA3
 10
-1681.86
 20
538.917
 30
0.000000
  70
    32
  0
VERTEX
  8
0
  5
3DA4
 10
-1681.88
 20
538.937
 30
0.000000
  70
    32
  0
VERTEX
  8
0
  5
3DA5
 10
-1681.89
 20
538.957
 30
0.000000
  70
    32
  0
VERTEX
  8
0
  5
3DA6
 10
-1681.91
 20
538.977
 30
0.000000
  70
    32
  0
VERTEX
  8
0
  5
3DA7
 10
-1681.92
 20
538.997
 30
0.000000
  70
    32
  0
VERTEX
  8
0
  5
3DA8
 10
-1681.94
 20
539.016
 30
0.000000
  70
    32
  0
VERTEX
  8
0
  5
3DA9
 10
-1681.95
 20
539.035
 30
0.000000
  70
    32
  0
VERTEX
  8
0
  5
3DAA
 10
-1681.97
 20
539.054
 30
0.000000
  70
    32
  0
VERTEX
  8
0
  5
3DAB
 10
-1681.98
 20
539.073
 30
0.000000
  70
    32
  0
VERTEX
  8
0
  5
3DAC
 10
-1682.00
 20
539.092
 30
0.000000
  70
    32
  0
VERTEX
  8
0
  5
3DAD
 10
-1682.01
 20
539.110
 30
0.000000
  70
    32
  0
VERTEX
  8
0
  5
3DAE
 10
-1682.03
 20
539.129
 30
0.000000
  70
    32
  0
VERTEX
  8
0
  5
3DAF
 10
-1682.05
 20
539.147
 30
0.000000
  70
    32
  0
VERTEX
  8
0
  5
3DB0
 10
-1682.06
 20
539.165
 30
0.000000
  70
    32
  0
VERTEX
  8
0
  5
3DB1
 10
-1682.08
 20
539.183
 30
0.000000
  70
    32
  0
VERTEX
  8
0
  5
3DB2
 10
-1682.10
 20
539.200
 30
0.000000
  70
    32
  0
VERTEX
  8
0
  5
3DB3
 10
-1682.11
 20
539.217
 30
0.000000
  70
    32
  0
VERTEX
  8
0
  5
3DB4
 10
-1682.13
 20
539.234
 30
0.000000
  70
    32
  0
VERTEX
  8
0
  5
3DB5
 10
-1682.15
 20
539.251
 30
0.000000
  70
    32
  0
VERTEX
  8
0
  5
3DB6
 10
-1682.17
 20
539.268
 30
0.000000
  70
    32
  0
VERTEX
  8
0
  5
3DB7
 10
-1682.18
 20
539.284
 30
0.000000
  70
    32
  0
VERTEX
  8
0
  5
3DB8
 10
-1682.20
 20
539.301
 30
0.000000
  70
    32
  0
VERTEX
  8
0
  5
3DB9
 10
-1682.22
 20
539.317
 30
0.000000
  70
    32
  0
VERTEX
  8
0
  5
3DBA
 10
-1682.24
 20
539.332
 30
0.000000
  70
    32
  0
VERTEX
  8
0
  5
3DBB
 10
-1682.26
 20
539.348
 30
0.000000
  70
    32
  0
VERTEX
  8
0
  5
3DBC
 10
-1682.28
 20
539.363
 30
0.000000
  70
    32
  0
VERTEX
  8
0
  5
3DBD
 10
-1682.30
 20
539.378
 30
0.000000
  70
    32
  0
VERTEX
  8
0
  5
3DBE
 10
-1682.32
 20
539.393
 30
0.000000
  70
    32
  0
VERTEX
  8
0
  5
3DBF
 10
-1682.34
 20
539.408
 30
0.000000
  70
    32
  0
VERTEX
  8
0
  5
3DC0
 10
-1682.35
 20
539.422
 30
0.000000
  70
    32
  0
VERTEX
  8
0
  5
3DC1
 10
-1682.37
 20
539.436
 30
0.000000
  70
    32
  0
VERTEX
  8
0
  5
3DC2
 10
-1682.40
 20
539.450
 30
0.000000
  70
    32
  0
VERTEX
  8
0
  5
3DC3
 10
-1682.42
 20
539.463
 30
0.000000
  70
    32
  0
VERTEX
  8
0
  5
3DC4
 10
-1682.44
 20
539.477
 30
0.000000
  70
    32
  0
VERTEX
  8
0
  5
3DC5
 10
-1682.46
 20
539.490
 30
0.000000
  70
    32
  0
VERTEX
  8
0
  5
3DC6
 10
-1682.48
 20
539.503
 30
0.000000
  70
    32
  0
VERTEX
  8
0
  5
3DC7
 10
-1682.50
 20
539.515
 30
0.000000
  70
    32
  0
VERTEX
  8
0
  5
3DC8
 10
-1682.52
 20
539.528
 30
0.000000
  70
    32
  0
VERTEX
  8
0
  5
3DC9
 10
-1682.54
 20
539.540
 30
0.000000
  70
    32
  0
VERTEX
  8
0
  5
3DCA
 10
-1682.56
 20
539.552
 30
0.000000
  70
    32
  0
VERTEX
  8
0
  5
3DCB
 10
-1682.58
 20
539.563
 30
0.000000
  70
    32
  0
VERTEX
  8
0
  5
3DCC
 10
-1682.60
 20
539.575
 30
0.000000
  70
    32
  0
VERTEX
  8
0
  5
3DCD
 10
-1682.63
 20
539.586
 30
0.000000
  70
    32
  0
VERTEX
  8
0
  5
3DCE
 10
-1682.65
 20
539.596
 30
0.000000
  70
    32
  0
VERTEX
  8
0
  5
3DCF
 10
-1682.67
 20
539.607
 30
0.000000
  70
    32
  0
VERTEX
  8
0
  5
3DD0
 10
-1682.69
 20
539.617
 30
0.000000
  70
    32
  0
VERTEX
  8
0
  5
3DD1
 10
-1682.71
 20
539.627
 30
0.000000
  70
    32
  0
VERTEX
  8
0
  5
3DD2
 10
-1682.74
 20
539.637
 30
0.000000
  70
    32
  0
VERTEX
  8
0
  5
3DD3
 10
-1682.76
 20
539.646
 30
0.000000
  70
    32
  0
VERTEX
  8
0
  5
3DD4
 10
-1682.78
 20
539.655
 30
0.000000
  70
    32
  0
VERTEX
  8
0
  5
3DD5
 10
-1682.80
 20
539.664
 30
0.000000
  70
    32
  0
VERTEX
  8
0
  5
3DD6
 10
-1682.83
 20
539.673
 30
0.000000
  70
    32
  0
VERTEX
  8
0
  5
3DD7
 10
-1682.85
 20
539.681
 30
0.000000
  70
    32
  0
VERTEX
  8
0
  5
3DD8
 10
-1682.87
 20
539.689
 30
0.000000
  70
    32
  0
VERTEX
  8
0
  5
3DD9
 10
-1682.90
 20
539.697
 30
0.000000
  70
    32
  0
VERTEX
  8
0
  5
3DDA
 10
-1682.92
 20
539.705
 30
0.000000
  70
    32
  0
VERTEX
  8
0
  5
3DDB
 10
-1682.94
 20
539.712
 30
0.000000
  70
    32
  0
VERTEX
  8
0
  5
3DDC
 10
-1682.97
 20
539.719
 30
0.000000
  70
    32
  0
VERTEX
  8
0
  5
3DDD
 10
-1682.99
 20
539.725
 30
0.000000
  70
    32
  0
VERTEX
  8
0
  5
3DDE
 10
-1683.01
 20
539.732
 30
0.000000
  70
    32
  0
VERTEX
  8
0
  5
3DDF
 10
-1683.04
 20
539.738
 30
0.000000
  70
    32
  0
VERTEX
  8
0
  5
3DE0
 10
-1683.06
 20
539.743
 30
0.000000
  70
    32
  0
VERTEX
  8
0
  5
3DE1
 10
-1683.09
 20
539.749
 30
0.000000
  70
    32
  0
VERTEX
  8
0
  5
3DE2
 10
-1683.11
 20
539.754
 30
0.000000
  70
    32
  0
VERTEX
  8
0
  5
3DE3
 10
-1683.13
 20
539.759
 30
0.000000
  70
    32
  0
VERTEX
  8
0
  5
3DE4
 10
-1683.16
 20
539.764
 30
0.000000
  70
    32
  0
VERTEX
  8
0
  5
3DE5
 10
-1683.18
 20
539.768
 30
0.000000
  70
    32
  0
VERTEX
  8
0
  5
3DE6
 10
-1683.20
 20
539.772
 30
0.000000
  70
    32
  0
VERTEX
  8
0
  5
3DE7
 10
-1683.23
 20
539.776
 30
0.000000
  70
    32
  0
VERTEX
  8
0
  5
3DE8
 10
-1683.25
 20
539.779
 30
0.000000
  70
    32
  0
VERTEX
  8
0
  5
3DE9
 10
-1683.28
 20
539.782
 30
0.000000
  70
    32
  0
VERTEX
  8
0
  5
3DEA
 10
-1683.30
 20
539.785
 30
0.000000
  70
    32
  0
VERTEX
  8
0
  5
3DEB
 10
-1683.33
 20
539.787
 30
0.000000
  70
    32
  0
VERTEX
  8
0
  5
3DEC
 10
-1683.35
 20
539.790
 30
0.000000
  70
    32
  0
VERTEX
  8
0
  5
3DED
 10
-1683.37
 20
539.792
 30
0.000000
  70
    32
  0
VERTEX
  8
0
  5
3DEE
 10
-1683.40
 20
539.793
 30
0.000000
  70
    32
  0
VERTEX
  8
0
  5
3DEF
 10
-1683.42
 20
539.795
 30
0.000000
  70
    32
  0
VERTEX
  8
0
  5
3DF0
 10
-1683.45
 20
539.796
 30
0.000000
  70
    32
  0
VERTEX
  8
0
  5
3DF1
 10
-1683.47
 20
539.796
 30
0.000000
  70
    32
  0
VERTEX
  8
0
  5
3DF2
 10
-1683.50
 20
539.797
 30
0.000000
  70
    32
  0
VERTEX
  8
0
  5
3DF3
 10
-1683.52
 20
539.797
 30
0.000000
  70
    32
  0
SEQEND
  8
0
  5
3DF4
  0
LINE
  5
414
  8
AM_VIS
 10
-1692.539014123276
 20
539.79691551349219
 30
0.0
 11
-1683.520951839429
 21
539.79691551349219
 31
0.0
  0
POLYLINE
  5
415
  8
AM_VIS
 66
     1
 10
0.0
 20
0.0
 30
0.0
  0
VERTEX
  5
38CF
  8
AM_VIS
 10
-1519.543515854564
 20
539.79691551349219
 30
0.0
  0
VERTEX
  5
38D0
  8
AM_VIS
 10
-1517.068720189231
 20
539.79691551349219
 30
0.0
  0
VERTEX
  5
38D1
  8
AM_VIS
 10
-1516.043649123839
 20
539.79691551349219
 30
0.0
  0
SEQEND
  5
38D2
  8
AM_VIS
  0
LINE
  5
416
  8
AM_VIS
 10
-1516.0609498957911
 20
537.81444340931762
 30
0.0
 11
-1516.624000981411
 21
473.2951795543151
 31
0.0
  0
LINE
  5
417
  8
AM_VIS
 10
-1516.043649123839
 20
539.79691551349219
 30
0.0
 11
-1516.0609498957911
 21
537.81444340931762
 31
0.0
  0
LINE
  5
418
  8
AM_VIS
 10
-1516.043649123839
 20
539.79691551349219
 30
0.0
 11
-1515.99830740741
 21
544.99256159366564
 31
0.0
  0
POLYLINE
  5
41A
  8
AM_VIS
 66
     1
 10
0.0
 20
0.0
 30
0.0
  0
VERTEX
  5
38D3
  8
AM_VIS
 10
-1696.08422257043
 20
544.99256159366564
 30
0.0
  0
VERTEX
  5
38D4
  8
AM_VIS
 10
-1695.284253031979
 20
545.79954282206415
 30
0.0
  0
SEQEND
  5
38D5
  8
AM_VIS
  0
POLYLINE
  5
41D
  8
AM_VIS
 66
     1
 10
0.0
 20
0.0
 30
0.0
  0
VERTEX
  5
38D6
  8
AM_VIS
 10
-1516.7982769458611
 20
545.79954282206415
 30
0.0
  0
VERTEX
  5
38D7
  8
AM_VIS
 10
-1515.99830740741
 20
544.99256159366564
 30
0.0
  0
SEQEND
  5
38D8
  8
AM_VIS
  0
POLYLINE
  5
41F
  8
AM_VIS
 66
     1
 10
0.0
 20
0.0
 30
0.0
  0
VERTEX
  5
38D9
  8
AM_VIS
 10
-1516.7982769458611
 20
545.79954282206415
 30
0.0
  0
VERTEX
  5
38DA
  8
AM_VIS
 10
-1695.284253031979
 20
545.79954282206415
 30
0.0
  0
SEQEND
  5
38DB
  8
AM_VIS
  0
POLYLINE
  5
420
  8
AM_VIS
 66
     1
 10
0.0
 20
0.0
 30
0.0
  0
VERTEX
  5
38DC
  8
AM_VIS
 10
-1533.6545235941669
 20
545.79954282206415
 30
0.0
  0
VERTEX
  5
38DD
  8
AM_VIS
 10
-1533.6931745567231
 20
545.79743895625029
 30
0.0
  0
VERTEX
  5
38DE
  8
AM_VIS
 10
-1533.854506407474
 20
545.792700030937
 30
0.0
  0
VERTEX
  5
38DF
  8
AM_VIS
 10
-1533.8756518992959
 20
545.79256160260775
 30
0.0
  0
VERTEX
  5
38E0
  8
AM_VIS
 10
-1533.8852676667791
 20
545.79253562800113
 30
0.0
  0
VERTEX
  5
38E1
  8
AM_VIS
 10
-1533.8912649889201
 20
545.79253113211689
 30
0.0
  0
SEQEND
  5
38E2
  8
AM_VIS
  0
POLYLINE
  5
426
  8
AM_VIS
 66
     1
 10
0.0
 20
0.0
 30
0.0
  0
VERTEX
  5
38E3
  8
AM_VIS
 10
-1678.19126498892
 20
545.79253113211689
 30
0.0
  0
VERTEX
  5
38E4
  8
AM_VIS
 10
-1678.192615376229
 20
545.79253136005491
 30
0.0
  0
VERTEX
  5
38E5
  8
AM_VIS
 10
-1678.2004493495369
 20
545.79254167595025
 30
0.0
  0
VERTEX
  5
38E6
  8
AM_VIS
 10
-1678.212644278389
 20
545.79258826546845
 30
0.0
  0
VERTEX
  5
38E7
  8
AM_VIS
 10
-1678.226728290663
 20
545.79268833729236
 30
0.0
  0
VERTEX
  5
38E8
  8
AM_VIS
 10
-1678.428006383672
 20
545.79954282206415
 30
0.0
  0
SEQEND
  5
38E9
  8
AM_VIS
  0
POLYLINE
  5
11AB
  8
AM_VIS
 66
     1
 10
0.0
 20
0.0
 30
0.0
  0
VERTEX
  5
38EA
  8
AM_VIS
 10
-1516.7913261790111
 20
383.09118492971402
 30
0.0
  0
VERTEX
  5
38EB
  8
AM_VIS
 10
-1516.7913261790111
 20
163.79118492971401
 30
0.0
  0
SEQEND
  5
38EC
  8
AM_VIS
  0
POLYLINE
  5
11AD
  8
AM_VIS
 66
     1
 10
0.0
 20
0.0
 30
0.0
  0
VERTEX
  5
38ED
  8
AM_VIS
 10
-1695.284253031979
 20
163.55444353495739
 30
0.0
  0
VERTEX
  5
38EE
  8
AM_VIS
 10
-1695.291203798829
 20
383.09118492971419
 30
0.0
  0
SEQEND
  5
38EF
  8
AM_VIS
  0
LINE
  5
11B3
  8
AM_VIS
 10
-1691.8912649889201
 20
163.79118492971401
 30
0.0
 11
-1691.8912649889201
 21
383.09118492971402
 31
0.0
  0
LINE
  5
11B5
  8
AM_VIS
 10
-1520.816108722739
 20
165.81151357922539
 30
0.0
 11
-1520.816108722739
 21
381.07085628020258
 31
0.0
  0
LINE
  5
11B6
  8
AM_VIS
 10
-1520.19126498892
 20
383.09118492971402
 30
0.0
 11
-1520.19126498892
 21
163.79118492971401
 31
0.0
  0
LINE
  5
11B7
  8
AM_VIS
 10
-1692.69126498892
 20
383.09118492971402
 30
0.0
 11
-1692.69126498892
 21
163.79118492971401
 31
0.0
  0
LINE
  5
11B9
  8
AM_VIS
 10
-1519.3912649889201
 20
163.79118492971401
 30
0.0
 11
-1519.3912649889201
 21
383.09118492971402
 31
0.0
  0
POLYLINE
  5
11C1
  8
AM_VIS
 66
     1
 10
0.0
 20
0.0
 30
0.0
  0
VERTEX
  5
38F0
  8
AM_VIS
 10
-1384.925372390604
 20
146.6981968866553
 30
0.0
  0
VERTEX
  5
38F1
  8
AM_VIS
 10
-1384.925372390604
 20
400.18417297277273
 30
0.0
  0
SEQEND
  5
38F2
  8
AM_VIS
  0
LINE
  5
11C2
  8
AM_VIS
 10
-1457.925372390604
 20
385.87268893934561
 30
0.0
 11
-1457.925372390604
 21
161.00968092008171
 31
0.0
  0
LINE
  5
11C8
  8
AM_VIS
 10
-1392.91047180335
 20
145.960869836585
 30
0.0
 11
-1457.4297356583529
 21
146.52392092220489
 31
0.0
  0
LINE
  5
11C9
  8
AM_VIS
 10
-1457.4297356583529
 20
161.0244730167517
 30
0.0
 11
-1392.91047180335
 21
160.4614219311315
 31
0.0
  0
LINE
  5
11CA
  8
AM_VIS
 10
-1459.6279903512529
 20
147.24313145556329
 30
0.0
 11
-1391.225381738526
 21
146.6461909336567
 31
0.0
  0
POLYLINE
  5
11CB
  8
AM_VIS
 10
-1390.9279996991759
 20
158.46149807920429
 30
0.0
 66
     1
 70
     8
  0
VERTEX
  8
0
  5
3DF5
 10
-1390.93
 20
158.461
 30
0.000000
  70
    32
  0
VERTEX
  8
0
  5
3DF6
 10
-1390.93
 20
158.486
 30
0.000000
  70
    32
  0
VERTEX
  8
0
  5
3DF7
 10
-1390.93
 20
158.510
 30
0.000000
  70
    32
  0
VERTEX
  8
0
  5
3DF8
 10
-1390.93
 20
158.535
 30
0.000000
  70
    32
  0
VERTEX
  8
0
  5
3DF9
 10
-1390.93
 20
158.559
 30
0.000000
  70
    32
  0
VERTEX
  8
0
  5
3DFA
 10
-1390.93
 20
158.583
 30
0.000000
  70
    32
  0
VERTEX
  8
0
  5
3DFB
 10
-1390.93
 20
158.608
 30
0.000000
  70
    32
  0
VERTEX
  8
0
  5
3DFC
 10
-1390.94
 20
158.632
 30
0.000000
  70
    32
  0
VERTEX
  8
0
  5
3DFD
 10
-1390.94
 20
158.656
 30
0.000000
  70
    32
  0
VERTEX
  8
0
  5
3DFE
 10
-1390.94
 20
158.681
 30
0.000000
  70
    32
  0
VERTEX
  8
0
  5
3DFF
 10
-1390.94
 20
158.705
 30
0.000000
  70
    32
  0
VERTEX
  8
0
  5
3E00
 10
-1390.95
 20
158.729
 30
0.000000
  70
    32
  0
VERTEX
  8
0
  5
3E01
 10
-1390.95
 20
158.753
 30
0.000000
  70
    32
  0
VERTEX
  8
0
  5
3E02
 10
-1390.95
 20
158.777
 30
0.000000
  70
    32
  0
VERTEX
  8
0
  5
3E03
 10
-1390.96
 20
158.802
 30
0.000000
  70
    32
  0
VERTEX
  8
0
  5
3E04
 10
-1390.96
 20
158.826
 30
0.000000
  70
    32
  0
VERTEX
  8
0
  5
3E05
 10
-1390.97
 20
158.850
 30
0.000000
  70
    32
  0
VERTEX
  8
0
  5
3E06
 10
-1390.97
 20
158.873
 30
0.000000
  70
    32
  0
VERTEX
  8
0
  5
3E07
 10
-1390.98
 20
158.897
 30
0.000000
  70
    32
  0
VERTEX
  8
0
  5
3E08
 10
-1390.98
 20
158.921
 30
0.000000
  70
    32
  0
VERTEX
  8
0
  5
3E09
 10
-1390.99
 20
158.945
 30
0.000000
  70
    32
  0
VERTEX
  8
0
  5
3E0A
 10
-1390.99
 20
158.968
 30
0.000000
  70
    32
  0
VERTEX
  8
0
  5
3E0B
 10
-1391.00
 20
158.992
 30
0.000000
  70
    32
  0
VERTEX
  8
0
  5
3E0C
 10
-1391.01
 20
159.016
 30
0.000000
  70
    32
  0
VERTEX
  8
0
  5
3E0D
 10
-1391.01
 20
159.039
 30
0.000000
  70
    32
  0
VERTEX
  8
0
  5
3E0E
 10
-1391.02
 20
159.062
 30
0.000000
  70
    32
  0
VERTEX
  8
0
  5
3E0F
 10
-1391.03
 20
159.085
 30
0.000000
  70
    32
  0
VERTEX
  8
0
  5
3E10
 10
-1391.04
 20
159.109
 30
0.000000
  70
    32
  0
VERTEX
  8
0
  5
3E11
 10
-1391.04
 20
159.132
 30
0.000000
  70
    32
  0
VERTEX
  8
0
  5
3E12
 10
-1391.05
 20
159.155
 30
0.000000
  70
    32
  0
VERTEX
  8
0
  5
3E13
 10
-1391.06
 20
159.177
 30
0.000000
  70
    32
  0
VERTEX
  8
0
  5
3E14
 10
-1391.07
 20
159.200
 30
0.000000
  70
    32
  0
VERTEX
  8
0
  5
3E15
 10
-1391.08
 20
159.223
 30
0.000000
  70
    32
  0
VERTEX
  8
0
  5
3E16
 10
-1391.09
 20
159.245
 30
0.000000
  70
    32
  0
VERTEX
  8
0
  5
3E17
 10
-1391.10
 20
159.268
 30
0.000000
  70
    32
  0
VERTEX
  8
0
  5
3E18
 10
-1391.11
 20
159.290
 30
0.000000
  70
    32
  0
VERTEX
  8
0
  5
3E19
 10
-1391.12
 20
159.312
 30
0.000000
  70
    32
  0
VERTEX
  8
0
  5
3E1A
 10
-1391.13
 20
159.334
 30
0.000000
  70
    32
  0
VERTEX
  8
0
  5
3E1B
 10
-1391.14
 20
159.356
 30
0.000000
  70
    32
  0
VERTEX
  8
0
  5
3E1C
 10
-1391.15
 20
159.378
 30
0.000000
  70
    32
  0
VERTEX
  8
0
  5
3E1D
 10
-1391.16
 20
159.399
 30
0.000000
  70
    32
  0
VERTEX
  8
0
  5
3E1E
 10
-1391.17
 20
159.421
 30
0.000000
  70
    32
  0
VERTEX
  8
0
  5
3E1F
 10
-1391.19
 20
159.442
 30
0.000000
  70
    32
  0
VERTEX
  8
0
  5
3E20
 10
-1391.20
 20
159.464
 30
0.000000
  70
    32
  0
VERTEX
  8
0
  5
3E21
 10
-1391.21
 20
159.485
 30
0.000000
  70
    32
  0
VERTEX
  8
0
  5
3E22
 10
-1391.22
 20
159.505
 30
0.000000
  70
    32
  0
VERTEX
  8
0
  5
3E23
 10
-1391.23
 20
159.526
 30
0.000000
  70
    32
  0
VERTEX
  8
0
  5
3E24
 10
-1391.25
 20
159.547
 30
0.000000
  70
    32
  0
VERTEX
  8
0
  5
3E25
 10
-1391.26
 20
159.567
 30
0.000000
  70
    32
  0
VERTEX
  8
0
  5
3E26
 10
-1391.28
 20
159.587
 30
0.000000
  70
    32
  0
VERTEX
  8
0
  5
3E27
 10
-1391.29
 20
159.608
 30
0.000000
  70
    32
  0
VERTEX
  8
0
  5
3E28
 10
-1391.30
 20
159.627
 30
0.000000
  70
    32
  0
VERTEX
  8
0
  5
3E29
 10
-1391.32
 20
159.647
 30
0.000000
  70
    32
  0
VERTEX
  8
0
  5
3E2A
 10
-1391.33
 20
159.667
 30
0.000000
  70
    32
  0
VERTEX
  8
0
  5
3E2B
 10
-1391.35
 20
159.686
 30
0.000000
  70
    32
  0
VERTEX
  8
0
  5
3E2C
 10
-1391.36
 20
159.705
 30
0.000000
  70
    32
  0
VERTEX
  8
0
  5
3E2D
 10
-1391.38
 20
159.724
 30
0.000000
  70
    32
  0
VERTEX
  8
0
  5
3E2E
 10
-1391.39
 20
159.743
 30
0.000000
  70
    32
  0
VERTEX
  8
0
  5
3E2F
 10
-1391.41
 20
159.762
 30
0.000000
  70
    32
  0
VERTEX
  8
0
  5
3E30
 10
-1391.42
 20
159.780
 30
0.000000
  70
    32
  0
VERTEX
  8
0
  5
3E31
 10
-1391.44
 20
159.799
 30
0.000000
  70
    32
  0
VERTEX
  8
0
  5
3E32
 10
-1391.46
 20
159.817
 30
0.000000
  70
    32
  0
VERTEX
  8
0
  5
3E33
 10
-1391.47
 20
159.834
 30
0.000000
  70
    32
  0
VERTEX
  8
0
  5
3E34
 10
-1391.49
 20
159.852
 30
0.000000
  70
    32
  0
VERTEX
  8
0
  5
3E35
 10
-1391.51
 20
159.870
 30
0.000000
  70
    32
  0
VERTEX
  8
0
  5
3E36
 10
-1391.52
 20
159.887
 30
0.000000
  70
    32
  0
VERTEX
  8
0
  5
3E37
 10
-1391.54
 20
159.904
 30
0.000000
  70
    32
  0
VERTEX
  8
0
  5
3E38
 10
-1391.56
 20
159.921
 30
0.000000
  70
    32
  0
VERTEX
  8
0
  5
3E39
 10
-1391.58
 20
159.937
 30
0.000000
  70
    32
  0
VERTEX
  8
0
  5
3E3A
 10
-1391.60
 20
159.954
 30
0.000000
  70
    32
  0
VERTEX
  8
0
  5
3E3B
 10
-1391.61
 20
159.970
 30
0.000000
  70
    32
  0
VERTEX
  8
0
  5
3E3C
 10
-1391.63
 20
159.986
 30
0.000000
  70
    32
  0
VERTEX
  8
0
  5
3E3D
 10
-1391.65
 20
160.001
 30
0.000000
  70
    32
  0
VERTEX
  8
0
  5
3E3E
 10
-1391.67
 20
160.017
 30
0.000000
  70
    32
  0
VERTEX
  8
0
  5
3E3F
 10
-1391.69
 20
160.032
 30
0.000000
  70
    32
  0
VERTEX
  8
0
  5
3E40
 10
-1391.71
 20
160.047
 30
0.000000
  70
    32
  0
VERTEX
  8
0
  5
3E41
 10
-1391.73
 20
160.062
 30
0.000000
  70
    32
  0
VERTEX
  8
0
  5
3E42
 10
-1391.75
 20
160.076
 30
0.000000
  70
    32
  0
VERTEX
  8
0
  5
3E43
 10
-1391.77
 20
160.091
 30
0.000000
  70
    32
  0
VERTEX
  8
0
  5
3E44
 10
-1391.79
 20
160.105
 30
0.000000
  70
    32
  0
VERTEX
  8
0
  5
3E45
 10
-1391.81
 20
160.118
 30
0.000000
  70
    32
  0
VERTEX
  8
0
  5
3E46
 10
-1391.83
 20
160.132
 30
0.000000
  70
    32
  0
VERTEX
  8
0
  5
3E47
 10
-1391.85
 20
160.145
 30
0.000000
  70
    32
  0
VERTEX
  8
0
  5
3E48
 10
-1391.87
 20
160.158
 30
0.000000
  70
    32
  0
VERTEX
  8
0
  5
3E49
 10
-1391.89
 20
160.171
 30
0.000000
  70
    32
  0
VERTEX
  8
0
  5
3E4A
 10
-1391.91
 20
160.184
 30
0.000000
  70
    32
  0
VERTEX
  8
0
  5
3E4B
 10
-1391.93
 20
160.196
 30
0.000000
  70
    32
  0
VERTEX
  8
0
  5
3E4C
 10
-1391.95
 20
160.208
 30
0.000000
  70
    32
  0
VERTEX
  8
0
  5
3E4D
 10
-1391.97
 20
160.220
 30
0.000000
  70
    32
  0
VERTEX
  8
0
  5
3E4E
 10
-1392.00
 20
160.231
 30
0.000000
  70
    32
  0
VERTEX
  8
0
  5
3E4F
 10
-1392.02
 20
160.242
 30
0.000000
  70
    32
  0
VERTEX
  8
0
  5
3E50
 10
-1392.04
 20
160.253
 30
0.000000
  70
    32
  0
VERTEX
  8
0
  5
3E51
 10
-1392.06
 20
160.264
 30
0.000000
  70
    32
  0
VERTEX
  8
0
  5
3E52
 10
-1392.08
 20
160.275
 30
0.000000
  70
    32
  0
VERTEX
  8
0
  5
3E53
 10
-1392.11
 20
160.285
 30
0.000000
  70
    32
  0
VERTEX
  8
0
  5
3E54
 10
-1392.13
 20
160.295
 30
0.000000
  70
    32
  0
VERTEX
  8
0
  5
3E55
 10
-1392.15
 20
160.304
 30
0.000000
  70
    32
  0
VERTEX
  8
0
  5
3E56
 10
-1392.17
 20
160.314
 30
0.000000
  70
    32
  0
VERTEX
  8
0
  5
3E57
 10
-1392.20
 20
160.323
 30
0.000000
  70
    32
  0
VERTEX
  8
0
  5
3E58
 10
-1392.22
 20
160.331
 30
0.000000
  70
    32
  0
VERTEX
  8
0
  5
3E59
 10
-1392.24
 20
160.340
 30
0.000000
  70
    32
  0
VERTEX
  8
0
  5
3E5A
 10
-1392.26
 20
160.348
 30
0.000000
  70
    32
  0
VERTEX
  8
0
  5
3E5B
 10
-1392.29
 20
160.356
 30
0.000000
  70
    32
  0
VERTEX
  8
0
  5
3E5C
 10
-1392.31
 20
160.364
 30
0.000000
  70
    32
  0
VERTEX
  8
0
  5
3E5D
 10
-1392.33
 20
160.371
 30
0.000000
  70
    32
  0
VERTEX
  8
0
  5
3E5E
 10
-1392.36
 20
160.378
 30
0.000000
  70
    32
  0
VERTEX
  8
0
  5
3E5F
 10
-1392.38
 20
160.385
 30
0.000000
  70
    32
  0
VERTEX
  8
0
  5
3E60
 10
-1392.40
 20
160.392
 30
0.000000
  70
    32
  0
VERTEX
  8
0
  5
3E61
 10
-1392.43
 20
160.398
 30
0.000000
  70
    32
  0
VERTEX
  8
0
  5
3E62
 10
-1392.45
 20
160.404
 30
0.000000
  70
    32
  0
VERTEX
  8
0
  5
3E63
 10
-1392.48
 20
160.410
 30
0.000000
  70
    32
  0
VERTEX
  8
0
  5
3E64
 10
-1392.50
 20
160.415
 30
0.000000
  70
    32
  0
VERTEX
  8
0
  5
3E65
 10
-1392.52
 20
160.420
 30
0.000000
  70
    32
  0
VERTEX
  8
0
  5
3E66
 10
-1392.55
 20
160.425
 30
0.000000
  70
    32
  0
VERTEX
  8
0
  5
3E67
 10
-1392.57
 20
160.429
 30
0.000000
  70
    32
  0
VERTEX
  8
0
  5
3E68
 10
-1392.59
 20
160.434
 30
0.000000
  70
    32
  0
VERTEX
  8
0
  5
3E69
 10
-1392.62
 20
160.437
 30
0.000000
  70
    32
  0
VERTEX
  8
0
  5
3E6A
 10
-1392.64
 20
160.441
 30
0.000000
  70
    32
  0
VERTEX
  8
0
  5
3E6B
 10
-1392.67
 20
160.444
 30
0.000000
  70
    32
  0
VERTEX
  8
0
  5
3E6C
 10
-1392.69
 20
160.447
 30
0.000000
  70
    32
  0
VERTEX
  8
0
  5
3E6D
 10
-1392.72
 20
160.450
 30
0.000000
  70
    32
  0
VERTEX
  8
0
  5
3E6E
 10
-1392.74
 20
160.453
 30
0.000000
  70
    32
  0
VERTEX
  8
0
  5
3E6F
 10
-1392.76
 20
160.455
 30
0.000000
  70
    32
  0
VERTEX
  8
0
  5
3E70
 10
-1392.79
 20
160.457
 30
0.000000
  70
    32
  0
VERTEX
  8
0
  5
3E71
 10
-1392.81
 20
160.458
 30
0.000000
  70
    32
  0
VERTEX
  8
0
  5
3E72
 10
-1392.84
 20
160.459
 30
0.000000
  70
    32
  0
VERTEX
  8
0
  5
3E73
 10
-1392.86
 20
160.460
 30
0.000000
  70
    32
  0
VERTEX
  8
0
  5
3E74
 10
-1392.89
 20
160.461
 30
0.000000
  70
    32
  0
VERTEX
  8
0
  5
3E75
 10
-1392.91
 20
160.461
 30
0.000000
  70
    32
  0
SEQEND
  8
0
  5
3E76
  0
LINE
  5
11CC
  8
AM_VIS
 10
-1390.9279996991761
 20
145.94356906463321
 30
0.0
 11
-1392.91047180335
 21
145.9608698365852
 31
0.0
  0
POLYLINE
  5
11D0
  8
AM_VIS
 66
     1
 10
0.0
 20
0.0
 30
0.0
  0
VERTEX
  5
38F3
  8
AM_VIS
 10
-1390.9279996991761
 20
149.44343579535769
 30
0.0
  0
VERTEX
  5
38F4
  8
AM_VIS
 10
-1390.9279996991761
 20
146.96864013002499
 30
0.0
  0
VERTEX
  5
38F5
  8
AM_VIS
 10
-1390.9279996991761
 20
145.94356906463321
 30
0.0
  0
SEQEND
  5
38F6
  8
AM_VIS
  0
ARC
  5
11D1
  8
AM_VIS
 10
-1391.2279996991761
 20
146.34620235673751
 30
0.0
 40
0.3
 50
0.0
 51
89.499999999997357
  0
POLYLINE
  5
11D2
  8
AM_VIS
 66
     1
 10
0.0
 20
0.0
 30
0.0
  0
VERTEX
  5
38F7
  8
AM_VIS
 10
-1385.732353619002
 20
145.89822734820399
 30
0.0
  0
VERTEX
  5
38F8
  8
AM_VIS
 10
-1384.925372390604
 20
146.6981968866553
 30
0.0
  0
SEQEND
  5
38F9
  8
AM_VIS
  0
LINE
  5
11D3
  8
AM_VIS
 10
-1390.9279996991761
 20
145.94356906463321
 30
0.0
 11
-1385.7323536190049
 21
145.89822734820379
 31
0.0
  0
LINE
  5
11D4
  8
AM_VIS
 10
-1390.9279996991761
 20
158.46149807920429
 30
0.0
 11
-1390.9279996991761
 21
149.44343579535769
 31
0.0
  0
LINE
  5
11DD
  8
AM_VIS
 10
-1676.1709363394091
 20
150.71602866353231
 30
0.0
 11
-1535.9115936384319
 21
150.71602866353231
 31
0.0
  0
LINE
  5
11DE
  8
AM_VIS
 10
-1533.8912649889201
 20
150.09118492971399
 30
0.0
 11
-1678.19126498892
 21
150.09118492971399
 31
0.0
  0
LINE
  5
11E1
  8
AM_VIS
 10
-1678.19126498892
 20
149.29118492971401
 30
0.0
 11
-1533.8912649889201
 21
149.29118492971401
 31
0.0
  0
ARC
  5
11E7
  8
AM_VIS
 10
-1524.2912649889199
 20
154.19118492971421
 30
0.0
 40
5.0999999999999988
 50
83.000000000000185
 51
187.0
  0
LINE
  5
11E8
  8
AM_VIS
 10
-1519.4911926427419
 20
147.49118492971411
 30
0.0
 11
-1529.6293764244069
 21
147.49118492971411
 31
0.0
  0
ARC
  5
11E9
  8
AM_VIS
 10
-1524.2912649889199
 20
154.19118492971421
 30
0.0
 40
8.8000000000000007
 50
90.0
 51
180.0000000000002
  0
ARC
  5
11EA
  8
AM_VIS
 10
-1524.2912649889199
 20
154.19118492971421
 30
0.0
 40
9.201435918374905
 50
90.0
 51
124.8628194511309
  0
ARC
  5
11EB
  8
AM_VIS
 10
-1524.2912649889199
 20
154.19118492971421
 30
0.0
 40
11.39692083406799
 50
90.0
 51
180.00000000000011
  0
CIRCLE
  5
11ED
  8
AM_VIS
 10
-1524.2912649889199
 20
154.19118492971421
 30
0.0
 40
4.8254626441848227
  0
ARC
  5
11F0
  8
AM_VIS
 10
-1524.2912649889199
 20
154.19118492971421
 30
0.0
 40
11.606365661046199
 50
90.0
 51
180.00000000000011
  0
ARC
  5
11F1
  8
AM_VIS
 10
-1524.2912649889199
 20
154.19118492971421
 30
0.0
 40
8.1999999999999353
 50
90.0
 51
180.0000000000002
  0
ARC
  5
11F3
  8
AM_VIS
 10
-1524.2912649889199
 20
154.19118492971421
 30
0.0
 40
5.6226898562558736
 50
90.0
 51
180.0000000000002
  0
POLYLINE
  5
11F4
  8
AM_VIS
 66
     1
 10
0.0
 20
0.0
 30
0.0
  0
VERTEX
  5
38FA
  8
AM_VIS
 10
-1457.925372390604
 20
161.00968092008171
 30
0.0
  0
VERTEX
  5
38FB
  8
AM_VIS
 10
-1457.925372390604
 20
160.90042456438749
 30
0.0
  0
VERTEX
  5
38FC
  8
AM_VIS
 10
-1457.925372390604
 20
160.72533795508659
 30
0.0
  0
SEQEND
  5
38FD
  8
AM_VIS
  0
LINE
  5
11F5
  8
AM_VIS
 10
-1459.925372390604
 20
161.74379918219159
 30
0.0
 11
-1459.925372390604
 21
150.043024840143
 31
0.0
  0
ARC
  5
11F7
  8
AM_VIS
 10
-1459.6253723906041
 20
147.5431200324827
 30
0.0
 40
0.2999999999999999
 50
180.0
 51
269.4999999999992
  0
POLYLINE
  5
11F8
  8
AM_VIS
 66
     1
 10
0.0
 20
0.0
 30
0.0
  0
VERTEX
  5
38FE
  8
AM_VIS
 10
-1457.925372390604
 20
147.22827293372251
 30
0.0
  0
VERTEX
  5
38FF
  8
AM_VIS
 10
-1457.925372390604
 20
147.17188012489819
 30
0.0
  0
VERTEX
  5
3900
  8
AM_VIS
 10
-1457.925372390604
 20
147.0239018837369
 30
0.0
  0
SEQEND
  5
3901
  8
AM_VIS
  0
POLYLINE
  5
11F9
  8
AM_VIS
 66
     1
 10
0.0
 20
0.0
 30
0.0
  0
VERTEX
  5
3902
  8
AM_VIS
 10
-1457.4297356583529
 20
146.52392092220489
 30
0.0
  0
VERTEX
  5
3903
  8
AM_VIS
 10
-1457.745993619734
 20
146.6402327197022
 30
0.0
  0
VERTEX
  5
3904
  8
AM_VIS
 10
-1457.916628583537
 20
146.93080326449581
 30
0.0
  0
SEQEND
  5
3905
  8
AM_VIS
  0
POLYLINE
  5
11FA
  8
AM_VIS
 66
     1
 10
0.0
 20
0.0
 30
0.0
  0
VERTEX
  5
3906
  8
AM_VIS
 10
-1457.916628583537
 20
146.93080326449581
 30
0.0
  0
VERTEX
  5
3907
  8
AM_VIS
 10
-1457.925372390604
 20
147.0239018837369
 30
0.0
  0
SEQEND
  5
3908
  8
AM_VIS
  0
POLYLINE
  5
11FB
  8
AM_VIS
 66
     1
 10
0.0
 20
0.0
 30
0.0
  0
VERTEX
  5
3909
  8
AM_VIS
 10
-1459.925372390604
 20
150.043024840143
 30
0.0
  0
VERTEX
  5
390A
  8
AM_VIS
 10
-1459.925372390604
 20
149.65194493495801
 30
0.0
  0
VERTEX
  5
390B
  8
AM_VIS
 10
-1459.925372390604
 20
149.27049847074269
 30
0.0
  0
VERTEX
  5
390C
  8
AM_VIS
 10
-1459.925372390604
 20
148.90807701659239
 30
0.0
  0
VERTEX
  5
390D
  8
AM_VIS
 10
-1459.925372390604
 20
148.5736037280416
 30
0.0
  0
VERTEX
  5
390E
  8
AM_VIS
 10
-1459.925372390604
 20
148.27531365061961
 30
0.0
  0
VERTEX
  5
390F
  8
AM_VIS
 10
-1459.925372390604
 20
148.0205509653201
 30
0.0
  0
VERTEX
  5
3910
  8
AM_VIS
 10
-1459.925372390604
 20
147.81558816798761
 30
0.0
  0
VERTEX
  5
3911
  8
AM_VIS
 10
-1459.925372390604
 20
147.6654716345983
 30
0.0
  0
VERTEX
  5
3912
  8
AM_VIS
 10
-1459.925372390604
 20
147.57389737475719
 30
0.0
  0
VERTEX
  5
3913
  8
AM_VIS
 10
-1459.925372390604
 20
147.54312003248239
 30
0.0
  0
SEQEND
  5
3914
  8
AM_VIS
  0
ARC
  5
1200
  8
AM_VIS
 10
-1459.6253723906041
 20
161.94379156680461
 30
0.0
 40
0.3
 50
90.500000000014339
 51
180.0
  0
POLYLINE
  5
1201
  8
AM_VIS
 66
     1
 10
0.0
 20
0.0
 30
0.0
  0
VERTEX
  5
3915
  8
AM_VIS
 10
-1459.925372390604
 20
161.94379156680449
 30
0.0
  0
VERTEX
  5
3916
  8
AM_VIS
 10
-1459.925372390604
 20
161.8852160773535
 30
0.0
  0
VERTEX
  5
3917
  8
AM_VIS
 10
-1459.925372390604
 20
161.74379918219159
 30
0.0
  0
SEQEND
  5
3918
  8
AM_VIS
  0
LINE
  5
1202
  8
AM_VIS
 10
-1457.925372390604
 20
162.2586386655646
 30
0.0
 11
-1459.6279903512529
 21
162.2437801437238
 31
0.0
  0
POLYLINE
  5
1203
  8
AM_VIS
 66
     1
 10
0.0
 20
0.0
 30
0.0
  0
VERTEX
  5
3919
  8
AM_VIS
 10
-1457.916628583459
 20
161.0252390009432
 30
0.0
  0
VERTEX
  5
391A
  8
AM_VIS
 10
-1457.7459936195719
 20
161.02625065338449
 30
0.0
  0
VERTEX
  5
391B
  8
AM_VIS
 10
-1457.4297356583529
 20
161.0244730167517
 30
0.0
  0
SEQEND
  5
391C
  8
AM_VIS
  0
POLYLINE
  5
1204
  8
AM_VIS
 66
     1
 10
0.0
 20
0.0
 30
0.0
  0
VERTEX
  5
391D
  8
AM_VIS
 10
-1457.925372390604
 20
161.00968092008171
 30
0.0
  0
VERTEX
  5
391E
  8
AM_VIS
 10
-1457.916628583459
 20
161.0252390009432
 30
0.0
  0
SEQEND
  5
391F
  8
AM_VIS
  0
ARC
  5
1208
  8
AM_VIS
 10
-1520.7912649889199
 20
163.79118492971409
 30
0.0
 40
3.977310143744119
 50
270.0
 51
0.0
  0
POLYLINE
  5
1209
  8
AM_VIS
 66
     1
 10
0.0
 20
0.0
 30
0.0
  0
VERTEX
  5
3920
  8
AM_VIS
 10
-1516.7982769458611
 20
163.55444353495841
 30
0.0
  0
VERTEX
  5
3921
  8
AM_VIS
 10
-1516.7982769458611
 20
161.63960784810291
 30
0.0
  0
VERTEX
  5
3922
  8
AM_VIS
 10
-1516.7982769458611
 20
153.95415172147651
 30
0.0
  0
VERTEX
  5
3923
  8
AM_VIS
 10
-1516.7982769458611
 20
150.0901324892138
 30
0.0
  0
VERTEX
  5
3924
  8
AM_VIS
 10
-1516.7982769458611
 20
149.60554576816199
 30
0.0
  0
VERTEX
  5
3925
  8
AM_VIS
 10
-1516.7982769458611
 20
149.39809407892849
 30
0.0
  0
SEQEND
  5
3926
  8
AM_VIS
  0
LINE
  5
1219
  8
AM_VIS
 10
-1523.6697313375539
 20
159.25317030308489
 30
0.0
 11
-1521.3829389154489
 21
158.9723874996607
 31
0.0
  0
LINE
  5
121E
  8
AM_VIS
 10
-1524.2912649889199
 20
159.81387478597
 30
0.0
 11
-1520.7912649889199
 21
159.81387478597
 31
0.0
  0
POLYLINE
  5
1220
  8
AM_VIS
 66
     1
 10
0.0
 20
0.0
 30
0.0
  0
VERTEX
  5
3927
  8
AM_VIS
 10
-1517.5912649889201
 20
159.52929636520159
 30
0.0
  0
VERTEX
  5
3928
  8
AM_VIS
 10
-1517.613731312628
 20
159.64321465344361
 30
0.0
  0
VERTEX
  5
3929
  8
AM_VIS
 10
-1517.6777547703859
 20
159.74005407973519
 30
0.0
  0
VERTEX
  5
392A
  8
AM_VIS
 10
-1517.773736865789
 20
159.80532486426449
 30
0.0
  0
VERTEX
  5
392B
  8
AM_VIS
 10
-1517.887310688219
 20
159.8292683426784
 30
0.0
  0
VERTEX
  5
392C
  8
AM_VIS
 10
-1517.9776581421511
 20
159.81657543110069
 30
0.0
  0
VERTEX
  5
392D
  8
AM_VIS
 10
-1518.0600168308711
 20
159.77731270873161
 30
0.0
  0
SEQEND
  5
392E
  8
AM_VIS
  0
ARC
  5
1224
  8
AM_VIS
 10
-1520.7912649889211
 20
163.79118492971409
 30
0.0
 40
4.8549857576746689
 50
263.00000000000063
 51
304.23341503168302
  0
POLYLINE
  5
1228
  8
AM_VIS
 66
     1
 10
0.0
 20
0.0
 30
0.0
  0
VERTEX
  5
392F
  8
AM_VIS
 10
-1519.4911926427419
 20
147.49118492971411
 30
0.0
  0
VERTEX
  5
3930
  8
AM_VIS
 10
-1518.147732138704
 20
148.04765207949819
 30
0.0
  0
VERTEX
  5
3931
  8
AM_VIS
 10
-1517.5912649889201
 20
149.39111258353611
 30
0.0
  0
SEQEND
  5
3932
  8
AM_VIS
  0
LINE
  5
122A
  8
AM_VIS
 10
-1517.5912649889201
 20
159.52929636520159
 30
0.0
 11
-1517.5912649889201
 21
149.39111258353611
 31
0.0
  0
CIRCLE
  5
122E
  8
AM_VIS
 10
-1524.2912649889199
 20
154.19118492971421
 30
0.0
 40
3.0086887894050212
  0
CIRCLE
  5
1230
  8
AM_VIS
 10
-1524.2912649889199
 20
154.19118492971421
 30
0.0
 40
2.2281828305231031
  0
LINE
  5
1231
  8
AM_VIS
 10
-1522.19126498892
 20
165.81151357922539
 30
0.0
 11
-1520.816108722739
 21
165.81151357922539
 31
0.0
  0
LINE
  5
1237
  8
AM_VIS
 10
-1523.7912649889199
 20
163.37865785962359
 30
0.0
 11
-1523.7912649889199
 21
165.5741427753168
 31
0.0
  0
LINE
  5
1238
  8
AM_VIS
 10
-1523.8052279773849
 20
165.58810576378201
 30
0.0
 11
-1523.7912649889199
 21
165.5741427753168
 31
0.0
  0
LINE
  5
1239
  8
AM_VIS
 10
-1523.8052279773849
 20
163.3926208480888
 30
0.0
 11
-1523.8052279773849
 21
165.58810576378201
 31
0.0
  0
LINE
  5
123A
  8
AM_VIS
 10
-1523.7912649889199
 20
163.37865785962359
 30
0.0
 11
-1523.8052279773849
 21
163.3926208480888
 31
0.0
  0
LINE
  5
123B
  8
AM_VIS
 10
-1522.21919096585
 20
163.37865785962359
 30
0.0
 11
-1523.7912649889199
 21
163.37865785962359
 31
0.0
  0
LINE
  5
123C
  8
AM_VIS
 10
-1523.7912649889199
 20
165.5741427753168
 30
0.0
 11
-1522.21919096585
 21
165.5741427753168
 31
0.0
  0
LINE
  5
123D
  8
AM_VIS
 10
-1523.8052279773849
 20
163.3926208480888
 30
0.0
 11
-1524.2912649889199
 21
163.3926208480888
 31
0.0
  0
LINE
  5
123E
  8
AM_VIS
 10
-1524.2912649889199
 20
165.58810576378201
 30
0.0
 11
-1523.8052279773849
 21
165.58810576378201
 31
0.0
  0
LINE
  5
123F
  8
AM_VIS
 10
-1524.2912649889199
 20
165.79755059076021
 30
0.0
 11
-1522.205227977385
 21
165.79755059076021
 31
0.0
  0
LINE
  5
1240
  8
AM_VIS
 10
-1520.99126498892
 20
163.3926208480888
 30
0.0
 11
-1522.205227977385
 21
163.3926208480888
 31
0.0
  0
LINE
  5
1243
  8
AM_VIS
 10
-1520.99126498892
 20
162.99118492971411
 30
0.0
 11
-1524.2912649889199
 21
162.99118492971411
 31
0.0
  0
LINE
  5
1246
  8
AM_VIS
 10
-1524.2912649889199
 20
162.39118492971389
 30
0.0
 11
-1520.7912649889199
 21
162.39118492971389
 31
0.0
  0
POLYLINE
  5
1248
  8
AM_VIS
 66
     1
 10
0.0
 20
0.0
 30
0.0
  0
VERTEX
  5
3933
  8
AM_VIS
 10
-1516.7913261790111
 20
163.79118492971401
 30
0.0
  0
VERTEX
  5
3934
  8
AM_VIS
 10
-1516.7913261874121
 20
163.79092454833881
 30
0.0
  0
VERTEX
  5
3935
  8
AM_VIS
 10
-1516.791330202743
 20
163.78548644535701
 30
0.0
  0
VERTEX
  5
3936
  8
AM_VIS
 10
-1516.791349339474
 20
163.77751337441461
 30
0.0
  0
VERTEX
  5
3937
  8
AM_VIS
 10
-1516.791389951373
 20
163.76849884931241
 30
0.0
  0
VERTEX
  5
3938
  8
AM_VIS
 10
-1516.791513344416
 20
163.7523204655044
 30
0.0
  0
VERTEX
  5
3939
  8
AM_VIS
 10
-1516.7982769458611
 20
163.55444353496
 30
0.0
  0
SEQEND
  5
393A
  8
AM_VIS
  0
LINE
  5
1249
  8
AM_VIS
 10
-1520.592700907295
 20
165.58810576378201
 30
0.0
 11
-1520.592700907295
 21
163.79118492971401
 31
0.0
  0
LINE
  5
124D
  8
AM_VIS
 10
-1516.8139548451761
 20
163.79118492971401
 30
0.0
 11
-1516.7913261790111
 21
163.79118492971401
 31
0.0
  0
ARC
  5
124E
  8
AM_VIS
 10
-1520.99126498892
 20
163.79118492971409
 30
0.0
 40
0.398564081625092
 50
270.0
 51
0.0
  0
LINE
  5
124F
  8
AM_VIS
 10
-1522.205227977385
 20
165.58810576378201
 30
0.0
 11
-1520.592700907295
 21
165.58810576378201
 31
0.0
  0
ARC
  5
1250
  8
AM_VIS
 10
-1520.99126498892
 20
163.79118492971409
 30
0.0
 40
0.7999999999999972
 50
270.0
 51
0.0
  0
ARC
  5
1251
  8
AM_VIS
 10
-1520.7912649889199
 20
163.79118492971409
 30
0.0
 40
1.4000000000000581
 50
270.0
 51
0.0
  0
LINE
  5
1253
  8
AM_VIS
 10
-1520.816108722739
 20
165.81151357922539
 30
0.0
 11
-1520.592700907295
 21
165.58810576378201
 31
0.0
  0
LINE
  5
1264
  8
AM_VIS
 10
-1531.857597564592
 20
159.8151567380493
 30
0.0
 11
-1532.960171738735
 21
161.12915347118511
 31
0.0
  0
LINE
  5
1265
  8
AM_VIS
 10
-1531.3669505599951
 20
159.83322727694841
 30
0.0
 11
-1532.4351262474249
 21
161.10622948996479
 31
0.0
  0
ARC
  5
1268
  8
AM_VIS
 10
-1533.8912649889201
 20
150.69118492971421
 30
0.0
 40
3.9773101437440621
 50
270.0
 51
0.0
  0
POLYLINE
  5
1272
  8
AM_VIS
 66
     1
 10
0.0
 20
0.0
 30
0.0
  0
VERTEX
  5
393B
  8
AM_VIS
 10
-1531.8412546253071
 20
159.45085026606421
 30
0.0
  0
VERTEX
  5
393C
  8
AM_VIS
 10
-1531.7945807746351
 20
159.5571426066769
 30
0.0
  0
VERTEX
  5
393D
  8
AM_VIS
 10
-1531.791756241892
 20
159.67319105946549
 30
0.0
  0
VERTEX
  5
393E
  8
AM_VIS
 10
-1531.8152565887519
 20
159.74854240896499
 30
0.0
  0
VERTEX
  5
393F
  8
AM_VIS
 10
-1531.857597564592
 20
159.8151567380493
 30
0.0
  0
SEQEND
  5
3940
  8
AM_VIS
  0
POLYLINE
  5
1274
  8
AM_VIS
 66
     1
 10
0.0
 20
0.0
 30
0.0
  0
VERTEX
  5
3941
  8
AM_VIS
 10
-1531.3562926405291
 20
159.4610357666952
 30
0.0
  0
VERTEX
  5
3942
  8
AM_VIS
 10
-1531.306199346631
 20
159.56576037933721
 30
0.0
  0
VERTEX
  5
3943
  8
AM_VIS
 10
-1531.299616436228
 20
159.68165638632351
 30
0.0
  0
VERTEX
  5
3944
  8
AM_VIS
 10
-1531.3226003600901
 20
159.76218718357759
 30
0.0
  0
VERTEX
  5
3945
  8
AM_VIS
 10
-1531.3669505599951
 20
159.83322727694869
 30
0.0
  0
SEQEND
  5
3946
  8
AM_VIS
  0
LINE
  5
1277
  8
AM_VIS
 10
-1535.6742228345231
 20
153.6911849297141
 30
0.0
 11
-1533.4787379188299
 21
153.6911849297141
 31
0.0
  0
LINE
  5
1278
  8
AM_VIS
 10
-1533.4927009072951
 20
153.70514791817931
 30
0.0
 11
-1533.4787379188299
 21
153.6911849297141
 31
0.0
  0
LINE
  5
1279
  8
AM_VIS
 10
-1535.6881858229881
 20
153.70514791817931
 30
0.0
 11
-1533.4927009072951
 21
153.70514791817931
 31
0.0
  0
LINE
  5
127A
  8
AM_VIS
 10
-1535.6881858229881
 20
153.70514791817911
 30
0.0
 11
-1535.6742228345231
 21
153.6911849297139
 31
0.0
  0
LINE
  5
127B
  8
AM_VIS
 10
-1533.4927009072951
 20
154.1911849297141
 30
0.0
 11
-1533.4927009072951
 21
153.70514791817931
 31
0.0
  0
LINE
  5
127C
  8
AM_VIS
 10
-1535.6881858229881
 20
153.70514791817931
 30
0.0
 11
-1535.6881858229881
 21
154.1911849297141
 31
0.0
  0
LINE
  5
1283
  8
AM_VIS
 10
-1533.4927009072951
 20
152.1051479181792
 30
0.0
 11
-1533.4927009072951
 21
150.8911849297142
 31
0.0
  0
LINE
  5
1285
  8
AM_VIS
 10
-1535.6881858229881
 20
150.49262084808899
 30
0.0
 11
-1535.6881858229881
 21
152.1051479181792
 31
0.0
  0
LINE
  5
1286
  8
AM_VIS
 10
-1533.8912649889201
 20
150.49262084808899
 30
0.0
 11
-1535.6881858229881
 21
150.49262084808899
 31
0.0
  0
ARC
  5
1287
  8
AM_VIS
 10
-1533.8912649889201
 20
150.8911849297142
 30
0.0
 40
0.398564081625092
 50
270.0
 51
0.0
  0
LINE
  5
1289
  8
AM_VIS
 10
-1535.9115936384319
 20
150.71602866353231
 30
0.0
 11
-1535.9115936384319
 21
152.09118492971399
 31
0.0
  0
LINE
  5
128B
  8
AM_VIS
 10
-1535.6881858229881
 20
150.49262084808899
 30
0.0
 11
-1535.9115936384319
 21
150.71602866353231
 31
0.0
  0
ARC
  5
128C
  8
AM_VIS
 10
-1533.8912649889201
 20
150.8911849297142
 30
0.0
 40
0.7999999999999972
 50
270.0
 51
0.0
  0
LINE
  5
128E
  8
AM_VIS
 10
-1533.4787379188299
 20
153.6911849297141
 30
0.0
 11
-1533.4787379188299
 21
152.11911090664441
 31
0.0
  0
LINE
  5
128F
  8
AM_VIS
 10
-1535.6742228345231
 20
152.11911090664441
 30
0.0
 11
-1535.6742228345231
 21
153.6911849297141
 31
0.0
  0
LINE
  5
1290
  8
AM_VIS
 10
-1533.0912649889201
 20
154.1911849297141
 30
0.0
 11
-1533.0912649889201
 21
150.8911849297142
 31
0.0
  0
LINE
  5
1291
  8
AM_VIS
 10
-1535.897630649966
 20
152.1051479181792
 30
0.0
 11
-1535.897630649966
 21
154.1911849297141
 31
0.0
  0
LINE
  5
1292
  8
AM_VIS
 10
-1532.49126498892
 20
150.6911849297141
 30
0.0
 11
-1532.49126498892
 21
154.1911849297141
 31
0.0
  0
LINE
  5
1299
  8
AM_VIS
 10
-1529.0724675588669
 20
151.28285885624331
 30
0.0
 11
-1529.353250362291
 21
153.56965127834789
 31
0.0
  0
LINE
  5
129B
  8
AM_VIS
 10
-1529.913954845176
 20
150.6911849297141
 30
0.0
 11
-1529.913954845176
 21
154.1911849297141
 31
0.0
  0
ARC
  5
129E
  8
AM_VIS
 10
-1524.2912649889199
 20
154.19118492971421
 30
0.0
 40
9.201435918374905
 50
145.13718054886931
 51
180.00000000000011
  0
POLYLINE
  5
12A0
  8
AM_VIS
 66
     1
 10
0.0
 20
0.0
 30
0.0
  0
VERTEX
  5
3947
  8
AM_VIS
 10
-1529.877392767937
 20
147.95993677166479
 30
0.0
  0
VERTEX
  5
3948
  8
AM_VIS
 10
-1529.9229052388721
 20
147.85311551616221
 30
0.0
  0
VERTEX
  5
3949
  8
AM_VIS
 10
-1529.9244520580021
 20
147.7370355309456
 30
0.0
  0
VERTEX
  5
394A
  8
AM_VIS
 10
-1529.8818172857079
 20
147.62907625616589
 30
0.0
  0
VERTEX
  5
394B
  8
AM_VIS
 10
-1529.801389010812
 20
147.54538822722719
 30
0.0
  0
VERTEX
  5
394C
  8
AM_VIS
 10
-1529.7195540588671
 20
147.50505638601109
 30
0.0
  0
VERTEX
  5
394D
  8
AM_VIS
 10
-1529.6293764244069
 20
147.49118492971411
 30
0.0
  0
SEQEND
  5
394E
  8
AM_VIS
  0
ARC
  5
12A4
  8
AM_VIS
 10
-1533.8912649889201
 20
150.69118492971421
 30
0.0
 40
4.8549857576746689
 50
325.76658496831959
 51
7.0000000000000551
  0
ARC
  5
12A6
  8
AM_VIS
 10
-1533.8912649889201
 20
150.69118492971421
 30
0.0
 40
1.400000000000001
 50
270.0
 51
0.0
  0
ARC
  5
12A9
  8
AM_VIS
 10
-1536.5412649889199
 20
172.6411849297142
 30
0.0
 40
2.0
 50
270.0
 51
90.0
  0
ARC
  5
12B1
  8
AM_VIS
 10
-1536.5412649889199
 20
172.6411849297142
 30
0.0
 40
2.0
 50
90.0
 51
270.0
  0
CIRCLE
  5
12B7
  8
AM_VIS
 10
-1536.5412649889199
 20
172.6411849297142
 30
0.0
 40
1.6000000000000001
  0
POLYLINE
  5
12B8
  8
AM_VIS
 66
     1
 10
0.0
 20
0.0
 30
0.0
  0
VERTEX
  5
394F
  8
AM_VIS
 10
-1532.4351262474249
 20
161.10622948996479
 30
0.0
  0
VERTEX
  5
3950
  8
AM_VIS
 10
-1532.5050261683321
 20
161.31214381146191
 30
0.0
  0
VERTEX
  5
3951
  8
AM_VIS
 10
-1532.417445622094
 20
161.51118238727389
 30
0.0
  0
SEQEND
  5
3952
  8
AM_VIS
  0
POLYLINE
  5
12BA
  8
AM_VIS
 66
     1
 10
0.0
 20
0.0
 30
0.0
  0
VERTEX
  5
3953
  8
AM_VIS
 10
-1532.960171738735
 20
161.12915347118511
 30
0.0
  0
VERTEX
  5
3954
  8
AM_VIS
 10
-1533.0300716596421
 20
161.33506779268231
 30
0.0
  0
VERTEX
  5
3955
  8
AM_VIS
 10
-1532.9424911134049
 20
161.53410636849449
 30
0.0
  0
SEQEND
  5
3956
  8
AM_VIS
  0
POLYLINE
  5
12BC
  8
AM_VIS
 66
     1
 10
0.0
 20
0.0
 30
0.0
  0
VERTEX
  5
3957
  8
AM_VIS
 10
-1531.6112624464799
 20
162.3173655628888
 30
0.0
  0
VERTEX
  5
3958
  8
AM_VIS
 10
-1531.412223870668
 20
162.40494610912671
 30
0.0
  0
VERTEX
  5
3959
  8
AM_VIS
 10
-1531.206309549171
 20
162.33504618821871
 30
0.0
  0
SEQEND
  5
395A
  8
AM_VIS
  0
POLYLINE
  5
12BE
  8
AM_VIS
 66
     1
 10
0.0
 20
0.0
 30
0.0
  0
VERTEX
  5
395B
  8
AM_VIS
 10
-1531.6341864276999
 20
162.84241105419909
 30
0.0
  0
VERTEX
  5
395C
  8
AM_VIS
 10
-1531.4351478518879
 20
162.92999160043701
 30
0.0
  0
VERTEX
  5
395D
  8
AM_VIS
 10
-1531.229233530391
 20
162.86009167952889
 30
0.0
  0
SEQEND
  5
395E
  8
AM_VIS
  0
LINE
  5
12C0
  8
AM_VIS
 10
-1531.229233530391
 20
162.86009167952889
 30
0.0
 11
-1529.9152367972549
 21
161.7575175053866
 31
0.0
  0
POLYLINE
  5
12C1
  8
AM_VIS
 66
     1
 10
0.0
 20
0.0
 30
0.0
  0
VERTEX
  5
395F
  8
AM_VIS
 10
-1529.9333073361549
 20
161.266870500789
 30
0.0
  0
VERTEX
  5
3960
  8
AM_VIS
 10
-1529.831620927655
 20
161.2108665213463
 30
0.0
  0
VERTEX
  5
3961
  8
AM_VIS
 10
-1529.716291594196
 20
161.1976623142472
 30
0.0
  0
VERTEX
  5
3962
  8
AM_VIS
 10
-1529.63457743964
 20
161.21600026179109
 30
0.0
  0
VERTEX
  5
3963
  8
AM_VIS
 10
-1529.561115825901
 20
161.2562125813233
 30
0.0
  0
SEQEND
  5
3964
  8
AM_VIS
  0
POLYLINE
  5
12C3
  8
AM_VIS
 66
     1
 10
0.0
 20
0.0
 30
0.0
  0
VERTEX
  5
3965
  8
AM_VIS
 10
-1529.9152367972549
 20
161.7575175053866
 30
0.0
  0
VERTEX
  5
3966
  8
AM_VIS
 10
-1529.8135506642991
 20
161.70151366608451
 30
0.0
  0
VERTEX
  5
3967
  8
AM_VIS
 10
-1529.6982213226961
 20
161.6883094055224
 30
0.0
  0
VERTEX
  5
3968
  8
AM_VIS
 10
-1529.62106833859
 20
161.70496834694171
 30
0.0
  0
VERTEX
  5
3969
  8
AM_VIS
 10
-1529.55093032527
 20
161.74117456610151
 30
0.0
  0
SEQEND
  5
396A
  8
AM_VIS
  0
LINE
  5
12C5
  8
AM_VIS
 10
-1531.206309549171
 20
162.33504618821871
 30
0.0
 11
-1529.9333073361549
 21
161.266870500789
 31
0.0
  0
LINE
  5
12C6
  8
AM_VIS
 10
-1532.417445622094
 20
161.51118238727389
 30
0.0
 11
-1531.6112624464799
 21
162.3173655628888
 31
0.0
  0
LINE
  5
12C7
  8
AM_VIS
 10
-1532.9424911134049
 20
161.53410636849449
 30
0.0
 11
-1531.6341864276999
 21
162.84241105419889
 31
0.0
  0
ARC
  5
12D2
  8
AM_VIS
 10
-1556.0412649889199
 20
165.94118492971421
 30
0.0
 40
2.0
 50
0.0
 51
180.0
  0
ARC
  5
12D3
  8
AM_VIS
 10
-1556.0412649889199
 20
165.94118492971421
 30
0.0
 40
2.0
 50
179.99999999999909
 51
0.0
  0
CIRCLE
  5
12D5
  8
AM_VIS
 10
-1556.0412649889199
 20
165.94118492971421
 30
0.0
 40
1.6000000000000001
  0
CIRCLE
  5
12E1
  8
AM_VIS
 10
-1536.0412649889199
 20
210.94118492971421
 30
0.0
 40
1.6000000000000001
  0
ARC
  5
12E2
  8
AM_VIS
 10
-1536.0412649889199
 20
210.94118492971421
 30
0.0
 40
2.0
 50
270.0
 51
90.0
  0
ARC
  5
12E7
  8
AM_VIS
 10
-1536.0412649889199
 20
210.94118492971421
 30
0.0
 40
2.0
 50
90.0
 51
270.0
  0
CIRCLE
  5
12EE
  8
AM_VIS
 10
-1556.0412649889199
 20
290.94118492971421
 30
0.0
 40
4.5999999999999988
  0
CIRCLE
  5
12F1
  8
AM_VIS
 10
-1556.0412649889199
 20
290.94118492971421
 30
0.0
 40
2.9777383814805218
  0
CIRCLE
  5
12FF
  8
AM_VIS
 10
-1536.0412649889199
 20
263.44118492971421
 30
0.0
 40
1.2360370115347861
  0
CIRCLE
  5
1305
  8
AM_VIS
 10
-1536.0412649889199
 20
283.44118492971421
 30
0.0
 40
1.2360370115347861
  0
POLYLINE
  5
1306
  8
AM_VIS
 66
     1
 10
0.0
 20
0.0
 30
0.0
  0
VERTEX
  5
396B
  8
AM_VIS
 10
-1538.0412649889199
 20
276.27571570288131
 30
0.0
  0
VERTEX
  5
396C
  8
AM_VIS
 10
-1538.0412649889199
 20
276.25199718498601
 30
0.0
  0
SEQEND
  5
396D
  8
AM_VIS
  0
POLYLINE
  5
1307
  8
AM_VIS
 66
     1
 10
0.0
 20
0.0
 30
0.0
  0
VERTEX
  5
396E
  8
AM_VIS
 10
-1538.0412649889199
 20
276.25199718498601
 30
0.0
  0
VERTEX
  5
396F
  8
AM_VIS
 10
-1538.0412649889199
 20
276.24205327972658
 30
0.0
  0
VERTEX
  5
3970
  8
AM_VIS
 10
-1538.0412649889199
 20
276.21280036258258
 30
0.0
  0
VERTEX
  5
3971
  8
AM_VIS
 10
-1538.0412649889199
 20
276.16052433831658
 30
0.0
  0
VERTEX
  5
3972
  8
AM_VIS
 10
-1538.0412649889199
 20
276.09149656551239
 30
0.0
  0
VERTEX
  5
3973
  8
AM_VIS
 10
-1538.0412649889199
 20
275.99564192139241
 30
0.0
  0
VERTEX
  5
3974
  8
AM_VIS
 10
-1538.0412649889199
 20
275.88856423814508
 30
0.0
  0
VERTEX
  5
3975
  8
AM_VIS
 10
-1538.0412649889199
 20
275.75109983268737
 30
0.0
  0
VERTEX
  5
3976
  8
AM_VIS
 10
-1538.0412649889199
 20
275.60945167386899
 30
0.0
  0
SEQEND
  5
3977
  8
AM_VIS
  0
LINE
  5
1308
  8
AM_VIS
 10
-1538.0412649889199
 20
275.60945167386899
 30
0.0
 11
-1538.0412649889199
 21
275.4411849297141
 31
0.0
  0
POLYLINE
  5
1309
  8
AM_VIS
 66
     1
 10
0.0
 20
0.0
 30
0.0
  0
VERTEX
  5
3978
  8
AM_VIS
 10
-1538.0412649889199
 20
270.63037267444219
 30
0.0
  0
VERTEX
  5
3979
  8
AM_VIS
 10
-1538.0412649889199
 20
270.60665415654688
 30
0.0
  0
SEQEND
  5
397A
  8
AM_VIS
  0
POLYLINE
  5
130A
  8
AM_VIS
 66
     1
 10
0.0
 20
0.0
 30
0.0
  0
VERTEX
  5
397B
  8
AM_VIS
 10
-1538.0412649889199
 20
271.27291818555932
 30
0.0
  0
VERTEX
  5
397C
  8
AM_VIS
 10
-1538.0412649889199
 20
271.13127002674082
 30
0.0
  0
VERTEX
  5
397D
  8
AM_VIS
 10
-1538.0412649889199
 20
270.99380562128312
 30
0.0
  0
VERTEX
  5
397E
  8
AM_VIS
 10
-1538.0412649889199
 20
270.88672793803579
 30
0.0
  0
VERTEX
  5
397F
  8
AM_VIS
 10
-1538.0412649889199
 20
270.79087329391581
 30
0.0
  0
VERTEX
  5
3980
  8
AM_VIS
 10
-1538.0412649889199
 20
270.72184552111162
 30
0.0
  0
VERTEX
  5
3981
  8
AM_VIS
 10
-1538.0412649889199
 20
270.66956949684572
 30
0.0
  0
VERTEX
  5
3982
  8
AM_VIS
 10
-1538.0412649889199
 20
270.64031657970139
 30
0.0
  0
VERTEX
  5
3983
  8
AM_VIS
 10
-1538.0412649889199
 20
270.63037267444219
 30
0.0
  0
SEQEND
  5
3984
  8
AM_VIS
  0
LINE
  5
130B
  8
AM_VIS
 10
-1538.0412649889199
 20
271.4411849297141
 30
0.0
 11
-1538.0412649889199
 21
271.27291818555932
 31
0.0
  0
ARC
  5
130E
  8
AM_VIS
 10
-1536.0412649889199
 20
273.44118492971421
 30
0.0
 40
2.0
 50
270.0
 51
90.0
  0
CIRCLE
  5
130F
  8
AM_VIS
 10
-1536.0412649889199
 20
273.44118492971421
 30
0.0
 40
1.6000000000000001
  0
LINE
  5
1313
  8
AM_VIS
 10
-1538.0412649889199
 20
275.4411849297141
 30
0.0
 11
-1536.0412649889199
 21
275.4411849297141
 31
0.0
  0
LINE
  5
1314
  8
AM_VIS
 10
-1536.0412649889199
 20
271.4411849297141
 30
0.0
 11
-1538.0412649889199
 21
271.4411849297141
 31
0.0
  0
ARC
  5
1315
  8
AM_VIS
 10
-1536.0412649889199
 20
273.44118492971421
 30
0.0
 40
2.0
 50
90.0
 51
270.0
  0
CIRCLE
  5
1317
  8
AM_VIS
 10
-1556.0412649889199
 20
290.94118492971421
 30
0.0
 40
2.0
  0
CIRCLE
  5
1318
  8
AM_VIS
 10
-1556.0412649889199
 20
290.94118492971421
 30
0.0
 40
1.6000000000000001
  0
ARC
  5
131A
  8
AM_VIS
 10
-1536.0412649889199
 20
335.94118492971421
 30
0.0
 40
2.0
 50
270.0
 51
90.0
  0
ARC
  5
1322
  8
AM_VIS
 10
-1536.0412649889199
 20
335.94118492971421
 30
0.0
 40
2.0
 50
90.0
 51
270.0
  0
CIRCLE
  5
1327
  8
AM_VIS
 10
-1536.0412649889199
 20
335.94118492971421
 30
0.0
 40
1.6000000000000001
  0
CIRCLE
  5
1335
  8
AM_VIS
 10
-1596.0412649889199
 20
165.94118492971421
 30
0.0
 40
1.2360370115347861
  0
POLYLINE
  5
1336
  8
AM_VIS
 66
     1
 10
0.0
 20
0.0
 30
0.0
  0
VERTEX
  5
3985
  8
AM_VIS
 10
-1608.8520772441921
 20
167.9411849297141
 30
0.0
  0
VERTEX
  5
3986
  8
AM_VIS
 10
-1608.8757957620869
 20
167.9411849297141
 30
0.0
  0
SEQEND
  5
3987
  8
AM_VIS
  0
POLYLINE
  5
1337
  8
AM_VIS
 66
     1
 10
0.0
 20
0.0
 30
0.0
  0
VERTEX
  5
3988
  8
AM_VIS
 10
-1608.209531733075
 20
167.9411849297141
 30
0.0
  0
VERTEX
  5
3989
  8
AM_VIS
 10
-1608.351179891893
 20
167.9411849297141
 30
0.0
  0
VERTEX
  5
398A
  8
AM_VIS
 10
-1608.4886442973509
 20
167.9411849297141
 30
0.0
  0
VERTEX
  5
398B
  8
AM_VIS
 10
-1608.595721980598
 20
167.9411849297141
 30
0.0
  0
VERTEX
  5
398C
  8
AM_VIS
 10
-1608.691576624718
 20
167.9411849297141
 30
0.0
  0
VERTEX
  5
398D
  8
AM_VIS
 10
-1608.760604397522
 20
167.9411849297141
 30
0.0
  0
VERTEX
  5
398E
  8
AM_VIS
 10
-1608.812880421789
 20
167.9411849297141
 30
0.0
  0
VERTEX
  5
398F
  8
AM_VIS
 10
-1608.8421333389319
 20
167.9411849297141
 30
0.0
  0
VERTEX
  5
3990
  8
AM_VIS
 10
-1608.8520772441921
 20
167.9411849297141
 30
0.0
  0
SEQEND
  5
3991
  8
AM_VIS
  0
LINE
  5
1338
  8
AM_VIS
 10
-1608.0412649889199
 20
165.9411849297141
 30
0.0
 11
-1608.0412649889199
 21
167.9411849297141
 31
0.0
  0
LINE
  5
1339
  8
AM_VIS
 10
-1608.0412649889199
 20
167.9411849297141
 30
0.0
 11
-1608.209531733075
 21
167.9411849297141
 31
0.0
  0
POLYLINE
  5
133A
  8
AM_VIS
 66
     1
 10
0.0
 20
0.0
 30
0.0
  0
VERTEX
  5
3992
  8
AM_VIS
 10
-1603.2067342157529
 20
167.9411849297141
 30
0.0
  0
VERTEX
  5
3993
  8
AM_VIS
 10
-1603.230452733648
 20
167.9411849297141
 30
0.0
  0
SEQEND
  5
3994
  8
AM_VIS
  0
POLYLINE
  5
133B
  8
AM_VIS
 66
     1
 10
0.0
 20
0.0
 30
0.0
  0
VERTEX
  5
3995
  8
AM_VIS
 10
-1603.230452733648
 20
167.9411849297141
 30
0.0
  0
VERTEX
  5
3996
  8
AM_VIS
 10
-1603.240396638907
 20
167.9411849297141
 30
0.0
  0
VERTEX
  5
3997
  8
AM_VIS
 10
-1603.269649556051
 20
167.9411849297141
 30
0.0
  0
VERTEX
  5
3998
  8
AM_VIS
 10
-1603.3219255803169
 20
167.9411849297141
 30
0.0
  0
VERTEX
  5
3999
  8
AM_VIS
 10
-1603.3909533531221
 20
167.9411849297141
 30
0.0
  0
VERTEX
  5
399A
  8
AM_VIS
 10
-1603.4868079972421
 20
167.9411849297141
 30
0.0
  0
VERTEX
  5
399B
  8
AM_VIS
 10
-1603.5938856804889
 20
167.9411849297141
 30
0.0
  0
VERTEX
  5
399C
  8
AM_VIS
 10
-1603.731350085947
 20
167.9411849297141
 30
0.0
  0
VERTEX
  5
399D
  8
AM_VIS
 10
-1603.8729982447651
 20
167.9411849297141
 30
0.0
  0
SEQEND
  5
399E
  8
AM_VIS
  0
LINE
  5
133C
  8
AM_VIS
 10
-1603.8729982447651
 20
167.9411849297141
 30
0.0
 11
-1604.0412649889199
 21
167.9411849297141
 31
0.0
  0
LINE
  5
133D
  8
AM_VIS
 10
-1604.0412649889199
 20
167.9411849297141
 30
0.0
 11
-1604.0412649889199
 21
165.9411849297141
 31
0.0
  0
ARC
  5
133F
  8
AM_VIS
 10
-1606.0412649889199
 20
165.94118492971421
 30
0.0
 40
2.0
 50
0.0
 51
180.0
  0
ARC
  5
1341
  8
AM_VIS
 10
-1606.0412649889199
 20
165.94118492971421
 30
0.0
 40
2.0
 50
179.99999999999909
 51
0.0
  0
CIRCLE
  5
1344
  8
AM_VIS
 10
-1616.0412649889199
 20
165.94118492971421
 30
0.0
 40
1.2360370115347861
  0
CIRCLE
  5
1346
  8
AM_VIS
 10
-1606.0412649889199
 20
165.94118492971421
 30
0.0
 40
1.6000000000000001
  0
ARC
  5
1352
  8
AM_VIS
 10
-1675.5412649889199
 20
172.64118492971431
 30
0.0
 40
2.0
 50
90.0
 51
270.0
  0
LINE
  5
1353
  8
AM_VIS
 10
-1678.589829070545
 20
153.70514791817931
 30
0.0
 11
-1676.394344154852
 21
153.70514791817931
 31
0.0
  0
ARC
  5
1354
  8
AM_VIS
 10
-1687.7912649889199
 20
154.19118492971421
 30
0.0
 40
8.8000000000000007
 50
359.99999999999972
 51
90.0
  0
LINE
  5
1357
  8
AM_VIS
 10
-1678.6037920590099
 20
153.6911849297141
 30
0.0
 11
-1676.408307143317
 21
153.6911849297141
 31
0.0
  0
LINE
  5
1358
  8
AM_VIS
 10
-1676.394344154852
 20
150.49262084808899
 30
0.0
 11
-1678.19126498892
 21
150.49262084808899
 31
0.0
  0
ARC
  5
1359
  8
AM_VIS
 10
-1687.7912649889199
 20
154.19118492971421
 30
0.0
 40
11.39692083406799
 50
359.99999999999977
 51
90.0
  0
ARC
  5
135A
  8
AM_VIS
 10
-1687.7912649889199
 20
154.19118492971421
 30
0.0
 40
11.606365661046199
 50
359.99999999999977
 51
90.0
  0
LINE
  5
135B
  8
AM_VIS
 10
-1676.394344154852
 20
154.1911849297141
 30
0.0
 11
-1676.394344154852
 21
153.70514791817931
 31
0.0
  0
LINE
  5
135C
  8
AM_VIS
 10
-1676.394344154852
 20
153.70514791817931
 30
0.0
 11
-1676.408307143317
 21
153.6911849297141
 31
0.0
  0
LINE
  5
135F
  8
AM_VIS
 10
-1676.394344154852
 20
152.1051479181792
 30
0.0
 11
-1676.394344154852
 21
150.49262084808899
 31
0.0
  0
LINE
  5
1360
  8
AM_VIS
 10
-1676.1709363394091
 20
150.71602866353231
 30
0.0
 11
-1676.394344154852
 21
150.49262084808899
 31
0.0
  0
LINE
  5
1361
  8
AM_VIS
 10
-1676.1709363394091
 20
152.09118492971399
 30
0.0
 11
-1676.1709363394091
 21
150.71602866353231
 31
0.0
  0
LINE
  5
1363
  8
AM_VIS
 10
-1676.408307143317
 20
153.6911849297141
 30
0.0
 11
-1676.408307143317
 21
152.11911090664441
 31
0.0
  0
LINE
  5
1364
  8
AM_VIS
 10
-1676.1848993278741
 20
154.1911849297141
 30
0.0
 11
-1676.1848993278741
 21
152.1051479181792
 31
0.0
  0
ARC
  5
136A
  8
AM_VIS
 10
-1656.0412649889199
 20
165.94118492971421
 30
0.0
 40
2.0
 50
0.0
 51
180.0
  0
ARC
  5
1376
  8
AM_VIS
 10
-1656.0412649889199
 20
165.94118492971421
 30
0.0
 40
2.0
 50
179.99999999999909
 51
0.0
  0
CIRCLE
  5
1378
  8
AM_VIS
 10
-1656.0412649889199
 20
165.94118492971421
 30
0.0
 40
1.6000000000000001
  0
ARC
  5
137A
  8
AM_VIS
 10
-1675.5412649889199
 20
172.64118492971431
 30
0.0
 40
2.0
 50
270.0
 51
90.0
  0
CIRCLE
  5
1380
  8
AM_VIS
 10
-1675.5412649889199
 20
172.64118492971431
 30
0.0
 40
1.6000000000000001
  0
ARC
  5
1386
  8
AM_VIS
 10
-1691.2912649889199
 20
163.79118492971409
 30
0.0
 40
4.0000000000000053
 50
183.39305358282331
 51
270.0
  0
LINE
  5
1389
  8
AM_VIS
 10
-1679.6474037304149
 20
161.10622948996479
 30
0.0
 11
-1680.715579417845
 21
159.83322727694869
 31
0.0
  0
LINE
  5
138A
  8
AM_VIS
 10
-1679.1223582391051
 20
161.12915347118511
 30
0.0
 11
-1680.2249324132481
 21
159.8151567380493
 31
0.0
  0
ARC
  5
138C
  8
AM_VIS
 10
-1687.7912649889199
 20
154.19118492971421
 30
0.0
 40
5.5999999999999881
 50
359.99999999999972
 51
90.0
  0
ARC
  5
138E
  8
AM_VIS
 10
-1687.7912649889199
 20
154.19118492971421
 30
0.0
 40
8.2000000000000206
 50
359.99999999999972
 51
90.0
  0
POLYLINE
  5
1390
  8
AM_VIS
 66
     1
 10
0.0
 20
0.0
 30
0.0
  0
VERTEX
  5
399F
  8
AM_VIS
 10
-1695.284253031979
 20
149.3980940789279
 30
0.0
  0
VERTEX
  5
39A0
  8
AM_VIS
 10
-1695.284253031979
 20
149.7150040655055
 30
0.0
  0
VERTEX
  5
39A1
  8
AM_VIS
 10
-1695.284253031979
 20
150.215122139469
 30
0.0
  0
VERTEX
  5
39A2
  8
AM_VIS
 10
-1695.284253031979
 20
152.2116451560241
 30
0.0
  0
VERTEX
  5
39A3
  8
AM_VIS
 10
-1695.284253031979
 20
156.18969722911399
 30
0.0
  0
VERTEX
  5
39A4
  8
AM_VIS
 10
-1695.284253031979
 20
163.55444353495841
 30
0.0
  0
SEQEND
  5
39A5
  8
AM_VIS
  0
ARC
  5
1391
  8
AM_VIS
 10
-1691.2912649889199
 20
163.79118492971409
 30
0.0
 40
4.8549857576747124
 50
235.7665849683205
 51
277.00000000000051
  0
POLYLINE
  5
1393
  8
AM_VIS
 66
     1
 10
0.0
 20
0.0
 30
0.0
  0
VERTEX
  5
39A6
  8
AM_VIS
 10
-1678.4280063836579
 20
146.69819688665481
 30
0.0
  0
VERTEX
  5
39A7
  8
AM_VIS
 10
-1686.341080775999
 20
146.6981968866553
 30
0.0
  0
VERTEX
  5
39A8
  8
AM_VIS
 10
-1691.665080154577
 20
146.6981968866553
 30
0.0
  0
VERTEX
  5
39A9
  8
AM_VIS
 10
-1692.333989688645
 20
146.6981968866553
 30
0.0
  0
VERTEX
  5
39AA
  8
AM_VIS
 10
-1692.5843558394549
 20
146.6981968866553
 30
0.0
  0
SEQEND
  5
39AB
  8
AM_VIS
  0
LINE
  5
1395
  8
AM_VIS
 10
-1682.4531535534329
 20
147.49118492971411
 30
0.0
 11
-1692.5913373350979
 21
147.49118492971411
 31
0.0
  0
CIRCLE
  5
1399
  8
AM_VIS
 10
-1687.7912649889199
 20
154.19118492971421
 30
0.0
 40
4.8254626441848227
  0
ARC
  5
139C
  8
AM_VIS
 10
-1678.19126498892
 20
150.69118492971421
 30
0.0
 40
4.0000000000000053
 50
180.0
 51
266.60694641742532
  0
POLYLINE
  5
13B0
  8
AM_VIS
 66
     1
 10
0.0
 20
0.0
 30
0.0
  0
VERTEX
  5
39AC
  8
AM_VIS
 10
-1680.715579417845
 20
159.83322727694841
 30
0.0
  0
VERTEX
  5
39AD
  8
AM_VIS
 10
-1680.7715833972879
 20
159.7315408684492
 30
0.0
  0
VERTEX
  5
39AE
  8
AM_VIS
 10
-1680.784787604387
 20
159.61621153499021
 30
0.0
  0
VERTEX
  5
39AF
  8
AM_VIS
 10
-1680.766449656843
 20
159.5344973804344
 30
0.0
  0
VERTEX
  5
39B0
  8
AM_VIS
 10
-1680.726237337311
 20
159.4610357666952
 30
0.0
  0
SEQEND
  5
39B1
  8
AM_VIS
  0
POLYLINE
  5
13B1
  8
AM_VIS
 66
     1
 10
0.0
 20
0.0
 30
0.0
  0
VERTEX
  5
39B2
  8
AM_VIS
 10
-1680.224932413247
 20
159.8151567380493
 30
0.0
  0
VERTEX
  5
39B3
  8
AM_VIS
 10
-1680.28093625255
 20
159.71347060509351
 30
0.0
  0
VERTEX
  5
39B4
  8
AM_VIS
 10
-1680.2941405131121
 20
159.59814126348959
 30
0.0
  0
VERTEX
  5
39B5
  8
AM_VIS
 10
-1680.2774815716921
 20
159.5209882793844
 30
0.0
  0
VERTEX
  5
39B6
  8
AM_VIS
 10
-1680.241275352533
 20
159.45085026606421
 30
0.0
  0
SEQEND
  5
39B7
  8
AM_VIS
  0
LINE
  5
13B3
  8
AM_VIS
 10
-1678.589829070545
 20
153.70514791817931
 30
0.0
 11
-1678.589829070545
 21
154.1911849297141
 31
0.0
  0
LINE
  5
13B5
  8
AM_VIS
 10
-1678.6037920590099
 20
153.6911849297141
 30
0.0
 11
-1678.589829070545
 21
153.70514791817931
 31
0.0
  0
ARC
  5
13BC
  8
AM_VIS
 10
-1678.19126498892
 20
150.89118492971431
 30
0.0
 40
0.398564081625092
 50
180.0
 51
270.0
  0
ARC
  5
13BF
  8
AM_VIS
 10
-1678.19126498892
 20
150.89118492971431
 30
0.0
 40
0.7999999999999972
 50
180.0
 51
270.0
  0
LINE
  5
13C3
  8
AM_VIS
 10
-1682.7292796155491
 20
153.56965127834789
 30
0.0
 11
-1683.0100624189729
 21
151.28285885624331
 31
0.0
  0
LINE
  5
13C4
  8
AM_VIS
 10
-1682.19126498892
 20
150.6911849297141
 30
0.0
 11
-1682.19126498892
 21
154.1911849297141
 31
0.0
  0
LINE
  5
13C5
  8
AM_VIS
 10
-1678.589829070545
 20
150.8911849297142
 30
0.0
 11
-1678.6037920590099
 21
153.6911849297141
 31
0.0
  0
LINE
  5
13C6
  8
AM_VIS
 10
-1678.99126498892
 20
150.8911849297142
 30
0.0
 11
-1678.99126498892
 21
154.1911849297141
 31
0.0
  0
LINE
  5
13C7
  8
AM_VIS
 10
-1679.5912649889201
 20
154.1911849297141
 30
0.0
 11
-1679.5912649889201
 21
150.6911849297141
 31
0.0
  0
ARC
  5
13CC
  8
AM_VIS
 10
-1687.7912649889199
 20
154.19118492971421
 30
0.0
 40
5.0999999999999988
 50
352.99999999999989
 51
96.999999999999815
  0
ARC
  5
13CD
  8
AM_VIS
 10
-1687.7912649889199
 20
154.19118492971421
 30
0.0
 40
9.201435918374905
 50
359.99999999999972
 51
34.862819451130719
  0
LINE
  5
13CF
  8
AM_VIS
 10
-1690.6995910623909
 20
158.9723874996607
 30
0.0
 11
-1688.4127986402859
 21
159.25317030308489
 31
0.0
  0
LINE
  5
13D0
  8
AM_VIS
 10
-1687.7912649889199
 20
159.79118492971401
 30
0.0
 11
-1691.2912649889199
 21
159.79118492971401
 31
0.0
  0
CIRCLE
  5
13D2
  8
AM_VIS
 10
-1687.7912649889199
 20
154.19118492971421
 30
0.0
 40
3.0086887894050212
  0
CIRCLE
  5
13D4
  8
AM_VIS
 10
-1687.7912649889199
 20
154.19118492971421
 30
0.0
 40
2.2281828305231031
  0
POLYLINE
  5
13D7
  8
AM_VIS
 66
     1
 10
0.0
 20
0.0
 30
0.0
  0
VERTEX
  5
39B8
  8
AM_VIS
 10
-1682.4531535534329
 20
147.49118492971411
 30
0.0
  0
VERTEX
  5
39B9
  8
AM_VIS
 10
-1682.3392352651911
 20
147.51365125342221
 30
0.0
  0
VERTEX
  5
39BA
  8
AM_VIS
 10
-1682.242395838899
 20
147.5776747111799
 30
0.0
  0
VERTEX
  5
39BB
  8
AM_VIS
 10
-1682.17712505437
 20
147.67365680658301
 30
0.0
  0
VERTEX
  5
39BC
  8
AM_VIS
 10
-1682.1531815759561
 20
147.78723062901281
 30
0.0
  0
VERTEX
  5
39BD
  8
AM_VIS
 10
-1682.165874487534
 20
147.87757808294529
 30
0.0
  0
VERTEX
  5
39BE
  8
AM_VIS
 10
-1682.2051372099029
 20
147.95993677166479
 30
0.0
  0
SEQEND
  5
39BF
  8
AM_VIS
  0
ARC
  5
13DC
  8
AM_VIS
 10
-1678.19126498892
 20
150.69118492971421
 30
0.0
 40
4.8549857576747257
 50
173.0
 51
214.2334150316793
  0
ARC
  5
13DE
  8
AM_VIS
 10
-1678.19126498892
 20
150.69118492971421
 30
0.0
 40
1.399999999999973
 50
180.0
 51
270.0
  0
POLYLINE
  5
13E9
  8
AM_VIS
 66
     1
 10
0.0
 20
0.0
 30
0.0
  0
VERTEX
  5
39C0
  8
AM_VIS
 10
-1694.022513146969
 20
159.77731270873139
 30
0.0
  0
VERTEX
  5
39C1
  8
AM_VIS
 10
-1694.1293344024721
 20
159.82282517966581
 30
0.0
  0
VERTEX
  5
39C2
  8
AM_VIS
 10
-1694.2454143876889
 20
159.82437199879629
 30
0.0
  0
VERTEX
  5
39C3
  8
AM_VIS
 10
-1694.3533736624679
 20
159.78173722650209
 30
0.0
  0
VERTEX
  5
39C4
  8
AM_VIS
 10
-1694.4370616914071
 20
159.70130895160599
 30
0.0
  0
VERTEX
  5
39C5
  8
AM_VIS
 10
-1694.477393532623
 20
159.61947399966061
 30
0.0
  0
VERTEX
  5
39C6
  8
AM_VIS
 10
-1694.49126498892
 20
159.5292963652013
 30
0.0
  0
SEQEND
  5
39C7
  8
AM_VIS
  0
POLYLINE
  5
13EF
  8
AM_VIS
 66
     1
 10
0.0
 20
0.0
 30
0.0
  0
VERTEX
  5
39C8
  8
AM_VIS
 10
-1694.49126498892
 20
149.39111258353611
 30
0.0
  0
VERTEX
  5
39C9
  8
AM_VIS
 10
-1693.9347978391361
 20
148.04765207949819
 30
0.0
  0
VERTEX
  5
39CA
  8
AM_VIS
 10
-1692.5913373350979
 20
147.49118492971411
 30
0.0
  0
SEQEND
  5
39CB
  8
AM_VIS
  0
LINE
  5
13F1
  8
AM_VIS
 10
-1694.49126498892
 20
149.39111258353611
 30
0.0
 11
-1694.49126498892
 21
159.5292963652013
 31
0.0
  0
ARC
  5
13F4
  8
AM_VIS
 10
-1691.2912649889199
 20
163.79118492971409
 30
0.0
 40
1.399999999999973
 50
180.0
 51
270.0
  0
LINE
  5
13FA
  8
AM_VIS
 10
-1691.2664212551019
 20
165.81151357922539
 30
0.0
 11
-1689.8912649889201
 21
165.81151357922539
 31
0.0
  0
LINE
  5
13FC
  8
AM_VIS
 10
-1689.863339011989
 20
163.37865785962359
 30
0.0
 11
-1689.8773020004551
 21
163.3926208480888
 31
0.0
  0
LINE
  5
13FF
  8
AM_VIS
 10
-1689.8773020004551
 20
163.3926208480888
 30
0.0
 11
-1691.0912649889201
 21
163.3926208480888
 31
0.0
  0
LINE
  5
1401
  8
AM_VIS
 10
-1691.4898290705451
 20
165.58810576378201
 30
0.0
 11
-1689.8773020004551
 21
165.58810576378201
 31
0.0
  0
LINE
  5
1402
  8
AM_VIS
 10
-1691.4898290705451
 20
163.79118492971401
 30
0.0
 11
-1691.4898290705451
 21
165.58810576378201
 31
0.0
  0
ARC
  5
1403
  8
AM_VIS
 10
-1691.0912649889201
 20
163.79118492971409
 30
0.0
 40
0.398564081625092
 50
180.0
 51
270.0
  0
ARC
  5
1405
  8
AM_VIS
 10
-1691.0912649889201
 20
163.79118492971409
 30
0.0
 40
0.7999999999999972
 50
180.0
 51
270.0
  0
LINE
  5
1408
  8
AM_VIS
 10
-1691.4898290705451
 20
165.58810576378201
 30
0.0
 11
-1691.2664212551019
 21
165.81151357922559
 31
0.0
  0
LINE
  5
140A
  8
AM_VIS
 10
-1688.2773020004549
 20
165.58810576378201
 30
0.0
 11
-1687.7912649889199
 21
165.58810576378201
 31
0.0
  0
LINE
  5
140B
  8
AM_VIS
 10
-1688.2773020004549
 20
165.58810576378201
 30
0.0
 11
-1688.2773020004549
 21
163.3926208480888
 31
0.0
  0
LINE
  5
140C
  8
AM_VIS
 10
-1687.7912649889199
 20
163.3926208480888
 30
0.0
 11
-1688.2773020004549
 21
163.3926208480888
 31
0.0
  0
LINE
  5
140F
  8
AM_VIS
 10
-1688.2773020004549
 20
163.3926208480888
 30
0.0
 11
-1688.2912649889199
 21
163.37865785962359
 31
0.0
  0
LINE
  5
1410
  8
AM_VIS
 10
-1688.2773020004549
 20
165.58810576378201
 30
0.0
 11
-1688.2912649889199
 21
165.5741427753168
 31
0.0
  0
POLYLINE
  5
1413
  8
AM_VIS
 66
     1
 10
0.0
 20
0.0
 30
0.0
  0
VERTEX
  5
39CC
  8
AM_VIS
 10
-1680.87622042867
 20
162.33504618821871
 30
0.0
  0
VERTEX
  5
39CD
  8
AM_VIS
 10
-1680.6703061071721
 20
162.40494610912651
 30
0.0
  0
VERTEX
  5
39CE
  8
AM_VIS
 10
-1680.4712675313599
 20
162.3173655628886
 30
0.0
  0
SEQEND
  5
39CF
  8
AM_VIS
  0
POLYLINE
  5
1415
  8
AM_VIS
 66
     1
 10
0.0
 20
0.0
 30
0.0
  0
VERTEX
  5
39D0
  8
AM_VIS
 10
-1680.8532964474491
 20
162.86009167952889
 30
0.0
  0
VERTEX
  5
39D1
  8
AM_VIS
 10
-1680.647382125951
 20
162.92999160043669
 30
0.0
  0
VERTEX
  5
39D2
  8
AM_VIS
 10
-1680.44834355014
 20
162.84241105419909
 30
0.0
  0
SEQEND
  5
39D3
  8
AM_VIS
  0
LINE
  5
1417
  8
AM_VIS
 10
-1682.1672931805849
 20
161.7575175053866
 30
0.0
 11
-1680.8532964474491
 21
162.86009167952889
 31
0.0
  0
POLYLINE
  5
1418
  8
AM_VIS
 66
     1
 10
0.0
 20
0.0
 30
0.0
  0
VERTEX
  5
39D4
  8
AM_VIS
 10
-1679.665084355745
 20
161.51118238727389
 30
0.0
  0
VERTEX
  5
39D5
  8
AM_VIS
 10
-1679.5775038095071
 20
161.31214381146191
 30
0.0
  0
VERTEX
  5
39D6
  8
AM_VIS
 10
-1679.6474037304149
 20
161.10622948996479
 30
0.0
  0
SEQEND
  5
39D7
  8
AM_VIS
  0
POLYLINE
  5
141A
  8
AM_VIS
 66
     1
 10
0.0
 20
0.0
 30
0.0
  0
VERTEX
  5
39D8
  8
AM_VIS
 10
-1679.1400388644349
 20
161.53410636849449
 30
0.0
  0
VERTEX
  5
39D9
  8
AM_VIS
 10
-1679.0524583181971
 20
161.33506779268231
 30
0.0
  0
VERTEX
  5
39DA
  8
AM_VIS
 10
-1679.1223582391051
 20
161.12915347118511
 30
0.0
  0
SEQEND
  5
39DB
  8
AM_VIS
  0
POLYLINE
  5
141C
  8
AM_VIS
 66
     1
 10
0.0
 20
0.0
 30
0.0
  0
VERTEX
  5
39DC
  8
AM_VIS
 10
-1682.5214141519391
 20
161.2562125813233
 30
0.0
  0
VERTEX
  5
39DD
  8
AM_VIS
 10
-1682.4166895392971
 20
161.2061192874252
 30
0.0
  0
VERTEX
  5
39DE
  8
AM_VIS
 10
-1682.3007935323101
 20
161.19953637702241
 30
0.0
  0
VERTEX
  5
39DF
  8
AM_VIS
 10
-1682.2202627350571
 20
161.22252030088401
 30
0.0
  0
VERTEX
  5
39E0
  8
AM_VIS
 10
-1682.1492226416849
 20
161.266870500789
 30
0.0
  0
SEQEND
  5
39E1
  8
AM_VIS
  0
LINE
  5
141D
  8
AM_VIS
 10
-1680.4712675313599
 20
162.3173655628886
 30
0.0
 11
-1679.665084355745
 21
161.51118238727389
 31
0.0
  0
LINE
  5
141E
  8
AM_VIS
 10
-1682.1492226416849
 20
161.266870500789
 30
0.0
 11
-1680.87622042867
 21
162.33504618821871
 31
0.0
  0
POLYLINE
  5
1420
  8
AM_VIS
 66
     1
 10
0.0
 20
0.0
 30
0.0
  0
VERTEX
  5
39E2
  8
AM_VIS
 10
-1682.5315996525701
 20
161.74117456610151
 30
0.0
  0
VERTEX
  5
39E3
  8
AM_VIS
 10
-1682.4253073119571
 20
161.6945007154286
 30
0.0
  0
VERTEX
  5
39E4
  8
AM_VIS
 10
-1682.309258859168
 20
161.69167618268619
 30
0.0
  0
VERTEX
  5
39E5
  8
AM_VIS
 10
-1682.2339075096691
 20
161.7151765295464
 30
0.0
  0
VERTEX
  5
39E6
  8
AM_VIS
 10
-1682.1672931805849
 20
161.7575175053866
 30
0.0
  0
SEQEND
  5
39E7
  8
AM_VIS
  0
ARC
  5
1423
  8
AM_VIS
 10
-1687.7912649889199
 20
154.19118492971421
 30
0.0
 40
9.201435918374905
 50
55.13718054886904
 51
90.0
  0
LINE
  5
1424
  8
AM_VIS
 10
-1688.2912649889199
 20
163.37865785962359
 30
0.0
 11
-1689.863339011989
 21
163.37865785962359
 31
0.0
  0
LINE
  5
1425
  8
AM_VIS
 10
-1689.863339011989
 20
165.5741427753168
 30
0.0
 11
-1688.2912649889199
 21
165.5741427753168
 31
0.0
  0
LINE
  5
1426
  8
AM_VIS
 10
-1687.7912649889199
 20
162.99118492971411
 30
0.0
 11
-1691.0912649889201
 21
162.99118492971411
 31
0.0
  0
LINE
  5
1427
  8
AM_VIS
 10
-1689.8773020004551
 20
165.79755059076021
 30
0.0
 11
-1687.7912649889199
 21
165.79755059076021
 31
0.0
  0
LINE
  5
1429
  8
AM_VIS
 10
-1691.2912649889199
 20
162.3911849297142
 30
0.0
 11
-1687.7912649889199
 21
162.3911849297142
 31
0.0
  0
ARC
  5
143A
  8
AM_VIS
 10
-1676.0412649889199
 20
210.94118492971421
 30
0.0
 40
2.0
 50
90.0
 51
270.0
  0
CIRCLE
  5
143B
  8
AM_VIS
 10
-1676.0412649889199
 20
210.94118492971421
 30
0.0
 40
1.6000000000000001
  0
ARC
  5
1449
  8
AM_VIS
 10
-1676.0412649889199
 20
210.94118492971421
 30
0.0
 40
2.0
 50
270.0
 51
90.0
  0
ARC
  5
1457
  8
AM_VIS
 10
-1676.0412649889199
 20
273.44118492971421
 30
0.0
 40
2.0
 50
90.0
 51
270.0
  0
CIRCLE
  5
1458
  8
AM_VIS
 10
-1676.0412649889199
 20
273.44118492971421
 30
0.0
 40
1.6000000000000001
  0
CIRCLE
  5
1465
  8
AM_VIS
 10
-1676.0412649889199
 20
263.44118492971421
 30
0.0
 40
1.2360370115347861
  0
CIRCLE
  5
1472
  8
AM_VIS
 10
-1676.0412649889199
 20
283.44118492971421
 30
0.0
 40
1.2360370115347861
  0
POLYLINE
  5
1473
  8
AM_VIS
 66
     1
 10
0.0
 20
0.0
 30
0.0
  0
VERTEX
  5
39E8
  8
AM_VIS
 10
-1674.0412649889199
 20
276.25199718498601
 30
0.0
  0
VERTEX
  5
39E9
  8
AM_VIS
 10
-1674.0412649889199
 20
276.27571570288131
 30
0.0
  0
SEQEND
  5
39EA
  8
AM_VIS
  0
POLYLINE
  5
1474
  8
AM_VIS
 66
     1
 10
0.0
 20
0.0
 30
0.0
  0
VERTEX
  5
39EB
  8
AM_VIS
 10
-1674.0412649889199
 20
275.60945167386899
 30
0.0
  0
VERTEX
  5
39EC
  8
AM_VIS
 10
-1674.0412649889199
 20
275.75109983268737
 30
0.0
  0
VERTEX
  5
39ED
  8
AM_VIS
 10
-1674.0412649889199
 20
275.88856423814508
 30
0.0
  0
VERTEX
  5
39EE
  8
AM_VIS
 10
-1674.0412649889199
 20
275.99564192139241
 30
0.0
  0
VERTEX
  5
39EF
  8
AM_VIS
 10
-1674.0412649889199
 20
276.09149656551239
 30
0.0
  0
VERTEX
  5
39F0
  8
AM_VIS
 10
-1674.0412649889199
 20
276.16052433831658
 30
0.0
  0
VERTEX
  5
39F1
  8
AM_VIS
 10
-1674.0412649889199
 20
276.21280036258258
 30
0.0
  0
VERTEX
  5
39F2
  8
AM_VIS
 10
-1674.0412649889199
 20
276.24205327972658
 30
0.0
  0
VERTEX
  5
39F3
  8
AM_VIS
 10
-1674.0412649889199
 20
276.25199718498601
 30
0.0
  0
SEQEND
  5
39F4
  8
AM_VIS
  0
LINE
  5
1475
  8
AM_VIS
 10
-1676.0412649889199
 20
275.4411849297141
 30
0.0
 11
-1674.0412649889199
 21
275.4411849297141
 31
0.0
  0
LINE
  5
1476
  8
AM_VIS
 10
-1674.0412649889199
 20
275.4411849297141
 30
0.0
 11
-1674.0412649889199
 21
275.60945167386899
 31
0.0
  0
POLYLINE
  5
1478
  8
AM_VIS
 66
     1
 10
0.0
 20
0.0
 30
0.0
  0
VERTEX
  5
39F5
  8
AM_VIS
 10
-1674.0412649889199
 20
270.60665415654688
 30
0.0
  0
VERTEX
  5
39F6
  8
AM_VIS
 10
-1674.0412649889199
 20
270.63037267444219
 30
0.0
  0
SEQEND
  5
39F7
  8
AM_VIS
  0
POLYLINE
  5
1479
  8
AM_VIS
 66
     1
 10
0.0
 20
0.0
 30
0.0
  0
VERTEX
  5
39F8
  8
AM_VIS
 10
-1674.0412649889199
 20
270.63037267444219
 30
0.0
  0
VERTEX
  5
39F9
  8
AM_VIS
 10
-1674.0412649889199
 20
270.64031657970162
 30
0.0
  0
VERTEX
  5
39FA
  8
AM_VIS
 10
-1674.0412649889199
 20
270.66956949684572
 30
0.0
  0
VERTEX
  5
39FB
  8
AM_VIS
 10
-1674.0412649889199
 20
270.72184552111162
 30
0.0
  0
VERTEX
  5
39FC
  8
AM_VIS
 10
-1674.0412649889199
 20
270.79087329391581
 30
0.0
  0
VERTEX
  5
39FD
  8
AM_VIS
 10
-1674.0412649889199
 20
270.88672793803579
 30
0.0
  0
VERTEX
  5
39FE
  8
AM_VIS
 10
-1674.0412649889199
 20
270.99380562128312
 30
0.0
  0
VERTEX
  5
39FF
  8
AM_VIS
 10
-1674.0412649889199
 20
271.13127002674082
 30
0.0
  0
VERTEX
  5
3A00
  8
AM_VIS
 10
-1674.0412649889199
 20
271.27291818555932
 30
0.0
  0
SEQEND
  5
3A01
  8
AM_VIS
  0
LINE
  5
147A
  8
AM_VIS
 10
-1674.0412649889199
 20
271.27291818555932
 30
0.0
 11
-1674.0412649889199
 21
271.4411849297141
 31
0.0
  0
LINE
  5
147B
  8
AM_VIS
 10
-1674.0412649889199
 20
271.4411849297141
 30
0.0
 11
-1676.0412649889199
 21
271.4411849297141
 31
0.0
  0
ARC
  5
147D
  8
AM_VIS
 10
-1676.0412649889199
 20
273.44118492971421
 30
0.0
 40
2.0
 50
270.0
 51
90.0
  0
ARC
  5
1485
  8
AM_VIS
 10
-1676.0412649889199
 20
335.94118492971421
 30
0.0
 40
2.0
 50
90.0
 51
270.0
  0
CIRCLE
  5
1486
  8
AM_VIS
 10
-1676.0412649889199
 20
335.94118492971421
 30
0.0
 40
1.6000000000000001
  0
ARC
  5
1487
  8
AM_VIS
 10
-1676.0412649889199
 20
335.94118492971421
 30
0.0
 40
2.0
 50
270.0
 51
90.0
  0
LINE
  5
14BE
  8
AM_VIS
 10
-1392.91047180335
 20
386.42094792829528
 30
0.0
 11
-1457.4297356583529
 21
385.85789684267593
 31
0.0
  0
LINE
  5
14BF
  8
AM_VIS
 10
-1457.4297356583529
 20
400.35844893722327
 30
0.0
 11
-1392.91047180335
 21
400.92150002284291
 31
0.0
  0
LINE
  5
14C0
  8
AM_VIS
 10
-1391.225381738526
 20
400.23617892630949
 30
0.0
 11
-1459.6279903512529
 21
399.63923840440287
 31
0.0
  0
POLYLINE
  5
14C1
  8
AM_VIS
 10
-1392.9104724678086
 20
386.42094792249685
 30
0.0
 66
     1
 70
     8
  0
VERTEX
  8
0
  5
3E77
 10
-1392.91
 20
386.421
 30
0.000000
  70
    32
  0
VERTEX
  8
0
  5
3E78
 10
-1392.89
 20
386.421
 30
0.000000
  70
    32
  0
VERTEX
  8
0
  5
3E79
 10
-1392.86
 20
386.422
 30
0.000000
  70
    32
  0
VERTEX
  8
0
  5
3E7A
 10
-1392.84
 20
386.423
 30
0.000000
  70
    32
  0
VERTEX
  8
0
  5
3E7B
 10
-1392.81
 20
386.424
 30
0.000000
  70
    32
  0
VERTEX
  8
0
  5
3E7C
 10
-1392.79
 20
386.426
 30
0.000000
  70
    32
  0
VERTEX
  8
0
  5
3E7D
 10
-1392.76
 20
386.428
 30
0.000000
  70
    32
  0
VERTEX
  8
0
  5
3E7E
 10
-1392.74
 20
386.430
 30
0.000000
  70
    32
  0
VERTEX
  8
0
  5
3E7F
 10
-1392.72
 20
386.432
 30
0.000000
  70
    32
  0
VERTEX
  8
0
  5
3E80
 10
-1392.69
 20
386.435
 30
0.000000
  70
    32
  0
VERTEX
  8
0
  5
3E81
 10
-1392.67
 20
386.438
 30
0.000000
  70
    32
  0
VERTEX
  8
0
  5
3E82
 10
-1392.64
 20
386.441
 30
0.000000
  70
    32
  0
VERTEX
  8
0
  5
3E83
 10
-1392.62
 20
386.445
 30
0.000000
  70
    32
  0
VERTEX
  8
0
  5
3E84
 10
-1392.59
 20
386.449
 30
0.000000
  70
    32
  0
VERTEX
  8
0
  5
3E85
 10
-1392.57
 20
386.453
 30
0.000000
  70
    32
  0
VERTEX
  8
0
  5
3E86
 10
-1392.55
 20
386.458
 30
0.000000
  70
    32
  0
VERTEX
  8
0
  5
3E87
 10
-1392.52
 20
386.462
 30
0.000000
  70
    32
  0
VERTEX
  8
0
  5
3E88
 10
-1392.50
 20
386.467
 30
0.000000
  70
    32
  0
VERTEX
  8
0
  5
3E89
 10
-1392.48
 20
386.473
 30
0.000000
  70
    32
  0
VERTEX
  8
0
  5
3E8A
 10
-1392.45
 20
386.478
 30
0.000000
  70
    32
  0
VERTEX
  8
0
  5
3E8B
 10
-1392.43
 20
386.484
 30
0.000000
  70
    32
  0
VERTEX
  8
0
  5
3E8C
 10
-1392.40
 20
386.491
 30
0.000000
  70
    32
  0
VERTEX
  8
0
  5
3E8D
 10
-1392.38
 20
386.497
 30
0.000000
  70
    32
  0
VERTEX
  8
0
  5
3E8E
 10
-1392.36
 20
386.504
 30
0.000000
  70
    32
  0
VERTEX
  8
0
  5
3E8F
 10
-1392.33
 20
386.511
 30
0.000000
  70
    32
  0
VERTEX
  8
0
  5
3E90
 10
-1392.31
 20
386.519
 30
0.000000
  70
    32
  0
VERTEX
  8
0
  5
3E91
 10
-1392.29
 20
386.526
 30
0.000000
  70
    32
  0
VERTEX
  8
0
  5
3E92
 10
-1392.26
 20
386.534
 30
0.000000
  70
    32
  0
VERTEX
  8
0
  5
3E93
 10
-1392.24
 20
386.542
 30
0.000000
  70
    32
  0
VERTEX
  8
0
  5
3E94
 10
-1392.22
 20
386.551
 30
0.000000
  70
    32
  0
VERTEX
  8
0
  5
3E95
 10
-1392.20
 20
386.560
 30
0.000000
  70
    32
  0
VERTEX
  8
0
  5
3E96
 10
-1392.17
 20
386.569
 30
0.000000
  70
    32
  0
VERTEX
  8
0
  5
3E97
 10
-1392.15
 20
386.578
 30
0.000000
  70
    32
  0
VERTEX
  8
0
  5
3E98
 10
-1392.13
 20
386.588
 30
0.000000
  70
    32
  0
VERTEX
  8
0
  5
3E99
 10
-1392.11
 20
386.598
 30
0.000000
  70
    32
  0
VERTEX
  8
0
  5
3E9A
 10
-1392.08
 20
386.608
 30
0.000000
  70
    32
  0
VERTEX
  8
0
  5
3E9B
 10
-1392.06
 20
386.618
 30
0.000000
  70
    32
  0
VERTEX
  8
0
  5
3E9C
 10
-1392.04
 20
386.629
 30
0.000000
  70
    32
  0
VERTEX
  8
0
  5
3E9D
 10
-1392.02
 20
386.640
 30
0.000000
  70
    32
  0
VERTEX
  8
0
  5
3E9E
 10
-1392.00
 20
386.651
 30
0.000000
  70
    32
  0
VERTEX
  8
0
  5
3E9F
 10
-1391.97
 20
386.663
 30
0.000000
  70
    32
  0
VERTEX
  8
0
  5
3EA0
 10
-1391.95
 20
386.674
 30
0.000000
  70
    32
  0
VERTEX
  8
0
  5
3EA1
 10
-1391.93
 20
386.687
 30
0.000000
  70
    32
  0
VERTEX
  8
0
  5
3EA2
 10
-1391.91
 20
386.699
 30
0.000000
  70
    32
  0
VERTEX
  8
0
  5
3EA3
 10
-1391.89
 20
386.711
 30
0.000000
  70
    32
  0
VERTEX
  8
0
  5
3EA4
 10
-1391.87
 20
386.724
 30
0.000000
  70
    32
  0
VERTEX
  8
0
  5
3EA5
 10
-1391.85
 20
386.737
 30
0.000000
  70
    32
  0
VERTEX
  8
0
  5
3EA6
 10
-1391.83
 20
386.750
 30
0.000000
  70
    32
  0
VERTEX
  8
0
  5
3EA7
 10
-1391.81
 20
386.764
 30
0.000000
  70
    32
  0
VERTEX
  8
0
  5
3EA8
 10
-1391.79
 20
386.778
 30
0.000000
  70
    32
  0
VERTEX
  8
0
  5
3EA9
 10
-1391.77
 20
386.792
 30
0.000000
  70
    32
  0
VERTEX
  8
0
  5
3EAA
 10
-1391.75
 20
386.806
 30
0.000000
  70
    32
  0
VERTEX
  8
0
  5
3EAB
 10
-1391.73
 20
386.821
 30
0.000000
  70
    32
  0
VERTEX
  8
0
  5
3EAC
 10
-1391.71
 20
386.835
 30
0.000000
  70
    32
  0
VERTEX
  8
0
  5
3EAD
 10
-1391.69
 20
386.850
 30
0.000000
  70
    32
  0
VERTEX
  8
0
  5
3EAE
 10
-1391.67
 20
386.866
 30
0.000000
  70
    32
  0
VERTEX
  8
0
  5
3EAF
 10
-1391.65
 20
386.881
 30
0.000000
  70
    32
  0
VERTEX
  8
0
  5
3EB0
 10
-1391.63
 20
386.897
 30
0.000000
  70
    32
  0
VERTEX
  8
0
  5
3EB1
 10
-1391.61
 20
386.913
 30
0.000000
  70
    32
  0
VERTEX
  8
0
  5
3EB2
 10
-1391.60
 20
386.929
 30
0.000000
  70
    32
  0
VERTEX
  8
0
  5
3EB3
 10
-1391.58
 20
386.945
 30
0.000000
  70
    32
  0
VERTEX
  8
0
  5
3EB4
 10
-1391.56
 20
386.962
 30
0.000000
  70
    32
  0
VERTEX
  8
0
  5
3EB5
 10
-1391.54
 20
386.979
 30
0.000000
  70
    32
  0
VERTEX
  8
0
  5
3EB6
 10
-1391.52
 20
386.996
 30
0.000000
  70
    32
  0
VERTEX
  8
0
  5
3EB7
 10
-1391.51
 20
387.013
 30
0.000000
  70
    32
  0
VERTEX
  8
0
  5
3EB8
 10
-1391.49
 20
387.030
 30
0.000000
  70
    32
  0
VERTEX
  8
0
  5
3EB9
 10
-1391.47
 20
387.048
 30
0.000000
  70
    32
  0
VERTEX
  8
0
  5
3EBA
 10
-1391.46
 20
387.066
 30
0.000000
  70
    32
  0
VERTEX
  8
0
  5
3EBB
 10
-1391.44
 20
387.084
 30
0.000000
  70
    32
  0
VERTEX
  8
0
  5
3EBC
 10
-1391.42
 20
387.102
 30
0.000000
  70
    32
  0
VERTEX
  8
0
  5
3EBD
 10
-1391.41
 20
387.121
 30
0.000000
  70
    32
  0
VERTEX
  8
0
  5
3EBE
 10
-1391.39
 20
387.139
 30
0.000000
  70
    32
  0
VERTEX
  8
0
  5
3EBF
 10
-1391.38
 20
387.158
 30
0.000000
  70
    32
  0
VERTEX
  8
0
  5
3EC0
 10
-1391.36
 20
387.177
 30
0.000000
  70
    32
  0
VERTEX
  8
0
  5
3EC1
 10
-1391.35
 20
387.196
 30
0.000000
  70
    32
  0
VERTEX
  8
0
  5
3EC2
 10
-1391.33
 20
387.216
 30
0.000000
  70
    32
  0
VERTEX
  8
0
  5
3EC3
 10
-1391.32
 20
387.235
 30
0.000000
  70
    32
  0
VERTEX
  8
0
  5
3EC4
 10
-1391.30
 20
387.255
 30
0.000000
  70
    32
  0
VERTEX
  8
0
  5
3EC5
 10
-1391.29
 20
387.275
 30
0.000000
  70
    32
  0
VERTEX
  8
0
  5
3EC6
 10
-1391.28
 20
387.295
 30
0.000000
  70
    32
  0
VERTEX
  8
0
  5
3EC7
 10
-1391.26
 20
387.315
 30
0.000000
  70
    32
  0
VERTEX
  8
0
  5
3EC8
 10
-1391.25
 20
387.336
 30
0.000000
  70
    32
  0
VERTEX
  8
0
  5
3EC9
 10
-1391.23
 20
387.356
 30
0.000000
  70
    32
  0
VERTEX
  8
0
  5
3ECA
 10
-1391.22
 20
387.377
 30
0.000000
  70
    32
  0
VERTEX
  8
0
  5
3ECB
 10
-1391.21
 20
387.398
 30
0.000000
  70
    32
  0
VERTEX
  8
0
  5
3ECC
 10
-1391.20
 20
387.419
 30
0.000000
  70
    32
  0
VERTEX
  8
0
  5
3ECD
 10
-1391.19
 20
387.440
 30
0.000000
  70
    32
  0
VERTEX
  8
0
  5
3ECE
 10
-1391.17
 20
387.461
 30
0.000000
  70
    32
  0
VERTEX
  8
0
  5
3ECF
 10
-1391.16
 20
387.483
 30
0.000000
  70
    32
  0
VERTEX
  8
0
  5
3ED0
 10
-1391.15
 20
387.505
 30
0.000000
  70
    32
  0
VERTEX
  8
0
  5
3ED1
 10
-1391.14
 20
387.526
 30
0.000000
  70
    32
  0
VERTEX
  8
0
  5
3ED2
 10
-1391.13
 20
387.548
 30
0.000000
  70
    32
  0
VERTEX
  8
0
  5
3ED3
 10
-1391.12
 20
387.570
 30
0.000000
  70
    32
  0
VERTEX
  8
0
  5
3ED4
 10
-1391.11
 20
387.592
 30
0.000000
  70
    32
  0
VERTEX
  8
0
  5
3ED5
 10
-1391.10
 20
387.615
 30
0.000000
  70
    32
  0
VERTEX
  8
0
  5
3ED6
 10
-1391.09
 20
387.637
 30
0.000000
  70
    32
  0
VERTEX
  8
0
  5
3ED7
 10
-1391.08
 20
387.660
 30
0.000000
  70
    32
  0
VERTEX
  8
0
  5
3ED8
 10
-1391.07
 20
387.682
 30
0.000000
  70
    32
  0
VERTEX
  8
0
  5
3ED9
 10
-1391.06
 20
387.705
 30
0.000000
  70
    32
  0
VERTEX
  8
0
  5
3EDA
 10
-1391.05
 20
387.728
 30
0.000000
  70
    32
  0
VERTEX
  8
0
  5
3EDB
 10
-1391.04
 20
387.751
 30
0.000000
  70
    32
  0
VERTEX
  8
0
  5
3EDC
 10
-1391.04
 20
387.774
 30
0.000000
  70
    32
  0
VERTEX
  8
0
  5
3EDD
 10
-1391.03
 20
387.797
 30
0.000000
  70
    32
  0
VERTEX
  8
0
  5
3EDE
 10
-1391.02
 20
387.820
 30
0.000000
  70
    32
  0
VERTEX
  8
0
  5
3EDF
 10
-1391.01
 20
387.843
 30
0.000000
  70
    32
  0
VERTEX
  8
0
  5
3EE0
 10
-1391.01
 20
387.867
 30
0.000000
  70
    32
  0
VERTEX
  8
0
  5
3EE1
 10
-1391.00
 20
387.890
 30
0.000000
  70
    32
  0
VERTEX
  8
0
  5
3EE2
 10
-1390.99
 20
387.914
 30
0.000000
  70
    32
  0
VERTEX
  8
0
  5
3EE3
 10
-1390.99
 20
387.938
 30
0.000000
  70
    32
  0
VERTEX
  8
0
  5
3EE4
 10
-1390.98
 20
387.961
 30
0.000000
  70
    32
  0
VERTEX
  8
0
  5
3EE5
 10
-1390.98
 20
387.985
 30
0.000000
  70
    32
  0
VERTEX
  8
0
  5
3EE6
 10
-1390.97
 20
388.009
 30
0.000000
  70
    32
  0
VERTEX
  8
0
  5
3EE7
 10
-1390.97
 20
388.033
 30
0.000000
  70
    32
  0
VERTEX
  8
0
  5
3EE8
 10
-1390.96
 20
388.057
 30
0.000000
  70
    32
  0
VERTEX
  8
0
  5
3EE9
 10
-1390.96
 20
388.081
 30
0.000000
  70
    32
  0
VERTEX
  8
0
  5
3EEA
 10
-1390.95
 20
388.105
 30
0.000000
  70
    32
  0
VERTEX
  8
0
  5
3EEB
 10
-1390.95
 20
388.129
 30
0.000000
  70
    32
  0
VERTEX
  8
0
  5
3EEC
 10
-1390.95
 20
388.153
 30
0.000000
  70
    32
  0
VERTEX
  8
0
  5
3EED
 10
-1390.94
 20
388.177
 30
0.000000
  70
    32
  0
VERTEX
  8
0
  5
3EEE
 10
-1390.94
 20
388.202
 30
0.000000
  70
    32
  0
VERTEX
  8
0
  5
3EEF
 10
-1390.94
 20
388.226
 30
0.000000
  70
    32
  0
VERTEX
  8
0
  5
3EF0
 10
-1390.94
 20
388.250
 30
0.000000
  70
    32
  0
VERTEX
  8
0
  5
3EF1
 10
-1390.93
 20
388.275
 30
0.000000
  70
    32
  0
VERTEX
  8
0
  5
3EF2
 10
-1390.93
 20
388.299
 30
0.000000
  70
    32
  0
VERTEX
  8
0
  5
3EF3
 10
-1390.93
 20
388.323
 30
0.000000
  70
    32
  0
VERTEX
  8
0
  5
3EF4
 10
-1390.93
 20
388.348
 30
0.000000
  70
    32
  0
VERTEX
  8
0
  5
3EF5
 10
-1390.93
 20
388.372
 30
0.000000
  70
    32
  0
VERTEX
  8
0
  5
3EF6
 10
-1390.93
 20
388.396
 30
0.000000
  70
    32
  0
VERTEX
  8
0
  5
3EF7
 10
-1390.93
 20
388.421
 30
0.000000
  70
    32
  0
SEQEND
  8
0
  5
3EF8
  0
LINE
  5
14C2
  8
AM_VIS
 10
-1392.91047180335
 20
400.92150002284291
 30
0.0
 11
-1390.9279996991761
 21
400.93880079479499
 31
0.0
  0
LINE
  5
14C4
  8
AM_VIS
 10
-1390.9279996991761
 20
397.43893406407051
 30
0.0
 11
-1390.9279996991761
 21
388.42087178022268
 31
0.0
  0
ARC
  5
14C7
  8
AM_VIS
 10
-1391.2279996991761
 20
400.53616750322891
 30
0.0
 40
0.3
 50
270.5000000000008
 51
0.0
  0
POLYLINE
  5
14C8
  8
AM_VIS
 66
     1
 10
0.0
 20
0.0
 30
0.0
  0
VERTEX
  5
3A02
  8
AM_VIS
 10
-1390.9279996991761
 20
400.93880079479499
 30
0.0
  0
VERTEX
  5
3A03
  8
AM_VIS
 10
-1390.9279996991761
 20
399.91372972940297
 30
0.0
  0
VERTEX
  5
3A04
  8
AM_VIS
 10
-1390.9279996991761
 20
397.43893406407051
 30
0.0
  0
SEQEND
  5
3A05
  8
AM_VIS
  0
POLYLINE
  5
14C9
  8
AM_VIS
 66
     1
 10
0.0
 20
0.0
 30
0.0
  0
VERTEX
  5
3A06
  8
AM_VIS
 10
-1385.732353619002
 20
400.98414251122421
 30
0.0
  0
VERTEX
  5
3A07
  8
AM_VIS
 10
-1384.925372390604
 20
400.18417297277273
 30
0.0
  0
SEQEND
  5
3A08
  8
AM_VIS
  0
LINE
  5
14CD
  8
AM_VIS
 10
-1385.732353619002
 20
400.98414251122421
 30
0.0
 11
-1390.9279996991761
 21
400.93880079479499
 31
0.0
  0
LINE
  5
14D1
  8
AM_VIS
 10
-1692.584355839705
 20
400.18417297277273
 30
0.0
 11
-1519.498174138794
 21
400.18417297277273
 31
0.0
  0
LINE
  5
14D5
  8
AM_VIS
 10
-1678.19126498892
 20
396.79118492971401
 30
0.0
 11
-1533.8912649889201
 21
396.79118492971401
 31
0.0
  0
LINE
  5
14D7
  8
AM_VIS
 10
-1533.8912649889201
 20
397.59118492971402
 30
0.0
 11
-1678.19126498892
 21
397.59118492971402
 31
0.0
  0
ARC
  5
14DC
  8
AM_VIS
 10
-1524.2912649889199
 20
392.69118492971421
 30
0.0
 40
5.0999999999999988
 50
172.99999999999949
 51
276.99999999999972
  0
LINE
  5
14DD
  8
AM_VIS
 10
-1529.6293764244069
 20
399.39118492971392
 30
0.0
 11
-1519.4911926427419
 21
399.39118492971392
 31
0.0
  0
ARC
  5
14DF
  8
AM_VIS
 10
-1524.2912649889199
 20
392.69118492971421
 30
0.0
 40
9.201435918374905
 50
235.13718054886911
 51
270.00000000000102
  0
ARC
  5
14E0
  8
AM_VIS
 10
-1524.2912649889199
 20
392.69118492971421
 30
0.0
 40
8.8000000000000007
 50
180.00000000000031
 51
270.00000000000028
  0
CIRCLE
  5
14E2
  8
AM_VIS
 10
-1524.2912649889199
 20
392.69118492971421
 30
0.0
 40
4.8254626441848227
  0
ARC
  5
14E5
  8
AM_VIS
 10
-1524.2912649889199
 20
392.69118492971421
 30
0.0
 40
5.6226898562559882
 50
180.0
 51
270.00000000000063
  0
ARC
  5
14E6
  8
AM_VIS
 10
-1524.2912649889199
 20
392.69118492971421
 30
0.0
 40
8.200000000000049
 50
180.0000000000004
 51
270.0000000000004
  0
ARC
  5
14E8
  8
AM_VIS
 10
-1524.2912649889199
 20
392.69118492971421
 30
0.0
 40
11.39692083406799
 50
180.0000000000002
 51
270.00000000000119
  0
ARC
  5
14E9
  8
AM_VIS
 10
-1524.2912649889199
 20
392.69118492971421
 30
0.0
 40
11.606365661046199
 50
180.0000000000002
 51
270.00000000000023
  0
POLYLINE
  5
14EB
  8
AM_VIS
 66
     1
 10
0.0
 20
0.0
 30
0.0
  0
VERTEX
  5
3A09
  8
AM_VIS
 10
-1457.925372390604
 20
386.15703190434078
 30
0.0
  0
VERTEX
  5
3A0A
  8
AM_VIS
 10
-1457.925372390604
 20
385.98194529504002
 30
0.0
  0
VERTEX
  5
3A0B
  8
AM_VIS
 10
-1457.925372390604
 20
385.87268893934561
 30
0.0
  0
SEQEND
  5
3A0C
  8
AM_VIS
  0
POLYLINE
  5
14EC
  8
AM_VIS
 66
     1
 10
0.0
 20
0.0
 30
0.0
  0
VERTEX
  5
3A0D
  8
AM_VIS
 10
-1457.4297356583529
 20
385.85789684267593
 30
0.0
  0
VERTEX
  5
3A0E
  8
AM_VIS
 10
-1457.7459936195719
 20
385.8561192060431
 30
0.0
  0
VERTEX
  5
3A0F
  8
AM_VIS
 10
-1457.916628583459
 20
385.85713085848442
 30
0.0
  0
SEQEND
  5
3A10
  8
AM_VIS
  0
POLYLINE
  5
14ED
  8
AM_VIS
 66
     1
 10
0.0
 20
0.0
 30
0.0
  0
VERTEX
  5
3A11
  8
AM_VIS
 10
-1457.916628583459
 20
385.85713085848442
 30
0.0
  0
VERTEX
  5
3A12
  8
AM_VIS
 10
-1457.925372390604
 20
385.87268893934561
 30
0.0
  0
SEQEND
  5
3A13
  8
AM_VIS
  0
ARC
  5
14EE
  8
AM_VIS
 10
-1459.6253723906041
 20
384.93857829316158
 30
0.0
 40
0.2999999999999999
 50
180.0
 51
269.49999999999108
  0
LINE
  5
14F0
  8
AM_VIS
 10
-1459.6279903512529
 20
384.63858971624222
 30
0.0
 11
-1457.925372390604
 21
384.62373119440139
 31
0.0
  0
POLYLINE
  5
14F1
  8
AM_VIS
 66
     1
 10
0.0
 20
0.0
 30
0.0
  0
VERTEX
  5
3A14
  8
AM_VIS
 10
-1457.925372390604
 20
399.85846797569138
 30
0.0
  0
VERTEX
  5
3A15
  8
AM_VIS
 10
-1457.925372390604
 20
399.71048973490218
 30
0.0
  0
VERTEX
  5
3A16
  8
AM_VIS
 10
-1457.925372390604
 20
399.65409692624343
 30
0.0
  0
SEQEND
  5
3A17
  8
AM_VIS
  0
POLYLINE
  5
14F2
  8
AM_VIS
 66
     1
 10
0.0
 20
0.0
 30
0.0
  0
VERTEX
  5
3A18
  8
AM_VIS
 10
-1457.9166285834351
 20
399.95156659547109
 30
0.0
  0
VERTEX
  5
3A19
  8
AM_VIS
 10
-1457.745993619523
 20
400.24213713990179
 30
0.0
  0
VERTEX
  5
3A1A
  8
AM_VIS
 10
-1457.4297356583529
 20
400.35844893722327
 30
0.0
  0
SEQEND
  5
3A1B
  8
AM_VIS
  0
POLYLINE
  5
14F3
  8
AM_VIS
 66
     1
 10
0.0
 20
0.0
 30
0.0
  0
VERTEX
  5
3A1C
  8
AM_VIS
 10
-1457.925372390604
 20
399.8584679756911
 30
0.0
  0
VERTEX
  5
3A1D
  8
AM_VIS
 10
-1457.9166285834351
 20
399.95156659547109
 30
0.0
  0
SEQEND
  5
3A1E
  8
AM_VIS
  0
ARC
  5
14F5
  8
AM_VIS
 10
-1459.6253723906041
 20
399.33924982748368
 30
0.0
 40
0.3
 50
90.499999999998025
 51
180.0
  0
LINE
  5
14F7
  8
AM_VIS
 10
-1517.5912649889201
 20
397.49125727589211
 30
0.0
 11
-1517.5912649889201
 21
387.35307349422692
 31
0.0
  0
CIRCLE
  5
14FA
  8
AM_VIS
 10
-1524.2912649889199
 20
392.69118492971398
 30
0.0
 40
3.0086887894050212
  0
CIRCLE
  5
14FC
  8
AM_VIS
 10
-1524.2912649889199
 20
392.69118492971421
 30
0.0
 40
2.2281828305231031
  0
LINE
  5
14FD
  8
AM_VIS
 10
-1521.3829389154489
 20
387.90998235976753
 30
0.0
 11
-1523.6697313375539
 21
387.62919955634328
 31
0.0
  0
LINE
  5
1506
  8
AM_VIS
 10
-1523.7912649889199
 20
383.50371199980441
 30
0.0
 11
-1522.21919096585
 21
383.50371199980441
 31
0.0
  0
LINE
  5
1507
  8
AM_VIS
 10
-1523.8052279773849
 20
383.48974901133909
 30
0.0
 11
-1523.7912649889199
 21
383.50371199980441
 31
0.0
  0
LINE
  5
1509
  8
AM_VIS
 10
-1522.205227977385
 20
383.48974901133909
 30
0.0
 11
-1520.99126498892
 21
383.48974901133909
 31
0.0
  0
LINE
  5
150B
  8
AM_VIS
 10
-1524.2912649889199
 20
383.89118492971409
 30
0.0
 11
-1520.99126498892
 21
383.89118492971409
 31
0.0
  0
LINE
  5
150C
  8
AM_VIS
 10
-1524.2912649889199
 20
383.48974901133909
 30
0.0
 11
-1523.8052279773849
 21
383.48974901133909
 31
0.0
  0
LINE
  5
1512
  8
AM_VIS
 10
-1520.7912649889199
 20
387.068495073458
 30
0.0
 11
-1524.2912649889199
 21
387.068495073458
 31
0.0
  0
LINE
  5
1513
  8
AM_VIS
 10
-1520.7912649889199
 20
384.49118492971411
 30
0.0
 11
-1524.2912649889199
 21
384.49118492971411
 31
0.0
  0
LINE
  5
1515
  8
AM_VIS
 10
-1522.21919096585
 20
381.30822708411142
 30
0.0
 11
-1523.7912649889199
 21
381.30822708411142
 31
0.0
  0
LINE
  5
1516
  8
AM_VIS
 10
-1523.8052279773849
 20
381.29426409564621
 30
0.0
 11
-1523.7912649889199
 21
381.30822708411142
 31
0.0
  0
LINE
  5
1518
  8
AM_VIS
 10
-1523.8052279773849
 20
381.29426409564587
 30
0.0
 11
-1524.2912649889199
 21
381.29426409564587
 31
0.0
  0
LINE
  5
1519
  8
AM_VIS
 10
-1522.205227977385
 20
381.08481926866779
 30
0.0
 11
-1524.2912649889199
 21
381.08481926866779
 31
0.0
  0
LINE
  5
151B
  8
AM_VIS
 10
-1520.816108722739
 20
381.07085628020258
 30
0.0
 11
-1522.19126498892
 21
381.07085628020258
 31
0.0
  0
LINE
  5
151D
  8
AM_VIS
 10
-1523.7912649889199
 20
381.30822708411142
 30
0.0
 11
-1523.7912649889199
 21
383.50371199980441
 31
0.0
  0
LINE
  5
151F
  8
AM_VIS
 10
-1523.8052279773849
 20
381.29426409564621
 30
0.0
 11
-1523.8052279773849
 21
383.48974901133909
 31
0.0
  0
LINE
  5
1523
  8
AM_VIS
 10
-1520.592700907295
 20
383.09118492971402
 30
0.0
 11
-1520.592700907295
 21
381.29426409564587
 31
0.0
  0
LINE
  5
1528
  8
AM_VIS
 10
-1520.592700907295
 20
381.29426409564587
 30
0.0
 11
-1522.205227977385
 21
381.29426409564587
 31
0.0
  0
ARC
  5
1529
  8
AM_VIS
 10
-1520.99126498892
 20
383.09118492971407
 30
0.0
 40
0.398564081625092
 50
0.0
 51
90.0
  0
LINE
  5
152A
  8
AM_VIS
 10
-1520.592700907295
 20
381.29426409564587
 30
0.0
 11
-1520.816108722739
 21
381.07085628020258
 31
0.0
  0
ARC
  5
152B
  8
AM_VIS
 10
-1520.99126498892
 20
383.09118492971407
 30
0.0
 40
0.7999999999999972
 50
0.0
 51
90.0
  0
ARC
  5
152C
  8
AM_VIS
 10
-1520.7912649889199
 20
383.09118492971407
 30
0.0
 40
1.399999999999916
 50
0.0
 51
90.0
  0
ARC
  5
152F
  8
AM_VIS
 10
-1520.7912649889199
 20
383.09118492971407
 30
0.0
 40
3.9773101437439768
 50
0.0
 51
90.0
  0
ARC
  5
1530
  8
AM_VIS
 10
-1520.7912649889199
 20
383.09118492971407
 30
0.0
 40
4.8549857576746689
 50
55.766584968323237
 51
96.999999999999943
  0
POLYLINE
  5
1531
  8
AM_VIS
 66
     1
 10
0.0
 20
0.0
 30
0.0
  0
VERTEX
  5
3A1F
  8
AM_VIS
 10
-1518.0600168308711
 20
387.10505715069689
 30
0.0
  0
VERTEX
  5
3A20
  8
AM_VIS
 10
-1517.953195575368
 20
387.05954467976261
 30
0.0
  0
VERTEX
  5
3A21
  8
AM_VIS
 10
-1517.8371155901521
 20
387.05799786063187
 30
0.0
  0
VERTEX
  5
3A22
  8
AM_VIS
 10
-1517.7291563153719
 20
387.10063263292608
 30
0.0
  0
VERTEX
  5
3A23
  8
AM_VIS
 10
-1517.645468286433
 20
387.1810609078222
 30
0.0
  0
VERTEX
  5
3A24
  8
AM_VIS
 10
-1517.6051364452171
 20
387.26289585976758
 30
0.0
  0
VERTEX
  5
3A25
  8
AM_VIS
 10
-1517.5912649889201
 20
387.35307349422692
 30
0.0
  0
SEQEND
  5
3A26
  8
AM_VIS
  0
POLYLINE
  5
153E
  8
AM_VIS
 66
     1
 10
0.0
 20
0.0
 30
0.0
  0
VERTEX
  5
3A27
  8
AM_VIS
 10
-1517.5912649889201
 20
397.49125727589211
 30
0.0
  0
VERTEX
  5
3A28
  8
AM_VIS
 10
-1518.147732138704
 20
398.8347177799298
 30
0.0
  0
VERTEX
  5
3A29
  8
AM_VIS
 10
-1519.4911926427419
 20
399.3911849297142
 30
0.0
  0
SEQEND
  5
3A2A
  8
AM_VIS
  0
CIRCLE
  5
1555
  8
AM_VIS
 10
-1536.5412649889199
 20
374.24118492971422
 30
0.0
 40
4.5999999999999988
  0
ARC
  5
155E
  8
AM_VIS
 10
-1536.5412649889199
 20
374.24118492971422
 30
0.0
 40
2.0
 50
270.0
 51
90.0
  0
CIRCLE
  5
1561
  8
AM_VIS
 10
-1536.5412649889199
 20
374.24118492971422
 30
0.0
 40
3.5948548703877909
  0
CIRCLE
  5
1566
  8
AM_VIS
 10
-1536.5412649889199
 20
374.24118492971422
 30
0.0
 40
1.6000000000000001
  0
ARC
  5
1567
  8
AM_VIS
 10
-1536.5412649889199
 20
374.24118492971422
 30
0.0
 40
2.0
 50
90.0
 51
270.0
  0
ARC
  5
156C
  8
AM_VIS
 10
-1524.2912649889199
 20
392.69118492971421
 30
0.0
 40
9.201435918374905
 50
180.00000000000031
 51
214.86281945113129
  0
POLYLINE
  5
156E
  8
AM_VIS
 66
     1
 10
0.0
 20
0.0
 30
0.0
  0
VERTEX
  5
3A2B
  8
AM_VIS
 10
-1532.417445622094
 20
385.3711874721543
 30
0.0
  0
VERTEX
  5
3A2C
  8
AM_VIS
 10
-1532.5050261683321
 20
385.57022604796629
 30
0.0
  0
VERTEX
  5
3A2D
  8
AM_VIS
 10
-1532.4351262474249
 20
385.77614036946352
 30
0.0
  0
SEQEND
  5
3A2E
  8
AM_VIS
  0
POLYLINE
  5
1570
  8
AM_VIS
 66
     1
 10
0.0
 20
0.0
 30
0.0
  0
VERTEX
  5
3A2F
  8
AM_VIS
 10
-1532.9424911134049
 20
385.34826349093368
 30
0.0
  0
VERTEX
  5
3A30
  8
AM_VIS
 10
-1533.0300716596421
 20
385.54730206674571
 30
0.0
  0
VERTEX
  5
3A31
  8
AM_VIS
 10
-1532.960171738735
 20
385.75321638824278
 30
0.0
  0
SEQEND
  5
3A32
  8
AM_VIS
  0
POLYLINE
  5
1572
  8
AM_VIS
 66
     1
 10
0.0
 20
0.0
 30
0.0
  0
VERTEX
  5
3A33
  8
AM_VIS
 10
-1531.206309549171
 20
384.54732367120948
 30
0.0
  0
VERTEX
  5
3A34
  8
AM_VIS
 10
-1531.412223870668
 20
384.47742375030151
 30
0.0
  0
VERTEX
  5
3A35
  8
AM_VIS
 10
-1531.6112624464799
 20
384.56500429653943
 30
0.0
  0
SEQEND
  5
3A36
  8
AM_VIS
  0
POLYLINE
  5
1574
  8
AM_VIS
 66
     1
 10
0.0
 20
0.0
 30
0.0
  0
VERTEX
  5
3A37
  8
AM_VIS
 10
-1531.229233530391
 20
384.0222781798991
 30
0.0
  0
VERTEX
  5
3A38
  8
AM_VIS
 10
-1531.4351478518879
 20
383.9523782589913
 30
0.0
  0
VERTEX
  5
3A39
  8
AM_VIS
 10
-1531.6341864276999
 20
384.03995880522911
 30
0.0
  0
SEQEND
  5
3A3A
  8
AM_VIS
  0
LINE
  5
1576
  8
AM_VIS
 10
-1529.9152367972549
 20
385.12485235404159
 30
0.0
 11
-1531.229233530391
 21
384.0222781798991
 31
0.0
  0
LINE
  5
1578
  8
AM_VIS
 10
-1529.933307336154
 20
385.61549935863923
 30
0.0
 11
-1531.206309549171
 21
384.54732367120948
 31
0.0
  0
POLYLINE
  5
1579
  8
AM_VIS
 66
     1
 10
0.0
 20
0.0
 30
0.0
  0
VERTEX
  5
3A3B
  8
AM_VIS
 10
-1529.55093032527
 20
385.14119529332669
 30
0.0
  0
VERTEX
  5
3A3C
  8
AM_VIS
 10
-1529.657222665883
 20
385.18786914399942
 30
0.0
  0
VERTEX
  5
3A3D
  8
AM_VIS
 10
-1529.773271118672
 20
385.19069367674177
 30
0.0
  0
VERTEX
  5
3A3E
  8
AM_VIS
 10
-1529.848622468171
 20
385.16719332988168
 30
0.0
  0
VERTEX
  5
3A3F
  8
AM_VIS
 10
-1529.9152367972549
 20
385.12485235404159
 30
0.0
  0
SEQEND
  5
3A40
  8
AM_VIS
  0
POLYLINE
  5
157B
  8
AM_VIS
 66
     1
 10
0.0
 20
0.0
 30
0.0
  0
VERTEX
  5
3A41
  8
AM_VIS
 10
-1529.561115825901
 20
385.6261572781047
 30
0.0
  0
VERTEX
  5
3A42
  8
AM_VIS
 10
-1529.665840438543
 20
385.67625057200303
 30
0.0
  0
VERTEX
  5
3A43
  8
AM_VIS
 10
-1529.7817364455291
 20
385.68283348240578
 30
0.0
  0
VERTEX
  5
3A44
  8
AM_VIS
 10
-1529.862267242783
 20
385.65984955854401
 30
0.0
  0
VERTEX
  5
3A45
  8
AM_VIS
 10
-1529.933307336154
 20
385.615499358639
 30
0.0
  0
SEQEND
  5
3A46
  8
AM_VIS
  0
LINE
  5
157D
  8
AM_VIS
 10
-1531.6112624464799
 20
384.56500429653943
 30
0.0
 11
-1532.417445622094
 21
385.3711874721543
 31
0.0
  0
LINE
  5
157F
  8
AM_VIS
 10
-1532.435126247424
 20
385.77614036946352
 30
0.0
 11
-1531.3669505599951
 21
387.04914258247931
 31
0.0
  0
LINE
  5
1580
  8
AM_VIS
 10
-1532.960171738735
 20
385.75321638824278
 30
0.0
 11
-1531.857597564592
 21
387.0672131213787
 31
0.0
  0
POLYLINE
  5
1582
  8
AM_VIS
 66
     1
 10
0.0
 20
0.0
 30
0.0
  0
VERTEX
  5
3A47
  8
AM_VIS
 10
-1531.857597564592
 20
387.0672131213787
 30
0.0
  0
VERTEX
  5
3A48
  8
AM_VIS
 10
-1531.8015937252901
 20
387.16889925433452
 30
0.0
  0
VERTEX
  5
3A49
  8
AM_VIS
 10
-1531.788389464728
 20
387.28422859593837
 30
0.0
  0
VERTEX
  5
3A4A
  8
AM_VIS
 10
-1531.8050484061471
 20
387.3613815800436
 30
0.0
  0
VERTEX
  5
3A4B
  8
AM_VIS
 10
-1531.8412546253071
 20
387.43151959336382
 30
0.0
  0
SEQEND
  5
3A4C
  8
AM_VIS
  0
POLYLINE
  5
1583
  8
AM_VIS
 66
     1
 10
0.0
 20
0.0
 30
0.0
  0
VERTEX
  5
3A4D
  8
AM_VIS
 10
-1531.3669505599951
 20
387.04914258247948
 30
0.0
  0
VERTEX
  5
3A4E
  8
AM_VIS
 10
-1531.3109465805519
 20
387.15082899097911
 30
0.0
  0
VERTEX
  5
3A4F
  8
AM_VIS
 10
-1531.297742373453
 20
387.26615832443781
 30
0.0
  0
VERTEX
  5
3A50
  8
AM_VIS
 10
-1531.3160803209969
 20
387.34787247899379
 30
0.0
  0
VERTEX
  5
3A51
  8
AM_VIS
 10
-1531.3562926405291
 20
387.42133409273282
 30
0.0
  0
SEQEND
  5
3A52
  8
AM_VIS
  0
ARC
  5
1586
  8
AM_VIS
 10
-1533.8912649889201
 20
395.99118492971422
 30
0.0
 40
0.398564081625092
 50
0.0
 51
90.0
  0
LINE
  5
1587
  8
AM_VIS
 10
-1535.6881858229881
 20
396.38974901133929
 30
0.0
 11
-1533.8912649889201
 21
396.38974901133929
 31
0.0
  0
LINE
  5
1588
  8
AM_VIS
 10
-1535.911593638431
 20
396.16634119589571
 30
0.0
 11
-1535.6881858229881
 21
396.38974901133929
 31
0.0
  0
ARC
  5
158B
  8
AM_VIS
 10
-1533.8912649889201
 20
395.99118492971422
 30
0.0
 40
0.7999999999999972
 50
0.0
 51
90.0
  0
ARC
  5
1596
  8
AM_VIS
 10
-1533.8912649889201
 20
396.19118492971421
 30
0.0
 40
4.8549857576746689
 50
353.0
 51
34.233415031679151
  0
POLYLINE
  5
1597
  8
AM_VIS
 66
     1
 10
0.0
 20
0.0
 30
0.0
  0
VERTEX
  5
3A53
  8
AM_VIS
 10
-1529.6293764244069
 20
399.3911849297142
 30
0.0
  0
VERTEX
  5
3A54
  8
AM_VIS
 10
-1529.743294712649
 20
399.36871860600598
 30
0.0
  0
VERTEX
  5
3A55
  8
AM_VIS
 10
-1529.840134138941
 20
399.3046951482483
 30
0.0
  0
VERTEX
  5
3A56
  8
AM_VIS
 10
-1529.9054049234701
 20
399.20871305284521
 30
0.0
  0
VERTEX
  5
3A57
  8
AM_VIS
 10
-1529.929348401884
 20
399.09513923041521
 30
0.0
  0
VERTEX
  5
3A58
  8
AM_VIS
 10
-1529.9166554903061
 20
399.0047917764827
 30
0.0
  0
VERTEX
  5
3A59
  8
AM_VIS
 10
-1529.877392767937
 20
398.92243308776318
 30
0.0
  0
SEQEND
  5
3A5A
  8
AM_VIS
  0
ARC
  5
159D
  8
AM_VIS
 10
-1533.8912649889201
 20
396.19118492971421
 30
0.0
 40
3.9773101437439768
 50
0.0
 51
90.0
  0
ARC
  5
159F
  8
AM_VIS
 10
-1533.8912649889201
 20
396.19118492971421
 30
0.0
 40
1.399999999999916
 50
0.0
 51
90.0
  0
LINE
  5
15A8
  8
AM_VIS
 10
-1533.478737918829
 20
393.1911849297141
 30
0.0
 11
-1535.6742228345231
 21
393.1911849297141
 31
0.0
  0
LINE
  5
15A9
  8
AM_VIS
 10
-1535.6881858229881
 20
393.17722194124889
 30
0.0
 11
-1535.6742228345231
 21
393.1911849297141
 31
0.0
  0
LINE
  5
15AA
  8
AM_VIS
 10
-1533.4927009072951
 20
393.17722194124889
 30
0.0
 11
-1535.6881858229881
 21
393.17722194124889
 31
0.0
  0
LINE
  5
15AB
  8
AM_VIS
 10
-1533.4787379188299
 20
393.1911849297141
 30
0.0
 11
-1533.4927009072951
 21
393.17722194124889
 31
0.0
  0
LINE
  5
15AC
  8
AM_VIS
 10
-1533.478737918829
 20
394.76325895278359
 30
0.0
 11
-1533.478737918829
 21
393.1911849297141
 31
0.0
  0
LINE
  5
15AD
  8
AM_VIS
 10
-1535.6742228345231
 20
393.1911849297141
 30
0.0
 11
-1535.6742228345231
 21
394.76325895278359
 31
0.0
  0
LINE
  5
15AE
  8
AM_VIS
 10
-1533.4927009072951
 20
393.17722194124889
 30
0.0
 11
-1533.4927009072951
 21
392.6911849297141
 31
0.0
  0
LINE
  5
15AF
  8
AM_VIS
 10
-1535.6881858229881
 20
392.6911849297141
 30
0.0
 11
-1535.6881858229881
 21
393.17722194124889
 31
0.0
  0
LINE
  5
15B1
  8
AM_VIS
 10
-1535.897630649966
 20
392.6911849297141
 30
0.0
 11
-1535.897630649966
 21
394.7772219412488
 31
0.0
  0
LINE
  5
15B7
  8
AM_VIS
 10
-1529.353250362291
 20
393.31271858108028
 30
0.0
 11
-1529.072467558866
 21
395.59951100318489
 31
0.0
  0
LINE
  5
15BA
  8
AM_VIS
 10
-1533.4927009072951
 20
395.99118492971411
 30
0.0
 11
-1533.4927009072951
 21
394.7772219412488
 31
0.0
  0
LINE
  5
15BB
  8
AM_VIS
 10
-1535.6881858229881
 20
394.7772219412488
 30
0.0
 11
-1535.6881858229881
 21
396.38974901133929
 31
0.0
  0
LINE
  5
15BC
  8
AM_VIS
 10
-1535.911593638431
 20
394.79118492971401
 30
0.0
 11
-1535.911593638431
 21
396.16634119589571
 31
0.0
  0
LINE
  5
15BD
  8
AM_VIS
 10
-1533.0912649889201
 20
395.99118492971411
 30
0.0
 11
-1533.0912649889201
 21
392.6911849297141
 31
0.0
  0
LINE
  5
15BE
  8
AM_VIS
 10
-1532.49126498892
 20
392.6911849297141
 30
0.0
 11
-1532.49126498892
 21
396.1911849297141
 31
0.0
  0
LINE
  5
15C0
  8
AM_VIS
 10
-1529.913954845176
 20
392.6911849297141
 30
0.0
 11
-1529.913954845176
 21
396.1911849297141
 31
0.0
  0
ARC
  5
15FC
  8
AM_VIS
 10
-1687.7912649889199
 20
392.69118492971421
 30
0.0
 40
8.8000000000000007
 50
269.9999999999996
 51
359.9999999999996
  0
ARC
  5
1607
  8
AM_VIS
 10
-1675.5412649889199
 20
374.24118492971422
 30
0.0
 40
2.0
 50
90.0
 51
270.0
  0
ARC
  5
1609
  8
AM_VIS
 10
-1687.7912649889199
 20
392.69118492971421
 30
0.0
 40
11.606365661046199
 50
269.99999999999972
 51
359.99999999999972
  0
CIRCLE
  5
161C
  8
AM_VIS
 10
-1675.5412649889199
 20
374.24118492971422
 30
0.0
 40
1.6000000000000001
  0
ARC
  5
161D
  8
AM_VIS
 10
-1675.5412649889199
 20
374.24118492971422
 30
0.0
 40
2.0
 50
270.0
 51
90.0
  0
LINE
  5
163B
  8
AM_VIS
 10
-1676.1848993278741
 20
394.7772219412488
 30
0.0
 11
-1676.1848993278741
 21
392.6911849297141
 31
0.0
  0
LINE
  5
1640
  8
AM_VIS
 10
-1676.1709363394091
 20
396.16634119589571
 30
0.0
 11
-1676.1709363394091
 21
394.79118492971401
 31
0.0
  0
ARC
  5
164D
  8
AM_VIS
 10
-1691.2912649889199
 20
383.09118492971407
 30
0.0
 40
1.3999999999998589
 50
90.0
 51
180.0
  0
ARC
  5
164F
  8
AM_VIS
 10
-1691.2912649889199
 20
383.09118492971407
 30
0.0
 40
4.854985757674684
 50
83.000000000000014
 51
124.2334150316797
  0
ARC
  5
1651
  8
AM_VIS
 10
-1691.2912649889199
 20
383.09118492971407
 30
0.0
 40
3.97731014374392
 50
90.0
 51
180.0
  0
LINE
  5
1654
  8
AM_VIS
 10
-1692.5913373350979
 20
399.3911849297142
 30
0.0
 11
-1682.4531535534329
 21
399.3911849297142
 31
0.0
  0
CIRCLE
  5
165A
  8
AM_VIS
 10
-1687.7912649889199
 20
392.69118492971421
 30
0.0
 40
4.8254626441848227
  0
ARC
  5
165C
  8
AM_VIS
 10
-1687.7912649889199
 20
392.69118492971421
 30
0.0
 40
5.0999999999999988
 50
262.99999999999949
 51
6.9999999999997353
  0
ARC
  5
165F
  8
AM_VIS
 10
-1687.7912649889199
 20
392.69118492971421
 30
0.0
 40
8.2000000000001059
 50
269.9999999999996
 51
359.9999999999996
  0
ARC
  5
1661
  8
AM_VIS
 10
-1687.7912649889199
 20
392.69118492971421
 30
0.0
 40
5.622689856256045
 50
269.99999999999932
 51
0.0
  0
CIRCLE
  5
1663
  8
AM_VIS
 10
-1687.7912649889199
 20
392.69118492971398
 30
0.0
 40
3.0086887894050212
  0
CIRCLE
  5
1665
  8
AM_VIS
 10
-1687.7912649889199
 20
392.69118492971421
 30
0.0
 40
2.2281828305231031
  0
LINE
  5
1670
  8
AM_VIS
 10
-1689.8912649889201
 20
381.07085628020258
 30
0.0
 11
-1691.2664212551019
 21
381.07085628020258
 31
0.0
  0
ARC
  5
1677
  8
AM_VIS
 10
-1691.0912649889201
 20
383.09118492971407
 30
0.0
 40
0.7999999999999972
 50
90.0
 51
180.0
  0
POLYLINE
  5
1685
  8
AM_VIS
 66
     1
 10
0.0
 20
0.0
 30
0.0
  0
VERTEX
  5
3A5B
  8
AM_VIS
 10
-1680.4712675313599
 20
384.56500429653943
 30
0.0
  0
VERTEX
  5
3A5C
  8
AM_VIS
 10
-1680.6703061071721
 20
384.47742375030151
 30
0.0
  0
VERTEX
  5
3A5D
  8
AM_VIS
 10
-1680.87622042867
 20
384.54732367120931
 30
0.0
  0
SEQEND
  5
3A5E
  8
AM_VIS
  0
POLYLINE
  5
1687
  8
AM_VIS
 66
     1
 10
0.0
 20
0.0
 30
0.0
  0
VERTEX
  5
3A5F
  8
AM_VIS
 10
-1680.44834355014
 20
384.03995880522911
 30
0.0
  0
VERTEX
  5
3A60
  8
AM_VIS
 10
-1680.6473821259519
 20
383.9523782589913
 30
0.0
  0
VERTEX
  5
3A61
  8
AM_VIS
 10
-1680.8532964474491
 20
384.0222781798991
 30
0.0
  0
SEQEND
  5
3A62
  8
AM_VIS
  0
LINE
  5
1689
  8
AM_VIS
 10
-1680.87622042867
 20
384.54732367120931
 30
0.0
 11
-1682.1492226416849
 21
385.615499358639
 31
0.0
  0
LINE
  5
168B
  8
AM_VIS
 10
-1680.8532964474491
 20
384.0222781798991
 30
0.0
 11
-1682.1672931805849
 21
385.12485235404159
 31
0.0
  0
LINE
  5
168C
  8
AM_VIS
 10
-1679.665084355745
 20
385.37118747215408
 30
0.0
 11
-1680.4712675313599
 21
384.56500429653943
 31
0.0
  0
POLYLINE
  5
168D
  8
AM_VIS
 66
     1
 10
0.0
 20
0.0
 30
0.0
  0
VERTEX
  5
3A63
  8
AM_VIS
 10
-1679.6474037304149
 20
385.77614036946352
 30
0.0
  0
VERTEX
  5
3A64
  8
AM_VIS
 10
-1679.5775038095071
 20
385.57022604796612
 30
0.0
  0
VERTEX
  5
3A65
  8
AM_VIS
 10
-1679.665084355745
 20
385.37118747215408
 30
0.0
  0
SEQEND
  5
3A66
  8
AM_VIS
  0
LINE
  5
168E
  8
AM_VIS
 10
-1680.715579417845
 20
387.04914258247931
 30
0.0
 11
-1679.6474037304149
 21
385.77614036946352
 31
0.0
  0
POLYLINE
  5
168F
  8
AM_VIS
 66
     1
 10
0.0
 20
0.0
 30
0.0
  0
VERTEX
  5
3A67
  8
AM_VIS
 10
-1682.1492226416849
 20
385.615499358639
 30
0.0
  0
VERTEX
  5
3A68
  8
AM_VIS
 10
-1682.2509090501851
 20
385.67150333808189
 30
0.0
  0
VERTEX
  5
3A69
  8
AM_VIS
 10
-1682.366238383644
 20
385.68470754518103
 30
0.0
  0
VERTEX
  5
3A6A
  8
AM_VIS
 10
-1682.4479525382001
 20
385.66636959763707
 30
0.0
  0
VERTEX
  5
3A6B
  8
AM_VIS
 10
-1682.5214141519391
 20
385.6261572781047
 30
0.0
  0
SEQEND
  5
3A6C
  8
AM_VIS
  0
POLYLINE
  5
1691
  8
AM_VIS
 66
     1
 10
0.0
 20
0.0
 30
0.0
  0
VERTEX
  5
3A6D
  8
AM_VIS
 10
-1679.1223582391051
 20
385.75321638824278
 30
0.0
  0
VERTEX
  5
3A6E
  8
AM_VIS
 10
-1679.0524583181971
 20
385.54730206674571
 30
0.0
  0
VERTEX
  5
3A6F
  8
AM_VIS
 10
-1679.1400388644349
 20
385.34826349093368
 30
0.0
  0
SEQEND
  5
3A70
  8
AM_VIS
  0
LINE
  5
1693
  8
AM_VIS
 10
-1680.2249324132481
 20
387.0672131213787
 30
0.0
 11
-1679.1223582391051
 21
385.75321638824278
 31
0.0
  0
POLYLINE
  5
1695
  8
AM_VIS
 66
     1
 10
0.0
 20
0.0
 30
0.0
  0
VERTEX
  5
3A71
  8
AM_VIS
 10
-1682.1672931805849
 20
385.12485235404159
 30
0.0
  0
VERTEX
  5
3A72
  8
AM_VIS
 10
-1682.268979313541
 20
385.18085619334352
 30
0.0
  0
VERTEX
  5
3A73
  8
AM_VIS
 10
-1682.384308655144
 20
385.19406045390582
 30
0.0
  0
VERTEX
  5
3A74
  8
AM_VIS
 10
-1682.46146163925
 20
385.17740151248648
 30
0.0
  0
VERTEX
  5
3A75
  8
AM_VIS
 10
-1682.5315996525701
 20
385.14119529332669
 30
0.0
  0
SEQEND
  5
3A76
  8
AM_VIS
  0
POLYLINE
  5
1699
  8
AM_VIS
 66
     1
 10
0.0
 20
0.0
 30
0.0
  0
VERTEX
  5
3A77
  8
AM_VIS
 10
-1680.726237337311
 20
387.42133409273282
 30
0.0
  0
VERTEX
  5
3A78
  8
AM_VIS
 10
-1680.776330631209
 20
387.31660948009079
 30
0.0
  0
VERTEX
  5
3A79
  8
AM_VIS
 10
-1680.7829135416121
 20
387.20071347310449
 30
0.0
  0
VERTEX
  5
3A7A
  8
AM_VIS
 10
-1680.75992961775
 20
387.12018267585057
 30
0.0
  0
VERTEX
  5
3A7B
  8
AM_VIS
 10
-1680.715579417845
 20
387.04914258247931
 30
0.0
  0
SEQEND
  5
3A7C
  8
AM_VIS
  0
POLYLINE
  5
169B
  8
AM_VIS
 66
     1
 10
0.0
 20
0.0
 30
0.0
  0
VERTEX
  5
3A7D
  8
AM_VIS
 10
-1680.241275352533
 20
387.43151959336382
 30
0.0
  0
VERTEX
  5
3A7E
  8
AM_VIS
 10
-1680.287949203205
 20
387.32522725275112
 30
0.0
  0
VERTEX
  5
3A7F
  8
AM_VIS
 10
-1680.2907737359481
 20
387.2091787999625
 30
0.0
  0
VERTEX
  5
3A80
  8
AM_VIS
 10
-1680.267273389087
 20
387.133827450463
 30
0.0
  0
VERTEX
  5
3A81
  8
AM_VIS
 10
-1680.224932413247
 20
387.0672131213787
 30
0.0
  0
SEQEND
  5
3A82
  8
AM_VIS
  0
LINE
  5
169C
  8
AM_VIS
 10
-1688.4127986402859
 20
387.62919955634328
 30
0.0
 11
-1690.6995910623909
 21
387.90998235976753
 31
0.0
  0
LINE
  5
16A1
  8
AM_VIS
 10
-1687.7912649889199
 20
381.08481926866779
 30
0.0
 11
-1689.8773020004551
 21
381.08481926866779
 31
0.0
  0
LINE
  5
16A2
  8
AM_VIS
 10
-1691.0912649889201
 20
383.89118492971409
 30
0.0
 11
-1687.7912649889199
 21
383.89118492971409
 31
0.0
  0
LINE
  5
16A4
  8
AM_VIS
 10
-1687.7912649889199
 20
387.068495073458
 30
0.0
 11
-1691.2912649889199
 21
387.068495073458
 31
0.0
  0
LINE
  5
16A5
  8
AM_VIS
 10
-1687.7912649889199
 20
384.49118492971411
 30
0.0
 11
-1691.2912649889199
 21
384.49118492971411
 31
0.0
  0
POLYLINE
  5
16B2
  8
AM_VIS
 66
     1
 10
0.0
 20
0.0
 30
0.0
  0
VERTEX
  5
3A83
  8
AM_VIS
 10
-1682.2051372099029
 20
398.92243308776318
 30
0.0
  0
VERTEX
  5
3A84
  8
AM_VIS
 10
-1682.159624738968
 20
399.02925434326579
 30
0.0
  0
VERTEX
  5
3A85
  8
AM_VIS
 10
-1682.158077919838
 20
399.14533432848242
 30
0.0
  0
VERTEX
  5
3A86
  8
AM_VIS
 10
-1682.2007126921319
 20
399.25329360326208
 30
0.0
  0
VERTEX
  5
3A87
  8
AM_VIS
 10
-1682.281140967028
 20
399.336981632201
 30
0.0
  0
VERTEX
  5
3A88
  8
AM_VIS
 10
-1682.362975918973
 20
399.37731347341708
 30
0.0
  0
VERTEX
  5
3A89
  8
AM_VIS
 10
-1682.4531535534329
 20
399.3911849297142
 30
0.0
  0
SEQEND
  5
3A8A
  8
AM_VIS
  0
ARC
  5
16B9
  8
AM_VIS
 10
-1678.19126498892
 20
395.99118492971422
 30
0.0
 40
0.7999999999999972
 50
90.0
 51
180.0
  0
ARC
  5
16BC
  8
AM_VIS
 10
-1678.19126498892
 20
396.19118492971421
 30
0.0
 40
1.399999999999916
 50
90.0
 51
180.0
  0
ARC
  5
16C0
  8
AM_VIS
 10
-1678.19126498892
 20
396.19118492971421
 30
0.0
 40
3.9773101437439768
 50
90.0
 51
180.0
  0
ARC
  5
16C2
  8
AM_VIS
 10
-1678.19126498892
 20
396.19118492971421
 30
0.0
 40
4.8549857576747391
 50
145.7665849683215
 51
186.9999999999998
  0
LINE
  5
16D2
  8
AM_VIS
 10
-1683.010062418974
 20
395.59951100318489
 30
0.0
 11
-1682.7292796155491
 21
393.31271858108028
 31
0.0
  0
LINE
  5
16D5
  8
AM_VIS
 10
-1678.99126498892
 20
392.6911849297141
 30
0.0
 11
-1678.99126498892
 21
395.99118492971411
 31
0.0
  0
LINE
  5
16D7
  8
AM_VIS
 10
-1679.5912649889201
 20
396.1911849297141
 30
0.0
 11
-1679.5912649889201
 21
392.6911849297141
 31
0.0
  0
LINE
  5
16D9
  8
AM_VIS
 10
-1682.168575132664
 20
396.1911849297141
 30
0.0
 11
-1682.168575132664
 21
392.6911849297141
 31
0.0
  0
POLYLINE
  5
16DA
  8
AM_VIS
 66
     1
 10
0.0
 20
0.0
 30
0.0
  0
VERTEX
  5
3A8B
  8
AM_VIS
 10
-1695.284253031979
 20
383.32792632446962
 30
0.0
  0
VERTEX
  5
3A8C
  8
AM_VIS
 10
-1695.284253031979
 20
385.24092081249358
 30
0.0
  0
VERTEX
  5
3A8D
  8
AM_VIS
 10
-1695.284253031979
 20
392.92728011181953
 30
0.0
  0
VERTEX
  5
3A8E
  8
AM_VIS
 10
-1695.284253031979
 20
396.79207352110592
 30
0.0
  0
VERTEX
  5
3A8F
  8
AM_VIS
 10
-1695.284253031979
 20
397.27677379662032
 30
0.0
  0
VERTEX
  5
3A90
  8
AM_VIS
 10
-1695.284253031979
 20
397.48427578030299
 30
0.0
  0
SEQEND
  5
3A91
  8
AM_VIS
  0
LINE
  5
16DB
  8
AM_VIS
 10
-1694.49126498892
 20
387.35307349422669
 30
0.0
 11
-1694.49126498892
 21
397.49125727589211
 31
0.0
  0
LINE
  5
16DE
  8
AM_VIS
 10
-1695.268575132664
 20
383.09118492971419
 30
0.0
 11
-1695.291203798829
 21
383.09118492971419
 31
0.0
  0
POLYLINE
  5
16DF
  8
AM_VIS
 66
     1
 10
0.0
 20
0.0
 30
0.0
  0
VERTEX
  5
3A92
  8
AM_VIS
 10
-1695.291203798829
 20
383.09118492971419
 30
0.0
  0
VERTEX
  5
3A93
  8
AM_VIS
 10
-1695.291203790433
 20
383.09144523688832
 30
0.0
  0
VERTEX
  5
3A94
  8
AM_VIS
 10
-1695.2911997755559
 20
383.09688308899172
 30
0.0
  0
VERTEX
  5
3A95
  8
AM_VIS
 10
-1695.291180640857
 20
383.10485574961871
 30
0.0
  0
VERTEX
  5
3A96
  8
AM_VIS
 10
-1695.2911400333039
 20
383.11386979397309
 30
0.0
  0
VERTEX
  5
3A97
  8
AM_VIS
 10
-1695.291016654033
 20
383.13004725414589
 30
0.0
  0
VERTEX
  5
3A98
  8
AM_VIS
 10
-1695.284253031979
 20
383.32792632446899
 30
0.0
  0
SEQEND
  5
3A99
  8
AM_VIS
  0
POLYLINE
  5
16E3
  8
AM_VIS
 66
     1
 10
0.0
 20
0.0
 30
0.0
  0
VERTEX
  5
3A9A
  8
AM_VIS
 10
-1694.49126498892
 20
387.35307349422669
 30
0.0
  0
VERTEX
  5
3A9B
  8
AM_VIS
 10
-1694.468798665212
 20
387.23915520598479
 30
0.0
  0
VERTEX
  5
3A9C
  8
AM_VIS
 10
-1694.4047752074539
 20
387.14231577969298
 30
0.0
  0
VERTEX
  5
3A9D
  8
AM_VIS
 10
-1694.308793112051
 20
387.0770449951637
 30
0.0
  0
VERTEX
  5
3A9E
  8
AM_VIS
 10
-1694.195219289621
 20
387.05310151675002
 30
0.0
  0
VERTEX
  5
3A9F
  8
AM_VIS
 10
-1694.104871835689
 20
387.06579442832748
 30
0.0
  0
VERTEX
  5
3AA0
  8
AM_VIS
 10
-1694.022513146969
 20
387.10505715069689
 30
0.0
  0
SEQEND
  5
3AA1
  8
AM_VIS
  0
POLYLINE
  5
16ED
  8
AM_VIS
 66
     1
 10
0.0
 20
0.0
 30
0.0
  0
VERTEX
  5
3AA2
  8
AM_VIS
 10
-1692.5913373350979
 20
399.3911849297142
 30
0.0
  0
VERTEX
  5
3AA3
  8
AM_VIS
 10
-1693.9347978391361
 20
398.83471777993009
 30
0.0
  0
VERTEX
  5
3AA4
  8
AM_VIS
 10
-1694.49126498892
 20
397.49125727589211
 30
0.0
  0
SEQEND
  5
3AA5
  8
AM_VIS
  0
CIRCLE
  5
190B
  8
AM_VIS
 10
-1536.0412649889199
 20
335.94118492971421
 30
0.0
 40
4.5999999999999988
  0
CIRCLE
  5
190D
  8
AM_VIS
 10
-1536.0412649889199
 20
335.94118492971421
 30
0.0
 40
3.5948548703877909
  0
CIRCLE
  5
190E
  8
AM_VIS
 10
-1536.0412649889199
 20
273.44118492971421
 30
0.0
 40
4.5999999999999988
  0
CIRCLE
  5
1910
  8
AM_VIS
 10
-1536.0412649889199
 20
273.44118492971421
 30
0.0
 40
3.5948548703877909
  0
CIRCLE
  5
1911
  8
AM_VIS
 10
-1536.0412649889199
 20
210.94118492971421
 30
0.0
 40
4.5999999999999988
  0
CIRCLE
  5
1913
  8
AM_VIS
 10
-1536.0412649889199
 20
210.94118492971421
 30
0.0
 40
3.5948548703877909
  0
CIRCLE
  5
1914
  8
AM_VIS
 10
-1536.5412649889199
 20
172.6411849297142
 30
0.0
 40
4.5999999999999988
  0
CIRCLE
  5
1916
  8
AM_VIS
 10
-1536.5412649889199
 20
172.6411849297142
 30
0.0
 40
3.5948548703877909
  0
CIRCLE
  5
1917
  8
AM_VIS
 10
-1556.0412649889199
 20
165.94118492971421
 30
0.0
 40
4.5999999999999988
  0
CIRCLE
  5
1918
  8
AM_VIS
 10
-1556.0412649889199
 20
165.94118492971421
 30
0.0
 40
3.5948548703877909
  0
CIRCLE
  5
191A
  8
AM_VIS
 10
-1606.0412649889199
 20
165.94118492971421
 30
0.0
 40
4.5999999999999988
  0
CIRCLE
  5
191B
  8
AM_VIS
 10
-1606.0412649889199
 20
165.94118492971421
 30
0.0
 40
3.5948548703877909
  0
CIRCLE
  5
191D
  8
AM_VIS
 10
-1656.0412649889199
 20
165.94118492971421
 30
0.0
 40
4.5999999999999988
  0
CIRCLE
  5
191E
  8
AM_VIS
 10
-1656.0412649889199
 20
165.94118492971421
 30
0.0
 40
3.5948548703877909
  0
CIRCLE
  5
1927
  8
AM_VIS
 10
-1675.5412649889199
 20
172.64118492971431
 30
0.0
 40
4.5999999999999988
  0
CIRCLE
  5
1928
  8
AM_VIS
 10
-1675.5412649889199
 20
172.64118492971431
 30
0.0
 40
3.5948548703877909
  0
CIRCLE
  5
192A
  8
AM_VIS
 10
-1676.0412649889199
 20
210.94118492971421
 30
0.0
 40
4.5999999999999988
  0
CIRCLE
  5
192B
  8
AM_VIS
 10
-1676.0412649889199
 20
210.94118492971421
 30
0.0
 40
3.5948548703877909
  0
CIRCLE
  5
192D
  8
AM_VIS
 10
-1676.0412649889199
 20
273.44118492971421
 30
0.0
 40
4.5999999999999988
  0
CIRCLE
  5
192E
  8
AM_VIS
 10
-1676.0412649889199
 20
273.44118492971421
 30
0.0
 40
3.5948548703877909
  0
CIRCLE
  5
1930
  8
AM_VIS
 10
-1676.0412649889199
 20
335.94118492971421
 30
0.0
 40
4.5999999999999988
  0
CIRCLE
  5
1931
  8
AM_VIS
 10
-1676.0412649889199
 20
335.94118492971421
 30
0.0
 40
3.5948548703877909
  0
CIRCLE
  5
1933
  8
AM_VIS
 10
-1675.5412649889199
 20
374.24118492971422
 30
0.0
 40
4.5999999999999988
  0
CIRCLE
  5
1935
  8
AM_VIS
 10
-1675.5412649889199
 20
374.24118492971422
 30
0.0
 40
3.5948548703877909
  0
CIRCLE
  5
1937
  8
AM_VIS
 10
-1606.0412649889199
 20
384.91681122439411
 30
0.0
 40
3.5948548703877909
  0
CIRCLE
  5
1938
  8
AM_VIS
 10
-1606.0412649889199
 20
384.91681122439411
 30
0.0
 40
4.5999999999999988
  0
CIRCLE
  5
1939
  8
AM_VIS
 10
-1606.0412649889199
 20
384.91681122439411
 30
0.0
 40
1.6000000000000001
  0
ARC
  5
193A
  8
AM_VIS
 10
-1606.0412649889199
 20
384.91681122439411
 30
0.0
 40
2.0
 50
0.0
 51
180.00000000000071
  0
ARC
  5
193B
  8
AM_VIS
 10
-1606.0412649889199
 20
384.91681122439411
 30
0.0
 40
2.0
 50
180.0
 51
0.0
  0
LINE
  5
193D
  8
AM_VIS
 10
-1604.0412649889199
 20
382.91681122439388
 30
0.0
 11
-1604.0412649889199
 21
384.916811224394
 31
0.0
  0
LINE
  5
193E
  8
AM_VIS
 10
-1603.8729982447651
 20
382.91681122439388
 30
0.0
 11
-1604.0412649889199
 21
382.91681122439388
 31
0.0
  0
POLYLINE
  5
193F
  8
AM_VIS
 66
     1
 10
0.0
 20
0.0
 30
0.0
  0
VERTEX
  5
3AA6
  8
AM_VIS
 10
-1603.230452733648
 20
382.91681122439388
 30
0.0
  0
VERTEX
  5
3AA7
  8
AM_VIS
 10
-1603.240396638907
 20
382.91681122439388
 30
0.0
  0
VERTEX
  5
3AA8
  8
AM_VIS
 10
-1603.269649556051
 20
382.91681122439388
 30
0.0
  0
VERTEX
  5
3AA9
  8
AM_VIS
 10
-1603.3219255803169
 20
382.91681122439388
 30
0.0
  0
VERTEX
  5
3AAA
  8
AM_VIS
 10
-1603.3909533531221
 20
382.91681122439388
 30
0.0
  0
VERTEX
  5
3AAB
  8
AM_VIS
 10
-1603.4868079972421
 20
382.91681122439388
 30
0.0
  0
VERTEX
  5
3AAC
  8
AM_VIS
 10
-1603.5938856804889
 20
382.91681122439388
 30
0.0
  0
VERTEX
  5
3AAD
  8
AM_VIS
 10
-1603.731350085947
 20
382.91681122439388
 30
0.0
  0
VERTEX
  5
3AAE
  8
AM_VIS
 10
-1603.8729982447651
 20
382.91681122439388
 30
0.0
  0
SEQEND
  5
3AAF
  8
AM_VIS
  0
POLYLINE
  5
1940
  8
AM_VIS
 66
     1
 10
0.0
 20
0.0
 30
0.0
  0
VERTEX
  5
3AB0
  8
AM_VIS
 10
-1603.2067342157529
 20
382.91681122439388
 30
0.0
  0
VERTEX
  5
3AB1
  8
AM_VIS
 10
-1603.230452733648
 20
382.91681122439388
 30
0.0
  0
SEQEND
  5
3AB2
  8
AM_VIS
  0
CIRCLE
  5
1941
  8
AM_VIS
 10
-1596.0412649889199
 20
384.91681122439411
 30
0.0
 40
1.2360370115347861
  0
CIRCLE
  5
1942
  8
AM_VIS
 10
-1616.0412649889199
 20
384.91681122439411
 30
0.0
 40
1.2360370115347861
  0
LINE
  5
1943
  8
AM_VIS
 10
-1608.0412649889199
 20
382.91681122439388
 30
0.0
 11
-1608.209531733075
 21
382.91681122439388
 31
0.0
  0
LINE
  5
1944
  8
AM_VIS
 10
-1608.0412649889199
 20
384.916811224394
 30
0.0
 11
-1608.0412649889199
 21
382.91681122439388
 31
0.0
  0
POLYLINE
  5
1945
  8
AM_VIS
 66
     1
 10
0.0
 20
0.0
 30
0.0
  0
VERTEX
  5
3AB3
  8
AM_VIS
 10
-1608.209531733075
 20
382.91681122439388
 30
0.0
  0
VERTEX
  5
3AB4
  8
AM_VIS
 10
-1608.351179891893
 20
382.91681122439388
 30
0.0
  0
VERTEX
  5
3AB5
  8
AM_VIS
 10
-1608.4886442973509
 20
382.91681122439388
 30
0.0
  0
VERTEX
  5
3AB6
  8
AM_VIS
 10
-1608.595721980598
 20
382.91681122439388
 30
0.0
  0
VERTEX
  5
3AB7
  8
AM_VIS
 10
-1608.691576624718
 20
382.91681122439388
 30
0.0
  0
VERTEX
  5
3AB8
  8
AM_VIS
 10
-1608.760604397522
 20
382.91681122439388
 30
0.0
  0
VERTEX
  5
3AB9
  8
AM_VIS
 10
-1608.812880421789
 20
382.91681122439388
 30
0.0
  0
VERTEX
  5
3ABA
  8
AM_VIS
 10
-1608.8421333389319
 20
382.91681122439388
 30
0.0
  0
VERTEX
  5
3ABB
  8
AM_VIS
 10
-1608.8520772441921
 20
382.91681122439388
 30
0.0
  0
SEQEND
  5
3ABC
  8
AM_VIS
  0
POLYLINE
  5
1946
  8
AM_VIS
 66
     1
 10
0.0
 20
0.0
 30
0.0
  0
VERTEX
  5
3ABD
  8
AM_VIS
 10
-1608.8520772441921
 20
382.91681122439388
 30
0.0
  0
VERTEX
  5
3ABE
  8
AM_VIS
 10
-1608.8757957620869
 20
382.91681122439388
 30
0.0
  0
SEQEND
  5
3ABF
  8
AM_VIS
  0
CIRCLE
  5
1948
  8
AM_VIS
 10
-1556.0412649889199
 20
384.91681122439411
 30
0.0
 40
3.5948548703877909
  0
CIRCLE
  5
1949
  8
AM_VIS
 10
-1556.0412649889199
 20
384.91681122439411
 30
0.0
 40
4.5999999999999988
  0
CIRCLE
  5
194B
  8
AM_VIS
 10
-1556.0412649889199
 20
384.91681122439411
 30
0.0
 40
1.6000000000000001
  0
ARC
  5
194C
  8
AM_VIS
 10
-1556.0412649889199
 20
384.91681122439411
 30
0.0
 40
2.0
 50
180.0
 51
0.0
  0
ARC
  5
1955
  8
AM_VIS
 10
-1556.0412649889199
 20
384.91681122439411
 30
0.0
 40
2.0
 50
0.0
 51
180.00000000000071
  0
CIRCLE
  5
1956
  8
AM_VIS
 10
-1656.0412649889199
 20
384.91681122439411
 30
0.0
 40
3.5948548703877909
  0
CIRCLE
  5
1957
  8
AM_VIS
 10
-1656.0412649889199
 20
384.91681122439411
 30
0.0
 40
4.5999999999999988
  0
CIRCLE
  5
1958
  8
AM_VIS
 10
-1656.0412649889199
 20
384.91681122439411
 30
0.0
 40
1.6000000000000001
  0
ARC
  5
1959
  8
AM_VIS
 10
-1656.0412649889199
 20
384.91681122439411
 30
0.0
 40
2.0
 50
0.0
 51
180.00000000000071
  0
ARC
  5
195D
  8
AM_VIS
 10
-1656.0412649889199
 20
384.91681122439411
 30
0.0
 40
2.0
 50
180.0
 51
0.0
  0
CIRCLE
  5
1964
  8
AM_VIS
 10
-1556.0412649889199
 20
255.94118492971421
 30
0.0
 40
1.6000000000000001
  0
CIRCLE
  5
1965
  8
AM_VIS
 10
-1556.0412649889199
 20
255.94118492971421
 30
0.0
 40
2.0
  0
CIRCLE
  5
1966
  8
AM_VIS
 10
-1556.0412649889199
 20
255.94118492971421
 30
0.0
 40
2.9777383814805218
  0
CIRCLE
  5
1968
  8
AM_VIS
 10
-1556.0412649889199
 20
255.94118492971421
 30
0.0
 40
4.5999999999999988
  0
CIRCLE
  5
1969
  8
AM_VIS
 10
-1656.0412649889199
 20
255.94118492971421
 30
0.0
 40
4.5999999999999988
  0
CIRCLE
  5
196B
  8
AM_VIS
 10
-1656.0412649889199
 20
255.94118492971421
 30
0.0
 40
2.9777383814805218
  0
CIRCLE
  5
196C
  8
AM_VIS
 10
-1656.0412649889199
 20
255.94118492971421
 30
0.0
 40
2.0
  0
CIRCLE
  5
196D
  8
AM_VIS
 10
-1656.0412649889199
 20
255.94118492971421
 30
0.0
 40
1.6000000000000001
  0
CIRCLE
  5
196E
  8
AM_VIS
 10
-1656.0412649889199
 20
290.94118492971421
 30
0.0
 40
1.6000000000000001
  0
CIRCLE
  5
196F
  8
AM_VIS
 10
-1656.0412649889199
 20
290.94118492971421
 30
0.0
 40
2.0
  0
CIRCLE
  5
1970
  8
AM_VIS
 10
-1656.0412649889199
 20
290.94118492971421
 30
0.0
 40
2.9777383814805218
  0
CIRCLE
  5
1972
  8
AM_VIS
 10
-1656.0412649889199
 20
290.94118492971421
 30
0.0
 40
4.5999999999999988
  0
LINE
  5
198F
  8
L1
  6
HIDDEN
 62
     1
 10
-1603.2067342157529
 20
481.7302532885592
 30
0.0
 11
-1608.8757957620869
 21
481.7302532885592
 31
0.0
  0
LINE
  5
1990
  8
L1
  6
HIDDEN
 62
     1
 10
-1604.0412649889199
 20
483.33025328855911
 30
0.0
 11
-1608.0412649889199
 21
483.33025328855911
 31
0.0
  0
POLYLINE
  5
1991
  8
L1
  6
HIDDEN
 62
     1
 66
     1
 10
0.0
 20
0.0
 30
0.0
  0
VERTEX
  5
3AC0
  8
L1
  6
HIDDEN
 62
     1
 10
-1603.230452733648
 20
482.83897949177771
 30
0.0
  0
VERTEX
  5
3AC1
  8
L1
  6
HIDDEN
 62
     1
 10
-1603.240396638907
 20
482.92029062378703
 30
0.0
  0
VERTEX
  5
3AC2
  8
L1
  6
HIDDEN
 62
     1
 10
-1603.269649556051
 20
483.00608786871987
 30
0.0
  0
VERTEX
  5
3AC3
  8
L1
  6
HIDDEN
 62
     1
 10
-1603.3219255803169
 20
483.0923344401744
 30
0.0
  0
VERTEX
  5
3AC4
  8
L1
  6
HIDDEN
 62
     1
 10
-1603.3909533531221
 20
483.16605707123131
 30
0.0
  0
VERTEX
  5
3AC5
  8
L1
  6
HIDDEN
 62
     1
 10
-1603.4868079972409
 20
483.23435334828542
 30
0.0
  0
VERTEX
  5
3AC6
  8
L1
  6
HIDDEN
 62
     1
 10
-1603.5938856804889
 20
483.28362893419211
 30
0.0
  0
VERTEX
  5
3AC7
  8
L1
  6
HIDDEN
 62
     1
 10
-1603.731350085947
 20
483.31896853751948
 30
0.0
  0
VERTEX
  5
3AC8
  8
L1
  6
HIDDEN
 62
     1
 10
-1603.8729982447651
 20
483.33025328855911
 30
0.0
  0
SEQEND
  5
3AC9
  8
L1
  6
HIDDEN
 62
     1
  0
POLYLINE
  5
1992
  8
L1
  6
HIDDEN
 62
     1
 66
     1
 10
0.0
 20
0.0
 30
0.0
  0
VERTEX
  5
3ACA
  8
L1
  6
HIDDEN
 62
     1
 10
-1603.2067342157529
 20
481.7302532885592
 30
0.0
  0
VERTEX
  5
3ACB
  8
L1
  6
HIDDEN
 62
     1
 10
-1603.230452733648
 20
482.83897949177771
 30
0.0
  0
SEQEND
  5
3ACC
  8
L1
  6
HIDDEN
 62
     1
  0
LINE
  5
1993
  8
L1
  6
HIDDEN
 62
     1
 10
-1594.8663541295821
 20
482.83461655630839
 30
0.0
 11
-1594.8052279773849
 21
475.83025328855911
 31
0.0
  0
LINE
  5
1994
  8
L1
  6
HIDDEN
 62
     1
 10
-1597.2773020004549
 20
475.83025328855911
 30
0.0
 11
-1597.2161758482589
 21
482.83461655630839
 31
0.0
  0
ARC
  5
1995
  8
L1
  6
HIDDEN
 62
     1
 10
-1595.366335091114
 20
482.83025328855922
 30
0.0
 40
0.5
 50
0.4999999999996785
 51
90.000000000000028
  0
ARC
  5
1996
  8
L1
  6
HIDDEN
 62
     1
 10
-1596.716194886727
 20
482.83025328855922
 30
0.0
 40
0.5
 50
90.000000000000028
 51
179.5000000000002
  0
LINE
  5
1997
  8
L1
  6
HIDDEN
 62
     1
 10
-1596.0412649889199
 20
483.33025328855911
 30
0.0
 11
-1596.716194886727
 21
483.33025328855911
 31
0.0
  0
LINE
  5
1998
  8
L1
  6
HIDDEN
 62
     1
 10
-1595.366335091114
 20
483.33025328855911
 30
0.0
 11
-1596.0412649889199
 21
483.33025328855911
 31
0.0
  0
ARC
  5
1999
  8
L1
  6
HIDDEN
 62
     1
 10
-1603.091454711325
 20
482.83025328855922
 30
0.0
 40
0.5
 50
1.0000000000001561
 51
90.000000000000028
  0
LINE
  5
199A
  8
L1
  6
HIDDEN
 62
     1
 10
-1602.591530863747
 20
482.83897949177771
 30
0.0
 11
-1602.469193092805
 21
475.83025328855911
 31
0.0
  0
LINE
  5
199B
  8
L1
  6
HIDDEN
 62
     1
 10
-1603.091454711325
 20
483.33025328855911
 30
0.0
 11
-1603.8729982447651
 21
483.33025328855911
 31
0.0
  0
LINE
  5
199C
  8
L1
  6
HIDDEN
 62
     1
 10
-1603.8729982447651
 20
483.33025328855911
 30
0.0
 11
-1604.0412649889199
 21
483.33025328855911
 31
0.0
  0
LINE
  5
199D
  8
L1
  6
HIDDEN
 62
     1
 10
-1604.0412649889199
 20
483.33025328855911
 30
0.0
 11
-1604.0412649889199
 21
481.7302532885592
 31
0.0
  0
POLYLINE
  5
199E
  8
L1
  6
HIDDEN
 62
     1
 66
     1
 10
0.0
 20
0.0
 30
0.0
  0
VERTEX
  5
3ACD
  8
L1
  6
HIDDEN
 62
     1
 10
-1608.209531733075
 20
483.33025328855911
 30
0.0
  0
VERTEX
  5
3ACE
  8
L1
  6
HIDDEN
 62
     1
 10
-1608.351179891893
 20
483.31896853751948
 30
0.0
  0
VERTEX
  5
3ACF
  8
L1
  6
HIDDEN
 62
     1
 10
-1608.4886442973509
 20
483.28362893419211
 30
0.0
  0
VERTEX
  5
3AD0
  8
L1
  6
HIDDEN
 62
     1
 10
-1608.595721980598
 20
483.23435334828542
 30
0.0
  0
VERTEX
  5
3AD1
  8
L1
  6
HIDDEN
 62
     1
 10
-1608.691576624718
 20
483.16605707123131
 30
0.0
  0
VERTEX
  5
3AD2
  8
L1
  6
HIDDEN
 62
     1
 10
-1608.760604397522
 20
483.0923344401744
 30
0.0
  0
VERTEX
  5
3AD3
  8
L1
  6
HIDDEN
 62
     1
 10
-1608.812880421789
 20
483.00608786871987
 30
0.0
  0
VERTEX
  5
3AD4
  8
L1
  6
HIDDEN
 62
     1
 10
-1608.8421333389319
 20
482.92029062378703
 30
0.0
  0
VERTEX
  5
3AD5
  8
L1
  6
HIDDEN
 62
     1
 10
-1608.8520772441921
 20
482.83897949177771
 30
0.0
  0
SEQEND
  5
3AD6
  8
L1
  6
HIDDEN
 62
     1
  0
POLYLINE
  5
199F
  8
L1
  6
HIDDEN
 62
     1
 66
     1
 10
0.0
 20
0.0
 30
0.0
  0
VERTEX
  5
3AD7
  8
L1
  6
HIDDEN
 62
     1
 10
-1608.8520772441921
 20
482.83897949177771
 30
0.0
  0
VERTEX
  5
3AD8
  8
L1
  6
HIDDEN
 62
     1
 10
-1608.8757957620869
 20
481.7302532885592
 30
0.0
  0
SEQEND
  5
3AD9
  8
L1
  6
HIDDEN
 62
     1
  0
ARC
  5
19A0
  8
L1
  6
HIDDEN
 62
     1
 10
-1608.991075266516
 20
482.83025328855922
 30
0.0
 40
0.5
 50
90.000000000000028
 51
178.9999999999998
  0
LINE
  5
19A1
  8
L1
  6
HIDDEN
 62
     1
 10
-1609.6133368850351
 20
475.83025328855911
 30
0.0
 11
-1609.4909991140939
 21
482.83897949177771
 31
0.0
  0
LINE
  5
19A2
  8
L1
  6
HIDDEN
 62
     1
 10
-1608.209531733075
 20
483.33025328855911
 30
0.0
 11
-1608.991075266516
 21
483.33025328855911
 31
0.0
  0
LINE
  5
19A3
  8
L1
  6
HIDDEN
 62
     1
 10
-1608.0412649889199
 20
483.33025328855911
 30
0.0
 11
-1608.209531733075
 21
483.33025328855911
 31
0.0
  0
LINE
  5
19A4
  8
L1
  6
HIDDEN
 62
     1
 10
-1608.0412649889199
 20
483.33025328855911
 30
0.0
 11
-1608.0412649889199
 21
481.7302532885592
 31
0.0
  0
LINE
  5
19A5
  8
L1
  6
HIDDEN
 62
     1
 10
-1614.8663541295809
 20
482.83461655630839
 30
0.0
 11
-1614.8052279773849
 21
475.83025328855911
 31
0.0
  0
LINE
  5
19A6
  8
L1
  6
HIDDEN
 62
     1
 10
-1617.2773020004549
 20
475.83025328855911
 30
0.0
 11
-1617.2161758482589
 21
482.83461655630839
 31
0.0
  0
ARC
  5
19A7
  8
L1
  6
HIDDEN
 62
     1
 10
-1615.3663350911129
 20
482.83025328855922
 30
0.0
 40
0.5
 50
0.4999999999996785
 51
90.000000000000028
  0
ARC
  5
19A8
  8
L1
  6
HIDDEN
 62
     1
 10
-1616.716194886727
 20
482.83025328855922
 30
0.0
 40
0.5
 50
90.000000000000028
 51
179.5000000000002
  0
LINE
  5
19A9
  8
L1
  6
HIDDEN
 62
     1
 10
-1616.0412649889199
 20
483.33025328855911
 30
0.0
 11
-1616.716194886727
 21
483.33025328855911
 31
0.0
  0
LINE
  5
19AA
  8
L1
  6
HIDDEN
 62
     1
 10
-1615.3663350911129
 20
483.33025328855911
 30
0.0
 11
-1616.0412649889199
 21
483.33025328855911
 31
0.0
  0
LINE
  5
19AB
  8
L1
  6
HIDDEN
 62
     1
 10
-1676.1848993278741
 20
475.82324159861167
 30
0.0
 11
-1676.7887988448281
 21
545.02327206016037
 31
0.0
  0
LINE
  5
19AC
  8
L1
  6
HIDDEN
 62
     1
 10
-1535.897630649966
 20
475.82324159861167
 30
0.0
 11
-1676.1848993278741
 21
475.82324159861167
 31
0.0
  0
LINE
  5
19AD
  8
L1
  6
HIDDEN
 62
     1
 10
-1535.897630649966
 20
475.82324159861167
 30
0.0
 11
-1535.293731133012
 21
545.02327206016037
 31
0.0
  0
LINE
  5
1A81
  8
L1
  6
HIDDEN
 62
     1
 10
-1454.925372390604
 20
165.79755059076001
 30
0.0
 11
-1385.732353619002
 21
165.19371226389759
 31
0.0
  0
LINE
  5
1A82
  8
L1
  6
HIDDEN
 62
     1
 10
-1430.925372390604
 20
165.58810576378201
 30
0.0
 11
-1429.3253723906039
 21
165.5741427753168
 31
0.0
  0
LINE
  5
1A83
  8
L1
  6
HIDDEN
 62
     1
 10
-1454.925372390604
 20
381.08481926866779
 30
0.0
 11
-1385.732353619002
 21
381.6886575955308
 31
0.0
  0
LINE
  5
1A84
  8
L1
  6
HIDDEN
 62
     1
 10
-1454.925372390604
 20
165.79755059076001
 30
0.0
 11
-1454.925372390604
 21
381.08481926866801
 31
0.0
  0
LINE
  5
1A85
  8
L1
  6
HIDDEN
 62
     1
 10
-1449.0253723906039
 20
252.96344654823349
 30
0.0
 11
-1449.0253723906039
 21
258.9189233111947
 31
0.0
  0
LINE
  5
1A86
  8
L1
  6
HIDDEN
 62
     1
 10
-1447.425372390604
 20
207.99137465211871
 30
0.0
 11
-1447.425372390604
 21
213.89099520730949
 31
0.0
  0
LINE
  5
1A87
  8
L1
  6
HIDDEN
 62
     1
 10
-1454.925372390604
 20
169.06911303359939
 30
0.0
 11
-1447.9166461873849
 21
169.19145080454061
 31
0.0
  0
LINE
  5
1A88
  8
L1
  6
HIDDEN
 62
     1
 10
-1447.425372390604
 20
169.69137465211881
 30
0.0
 11
-1447.425372390604
 21
175.5909952073095
 31
0.0
  0
LINE
  5
1A89
  8
L1
  6
HIDDEN
 62
     1
 10
-1454.925372390604
 20
176.21325682582889
 30
0.0
 11
-1447.9166461873849
 21
176.09091905488771
 31
0.0
  0
ARC
  5
1A8A
  8
L1
  6
HIDDEN
 62
     1
 10
-1447.925372390604
 20
169.6913746521189
 30
0.0
 40
0.5
 50
271.00000000000011
 51
0.0
  0
ARC
  5
1A8B
  8
L1
  6
HIDDEN
 62
     1
 10
-1447.925372390604
 20
175.59099520730959
 30
0.0
 40
0.5
 50
0.0
 51
88.999999999999844
  0
LINE
  5
1A8C
  8
L1
  6
HIDDEN
 62
     1
 10
-1447.9166461873849
 20
169.19145080454061
 30
0.0
 11
-1449.0253723906039
 21
169.17209791667571
 31
0.0
  0
LINE
  5
1A8D
  8
L1
  6
HIDDEN
 62
     1
 10
-1447.9166461873849
 20
207.49145080454051
 30
0.0
 11
-1454.925372390604
 21
207.36911303359909
 31
0.0
  0
ARC
  5
1A8E
  8
L1
  6
HIDDEN
 62
     1
 10
-1447.925372390604
 20
207.99137465211879
 30
0.0
 40
0.5
 50
271.00000000000091
 51
0.0
  0
LINE
  5
1A8F
  8
L1
  6
HIDDEN
 62
     1
 10
-1454.925372390604
 20
214.51325682582899
 30
0.0
 11
-1447.9166461873849
 21
214.39091905488769
 31
0.0
  0
ARC
  5
1A90
  8
L1
  6
HIDDEN
 62
     1
 10
-1447.925372390604
 20
213.89099520730949
 30
0.0
 40
0.5
 50
0.0
 51
89.000000000000654
  0
LINE
  5
1A91
  8
L1
  6
HIDDEN
 62
     1
 10
-1454.925372390604
 20
252.36911303359921
 30
0.0
 11
-1449.516646187385
 21
252.46352270065529
 31
0.0
  0
ARC
  5
1A92
  8
L1
  6
HIDDEN
 62
     1
 10
-1449.5253723906039
 20
252.96344654823361
 30
0.0
 40
0.5
 50
271.00000000000011
 51
0.0
  0
LINE
  5
1A93
  8
L1
  6
HIDDEN
 62
     1
 10
-1447.425372390604
 20
270.49137465211868
 30
0.0
 11
-1447.425372390604
 21
276.39099520730952
 31
0.0
  0
LINE
  5
1A94
  8
L1
  6
HIDDEN
 62
     1
 10
-1449.516646187385
 20
259.41884715877291
 30
0.0
 11
-1454.925372390604
 21
259.51325682582882
 31
0.0
  0
LINE
  5
1A95
  8
L1
  6
HIDDEN
 62
     1
 10
-1447.9210091228549
 20
262.26627407037529
 30
0.0
 11
-1454.925372390604
 21
262.20514791817931
 31
0.0
  0
LINE
  5
1A96
  8
L1
  6
HIDDEN
 62
     1
 10
-1454.925372390604
 20
264.67722194124889
 30
0.0
 11
-1447.9210091228549
 21
264.61609578905291
 31
0.0
  0
LINE
  5
1A97
  8
L1
  6
HIDDEN
 62
     1
 10
-1447.9166461873849
 20
269.99145080454048
 30
0.0
 11
-1454.925372390604
 21
269.86911303359909
 31
0.0
  0
ARC
  5
1A98
  8
L1
  6
HIDDEN
 62
     1
 10
-1447.925372390604
 20
270.49137465211891
 30
0.0
 40
0.5
 50
271.00000000000011
 51
0.0
  0
ARC
  5
1A99
  8
L1
  6
HIDDEN
 62
     1
 10
-1447.925372390604
 20
262.76625503190758
 30
0.0
 40
0.5
 50
270.4999999999996
 51
0.0
  0
ARC
  5
1A9A
  8
L1
  6
HIDDEN
 62
     1
 10
-1447.925372390604
 20
264.11611482752079
 30
0.0
 40
0.5
 50
0.0
 51
89.500000000000327
  0
ARC
  5
1A9B
  8
L1
  6
HIDDEN
 62
     1
 10
-1449.5253723906039
 20
258.91892331119482
 30
0.0
 40
0.5
 50
0.0
 51
88.999999999999844
  0
LINE
  5
1A9C
  8
L1
  6
HIDDEN
 62
     1
 10
-1447.425372390604
 20
262.76625503190758
 30
0.0
 11
-1447.425372390604
 21
264.11611482752068
 31
0.0
  0
LINE
  5
1A9D
  8
L1
  6
HIDDEN
 62
     1
 10
-1449.0253723906039
 20
287.96344654823361
 30
0.0
 11
-1449.0253723906039
 21
293.91892331119459
 31
0.0
  0
LINE
  5
1A9E
  8
L1
  6
HIDDEN
 62
     1
 10
-1454.925372390604
 20
287.36911303359921
 30
0.0
 11
-1449.516646187385
 21
287.46352270065529
 31
0.0
  0
LINE
  5
1A9F
  8
L1
  6
HIDDEN
 62
     1
 10
-1449.516646187385
 20
294.41884715877279
 30
0.0
 11
-1454.925372390604
 21
294.5132568258291
 31
0.0
  0
LINE
  5
1AA0
  8
L1
  6
HIDDEN
 62
     1
 10
-1447.9210091228549
 20
282.2662740703754
 30
0.0
 11
-1454.925372390604
 21
282.20514791817931
 31
0.0
  0
LINE
  5
1AA1
  8
L1
  6
HIDDEN
 62
     1
 10
-1454.925372390604
 20
284.67722194124889
 30
0.0
 11
-1447.9210091228549
 21
284.61609578905279
 31
0.0
  0
LINE
  5
1AA2
  8
L1
  6
HIDDEN
 62
     1
 10
-1454.925372390604
 20
277.01325682582899
 30
0.0
 11
-1447.9166461873849
 21
276.89091905488772
 31
0.0
  0
ARC
  5
1AA3
  8
L1
  6
HIDDEN
 62
     1
 10
-1447.925372390604
 20
276.39099520730957
 30
0.0
 40
0.5
 50
0.0
 51
88.999999999999844
  0
ARC
  5
1AA4
  8
L1
  6
HIDDEN
 62
     1
 10
-1447.925372390604
 20
282.76625503190769
 30
0.0
 40
0.5
 50
270.49999999999972
 51
0.0
  0
ARC
  5
1AA5
  8
L1
  6
HIDDEN
 62
     1
 10
-1447.925372390604
 20
284.11611482752079
 30
0.0
 40
0.5
 50
0.0
 51
89.500000000000327
  0
ARC
  5
1AA6
  8
L1
  6
HIDDEN
 62
     1
 10
-1449.5253723906039
 20
293.91892331119482
 30
0.0
 40
0.5
 50
0.0
 51
88.999999999999844
  0
ARC
  5
1AA7
  8
L1
  6
HIDDEN
 62
     1
 10
-1449.5253723906039
 20
287.96344654823372
 30
0.0
 40
0.5
 50
271.00000000000011
 51
0.0
  0
LINE
  5
1AA8
  8
L1
  6
HIDDEN
 62
     1
 10
-1447.425372390604
 20
282.76625503190752
 30
0.0
 11
-1447.425372390604
 21
284.11611482752068
 31
0.0
  0
LINE
  5
1AA9
  8
L1
  6
HIDDEN
 62
     1
 10
-1447.425372390604
 20
332.99137465211868
 30
0.0
 11
-1447.425372390604
 21
338.89099520730952
 31
0.0
  0
LINE
  5
1AAA
  8
L1
  6
HIDDEN
 62
     1
 10
-1447.9166461873849
 20
332.49145080454048
 30
0.0
 11
-1454.925372390604
 21
332.36911303359909
 31
0.0
  0
LINE
  5
1AAB
  8
L1
  6
HIDDEN
 62
     1
 10
-1454.925372390604
 20
339.51325682582899
 30
0.0
 11
-1447.9166461873849
 21
339.39091905488772
 31
0.0
  0
ARC
  5
1AAC
  8
L1
  6
HIDDEN
 62
     1
 10
-1447.925372390604
 20
332.99137465211891
 30
0.0
 40
0.5
 50
271.00000000000011
 51
0.0
  0
ARC
  5
1AAD
  8
L1
  6
HIDDEN
 62
     1
 10
-1447.925372390604
 20
338.89099520730957
 30
0.0
 40
0.5
 50
0.0
 51
88.999999999999844
  0
LINE
  5
1AAE
  8
L1
  6
HIDDEN
 62
     1
 10
-1454.925372390604
 20
377.81325682582928
 30
0.0
 11
-1447.9166461873849
 21
377.69091905488762
 31
0.0
  0
LINE
  5
1AAF
  8
L1
  6
HIDDEN
 62
     1
 10
-1447.425372390604
 20
371.29137465211869
 30
0.0
 11
-1447.425372390604
 21
377.19099520730941
 31
0.0
  0
LINE
  5
1AB0
  8
L1
  6
HIDDEN
 62
     1
 10
-1447.9166461873849
 20
370.79145080454049
 30
0.0
 11
-1454.925372390604
 21
370.6691130335991
 31
0.0
  0
ARC
  5
1AB1
  8
L1
  6
HIDDEN
 62
     1
 10
-1447.925372390604
 20
371.2913746521188
 30
0.0
 40
0.5
 50
271.00000000000011
 51
0.0
  0
ARC
  5
1AB2
  8
L1
  6
HIDDEN
 62
     1
 10
-1447.925372390604
 20
377.19099520730953
 30
0.0
 40
0.5
 50
0.0
 51
88.999999999999844
  0
CIRCLE
  5
1B22
  8
AM_VIS
 10
-1894.234508369658
 20
393.00809491629121
 30
0.0
 40
2.2281828305231031
  0
ARC
  5
1B23
  8
AM_VIS
 10
-1894.234508369658
 20
393.00809491629121
 30
0.0
 40
3.9749773270518478
 50
126.2232334169711
 51
323.53410728474978
  0
ARC
  5
1B24
  8
AM_VIS
 10
-1894.234508369658
 20
393.00809491629121
 30
0.0
 40
4.938745152550772
 50
128.19364958883509
 51
321.61080622575582
  0
ARC
  5
1B25
  8
AM_VIS
 10
-1894.234508369658
 20
393.00809491629121
 30
0.0
 40
7.3731014374402699
 50
179.9999999999998
 51
270.0
  0
LINE
  5
1B26
  8
AM_VIS
 10
-1901.8019811437071
 20
399.97100691228252
 30
0.0
 11
-1889.2715963732519
 21
399.97100691228297
 31
0.0
  0
LINE
  5
1B27
  8
AM_VIS
 10
-1901.8019811437071
 20
397.94064118044059
 30
0.0
 11
-1890.301962105239
 21
397.94064118044111
 31
0.0
  0
ARC
  5
1B28
  8
AM_VIS
 10
-1894.234508369658
 20
393.00809491629121
 30
0.0
 40
9.8325462644184825
 50
179.9999999999998
 51
270.0
  0
LINE
  5
1B2B
  8
AM_VIS
 10
-1901.085903103417
 20
400.6753589238001
 30
0.0
 11
-1900.522852017795
 21
401.23841000942002
 31
0.0
  0
LINE
  5
1B2C
  8
AM_VIS
 10
-1901.607609807098
 20
397.49382554955372
 30
0.0
 11
-1901.607609807098
 21
393.0080949162911
 31
0.0
  0
LINE
  5
1B2D
  8
AM_VIS
 10
-1904.0670546340759
 20
393.0080949162911
 30
0.0
 11
-1904.0670546340759
 21
396.9406792573763
 31
0.0
  0
LINE
  5
1B2F
  8
AM_VIS
 10
-1903.067092711012
 20
397.94064118044059
 30
0.0
 11
-1901.8019811437071
 21
397.94064118044059
 31
0.0
  0
POLYLINE
  5
1B30
  8
AM_VIS
 66
     1
 10
0.0
 20
0.0
 30
0.0
  0
VERTEX
  5
3ADA
  8
AM_VIS
 10
-1901.8019811437071
 20
397.94064118044059
 30
0.0
  0
VERTEX
  5
3ADB
  8
AM_VIS
 10
-1902.1555233816121
 20
398.0870799040681
 30
0.0
  0
VERTEX
  5
3ADC
  8
AM_VIS
 10
-1902.301962105239
 20
398.4406221419726
 30
0.0
  0
SEQEND
  5
3ADD
  8
AM_VIS
  0
LINE
  5
1B31
  8
AM_VIS
 10
-1902.301962105239
 20
398.4406221419726
 30
0.0
 11
-1902.301962105239
 21
399.47102595075052
 31
0.0
  0
POLYLINE
  5
1B32
  8
AM_VIS
 66
     1
 10
0.0
 20
0.0
 30
0.0
  0
VERTEX
  5
3ADE
  8
AM_VIS
 10
-1902.301962105239
 20
399.47102595075052
 30
0.0
  0
VERTEX
  5
3ADF
  8
AM_VIS
 10
-1902.1555233816121
 20
399.82456818865512
 30
0.0
  0
VERTEX
  5
3AE0
  8
AM_VIS
 10
-1901.8019811437071
 20
399.97100691228252
 30
0.0
  0
SEQEND
  5
3AE1
  8
AM_VIS
  0
POLYLINE
  5
1B33
  8
AM_VIS
 66
     1
 10
0.0
 20
0.0
 30
0.0
  0
VERTEX
  5
3AE2
  8
AM_VIS
 10
-1901.0711110068819
 20
400.1753779622681
 30
0.0
  0
VERTEX
  5
3AE3
  8
AM_VIS
 10
-1900.9618546512261
 20
400.02739972110697
 30
0.0
  0
VERTEX
  5
3AE4
  8
AM_VIS
 10
-1900.786768041748
 20
399.97100691228252
 30
0.0
  0
SEQEND
  5
3AE5
  8
AM_VIS
  0
POLYLINE
  5
1B34
  8
AM_VIS
 66
     1
 10
0.0
 20
0.0
 30
0.0
  0
VERTEX
  5
3AE6
  8
AM_VIS
 10
-1901.0866690876051
 20
400.26847658150922
 30
0.0
  0
VERTEX
  5
3AE7
  8
AM_VIS
 10
-1901.08768074005
 20
400.55904712630308
 30
0.0
  0
VERTEX
  5
3AE8
  8
AM_VIS
 10
-1901.085903103417
 20
400.6753589238001
 30
0.0
  0
SEQEND
  5
3AE9
  8
AM_VIS
  0
POLYLINE
  5
1B35
  8
AM_VIS
 66
     1
 10
0.0
 20
0.0
 30
0.0
  0
VERTEX
  5
3AEA
  8
AM_VIS
 10
-1901.0711110068819
 20
400.1753779622681
 30
0.0
  0
VERTEX
  5
3AEB
  8
AM_VIS
 10
-1901.0866690876051
 20
400.26847658150922
 30
0.0
  0
SEQEND
  5
3AEC
  8
AM_VIS
  0
LINE
  5
1B39
  8
AM_VIS
 10
-1898.2614069322169
 20
397.49382554955372
 30
0.0
 11
-1901.607609807098
 21
397.49382554955372
 31
0.0
  0
POLYLINE
  5
1B3A
  8
AM_VIS
 66
     1
 10
0.0
 20
0.0
 30
0.0
  0
VERTEX
  5
3AED
  8
AM_VIS
 10
-1903.067092711012
 20
397.94064118044059
 30
0.0
  0
VERTEX
  5
3AEE
  8
AM_VIS
 10
-1903.7741771868209
 20
397.64776373318591
 30
0.0
  0
VERTEX
  5
3AEF
  8
AM_VIS
 10
-1904.0670546340759
 20
396.9406792573763
 30
0.0
  0
SEQEND
  5
3AF0
  8
AM_VIS
  0
LINE
  5
1B3B
  8
AM_VIS
 10
-1887.2715963732519
 20
385.4406221419726
 30
0.0
 11
-1887.2715963732519
 21
397.97100691228292
 31
0.0
  0
LINE
  5
1B3C
  8
AM_VIS
 10
-1889.301962105239
 20
385.4406221419726
 30
0.0
 11
-1889.301962105239
 21
396.94064118044111
 31
0.0
  0
POLYLINE
  5
1B3D
  8
AM_VIS
 66
     1
 10
0.0
 20
0.0
 30
0.0
  0
VERTEX
  5
3AF1
  8
AM_VIS
 10
-1890.301924028304
 20
383.1755486518727
 30
0.0
  0
VERTEX
  5
3AF2
  8
AM_VIS
 10
-1889.594839552494
 20
383.4684260991275
 30
0.0
  0
VERTEX
  5
3AF3
  8
AM_VIS
 10
-1889.301962105239
 20
384.1755105749366
 30
0.0
  0
SEQEND
  5
3AF4
  8
AM_VIS
  0
LINE
  5
1B3F
  8
AM_VIS
 10
-1890.301924028304
 20
383.1755486518727
 30
0.0
 11
-1894.234508369658
 21
383.1755486518727
 31
0.0
  0
LINE
  5
1B41
  8
AM_VIS
 10
-1894.234508369658
 20
385.6349934788509
 30
0.0
 11
-1889.7487777361259
 21
385.6349934788509
 31
0.0
  0
POLYLINE
  5
1B43
  8
AM_VIS
 66
     1
 10
0.0
 20
0.0
 30
0.0
  0
VERTEX
  5
3AF5
  8
AM_VIS
 10
-1886.567244362149
 20
386.1748068292527
 30
0.0
  0
VERTEX
  5
3AF6
  8
AM_VIS
 10
-1886.6835561595101
 20
386.17302919262011
 30
0.0
  0
VERTEX
  5
3AF7
  8
AM_VIS
 10
-1886.9741267040249
 20
386.17404084506143
 30
0.0
  0
SEQEND
  5
3AF8
  8
AM_VIS
  0
POLYLINE
  5
1B44
  8
AM_VIS
 66
     1
 10
0.0
 20
0.0
 30
0.0
  0
VERTEX
  5
3AF9
  8
AM_VIS
 10
-1886.9741267040249
 20
386.17404084506143
 30
0.0
  0
VERTEX
  5
3AFA
  8
AM_VIS
 10
-1887.067225323681
 20
386.18959892592238
 30
0.0
  0
SEQEND
  5
3AFB
  8
AM_VIS
  0
POLYLINE
  5
1B45
  8
AM_VIS
 66
     1
 10
0.0
 20
0.0
 30
0.0
  0
VERTEX
  5
3AFC
  8
AM_VIS
 10
-1887.2715963732519
 20
386.47394189091779
 30
0.0
  0
VERTEX
  5
3AFD
  8
AM_VIS
 10
-1887.2152035645549
 20
386.2988552816168
 30
0.0
  0
VERTEX
  5
3AFE
  8
AM_VIS
 10
-1887.067225323681
 20
386.18959892592261
 30
0.0
  0
SEQEND
  5
3AFF
  8
AM_VIS
  0
POLYLINE
  5
1B46
  8
AM_VIS
 66
     1
 10
0.0
 20
0.0
 30
0.0
  0
VERTEX
  5
3B00
  8
AM_VIS
 10
-1887.2715963732519
 20
385.4406221419726
 30
0.0
  0
VERTEX
  5
3B01
  8
AM_VIS
 10
-1887.41803509688
 20
385.0870799040681
 30
0.0
  0
VERTEX
  5
3B02
  8
AM_VIS
 10
-1887.771577334785
 20
384.94064118044071
 30
0.0
  0
SEQEND
  5
3B03
  8
AM_VIS
  0
LINE
  5
1B47
  8
AM_VIS
 10
-1887.771577334785
 20
384.94064118044071
 30
0.0
 11
-1888.8019811437071
 21
384.94064118044071
 31
0.0
  0
POLYLINE
  5
1B48
  8
AM_VIS
 66
     1
 10
0.0
 20
0.0
 30
0.0
  0
VERTEX
  5
3B04
  8
AM_VIS
 10
-1888.8019811437071
 20
384.94064118044071
 30
0.0
  0
VERTEX
  5
3B05
  8
AM_VIS
 10
-1889.1555233816121
 20
385.0870799040681
 30
0.0
  0
VERTEX
  5
3B06
  8
AM_VIS
 10
-1889.301962105239
 20
385.4406221419726
 30
0.0
  0
SEQEND
  5
3B07
  8
AM_VIS
  0
LINE
  5
1B4A
  8
AM_VIS
 10
-1889.7487777361259
 20
385.6349934788509
 30
0.0
 11
-1889.7487777361259
 21
388.98119635373132
 31
0.0
  0
LINE
  5
1B4B
  8
AM_VIS
 10
-1889.301962105239
 20
385.4406221419726
 30
0.0
 11
-1889.301962105239
 21
384.1755105749366
 31
0.0
  0
LINE
  5
1B4D
  8
AM_VIS
 10
-1886.0041932765289
 20
386.73785791487262
 30
0.0
 11
-1886.5672443621479
 21
386.1748068292527
 31
0.0
  0
ARC
  5
1B4F
  8
AM_VIS
 10
-1889.271596373253
 20
397.97100691228297
 30
0.0
 40
2.0
 50
0.0
 51
90.000000000000881
  0
ARC
  5
1B50
  8
AM_VIS
 10
-1890.3019621052399
 20
396.94064118044128
 30
0.0
 40
1.0
 50
0.0
 51
90.000000000002103
  0
LINE
  5
1B51
  8
AM_VIS
 10
-2066.0274659516222
 20
149.3980940789283
 30
0.0
 11
-2066.025324892094
 21
397.92353040783382
 31
0.0
  0
LINE
  5
1B52
  8
AM_VIS
 10
-2062.527599220693
 20
145.89822734820379
 30
0.0
 11
-1889.4414175195309
 21
145.89822734820379
 31
0.0
  0
LINE
  5
1B53
  8
AM_VIS
 10
-2062.5275992202378
 20
401.30105249780121
 30
0.0
 11
-1889.441417519077
 21
401.30105249780121
 31
0.0
  0
LINE
  5
1B54
  8
AM_VIS
 10
-1885.9436918476761
 20
149.2757494381712
 30
0.0
 11
-1885.9415507881481
 21
397.80118576707667
 31
0.0
  0
LINE
  5
1B78
  8
L1
  6
HIDDEN
 62
     1
 10
-1559.6133368850351
 20
475.83025328855911
 30
0.0
 11
-1559.490999114093
 21
482.83897949177771
 31
0.0
  0
LINE
  5
1B79
  8
L1
  6
HIDDEN
 62
     1
 10
-1552.591530863747
 20
482.83897949177771
 30
0.0
 11
-1552.469193092805
 21
475.83025328855911
 31
0.0
  0
LINE
  5
1B7A
  8
L1
  6
HIDDEN
 62
     1
 10
-1558.0412649889199
 20
483.33025328855911
 30
0.0
 11
-1558.0412649889199
 21
481.7302532885592
 31
0.0
  0
LINE
  5
1B7B
  8
L1
  6
HIDDEN
 62
     1
 10
-1558.0412649889199
 20
483.33025328855911
 30
0.0
 11
-1558.209531733075
 21
483.33025328855911
 31
0.0
  0
LINE
  5
1B7C
  8
L1
  6
HIDDEN
 62
     1
 10
-1558.209531733075
 20
483.33025328855911
 30
0.0
 11
-1558.9910752665151
 21
483.33025328855911
 31
0.0
  0
ARC
  5
1B7D
  8
L1
  6
HIDDEN
 62
     1
 10
-1558.991075266516
 20
482.83025328855922
 30
0.0
 40
0.5
 50
90.000000000000028
 51
178.9999999999998
  0
POLYLINE
  5
1B7E
  8
L1
  6
HIDDEN
 62
     1
 66
     1
 10
0.0
 20
0.0
 30
0.0
  0
VERTEX
  5
3B08
  8
L1
  6
HIDDEN
 62
     1
 10
-1558.8520772441921
 20
482.83897949177771
 30
0.0
  0
VERTEX
  5
3B09
  8
L1
  6
HIDDEN
 62
     1
 10
-1558.8757957620869
 20
481.7302532885592
 30
0.0
  0
SEQEND
  5
3B0A
  8
L1
  6
HIDDEN
 62
     1
  0
POLYLINE
  5
1B7F
  8
L1
  6
HIDDEN
 62
     1
 66
     1
 10
0.0
 20
0.0
 30
0.0
  0
VERTEX
  5
3B0B
  8
L1
  6
HIDDEN
 62
     1
 10
-1558.209531733075
 20
483.33025328855911
 30
0.0
  0
VERTEX
  5
3B0C
  8
L1
  6
HIDDEN
 62
     1
 10
-1558.351179891893
 20
483.31896853751948
 30
0.0
  0
VERTEX
  5
3B0D
  8
L1
  6
HIDDEN
 62
     1
 10
-1558.4886442973509
 20
483.28362893419211
 30
0.0
  0
VERTEX
  5
3B0E
  8
L1
  6
HIDDEN
 62
     1
 10
-1558.595721980598
 20
483.23435334828542
 30
0.0
  0
VERTEX
  5
3B0F
  8
L1
  6
HIDDEN
 62
     1
 10
-1558.691576624718
 20
483.16605707123131
 30
0.0
  0
VERTEX
  5
3B10
  8
L1
  6
HIDDEN
 62
     1
 10
-1558.7606043975229
 20
483.0923344401744
 30
0.0
  0
VERTEX
  5
3B11
  8
L1
  6
HIDDEN
 62
     1
 10
-1558.812880421789
 20
483.00608786871987
 30
0.0
  0
VERTEX
  5
3B12
  8
L1
  6
HIDDEN
 62
     1
 10
-1558.8421333389331
 20
482.92029062378703
 30
0.0
  0
VERTEX
  5
3B13
  8
L1
  6
HIDDEN
 62
     1
 10
-1558.8520772441921
 20
482.83897949177771
 30
0.0
  0
SEQEND
  5
3B14
  8
L1
  6
HIDDEN
 62
     1
  0
LINE
  5
1B80
  8
L1
  6
HIDDEN
 62
     1
 10
-1554.0412649889199
 20
483.33025328855911
 30
0.0
 11
-1554.0412649889199
 21
481.7302532885592
 31
0.0
  0
LINE
  5
1B81
  8
L1
  6
HIDDEN
 62
     1
 10
-1553.8729982447651
 20
483.33025328855911
 30
0.0
 11
-1554.0412649889199
 21
483.33025328855911
 31
0.0
  0
LINE
  5
1B82
  8
L1
  6
HIDDEN
 62
     1
 10
-1553.0914547113241
 20
483.33025328855911
 30
0.0
 11
-1553.8729982447651
 21
483.33025328855911
 31
0.0
  0
ARC
  5
1B83
  8
L1
  6
HIDDEN
 62
     1
 10
-1553.091454711325
 20
482.83025328855922
 30
0.0
 40
0.5
 50
1.0000000000001561
 51
90.000000000000028
  0
POLYLINE
  5
1B84
  8
L1
  6
HIDDEN
 62
     1
 66
     1
 10
0.0
 20
0.0
 30
0.0
  0
VERTEX
  5
3B15
  8
L1
  6
HIDDEN
 62
     1
 10
-1553.2067342157529
 20
481.7302532885592
 30
0.0
  0
VERTEX
  5
3B16
  8
L1
  6
HIDDEN
 62
     1
 10
-1553.230452733648
 20
482.83897949177771
 30
0.0
  0
SEQEND
  5
3B17
  8
L1
  6
HIDDEN
 62
     1
  0
POLYLINE
  5
1B85
  8
L1
  6
HIDDEN
 62
     1
 66
     1
 10
0.0
 20
0.0
 30
0.0
  0
VERTEX
  5
3B18
  8
L1
  6
HIDDEN
 62
     1
 10
-1553.230452733648
 20
482.83897949177771
 30
0.0
  0
VERTEX
  5
3B19
  8
L1
  6
HIDDEN
 62
     1
 10
-1553.2403966389079
 20
482.92029062378703
 30
0.0
  0
VERTEX
  5
3B1A
  8
L1
  6
HIDDEN
 62
     1
 10
-1553.269649556051
 20
483.00608786871987
 30
0.0
  0
VERTEX
  5
3B1B
  8
L1
  6
HIDDEN
 62
     1
 10
-1553.3219255803169
 20
483.0923344401744
 30
0.0
  0
VERTEX
  5
3B1C
  8
L1
  6
HIDDEN
 62
     1
 10
-1553.3909533531221
 20
483.16605707123131
 30
0.0
  0
VERTEX
  5
3B1D
  8
L1
  6
HIDDEN
 62
     1
 10
-1553.4868079972421
 20
483.23435334828542
 30
0.0
  0
VERTEX
  5
3B1E
  8
L1
  6
HIDDEN
 62
     1
 10
-1553.5938856804889
 20
483.28362893419211
 30
0.0
  0
VERTEX
  5
3B1F
  8
L1
  6
HIDDEN
 62
     1
 10
-1553.731350085947
 20
483.31896853751948
 30
0.0
  0
VERTEX
  5
3B20
  8
L1
  6
HIDDEN
 62
     1
 10
-1553.8729982447651
 20
483.33025328855911
 30
0.0
  0
SEQEND
  5
3B21
  8
L1
  6
HIDDEN
 62
     1
  0
LINE
  5
1B86
  8
L1
  6
HIDDEN
 62
     1
 10
-1554.0412649889199
 20
483.33025328855911
 30
0.0
 11
-1558.0412649889199
 21
483.33025328855911
 31
0.0
  0
LINE
  5
1B87
  8
L1
  6
HIDDEN
 62
     1
 10
-1553.2067342157529
 20
481.7302532885592
 30
0.0
 11
-1558.8757957620869
 21
481.7302532885592
 31
0.0
  0
LINE
  5
1B88
  8
L1
  6
HIDDEN
 62
     1
 10
-1653.2067342157529
 20
481.7302532885592
 30
0.0
 11
-1658.8757957620869
 21
481.7302532885592
 31
0.0
  0
LINE
  5
1B89
  8
L1
  6
HIDDEN
 62
     1
 10
-1654.0412649889199
 20
483.33025328855911
 30
0.0
 11
-1658.0412649889199
 21
483.33025328855911
 31
0.0
  0
LINE
  5
1B8A
  8
L1
  6
HIDDEN
 62
     1
 10
-1652.5915308637459
 20
482.83897949177771
 30
0.0
 11
-1652.469193092805
 21
475.83025328855911
 31
0.0
  0
POLYLINE
  5
1B8B
  8
L1
  6
HIDDEN
 62
     1
 66
     1
 10
0.0
 20
0.0
 30
0.0
  0
VERTEX
  5
3B22
  8
L1
  6
HIDDEN
 62
     1
 10
-1653.230452733648
 20
482.83897949177771
 30
0.0
  0
VERTEX
  5
3B23
  8
L1
  6
HIDDEN
 62
     1
 10
-1653.240396638907
 20
482.92029062378703
 30
0.0
  0
VERTEX
  5
3B24
  8
L1
  6
HIDDEN
 62
     1
 10
-1653.269649556051
 20
483.00608786871987
 30
0.0
  0
VERTEX
  5
3B25
  8
L1
  6
HIDDEN
 62
     1
 10
-1653.3219255803181
 20
483.0923344401744
 30
0.0
  0
VERTEX
  5
3B26
  8
L1
  6
HIDDEN
 62
     1
 10
-1653.3909533531221
 20
483.16605707123131
 30
0.0
  0
VERTEX
  5
3B27
  8
L1
  6
HIDDEN
 62
     1
 10
-1653.4868079972421
 20
483.23435334828542
 30
0.0
  0
VERTEX
  5
3B28
  8
L1
  6
HIDDEN
 62
     1
 10
-1653.5938856804889
 20
483.28362893419211
 30
0.0
  0
VERTEX
  5
3B29
  8
L1
  6
HIDDEN
 62
     1
 10
-1653.731350085947
 20
483.31896853751948
 30
0.0
  0
VERTEX
  5
3B2A
  8
L1
  6
HIDDEN
 62
     1
 10
-1653.8729982447651
 20
483.33025328855911
 30
0.0
  0
SEQEND
  5
3B2B
  8
L1
  6
HIDDEN
 62
     1
  0
POLYLINE
  5
1B8C
  8
L1
  6
HIDDEN
 62
     1
 66
     1
 10
0.0
 20
0.0
 30
0.0
  0
VERTEX
  5
3B2C
  8
L1
  6
HIDDEN
 62
     1
 10
-1653.2067342157529
 20
481.7302532885592
 30
0.0
  0
VERTEX
  5
3B2D
  8
L1
  6
HIDDEN
 62
     1
 10
-1653.230452733648
 20
482.83897949177771
 30
0.0
  0
SEQEND
  5
3B2E
  8
L1
  6
HIDDEN
 62
     1
  0
ARC
  5
1B8D
  8
L1
  6
HIDDEN
 62
     1
 10
-1653.091454711325
 20
482.83025328855922
 30
0.0
 40
0.5
 50
1.0000000000001561
 51
90.000000000000028
  0
LINE
  5
1B8E
  8
L1
  6
HIDDEN
 62
     1
 10
-1653.091454711325
 20
483.33025328855911
 30
0.0
 11
-1653.8729982447651
 21
483.33025328855911
 31
0.0
  0
LINE
  5
1B8F
  8
L1
  6
HIDDEN
 62
     1
 10
-1653.8729982447651
 20
483.33025328855911
 30
0.0
 11
-1654.0412649889199
 21
483.33025328855911
 31
0.0
  0
LINE
  5
1B90
  8
L1
  6
HIDDEN
 62
     1
 10
-1654.0412649889199
 20
483.33025328855911
 30
0.0
 11
-1654.0412649889199
 21
481.7302532885592
 31
0.0
  0
LINE
  5
1B91
  8
L1
  6
HIDDEN
 62
     1
 10
-1659.6133368850351
 20
475.83025328855911
 30
0.0
 11
-1659.4909991140939
 21
482.83897949177771
 31
0.0
  0
POLYLINE
  5
1B92
  8
L1
  6
HIDDEN
 62
     1
 66
     1
 10
0.0
 20
0.0
 30
0.0
  0
VERTEX
  5
3B2F
  8
L1
  6
HIDDEN
 62
     1
 10
-1658.209531733075
 20
483.33025328855911
 30
0.0
  0
VERTEX
  5
3B30
  8
L1
  6
HIDDEN
 62
     1
 10
-1658.351179891893
 20
483.31896853751948
 30
0.0
  0
VERTEX
  5
3B31
  8
L1
  6
HIDDEN
 62
     1
 10
-1658.4886442973509
 20
483.28362893419211
 30
0.0
  0
VERTEX
  5
3B32
  8
L1
  6
HIDDEN
 62
     1
 10
-1658.595721980598
 20
483.23435334828542
 30
0.0
  0
VERTEX
  5
3B33
  8
L1
  6
HIDDEN
 62
     1
 10
-1658.691576624718
 20
483.16605707123131
 30
0.0
  0
VERTEX
  5
3B34
  8
L1
  6
HIDDEN
 62
     1
 10
-1658.760604397522
 20
483.0923344401744
 30
0.0
  0
VERTEX
  5
3B35
  8
L1
  6
HIDDEN
 62
     1
 10
-1658.812880421789
 20
483.00608786871987
 30
0.0
  0
VERTEX
  5
3B36
  8
L1
  6
HIDDEN
 62
     1
 10
-1658.8421333389319
 20
482.92029062378703
 30
0.0
  0
VERTEX
  5
3B37
  8
L1
  6
HIDDEN
 62
     1
 10
-1658.8520772441921
 20
482.83897949177771
 30
0.0
  0
SEQEND
  5
3B38
  8
L1
  6
HIDDEN
 62
     1
  0
POLYLINE
  5
1B93
  8
L1
  6
HIDDEN
 62
     1
 66
     1
 10
0.0
 20
0.0
 30
0.0
  0
VERTEX
  5
3B39
  8
L1
  6
HIDDEN
 62
     1
 10
-1658.8520772441921
 20
482.83897949177771
 30
0.0
  0
VERTEX
  5
3B3A
  8
L1
  6
HIDDEN
 62
     1
 10
-1658.8757957620869
 20
481.7302532885592
 30
0.0
  0
SEQEND
  5
3B3B
  8
L1
  6
HIDDEN
 62
     1
  0
ARC
  5
1B94
  8
L1
  6
HIDDEN
 62
     1
 10
-1658.991075266516
 20
482.83025328855922
 30
0.0
 40
0.5
 50
90.000000000000028
 51
178.9999999999998
  0
LINE
  5
1B95
  8
L1
  6
HIDDEN
 62
     1
 10
-1658.209531733075
 20
483.33025328855911
 30
0.0
 11
-1658.991075266516
 21
483.33025328855911
 31
0.0
  0
LINE
  5
1B96
  8
L1
  6
HIDDEN
 62
     1
 10
-1658.0412649889199
 20
483.33025328855911
 30
0.0
 11
-1658.209531733075
 21
483.33025328855911
 31
0.0
  0
LINE
  5
1B97
  8
L1
  6
HIDDEN
 62
     1
 10
-1658.0412649889199
 20
483.33025328855911
 30
0.0
 11
-1658.0412649889199
 21
481.7302532885592
 31
0.0
  0
LINE
  5
2456
  8
AM_VIS
  6
CENTER2
 62
     1
 10
-1717.6602525634589
 20
273.44118492971421
 30
0.0
 11
-1494.58911366651
 21
273.44118492971421
 31
0.0
  0
LINE
  5
2457
  8
AM_VIS
  6
CENTER2
 62
     1
 10
-1606.0412649889199
 20
418.17331908012721
 30
0.0
 11
-1606.0412649889199
 21
124.4606823463109
 31
0.0
  0
LINE
  5
245B
  8
AM_VIS
  6
CENTER2
 62
     1
 10
-1606.0412649889199
 20
569.46295298872838
 30
0.0
 11
-1606.0412649889199
 21
448.01910413744622
 31
0.0
  0
LINE
  5
245D
  8
AM_VIS
  6
CENTER2
 62
     1
 10
-2105.0874536175029
 20
273.44118492971421
 30
0.0
 11
-1871.101267640018
 21
273.44118492971421
 31
0.0
  0
LINE
  5
245E
  8
AM_VIS
  6
CENTER2
 62
     1
 10
-1472.988975426407
 20
273.44118492971421
 30
0.0
 11
-1351.9736470157311
 21
273.44118492971421
 31
0.0
  0
LINE
  5
245F
  8
AM_VIS
  6
CENTER2
 62
     1
 10
-1846.9030108187069
 20
273.44118492971421
 30
0.0
 11
-1733.882997654511
 21
273.44118492971421
 31
0.0
  0
LINE
  5
2460
  8
AM_VIS
  6
CENTER2
 62
     1
 10
-1975.984508369658
 20
418.49022906670439
 30
0.0
 11
-1975.984508369658
 21
124.7775923328881
 31
0.0
  0
POLYLINE
  5
2D19
  8
AM_VIS
 66
     1
 10
0.0
 20
0.0
 30
0.0
  0
VERTEX
  5
3B3C
  8
AM_VIS
 10
-1695.284253031979
 20
397.48427578030299
 30
0.0
 42
-0.414213562351808
  0
VERTEX
  5
3B3D
  8
AM_VIS
 10
-1692.584355839705
 20
400.18417297277273
 30
0.0
 42
0.5450469096218216
  0
SEQEND
  5
3B3E
  8
AM_VIS
  0
POLYLINE
  5
2D1B
  8
AM_VIS
 66
     1
 10
0.0
 20
0.0
 30
0.0
  0
VERTEX
  5
3B3F
  8
AM_VIS
 10
-1696.08422257043
 20
273.44118492971421
 30
0.0
  0
VERTEX
  5
3B40
  8
AM_VIS
 10
-1696.08422257043
 20
397.48414251122421
 30
0.0
 42
-0.4142135623730951
  0
VERTEX
  5
3B41
  8
AM_VIS
 10
-1692.58422257043
 20
400.98414251122421
 30
0.0
  0
VERTEX
  5
3B42
  8
AM_VIS
 10
-1606.0412649889199
 20
400.98414251122421
 30
0.0
  0
SEQEND
  5
3B43
  8
AM_VIS
  0
POLYLINE
  5
2D1C
  8
AM_VIS
 66
     1
 10
0.0
 20
0.0
 30
0.0
  0
VERTEX
  5
3B44
  8
AM_VIS
 10
-1515.99830740741
 20
273.44118492971421
 30
0.0
  0
VERTEX
  5
3B45
  8
AM_VIS
 10
-1515.99830740741
 20
397.48414251122421
 30
0.0
 42
0.4142135623730951
  0
VERTEX
  5
3B46
  8
AM_VIS
 10
-1519.49830740741
 20
400.98414251122421
 30
0.0
  0
VERTEX
  5
3B47
  8
AM_VIS
 10
-1606.0412649889199
 20
400.98414251122421
 30
0.0
  0
SEQEND
  5
3B48
  8
AM_VIS
  0
POLYLINE
  5
2D1D
  8
AM_VIS
 66
     1
 10
0.0
 20
0.0
 30
0.0
  0
VERTEX
  5
3B49
  8
AM_VIS
 10
-1515.99830740741
 20
273.44118492971421
 30
0.0
  0
VERTEX
  5
3B4A
  8
AM_VIS
 10
-1515.99830740741
 20
149.39822734820419
 30
0.0
 42
-0.4142135623730951
  0
VERTEX
  5
3B4B
  8
AM_VIS
 10
-1519.49830740741
 20
145.89822734820419
 30
0.0
  0
VERTEX
  5
3B4C
  8
AM_VIS
 10
-1606.0412649889199
 20
145.89822734820419
 30
0.0
  0
SEQEND
  5
3B4D
  8
AM_VIS
  0
POLYLINE
  5
2D1E
  8
AM_VIS
 66
     1
 10
0.0
 20
0.0
 30
0.0
  0
VERTEX
  5
3B4E
  8
AM_VIS
 10
-1696.08422257043
 20
273.44118492971421
 30
0.0
  0
VERTEX
  5
3B4F
  8
AM_VIS
 10
-1696.08422257043
 20
149.39822734820419
 30
0.0
 42
0.4142135623730951
  0
VERTEX
  5
3B50
  8
AM_VIS
 10
-1692.58422257043
 20
145.89822734820419
 30
0.0
  0
VERTEX
  5
3B51
  8
AM_VIS
 10
-1606.0412649889199
 20
145.89822734820419
 30
0.0
  0
SEQEND
  5
3B52
  8
AM_VIS
  0
POLYLINE
  5
2D1F
  8
AM_VIS
 66
     1
 10
0.0
 20
0.0
 30
0.0
  0
VERTEX
  5
3B53
  8
AM_VIS
 10
-1516.798276945862
 20
397.48427578030299
 30
0.0
 42
0.414213562351808
  0
VERTEX
  5
3B54
  8
AM_VIS
 10
-1519.498174138135
 20
400.18417297277273
 30
0.0
 42
-0.5450469096218216
  0
SEQEND
  5
3B55
  8
AM_VIS
  0
POLYLINE
  5
2D20
  8
AM_VIS
 66
     1
 10
0.0
 20
0.0
 30
0.0
  0
VERTEX
  5
3B56
  8
AM_VIS
 10
-1516.798276945862
 20
383.32792632446962
 30
0.0
  0
VERTEX
  5
3B57
  8
AM_VIS
 10
-1516.798276945862
 20
385.24092081249358
 30
0.0
  0
VERTEX
  5
3B58
  8
AM_VIS
 10
-1516.798276945862
 20
392.92728011181953
 30
0.0
  0
VERTEX
  5
3B59
  8
AM_VIS
 10
-1516.798276945862
 20
396.79207352110592
 30
0.0
  0
VERTEX
  5
3B5A
  8
AM_VIS
 10
-1516.798276945862
 20
397.27677379662032
 30
0.0
  0
VERTEX
  5
3B5B
  8
AM_VIS
 10
-1516.798276945862
 20
397.48427578030299
 30
0.0
  0
SEQEND
  5
3B5C
  8
AM_VIS
  0
LINE
  5
2D21
  8
AM_VIS
 10
-1692.584355839705
 20
146.69819688665569
 30
0.0
 11
-1519.498174138794
 21
146.69819688665569
 31
0.0
  0
POLYLINE
  5
2D22
  8
AM_VIS
 66
     1
 10
0.0
 20
0.0
 30
0.0
  0
VERTEX
  5
3B5D
  8
AM_VIS
 10
-1516.798276945862
 20
149.39809407912551
 30
0.0
 42
-0.414213562351808
  0
VERTEX
  5
3B5E
  8
AM_VIS
 10
-1519.498174138135
 20
146.69819688665569
 30
0.0
 42
0.5450469096218216
  0
SEQEND
  5
3B5F
  8
AM_VIS
  0
POLYLINE
  5
2D23
  8
AM_VIS
 66
     1
 10
0.0
 20
0.0
 30
0.0
  0
VERTEX
  5
3B60
  8
AM_VIS
 10
-1695.284253031979
 20
149.39809407912551
 30
0.0
 42
0.414213562351808
  0
VERTEX
  5
3B61
  8
AM_VIS
 10
-1692.584355839705
 20
146.69819688665569
 30
0.0
 42
-0.5450469096218216
  0
SEQEND
  5
3B62
  8
AM_VIS
  0
POLYLINE
  5
2D24
  8
AM_VIS
 66
     1
 10
0.0
 20
0.0
 30
0.0
  0
VERTEX
  5
3B63
  8
AM_VIS
 10
-1515.99830740741
 20
544.99256159366564
 30
0.0
  0
VERTEX
  5
3B64
  8
AM_VIS
 10
-1696.08422257043
 20
544.99256159366564
 30
0.0
  0
SEQEND
  5
3B65
  8
AM_VIS
  0
LINE
  5
2D25
  8
AM_VIS
 10
-1694.4393298865659
 20
470.79954282206432
 30
0.0
 11
-1680.0386583520981
 21
470.79954282206432
 31
0.0
  0
POLYLINE
  5
2D26
  8
AM_VIS
 66
     1
 10
0.0
 20
0.0
 30
0.0
  0
VERTEX
  5
3B66
  8
AM_VIS
 10
-1532.043871625742
 20
470.79954282206432
 30
0.0
  0
VERTEX
  5
3B67
  8
AM_VIS
 10
-1517.643200091275
 20
470.79954282206432
 30
0.0
  0
SEQEND
  5
3B68
  8
AM_VIS
  0
LINE
  5
2D27
  8
AM_VIS
 10
-1459.925372390604
 20
399.33924982748368
 30
0.0
 11
-1459.925372390604
 21
384.93857829316158
 31
0.0
  0
POLYLINE
  5
2D28
  8
AM_VIS
 66
     1
 10
0.0
 20
0.0
 30
0.0
  0
VERTEX
  5
3B69
  8
AM_VIS
 10
-1385.7323536190049
 20
145.89822734820379
 30
0.0
  0
VERTEX
  5
3B6A
  8
AM_VIS
 10
-1385.732353619002
 20
400.98414251122421
 30
0.0
  0
SEQEND
  5
3B6B
  8
AM_VIS
  0
POLYLINE
  5
2D29
  8
AM_VIS
 66
     1
 10
0.0
 20
0.0
 30
0.0
  0
VERTEX
  5
3B6C
  8
AM_VIS
 10
-1515.99830740741
 20
1.8898082657628941
 30
0.0
  0
VERTEX
  5
3B6D
  8
AM_VIS
 10
-1696.08422257043
 20
1.8898082657628941
 30
0.0
  0
SEQEND
  5
3B6E
  8
AM_VIS
  0
POLYLINE
  5
2D2A
  8
AM_VIS
 66
     1
 10
0.0
 20
0.0
 30
0.0
  0
VERTEX
  5
3B6F
  8
AM_VIS
 10
-1516.7982769458611
 20
1.0828270373642681
 30
0.0
  0
VERTEX
  5
3B70
  8
AM_VIS
 10
-1695.284253031979
 20
1.0828270373642681
 30
0.0
  0
SEQEND
  5
3B71
  8
AM_VIS
  0
LINE
  5
2D2B
  8
L1
  6
HIDDEN
 62
     1
 10
-1535.897630649966
 20
71.059128260816806
 30
0.0
 11
-1676.1848993278741
 21
71.059128260816806
 31
0.0
  0
LINE
  5
2D2C
  8
AM_VIS
 10
-1680.972768998414
 20
74.082827037364268
 30
0.0
 11
-1531.127867626145
 21
74.082827037364268
 31
0.0
  0
LINE
  5
2D2D
  8
AM_VIS
 10
-1678.19126498892
 20
1.0828270373642681
 30
0.0
 11
-1533.8912649889201
 21
1.0828270373642681
 31
0.0
  0
LINE
  5
2D2E
  8
L1
  6
HIDDEN
 62
     1
 10
-1676.1848993278741
 20
71.059128260816806
 30
0.0
 11
-1676.7887988448281
 21
1.859097799268056
 31
0.0
  0
LINE
  5
2D2F
  8
AM_VIS
 10
-1681.5210279875009
 20
9.0679264501109174
 30
0.0
 11
-1680.9579769018801
 21
73.587190305113381
 31
0.0
  0
LINE
  5
2D30
  8
AM_VIS
 10
-1695.4585289964291
 20
73.587190305113381
 30
0.0
 11
-1696.021580082049
 21
9.0679264501109174
 31
0.0
  0
LINE
  5
2D31
  8
AM_VIS
 10
-1695.3362589853909
 20
7.382836385286736
 30
0.0
 11
-1694.739318463485
 21
75.785444998013645
 31
0.0
  0
LINE
  5
2D32
  8
L1
  6
HIDDEN
 62
     1
 10
-1659.6133368850351
 20
71.05211657086943
 30
0.0
 11
-1659.4909991140939
 21
64.043390367650773
 31
0.0
  0
LINE
  5
2D33
  8
L1
  6
HIDDEN
 62
     1
 10
-1652.5915308637459
 20
64.043390367650773
 30
0.0
 11
-1652.469193092805
 21
71.05211657086943
 31
0.0
  0
LINE
  5
2D34
  8
AM_VIS
 10
-1694.4393298865659
 20
76.082827037364211
 30
0.0
 11
-1680.0386583520981
 21
76.082827037364211
 31
0.0
  0
POLYLINE
  5
2D35
  8
AM_VIS
 66
     1
 10
0.0
 20
0.0
 30
0.0
  0
VERTEX
  5
3B72
  8
AM_VIS
 10
-1680.957210917692
 20
74.074083230297674
 30
0.0
  0
VERTEX
  5
3B73
  8
AM_VIS
 10
-1680.972768998414
 20
74.082827037364268
 30
0.0
  0
SEQEND
  5
3B74
  8
AM_VIS
  0
POLYLINE
  5
2D36
  8
AM_VIS
 66
     1
 10
0.0
 20
0.0
 30
0.0
  0
VERTEX
  5
3B75
  8
AM_VIS
 10
-1681.2571119635491
 20
74.082827037364268
 30
0.0
  0
VERTEX
  5
3B76
  8
AM_VIS
 10
-1681.082025354071
 20
74.082827037364268
 30
0.0
  0
VERTEX
  5
3B77
  8
AM_VIS
 10
-1680.972768998414
 20
74.082827037364268
 30
0.0
  0
SEQEND
  5
3B78
  8
AM_VIS
  0
POLYLINE
  5
2D37
  8
AM_VIS
 66
     1
 10
0.0
 20
0.0
 30
0.0
  0
VERTEX
  5
3B79
  8
AM_VIS
 10
-1694.9585480348969
 20
74.082827037364268
 30
0.0
  0
VERTEX
  5
3B7A
  8
AM_VIS
 10
-1694.810569794023
 20
74.082827037364268
 30
0.0
  0
VERTEX
  5
3B7B
  8
AM_VIS
 10
-1694.754176985326
 20
74.082827037364268
 30
0.0
  0
SEQEND
  5
3B7C
  8
AM_VIS
  0
POLYLINE
  5
2D38
  8
AM_VIS
 66
     1
 10
0.0
 20
0.0
 30
0.0
  0
VERTEX
  5
3B7D
  8
AM_VIS
 10
-1695.051646654553
 20
74.074083230219003
 30
0.0
  0
VERTEX
  5
3B7E
  8
AM_VIS
 10
-1695.3422171990669
 20
73.903448266332362
 30
0.0
  0
VERTEX
  5
3B7F
  8
AM_VIS
 10
-1695.4585289964291
 20
73.587190305113381
 30
0.0
  0
SEQEND
  5
3B80
  8
AM_VIS
  0
POLYLINE
  5
2D39
  8
AM_VIS
 66
     1
 10
0.0
 20
0.0
 30
0.0
  0
VERTEX
  5
3B81
  8
AM_VIS
 10
-1694.9585480348969
 20
74.082827037364268
 30
0.0
  0
VERTEX
  5
3B82
  8
AM_VIS
 10
-1695.051646654553
 20
74.074083230219003
 30
0.0
  0
SEQEND
  5
3B83
  8
AM_VIS
  0
ARC
  5
2D3A
  8
AM_VIS
 10
-1694.4393298865659
 20
75.782827037364186
 30
0.0
 40
0.3
 50
90.000000000000028
 51
179.50000000000469
  0
POLYLINE
  5
2D3B
  8
AM_VIS
 66
     1
 10
0.0
 20
0.0
 30
0.0
  0
VERTEX
  5
3B84
  8
AM_VIS
 10
-1680.9579769018801
 20
73.587190305113381
 30
0.0
  0
VERTEX
  5
3B85
  8
AM_VIS
 10
-1680.9561992652471
 20
73.903448266494252
 30
0.0
  0
VERTEX
  5
3B86
  8
AM_VIS
 10
-1680.957210917692
 20
74.074083230297447
 30
0.0
  0
SEQEND
  5
3B87
  8
AM_VIS
  0
ARC
  5
2D3C
  8
AM_VIS
 10
-1680.0386583520981
 20
75.782827037364186
 30
0.0
 40
0.2999999999999999
 50
0.5000000000170817
 51
90.000000000000028
  0
LINE
  5
2D3D
  8
AM_VIS
 10
-1679.738669775179
 20
75.785444998013872
 30
0.0
 11
-1679.7238112533389
 21
74.082827037364495
 31
0.0
  0
LINE
  5
2D3E
  8
L1
  6
HIDDEN
 62
     1
 10
-1654.0412649889199
 20
63.55211657086943
 30
0.0
 11
-1658.0412649889199
 21
63.55211657086943
 31
0.0
  0
LINE
  5
2D3F
  8
L1
  6
HIDDEN
 62
     1
 10
-1653.2067342157529
 20
65.152116570869339
 30
0.0
 11
-1658.8757957620869
 21
65.152116570869339
 31
0.0
  0
LINE
  5
2D40
  8
L1
  6
HIDDEN
 62
     1
 10
-1658.0412649889199
 20
63.55211657086943
 30
0.0
 11
-1658.0412649889199
 21
65.152116570869339
 31
0.0
  0
LINE
  5
2D41
  8
L1
  6
HIDDEN
 62
     1
 10
-1658.0412649889199
 20
63.55211657086943
 30
0.0
 11
-1658.209531733075
 21
63.55211657086943
 31
0.0
  0
LINE
  5
2D42
  8
L1
  6
HIDDEN
 62
     1
 10
-1658.209531733075
 20
63.55211657086943
 30
0.0
 11
-1658.991075266516
 21
63.55211657086943
 31
0.0
  0
ARC
  5
2D43
  8
L1
  6
HIDDEN
 62
     1
 10
-1658.991075266516
 20
64.052116570869316
 30
0.0
 40
0.5
 50
181.00000000000011
 51
270.0
  0
POLYLINE
  5
2D44
  8
L1
  6
HIDDEN
 62
     1
 66
     1
 10
0.0
 20
0.0
 30
0.0
  0
VERTEX
  5
3B88
  8
L1
  6
HIDDEN
 62
     1
 10
-1658.8520772441921
 20
64.043390367650773
 30
0.0
  0
VERTEX
  5
3B89
  8
L1
  6
HIDDEN
 62
     1
 10
-1658.8757957620869
 20
65.152116570869339
 30
0.0
  0
SEQEND
  5
3B8A
  8
L1
  6
HIDDEN
 62
     1
  0
POLYLINE
  5
2D45
  8
L1
  6
HIDDEN
 62
     1
 66
     1
 10
0.0
 20
0.0
 30
0.0
  0
VERTEX
  5
3B8B
  8
L1
  6
HIDDEN
 62
     1
 10
-1658.209531733075
 20
63.55211657086943
 30
0.0
  0
VERTEX
  5
3B8C
  8
L1
  6
HIDDEN
 62
     1
 10
-1658.351179891893
 20
63.563401321908941
 30
0.0
  0
VERTEX
  5
3B8D
  8
L1
  6
HIDDEN
 62
     1
 10
-1658.4886442973509
 20
63.59874092523637
 30
0.0
  0
VERTEX
  5
3B8E
  8
L1
  6
HIDDEN
 62
     1
 10
-1658.595721980598
 20
63.648016511143169
 30
0.0
  0
VERTEX
  5
3B8F
  8
L1
  6
HIDDEN
 62
     1
 10
-1658.691576624718
 20
63.716312788197229
 30
0.0
  0
VERTEX
  5
3B90
  8
L1
  6
HIDDEN
 62
     1
 10
-1658.760604397522
 20
63.790035419254082
 30
0.0
  0
VERTEX
  5
3B91
  8
L1
  6
HIDDEN
 62
     1
 10
-1658.812880421789
 20
63.876281990708549
 30
0.0
  0
VERTEX
  5
3B92
  8
L1
  6
HIDDEN
 62
     1
 10
-1658.8421333389319
 20
63.962079235641568
 30
0.0
  0
VERTEX
  5
3B93
  8
L1
  6
HIDDEN
 62
     1
 10
-1658.8520772441921
 20
64.043390367650773
 30
0.0
  0
SEQEND
  5
3B94
  8
L1
  6
HIDDEN
 62
     1
  0
LINE
  5
2D46
  8
L1
  6
HIDDEN
 62
     1
 10
-1654.0412649889199
 20
63.55211657086943
 30
0.0
 11
-1654.0412649889199
 21
65.152116570869339
 31
0.0
  0
LINE
  5
2D47
  8
L1
  6
HIDDEN
 62
     1
 10
-1653.8729982447651
 20
63.55211657086943
 30
0.0
 11
-1654.0412649889199
 21
63.55211657086943
 31
0.0
  0
LINE
  5
2D48
  8
L1
  6
HIDDEN
 62
     1
 10
-1653.091454711325
 20
63.55211657086943
 30
0.0
 11
-1653.8729982447651
 21
63.55211657086943
 31
0.0
  0
ARC
  5
2D49
  8
L1
  6
HIDDEN
 62
     1
 10
-1653.091454711325
 20
64.052116570869316
 30
0.0
 40
0.5
 50
270.0
 51
358.99999999999977
  0
POLYLINE
  5
2D4A
  8
L1
  6
HIDDEN
 62
     1
 66
     1
 10
0.0
 20
0.0
 30
0.0
  0
VERTEX
  5
3B95
  8
L1
  6
HIDDEN
 62
     1
 10
-1653.2067342157529
 20
65.152116570869339
 30
0.0
  0
VERTEX
  5
3B96
  8
L1
  6
HIDDEN
 62
     1
 10
-1653.230452733648
 20
64.043390367650773
 30
0.0
  0
SEQEND
  5
3B97
  8
L1
  6
HIDDEN
 62
     1
  0
POLYLINE
  5
2D4B
  8
L1
  6
HIDDEN
 62
     1
 66
     1
 10
0.0
 20
0.0
 30
0.0
  0
VERTEX
  5
3B98
  8
L1
  6
HIDDEN
 62
     1
 10
-1653.230452733648
 20
64.043390367650773
 30
0.0
  0
VERTEX
  5
3B99
  8
L1
  6
HIDDEN
 62
     1
 10
-1653.240396638907
 20
63.962079235641568
 30
0.0
  0
VERTEX
  5
3B9A
  8
L1
  6
HIDDEN
 62
     1
 10
-1653.269649556051
 20
63.876281990708549
 30
0.0
  0
VERTEX
  5
3B9B
  8
L1
  6
HIDDEN
 62
     1
 10
-1653.3219255803181
 20
63.790035419254082
 30
0.0
  0
VERTEX
  5
3B9C
  8
L1
  6
HIDDEN
 62
     1
 10
-1653.3909533531221
 20
63.716312788197229
 30
0.0
  0
VERTEX
  5
3B9D
  8
L1
  6
HIDDEN
 62
     1
 10
-1653.4868079972421
 20
63.648016511143169
 30
0.0
  0
VERTEX
  5
3B9E
  8
L1
  6
HIDDEN
 62
     1
 10
-1653.5938856804889
 20
63.59874092523637
 30
0.0
  0
VERTEX
  5
3B9F
  8
L1
  6
HIDDEN
 62
     1
 10
-1653.731350085947
 20
63.563401321908941
 30
0.0
  0
VERTEX
  5
3BA0
  8
L1
  6
HIDDEN
 62
     1
 10
-1653.8729982447651
 20
63.55211657086943
 30
0.0
  0
SEQEND
  5
3BA1
  8
L1
  6
HIDDEN
 62
     1
  0
POLYLINE
  5
2D4C
  8
AM_VIS
 10
-1681.5210279817031
 20
9.0679271145693434
 30
0.0
 66
     1
 70
     8
  0
VERTEX
  8
0
  5
3EF9
 10
-1681.52
 20
9.06793
 30
0.000000
  70
    32
  0
VERTEX
  8
0
  5
3EFA
 10
-1681.52
 20
9.04352
 30
0.000000
  70
    32
  0
VERTEX
  8
0
  5
3EFB
 10
-1681.52
 20
9.01913
 30
0.000000
  70
    32
  0
VERTEX
  8
0
  5
3EFC
 10
-1681.52
 20
8.99474
 30
0.000000
  70
    32
  0
VERTEX
  8
0
  5
3EFD
 10
-1681.52
 20
8.97036
 30
0.000000
  70
    32
  0
VERTEX
  8
0
  5
3EFE
 10
-1681.53
 20
8.94601
 30
0.000000
  70
    32
  0
VERTEX
  8
0
  5
3EFF
 10
-1681.53
 20
8.92167
 30
0.000000
  70
    32
  0
VERTEX
  8
0
  5
3F00
 10
-1681.53
 20
8.89736
 30
0.000000
  70
    32
  0
VERTEX
  8
0
  5
3F01
 10
-1681.53
 20
8.87308
 30
0.000000
  70
    32
  0
VERTEX
  8
0
  5
3F02
 10
-1681.53
 20
8.84882
 30
0.000000
  70
    32
  0
VERTEX
  8
0
  5
3F03
 10
-1681.54
 20
8.82461
 30
0.000000
  70
    32
  0
VERTEX
  8
0
  5
3F04
 10
-1681.54
 20
8.80043
 30
0.000000
  70
    32
  0
VERTEX
  8
0
  5
3F05
 10
-1681.54
 20
8.77629
 30
0.000000
  70
    32
  0
VERTEX
  8
0
  5
3F06
 10
-1681.55
 20
8.75220
 30
0.000000
  70
    32
  0
VERTEX
  8
0
  5
3F07
 10
-1681.55
 20
8.72816
 30
0.000000
  70
    32
  0
VERTEX
  8
0
  5
3F08
 10
-1681.56
 20
8.70418
 30
0.000000
  70
    32
  0
VERTEX
  8
0
  5
3F09
 10
-1681.56
 20
8.68025
 30
0.000000
  70
    32
  0
VERTEX
  8
0
  5
3F0A
 10
-1681.57
 20
8.65638
 30
0.000000
  70
    32
  0
VERTEX
  8
0
  5
3F0B
 10
-1681.57
 20
8.63257
 30
0.000000
  70
    32
  0
VERTEX
  8
0
  5
3F0C
 10
-1681.58
 20
8.60883
 30
0.000000
  70
    32
  0
VERTEX
  8
0
  5
3F0D
 10
-1681.58
 20
8.58517
 30
0.000000
  70
    32
  0
VERTEX
  8
0
  5
3F0E
 10
-1681.59
 20
8.56157
 30
0.000000
  70
    32
  0
VERTEX
  8
0
  5
3F0F
 10
-1681.60
 20
8.53806
 30
0.000000
  70
    32
  0
VERTEX
  8
0
  5
3F10
 10
-1681.60
 20
8.51463
 30
0.000000
  70
    32
  0
VERTEX
  8
0
  5
3F11
 10
-1681.61
 20
8.49128
 30
0.000000
  70
    32
  0
VERTEX
  8
0
  5
3F12
 10
-1681.62
 20
8.46802
 30
0.000000
  70
    32
  0
VERTEX
  8
0
  5
3F13
 10
-1681.63
 20
8.44485
 30
0.000000
  70
    32
  0
VERTEX
  8
0
  5
3F14
 10
-1681.63
 20
8.42178
 30
0.000000
  70
    32
  0
VERTEX
  8
0
  5
3F15
 10
-1681.64
 20
8.39880
 30
0.000000
  70
    32
  0
VERTEX
  8
0
  5
3F16
 10
-1681.65
 20
8.37593
 30
0.000000
  70
    32
  0
VERTEX
  8
0
  5
3F17
 10
-1681.66
 20
8.35317
 30
0.000000
  70
    32
  0
VERTEX
  8
0
  5
3F18
 10
-1681.67
 20
8.33051
 30
0.000000
  70
    32
  0
VERTEX
  8
0
  5
3F19
 10
-1681.68
 20
8.30796
 30
0.000000
  70
    32
  0
VERTEX
  8
0
  5
3F1A
 10
-1681.69
 20
8.28554
 30
0.000000
  70
    32
  0
VERTEX
  8
0
  5
3F1B
 10
-1681.70
 20
8.26323
 30
0.000000
  70
    32
  0
VERTEX
  8
0
  5
3F1C
 10
-1681.71
 20
8.24104
 30
0.000000
  70
    32
  0
VERTEX
  8
0
  5
3F1D
 10
-1681.72
 20
8.21898
 30
0.000000
  70
    32
  0
VERTEX
  8
0
  5
3F1E
 10
-1681.73
 20
8.19705
 30
0.000000
  70
    32
  0
VERTEX
  8
0
  5
3F1F
 10
-1681.74
 20
8.17525
 30
0.000000
  70
    32
  0
VERTEX
  8
0
  5
3F20
 10
-1681.75
 20
8.15358
 30
0.000000
  70
    32
  0
VERTEX
  8
0
  5
3F21
 10
-1681.76
 20
8.13206
 30
0.000000
  70
    32
  0
VERTEX
  8
0
  5
3F22
 10
-1681.77
 20
8.11067
 30
0.000000
  70
    32
  0
VERTEX
  8
0
  5
3F23
 10
-1681.79
 20
8.08943
 30
0.000000
  70
    32
  0
VERTEX
  8
0
  5
3F24
 10
-1681.80
 20
8.06834
 30
0.000000
  70
    32
  0
VERTEX
  8
0
  5
3F25
 10
-1681.81
 20
8.04741
 30
0.000000
  70
    32
  0
VERTEX
  8
0
  5
3F26
 10
-1681.82
 20
8.02662
 30
0.000000
  70
    32
  0
VERTEX
  8
0
  5
3F27
 10
-1681.84
 20
8.00600
 30
0.000000
  70
    32
  0
VERTEX
  8
0
  5
3F28
 10
-1681.85
 20
7.98553
 30
0.000000
  70
    32
  0
VERTEX
  8
0
  5
3F29
 10
-1681.86
 20
7.96523
 30
0.000000
  70
    32
  0
VERTEX
  8
0
  5
3F2A
 10
-1681.88
 20
7.94509
 30
0.000000
  70
    32
  0
VERTEX
  8
0
  5
3F2B
 10
-1681.89
 20
7.92513
 30
0.000000
  70
    32
  0
VERTEX
  8
0
  5
3F2C
 10
-1681.91
 20
7.90534
 30
0.000000
  70
    32
  0
VERTEX
  8
0
  5
3F2D
 10
-1681.92
 20
7.88572
 30
0.000000
  70
    32
  0
VERTEX
  8
0
  5
3F2E
 10
-1681.94
 20
7.86628
 30
0.000000
  70
    32
  0
VERTEX
  8
0
  5
3F2F
 10
-1681.95
 20
7.84702
 30
0.000000
  70
    32
  0
VERTEX
  8
0
  5
3F30
 10
-1681.97
 20
7.82795
 30
0.000000
  70
    32
  0
VERTEX
  8
0
  5
3F31
 10
-1681.98
 20
7.80907
 30
0.000000
  70
    32
  0
VERTEX
  8
0
  5
3F32
 10
-1682.00
 20
7.79037
 30
0.000000
  70
    32
  0
VERTEX
  8
0
  5
3F33
 10
-1682.01
 20
7.77187
 30
0.000000
  70
    32
  0
VERTEX
  8
0
  5
3F34
 10
-1682.03
 20
7.75356
 30
0.000000
  70
    32
  0
VERTEX
  8
0
  5
3F35
 10
-1682.05
 20
7.73546
 30
0.000000
  70
    32
  0
VERTEX
  8
0
  5
3F36
 10
-1682.06
 20
7.71755
 30
0.000000
  70
    32
  0
VERTEX
  8
0
  5
3F37
 10
-1682.08
 20
7.69985
 30
0.000000
  70
    32
  0
VERTEX
  8
0
  5
3F38
 10
-1682.10
 20
7.68235
 30
0.000000
  70
    32
  0
VERTEX
  8
0
  5
3F39
 10
-1682.11
 20
7.66506
 30
0.000000
  70
    32
  0
VERTEX
  8
0
  5
3F3A
 10
-1682.13
 20
7.64799
 30
0.000000
  70
    32
  0
VERTEX
  8
0
  5
3F3B
 10
-1682.15
 20
7.63112
 30
0.000000
  70
    32
  0
VERTEX
  8
0
  5
3F3C
 10
-1682.17
 20
7.61448
 30
0.000000
  70
    32
  0
VERTEX
  8
0
  5
3F3D
 10
-1682.18
 20
7.59805
 30
0.000000
  70
    32
  0
VERTEX
  8
0
  5
3F3E
 10
-1682.20
 20
7.58185
 30
0.000000
  70
    32
  0
VERTEX
  8
0
  5
3F3F
 10
-1682.22
 20
7.56586
 30
0.000000
  70
    32
  0
VERTEX
  8
0
  5
3F40
 10
-1682.24
 20
7.55011
 30
0.000000
  70
    32
  0
VERTEX
  8
0
  5
3F41
 10
-1682.26
 20
7.53458
 30
0.000000
  70
    32
  0
VERTEX
  8
0
  5
3F42
 10
-1682.28
 20
7.51929
 30
0.000000
  70
    32
  0
VERTEX
  8
0
  5
3F43
 10
-1682.30
 20
7.50423
 30
0.000000
  70
    32
  0
VERTEX
  8
0
  5
3F44
 10
-1682.32
 20
7.48940
 30
0.000000
  70
    32
  0
VERTEX
  8
0
  5
3F45
 10
-1682.34
 20
7.47481
 30
0.000000
  70
    32
  0
VERTEX
  8
0
  5
3F46
 10
-1682.35
 20
7.46046
 30
0.000000
  70
    32
  0
VERTEX
  8
0
  5
3F47
 10
-1682.37
 20
7.44636
 30
0.000000
  70
    32
  0
VERTEX
  8
0
  5
3F48
 10
-1682.40
 20
7.43249
 30
0.000000
  70
    32
  0
VERTEX
  8
0
  5
3F49
 10
-1682.42
 20
7.41888
 30
0.000000
  70
    32
  0
VERTEX
  8
0
  5
3F4A
 10
-1682.44
 20
7.40551
 30
0.000000
  70
    32
  0
VERTEX
  8
0
  5
3F4B
 10
-1682.46
 20
7.39239
 30
0.000000
  70
    32
  0
VERTEX
  8
0
  5
3F4C
 10
-1682.48
 20
7.37952
 30
0.000000
  70
    32
  0
VERTEX
  8
0
  5
3F4D
 10
-1682.50
 20
7.36691
 30
0.000000
  70
    32
  0
VERTEX
  8
0
  5
3F4E
 10
-1682.52
 20
7.35455
 30
0.000000
  70
    32
  0
VERTEX
  8
0
  5
3F4F
 10
-1682.54
 20
7.34246
 30
0.000000
  70
    32
  0
VERTEX
  8
0
  5
3F50
 10
-1682.56
 20
7.33062
 30
0.000000
  70
    32
  0
VERTEX
  8
0
  5
3F51
 10
-1682.58
 20
7.31904
 30
0.000000
  70
    32
  0
VERTEX
  8
0
  5
3F52
 10
-1682.60
 20
7.30772
 30
0.000000
  70
    32
  0
VERTEX
  8
0
  5
3F53
 10
-1682.63
 20
7.29667
 30
0.000000
  70
    32
  0
VERTEX
  8
0
  5
3F54
 10
-1682.65
 20
7.28589
 30
0.000000
  70
    32
  0
VERTEX
  8
0
  5
3F55
 10
-1682.67
 20
7.27538
 30
0.000000
  70
    32
  0
VERTEX
  8
0
  5
3F56
 10
-1682.69
 20
7.26513
 30
0.000000
  70
    32
  0
VERTEX
  8
0
  5
3F57
 10
-1682.71
 20
7.25515
 30
0.000000
  70
    32
  0
VERTEX
  8
0
  5
3F58
 10
-1682.74
 20
7.24545
 30
0.000000
  70
    32
  0
VERTEX
  8
0
  5
3F59
 10
-1682.76
 20
7.23602
 30
0.000000
  70
    32
  0
VERTEX
  8
0
  5
3F5A
 10
-1682.78
 20
7.22687
 30
0.000000
  70
    32
  0
VERTEX
  8
0
  5
3F5B
 10
-1682.80
 20
7.21800
 30
0.000000
  70
    32
  0
VERTEX
  8
0
  5
3F5C
 10
-1682.83
 20
7.20940
 30
0.000000
  70
    32
  0
VERTEX
  8
0
  5
3F5D
 10
-1682.85
 20
7.20108
 30
0.000000
  70
    32
  0
VERTEX
  8
0
  5
3F5E
 10
-1682.87
 20
7.19304
 30
0.000000
  70
    32
  0
VERTEX
  8
0
  5
3F5F
 10
-1682.90
 20
7.18529
 30
0.000000
  70
    32
  0
VERTEX
  8
0
  5
3F60
 10
-1682.92
 20
7.17781
 30
0.000000
  70
    32
  0
VERTEX
  8
0
  5
3F61
 10
-1682.94
 20
7.17062
 30
0.000000
  70
    32
  0
VERTEX
  8
0
  5
3F62
 10
-1682.97
 20
7.16372
 30
0.000000
  70
    32
  0
VERTEX
  8
0
  5
3F63
 10
-1682.99
 20
7.15710
 30
0.000000
  70
    32
  0
VERTEX
  8
0
  5
3F64
 10
-1683.01
 20
7.15077
 30
0.000000
  70
    32
  0
VERTEX
  8
0
  5
3F65
 10
-1683.04
 20
7.14473
 30
0.000000
  70
    32
  0
VERTEX
  8
0
  5
3F66
 10
-1683.06
 20
7.13898
 30
0.000000
  70
    32
  0
VERTEX
  8
0
  5
3F67
 10
-1683.09
 20
7.13351
 30
0.000000
  70
    32
  0
VERTEX
  8
0
  5
3F68
 10
-1683.11
 20
7.12834
 30
0.000000
  70
    32
  0
VERTEX
  8
0
  5
3F69
 10
-1683.13
 20
7.12346
 30
0.000000
  70
    32
  0
VERTEX
  8
0
  5
3F6A
 10
-1683.16
 20
7.11887
 30
0.000000
  70
    32
  0
VERTEX
  8
0
  5
3F6B
 10
-1683.18
 20
7.11457
 30
0.000000
  70
    32
  0
VERTEX
  8
0
  5
3F6C
 10
-1683.20
 20
7.11057
 30
0.000000
  70
    32
  0
VERTEX
  8
0
  5
3F6D
 10
-1683.23
 20
7.10686
 30
0.000000
  70
    32
  0
VERTEX
  8
0
  5
3F6E
 10
-1683.25
 20
7.10345
 30
0.000000
  70
    32
  0
VERTEX
  8
0
  5
3F6F
 10
-1683.28
 20
7.10033
 30
0.000000
  70
    32
  0
VERTEX
  8
0
  5
3F70
 10
-1683.30
 20
7.09751
 30
0.000000
  70
    32
  0
VERTEX
  8
0
  5
3F71
 10
-1683.33
 20
7.09498
 30
0.000000
  70
    32
  0
VERTEX
  8
0
  5
3F72
 10
-1683.35
 20
7.09275
 30
0.000000
  70
    32
  0
VERTEX
  8
0
  5
3F73
 10
-1683.37
 20
7.09081
 30
0.000000
  70
    32
  0
VERTEX
  8
0
  5
3F74
 10
-1683.40
 20
7.08918
 30
0.000000
  70
    32
  0
VERTEX
  8
0
  5
3F75
 10
-1683.42
 20
7.08784
 30
0.000000
  70
    32
  0
VERTEX
  8
0
  5
3F76
 10
-1683.45
 20
7.08679
 30
0.000000
  70
    32
  0
VERTEX
  8
0
  5
3F77
 10
-1683.47
 20
7.08605
 30
0.000000
  70
    32
  0
VERTEX
  8
0
  5
3F78
 10
-1683.50
 20
7.08560
 30
0.000000
  70
    32
  0
VERTEX
  8
0
  5
3F79
 10
-1683.52
 20
7.08545
 30
0.000000
  70
    32
  0
SEQEND
  8
0
  5
3F7A
  0
LINE
  5
2D4D
  8
AM_VIS
 10
-1696.021580082049
 20
9.0679264501109174
 30
0.0
 11
-1696.038880854001
 21
7.0854543459363413
 31
0.0
  0
POLYLINE
  5
2D4E
  8
AM_VIS
 66
     1
 10
0.0
 20
0.0
 30
0.0
  0
VERTEX
  5
3BA2
  8
AM_VIS
 10
-1696.08422257043
 20
1.8898082657628941
 30
0.0
  0
VERTEX
  5
3BA3
  8
AM_VIS
 10
-1695.284253031979
 20
1.0828270373642681
 30
0.0
  0
SEQEND
  5
3BA4
  8
AM_VIS
  0
LINE
  5
2D4F
  8
AM_VIS
 10
-1692.539014123276
 20
7.0854543459363413
 30
0.0
 11
-1683.520951839429
 21
7.0854543459363413
 31
0.0
  0
LINE
  5
2D50
  8
AM_VIS
 10
-1696.08422257043
 20
1.8898082657628941
 30
0.0
 11
-1696.038880854001
 21
7.0854543459363413
 31
0.0
  0
ARC
  5
2D51
  8
AM_VIS
 10
-1695.6362475623109
 20
7.3854543459361821
 30
0.0
 40
0.3
 50
270.0
 51
359.50000000000199
  0
POLYLINE
  5
2D52
  8
AM_VIS
 66
     1
 10
0.0
 20
0.0
 30
0.0
  0
VERTEX
  5
3BA5
  8
AM_VIS
 10
-1696.038880854001
 20
7.0854543459363413
 30
0.0
  0
VERTEX
  5
3BA6
  8
AM_VIS
 10
-1695.013809788609
 20
7.0854543459363413
 30
0.0
  0
VERTEX
  5
3BA7
  8
AM_VIS
 10
-1692.539014123276
 20
7.0854543459363413
 30
0.0
  0
SEQEND
  5
3BA8
  8
AM_VIS
  0
POLYLINE
  5
2D53
  8
AM_VIS
 66
     1
 10
0.0
 20
0.0
 30
0.0
  0
VERTEX
  5
3BA9
  8
AM_VIS
 10
-1678.19126498892
 20
1.0898387273116441
 30
0.0
  0
VERTEX
  5
3BAA
  8
AM_VIS
 10
-1678.192615376229
 20
1.089838499373627
 30
0.0
  0
VERTEX
  5
3BAB
  8
AM_VIS
 10
-1678.2004493495369
 20
1.0898281834781749
 30
0.0
  0
VERTEX
  5
3BAC
  8
AM_VIS
 10
-1678.212644278389
 20
1.0897815939599691
 30
0.0
  0
VERTEX
  5
3BAD
  8
AM_VIS
 10
-1678.226728290663
 20
1.089681522136061
 30
0.0
  0
VERTEX
  5
3BAE
  8
AM_VIS
 10
-1678.428006383672
 20
1.0828270373642681
 30
0.0
  0
SEQEND
  5
3BAF
  8
AM_VIS
  0
LINE
  5
2D54
  8
AM_VIS
 10
-1678.19126498892
 20
1.0828270373642681
 30
0.0
 11
-1678.4280063836579
 21
1.0828270373642681
 31
0.0
  0
LINE
  5
2D55
  8
AM_VIS
  6
CENTER2
 62
     1
 10
-1606.0412649889199
 20
-22.580583129299828
 30
0.0
 11
-1606.0412649889199
 21
98.863265721982316
 31
0.0
  0
LINE
  5
2D56
  8
L1
  6
HIDDEN
 62
     1
 10
-1535.897630649966
 20
71.059128260816806
 30
0.0
 11
-1535.293731133012
 21
1.859097799268056
 31
0.0
  0
LINE
  5
2D57
  8
AM_VIS
 10
-1516.0609498957911
 20
9.0679264501109174
 30
0.0
 11
-1516.624000981411
 21
73.587190305113381
 31
0.0
  0
LINE
  5
2D58
  8
AM_VIS
 10
-1531.1426597226789
 20
73.587190305113381
 30
0.0
 11
-1530.5796086370569
 21
9.0679264501109174
 31
0.0
  0
LINE
  5
2D59
  8
AM_VIS
 10
-1517.3432115143551
 20
75.785444998013645
 30
0.0
 11
-1516.7462709924489
 21
7.3828363852869643
 31
0.0
  0
LINE
  5
2D5A
  8
L1
  6
HIDDEN
 62
     1
 10
-1552.591530863747
 20
64.043390367650773
 30
0.0
 11
-1552.469193092805
 21
71.05211657086943
 31
0.0
  0
LINE
  5
2D5B
  8
L1
  6
HIDDEN
 62
     1
 10
-1559.6133368850351
 20
71.05211657086943
 30
0.0
 11
-1559.490999114093
 21
64.043390367650773
 31
0.0
  0
LINE
  5
2D5C
  8
L1
  6
HIDDEN
 62
     1
 10
-1617.2773020004549
 20
71.05211657086943
 30
0.0
 11
-1617.2161758482589
 21
64.047753303120089
 31
0.0
  0
LINE
  5
2D5D
  8
L1
  6
HIDDEN
 62
     1
 10
-1614.8663541295809
 20
64.047753303120089
 30
0.0
 11
-1614.8052279773849
 21
71.05211657086943
 31
0.0
  0
LINE
  5
2D5E
  8
L1
  6
HIDDEN
 62
     1
 10
-1609.6133368850351
 20
71.05211657086943
 30
0.0
 11
-1609.4909991140939
 21
64.043390367650773
 31
0.0
  0
LINE
  5
2D5F
  8
L1
  6
HIDDEN
 62
     1
 10
-1602.591530863747
 20
64.043390367650773
 30
0.0
 11
-1602.469193092805
 21
71.05211657086943
 31
0.0
  0
LINE
  5
2D60
  8
L1
  6
HIDDEN
 62
     1
 10
-1597.2773020004549
 20
71.05211657086943
 30
0.0
 11
-1597.2161758482589
 21
64.047753303120089
 31
0.0
  0
LINE
  5
2D61
  8
L1
  6
HIDDEN
 62
     1
 10
-1594.8663541295821
 20
64.047753303120089
 30
0.0
 11
-1594.8052279773849
 21
71.05211657086943
 31
0.0
  0
LINE
  5
2D62
  8
L1
  6
HIDDEN
 62
     1
 10
-1604.0412649889199
 20
63.55211657086943
 30
0.0
 11
-1608.0412649889199
 21
63.55211657086943
 31
0.0
  0
LINE
  5
2D63
  8
L1
  6
HIDDEN
 62
     1
 10
-1603.2067342157529
 20
65.152116570869339
 30
0.0
 11
-1608.8757957620869
 21
65.152116570869339
 31
0.0
  0
LINE
  5
2D64
  8
L1
  6
HIDDEN
 62
     1
 10
-1615.3663350911129
 20
63.55211657086943
 30
0.0
 11
-1616.0412649889199
 21
63.55211657086943
 31
0.0
  0
LINE
  5
2D65
  8
L1
  6
HIDDEN
 62
     1
 10
-1616.0412649889199
 20
63.55211657086943
 30
0.0
 11
-1616.716194886727
 21
63.55211657086943
 31
0.0
  0
ARC
  5
2D66
  8
L1
  6
HIDDEN
 62
     1
 10
-1616.716194886727
 20
64.052116570869316
 30
0.0
 40
0.5
 50
180.49999999999969
 51
270.0
  0
ARC
  5
2D67
  8
L1
  6
HIDDEN
 62
     1
 10
-1615.3663350911129
 20
64.052116570869316
 30
0.0
 40
0.5
 50
270.0
 51
359.50000000000028
  0
LINE
  5
2D68
  8
L1
  6
HIDDEN
 62
     1
 10
-1608.0412649889199
 20
63.55211657086943
 30
0.0
 11
-1608.0412649889199
 21
65.152116570869339
 31
0.0
  0
LINE
  5
2D69
  8
L1
  6
HIDDEN
 62
     1
 10
-1608.0412649889199
 20
63.55211657086943
 30
0.0
 11
-1608.209531733075
 21
63.55211657086943
 31
0.0
  0
LINE
  5
2D6A
  8
L1
  6
HIDDEN
 62
     1
 10
-1608.209531733075
 20
63.55211657086943
 30
0.0
 11
-1608.991075266516
 21
63.55211657086943
 31
0.0
  0
ARC
  5
2D6B
  8
L1
  6
HIDDEN
 62
     1
 10
-1608.991075266516
 20
64.052116570869316
 30
0.0
 40
0.5
 50
181.00000000000011
 51
270.0
  0
POLYLINE
  5
2D6C
  8
L1
  6
HIDDEN
 62
     1
 66
     1
 10
0.0
 20
0.0
 30
0.0
  0
VERTEX
  5
3BB0
  8
L1
  6
HIDDEN
 62
     1
 10
-1608.8520772441921
 20
64.043390367650773
 30
0.0
  0
VERTEX
  5
3BB1
  8
L1
  6
HIDDEN
 62
     1
 10
-1608.8757957620869
 20
65.152116570869339
 30
0.0
  0
SEQEND
  5
3BB2
  8
L1
  6
HIDDEN
 62
     1
  0
POLYLINE
  5
2D6D
  8
L1
  6
HIDDEN
 62
     1
 66
     1
 10
0.0
 20
0.0
 30
0.0
  0
VERTEX
  5
3BB3
  8
L1
  6
HIDDEN
 62
     1
 10
-1608.209531733075
 20
63.55211657086943
 30
0.0
  0
VERTEX
  5
3BB4
  8
L1
  6
HIDDEN
 62
     1
 10
-1608.351179891893
 20
63.563401321908941
 30
0.0
  0
VERTEX
  5
3BB5
  8
L1
  6
HIDDEN
 62
     1
 10
-1608.4886442973509
 20
63.59874092523637
 30
0.0
  0
VERTEX
  5
3BB6
  8
L1
  6
HIDDEN
 62
     1
 10
-1608.595721980598
 20
63.648016511143169
 30
0.0
  0
VERTEX
  5
3BB7
  8
L1
  6
HIDDEN
 62
     1
 10
-1608.691576624718
 20
63.716312788197229
 30
0.0
  0
VERTEX
  5
3BB8
  8
L1
  6
HIDDEN
 62
     1
 10
-1608.760604397522
 20
63.790035419254082
 30
0.0
  0
VERTEX
  5
3BB9
  8
L1
  6
HIDDEN
 62
     1
 10
-1608.812880421789
 20
63.876281990708549
 30
0.0
  0
VERTEX
  5
3BBA
  8
L1
  6
HIDDEN
 62
     1
 10
-1608.8421333389319
 20
63.962079235641568
 30
0.0
  0
VERTEX
  5
3BBB
  8
L1
  6
HIDDEN
 62
     1
 10
-1608.8520772441921
 20
64.043390367650773
 30
0.0
  0
SEQEND
  5
3BBC
  8
L1
  6
HIDDEN
 62
     1
  0
LINE
  5
2D6E
  8
L1
  6
HIDDEN
 62
     1
 10
-1604.0412649889199
 20
63.55211657086943
 30
0.0
 11
-1604.0412649889199
 21
65.152116570869339
 31
0.0
  0
LINE
  5
2D6F
  8
L1
  6
HIDDEN
 62
     1
 10
-1603.8729982447651
 20
63.55211657086943
 30
0.0
 11
-1604.0412649889199
 21
63.55211657086943
 31
0.0
  0
LINE
  5
2D70
  8
L1
  6
HIDDEN
 62
     1
 10
-1603.091454711325
 20
63.55211657086943
 30
0.0
 11
-1603.8729982447651
 21
63.55211657086943
 31
0.0
  0
ARC
  5
2D71
  8
L1
  6
HIDDEN
 62
     1
 10
-1603.091454711325
 20
64.052116570869316
 30
0.0
 40
0.5
 50
270.0
 51
358.99999999999977
  0
LINE
  5
2D72
  8
L1
  6
HIDDEN
 62
     1
 10
-1595.366335091114
 20
63.55211657086943
 30
0.0
 11
-1596.0412649889199
 21
63.55211657086943
 31
0.0
  0
LINE
  5
2D73
  8
L1
  6
HIDDEN
 62
     1
 10
-1596.0412649889199
 20
63.55211657086943
 30
0.0
 11
-1596.716194886727
 21
63.55211657086943
 31
0.0
  0
ARC
  5
2D74
  8
L1
  6
HIDDEN
 62
     1
 10
-1596.716194886727
 20
64.052116570869316
 30
0.0
 40
0.5
 50
180.49999999999969
 51
270.0
  0
ARC
  5
2D75
  8
L1
  6
HIDDEN
 62
     1
 10
-1595.366335091114
 20
64.052116570869316
 30
0.0
 40
0.5
 50
270.0
 51
359.50000000000028
  0
POLYLINE
  5
2D76
  8
L1
  6
HIDDEN
 62
     1
 66
     1
 10
0.0
 20
0.0
 30
0.0
  0
VERTEX
  5
3BBD
  8
L1
  6
HIDDEN
 62
     1
 10
-1603.2067342157529
 20
65.152116570869339
 30
0.0
  0
VERTEX
  5
3BBE
  8
L1
  6
HIDDEN
 62
     1
 10
-1603.230452733648
 20
64.043390367650773
 30
0.0
  0
SEQEND
  5
3BBF
  8
L1
  6
HIDDEN
 62
     1
  0
POLYLINE
  5
2D77
  8
L1
  6
HIDDEN
 62
     1
 66
     1
 10
0.0
 20
0.0
 30
0.0
  0
VERTEX
  5
3BC0
  8
L1
  6
HIDDEN
 62
     1
 10
-1603.230452733648
 20
64.043390367650773
 30
0.0
  0
VERTEX
  5
3BC1
  8
L1
  6
HIDDEN
 62
     1
 10
-1603.240396638907
 20
63.962079235641568
 30
0.0
  0
VERTEX
  5
3BC2
  8
L1
  6
HIDDEN
 62
     1
 10
-1603.269649556051
 20
63.876281990708549
 30
0.0
  0
VERTEX
  5
3BC3
  8
L1
  6
HIDDEN
 62
     1
 10
-1603.3219255803169
 20
63.790035419254082
 30
0.0
  0
VERTEX
  5
3BC4
  8
L1
  6
HIDDEN
 62
     1
 10
-1603.3909533531221
 20
63.716312788197229
 30
0.0
  0
VERTEX
  5
3BC5
  8
L1
  6
HIDDEN
 62
     1
 10
-1603.4868079972409
 20
63.648016511143169
 30
0.0
  0
VERTEX
  5
3BC6
  8
L1
  6
HIDDEN
 62
     1
 10
-1603.5938856804889
 20
63.59874092523637
 30
0.0
  0
VERTEX
  5
3BC7
  8
L1
  6
HIDDEN
 62
     1
 10
-1603.731350085947
 20
63.563401321908941
 30
0.0
  0
VERTEX
  5
3BC8
  8
L1
  6
HIDDEN
 62
     1
 10
-1603.8729982447651
 20
63.55211657086943
 30
0.0
  0
SEQEND
  5
3BC9
  8
L1
  6
HIDDEN
 62
     1
  0
LINE
  5
2D78
  8
L1
  6
HIDDEN
 62
     1
 10
-1553.2067342157529
 20
65.152116570869339
 30
0.0
 11
-1558.8757957620869
 21
65.152116570869339
 31
0.0
  0
LINE
  5
2D79
  8
L1
  6
HIDDEN
 62
     1
 10
-1554.0412649889199
 20
63.55211657086943
 30
0.0
 11
-1558.0412649889199
 21
63.55211657086943
 31
0.0
  0
POLYLINE
  5
2D7A
  8
L1
  6
HIDDEN
 62
     1
 66
     1
 10
0.0
 20
0.0
 30
0.0
  0
VERTEX
  5
3BCA
  8
L1
  6
HIDDEN
 62
     1
 10
-1558.209531733075
 20
63.55211657086943
 30
0.0
  0
VERTEX
  5
3BCB
  8
L1
  6
HIDDEN
 62
     1
 10
-1558.351179891893
 20
63.563401321908941
 30
0.0
  0
VERTEX
  5
3BCC
  8
L1
  6
HIDDEN
 62
     1
 10
-1558.4886442973509
 20
63.59874092523637
 30
0.0
  0
VERTEX
  5
3BCD
  8
L1
  6
HIDDEN
 62
     1
 10
-1558.595721980598
 20
63.648016511143169
 30
0.0
  0
VERTEX
  5
3BCE
  8
L1
  6
HIDDEN
 62
     1
 10
-1558.691576624718
 20
63.716312788197229
 30
0.0
  0
VERTEX
  5
3BCF
  8
L1
  6
HIDDEN
 62
     1
 10
-1558.7606043975229
 20
63.790035419254082
 30
0.0
  0
VERTEX
  5
3BD0
  8
L1
  6
HIDDEN
 62
     1
 10
-1558.812880421789
 20
63.876281990708549
 30
0.0
  0
VERTEX
  5
3BD1
  8
L1
  6
HIDDEN
 62
     1
 10
-1558.8421333389331
 20
63.962079235641568
 30
0.0
  0
VERTEX
  5
3BD2
  8
L1
  6
HIDDEN
 62
     1
 10
-1558.8520772441921
 20
64.043390367650773
 30
0.0
  0
SEQEND
  5
3BD3
  8
L1
  6
HIDDEN
 62
     1
  0
POLYLINE
  5
2D7B
  8
L1
  6
HIDDEN
 62
     1
 66
     1
 10
0.0
 20
0.0
 30
0.0
  0
VERTEX
  5
3BD4
  8
L1
  6
HIDDEN
 62
     1
 10
-1558.8520772441921
 20
64.043390367650773
 30
0.0
  0
VERTEX
  5
3BD5
  8
L1
  6
HIDDEN
 62
     1
 10
-1558.8757957620869
 20
65.152116570869339
 30
0.0
  0
SEQEND
  5
3BD6
  8
L1
  6
HIDDEN
 62
     1
  0
ARC
  5
2D7C
  8
L1
  6
HIDDEN
 62
     1
 10
-1558.991075266516
 20
64.052116570869316
 30
0.0
 40
0.5
 50
181.00000000000011
 51
270.0
  0
LINE
  5
2D7D
  8
L1
  6
HIDDEN
 62
     1
 10
-1558.209531733075
 20
63.55211657086943
 30
0.0
 11
-1558.9910752665151
 21
63.55211657086943
 31
0.0
  0
LINE
  5
2D7E
  8
L1
  6
HIDDEN
 62
     1
 10
-1558.0412649889199
 20
63.55211657086943
 30
0.0
 11
-1558.209531733075
 21
63.55211657086943
 31
0.0
  0
LINE
  5
2D7F
  8
L1
  6
HIDDEN
 62
     1
 10
-1558.0412649889199
 20
63.55211657086943
 30
0.0
 11
-1558.0412649889199
 21
65.152116570869339
 31
0.0
  0
POLYLINE
  5
2D80
  8
L1
  6
HIDDEN
 62
     1
 66
     1
 10
0.0
 20
0.0
 30
0.0
  0
VERTEX
  5
3BD7
  8
L1
  6
HIDDEN
 62
     1
 10
-1553.230452733648
 20
64.043390367650773
 30
0.0
  0
VERTEX
  5
3BD8
  8
L1
  6
HIDDEN
 62
     1
 10
-1553.2403966389079
 20
63.962079235641568
 30
0.0
  0
VERTEX
  5
3BD9
  8
L1
  6
HIDDEN
 62
     1
 10
-1553.269649556051
 20
63.876281990708549
 30
0.0
  0
VERTEX
  5
3BDA
  8
L1
  6
HIDDEN
 62
     1
 10
-1553.3219255803169
 20
63.790035419254082
 30
0.0
  0
VERTEX
  5
3BDB
  8
L1
  6
HIDDEN
 62
     1
 10
-1553.3909533531221
 20
63.716312788197229
 30
0.0
  0
VERTEX
  5
3BDC
  8
L1
  6
HIDDEN
 62
     1
 10
-1553.4868079972421
 20
63.648016511143169
 30
0.0
  0
VERTEX
  5
3BDD
  8
L1
  6
HIDDEN
 62
     1
 10
-1553.5938856804889
 20
63.59874092523637
 30
0.0
  0
VERTEX
  5
3BDE
  8
L1
  6
HIDDEN
 62
     1
 10
-1553.731350085947
 20
63.563401321908941
 30
0.0
  0
VERTEX
  5
3BDF
  8
L1
  6
HIDDEN
 62
     1
 10
-1553.8729982447651
 20
63.55211657086943
 30
0.0
  0
SEQEND
  5
3BE0
  8
L1
  6
HIDDEN
 62
     1
  0
POLYLINE
  5
2D81
  8
L1
  6
HIDDEN
 62
     1
 66
     1
 10
0.0
 20
0.0
 30
0.0
  0
VERTEX
  5
3BE1
  8
L1
  6
HIDDEN
 62
     1
 10
-1553.2067342157529
 20
65.152116570869339
 30
0.0
  0
VERTEX
  5
3BE2
  8
L1
  6
HIDDEN
 62
     1
 10
-1553.230452733648
 20
64.043390367650773
 30
0.0
  0
SEQEND
  5
3BE3
  8
L1
  6
HIDDEN
 62
     1
  0
ARC
  5
2D82
  8
L1
  6
HIDDEN
 62
     1
 10
-1553.091454711325
 20
64.052116570869316
 30
0.0
 40
0.5
 50
270.0
 51
358.99999999999977
  0
LINE
  5
2D83
  8
L1
  6
HIDDEN
 62
     1
 10
-1553.0914547113241
 20
63.55211657086943
 30
0.0
 11
-1553.8729982447651
 21
63.55211657086943
 31
0.0
  0
LINE
  5
2D84
  8
L1
  6
HIDDEN
 62
     1
 10
-1553.8729982447651
 20
63.55211657086943
 30
0.0
 11
-1554.0412649889199
 21
63.55211657086943
 31
0.0
  0
LINE
  5
2D85
  8
L1
  6
HIDDEN
 62
     1
 10
-1554.0412649889199
 20
63.55211657086943
 30
0.0
 11
-1554.0412649889199
 21
65.152116570869339
 31
0.0
  0
POLYLINE
  5
2D86
  8
AM_VIS
 66
     1
 10
0.0
 20
0.0
 30
0.0
  0
VERTEX
  5
3BE4
  8
AM_VIS
 10
-1532.043871625742
 20
76.082827037364211
 30
0.0
  0
VERTEX
  5
3BE5
  8
AM_VIS
 10
-1517.643200091275
 20
76.082827037364211
 30
0.0
  0
SEQEND
  5
3BE6
  8
AM_VIS
  0
POLYLINE
  5
2D87
  8
AM_VIS
 66
     1
 10
0.0
 20
0.0
 30
0.0
  0
VERTEX
  5
3BE7
  8
AM_VIS
 10
-1516.624000981411
 20
73.587190305113381
 30
0.0
  0
VERTEX
  5
3BE8
  8
AM_VIS
 10
-1516.7403127787729
 20
73.903448266332362
 30
0.0
  0
VERTEX
  5
3BE9
  8
AM_VIS
 10
-1517.0308833232871
 20
74.074083230219003
 30
0.0
  0
SEQEND
  5
3BEA
  8
AM_VIS
  0
POLYLINE
  5
2D88
  8
AM_VIS
 66
     1
 10
0.0
 20
0.0
 30
0.0
  0
VERTEX
  5
3BEB
  8
AM_VIS
 10
-1517.0308833232871
 20
74.074083230219003
 30
0.0
  0
VERTEX
  5
3BEC
  8
AM_VIS
 10
-1517.1239819429429
 20
74.082827037364268
 30
0.0
  0
SEQEND
  5
3BED
  8
AM_VIS
  0
POLYLINE
  5
2D89
  8
AM_VIS
 66
     1
 10
0.0
 20
0.0
 30
0.0
  0
VERTEX
  5
3BEE
  8
AM_VIS
 10
-1517.328352992515
 20
74.082827037364268
 30
0.0
  0
VERTEX
  5
3BEF
  8
AM_VIS
 10
-1517.271960183818
 20
74.082827037364268
 30
0.0
  0
VERTEX
  5
3BF0
  8
AM_VIS
 10
-1517.1239819429429
 20
74.082827037364268
 30
0.0
  0
SEQEND
  5
3BF1
  8
AM_VIS
  0
POLYLINE
  5
2D8A
  8
AM_VIS
 66
     1
 10
0.0
 20
0.0
 30
0.0
  0
VERTEX
  5
3BF2
  8
AM_VIS
 10
-1531.127867626145
 20
74.082827037364268
 30
0.0
  0
VERTEX
  5
3BF3
  8
AM_VIS
 10
-1531.018611270488
 20
74.082827037364268
 30
0.0
  0
VERTEX
  5
3BF4
  8
AM_VIS
 10
-1530.8435246610111
 20
74.082827037364268
 30
0.0
  0
SEQEND
  5
3BF5
  8
AM_VIS
  0
POLYLINE
  5
2D8B
  8
AM_VIS
 66
     1
 10
0.0
 20
0.0
 30
0.0
  0
VERTEX
  5
3BF6
  8
AM_VIS
 10
-1531.1434257068679
 20
74.074083230297674
 30
0.0
  0
VERTEX
  5
3BF7
  8
AM_VIS
 10
-1531.144437359312
 20
73.903448266494252
 30
0.0
  0
VERTEX
  5
3BF8
  8
AM_VIS
 10
-1531.1426597226789
 20
73.587190305113381
 30
0.0
  0
SEQEND
  5
3BF9
  8
AM_VIS
  0
POLYLINE
  5
2D8C
  8
AM_VIS
 66
     1
 10
0.0
 20
0.0
 30
0.0
  0
VERTEX
  5
3BFA
  8
AM_VIS
 10
-1531.127867626145
 20
74.082827037364268
 30
0.0
  0
VERTEX
  5
3BFB
  8
AM_VIS
 10
-1531.1434257068679
 20
74.074083230297674
 30
0.0
  0
SEQEND
  5
3BFC
  8
AM_VIS
  0
ARC
  5
2D8D
  8
AM_VIS
 10
-1532.043871625742
 20
75.782827037364186
 30
0.0
 40
0.3
 50
90.000000000000028
 51
179.4999999999747
  0
ARC
  5
2D8E
  8
AM_VIS
 10
-1517.643200091275
 20
75.782827037364186
 30
0.0
 40
0.2999999999999999
 50
0.5000000000007973
 51
90.000000000000028
  0
LINE
  5
2D8F
  8
AM_VIS
 10
-1532.3587187245021
 20
74.082827037364268
 30
0.0
 11
-1532.3438602026611
 21
75.785444998014086
 31
0.0
  0
POLYLINE
  5
2D90
  8
AM_VIS
 66
     1
 10
0.0
 20
0.0
 30
0.0
  0
VERTEX
  5
3BFD
  8
AM_VIS
 10
-1533.6545235941669
 20
1.0828270373642681
 30
0.0
  0
VERTEX
  5
3BFE
  8
AM_VIS
 10
-1533.6931745567231
 20
1.0849309031782459
 30
0.0
  0
VERTEX
  5
3BFF
  8
AM_VIS
 10
-1533.854506407474
 20
1.089669828491423
 30
0.0
  0
VERTEX
  5
3C00
  8
AM_VIS
 10
-1533.8756518992959
 20
1.0898082568207881
 30
0.0
  0
VERTEX
  5
3C01
  8
AM_VIS
 10
-1533.8852676667791
 20
1.089834231427403
 30
0.0
  0
VERTEX
  5
3C02
  8
AM_VIS
 10
-1533.8912649889201
 20
1.0898387273116441
 30
0.0
  0
SEQEND
  5
3C03
  8
AM_VIS
  0
LINE
  5
2D91
  8
AM_VIS
 10
-1533.654523594206
 20
1.0828270373642681
 30
0.0
 11
-1533.8912649889201
 21
1.0828270373642681
 31
0.0
  0
LINE
  5
2D92
  8
AM_VIS
 10
-1516.043649123839
 20
7.0854543459363413
 30
0.0
 11
-1516.0609498957911
 21
9.0679264501109174
 31
0.0
  0
POLYLINE
  5
2D93
  8
AM_VIS
 10
-1528.57968478513
 20
7.0854543459364647
 30
0.0
 66
     1
 70
     8
  0
VERTEX
  8
0
  5
3F7B
 10
-1528.58
 20
7.08545
 30
0.000000
  70
    32
  0
VERTEX
  8
0
  5
3F7C
 10
-1528.60
 20
7.08560
 30
0.000000
  70
    32
  0
VERTEX
  8
0
  5
3F7D
 10
-1528.63
 20
7.08605
 30
0.000000
  70
    32
  0
VERTEX
  8
0
  5
3F7E
 10
-1528.65
 20
7.08679
 30
0.000000
  70
    32
  0
VERTEX
  8
0
  5
3F7F
 10
-1528.68
 20
7.08784
 30
0.000000
  70
    32
  0
VERTEX
  8
0
  5
3F80
 10
-1528.70
 20
7.08918
 30
0.000000
  70
    32
  0
VERTEX
  8
0
  5
3F81
 10
-1528.73
 20
7.09081
 30
0.000000
  70
    32
  0
VERTEX
  8
0
  5
3F82
 10
-1528.75
 20
7.09275
 30
0.000000
  70
    32
  0
VERTEX
  8
0
  5
3F83
 10
-1528.77
 20
7.09498
 30
0.000000
  70
    32
  0
VERTEX
  8
0
  5
3F84
 10
-1528.80
 20
7.09751
 30
0.000000
  70
    32
  0
VERTEX
  8
0
  5
3F85
 10
-1528.82
 20
7.10033
 30
0.000000
  70
    32
  0
VERTEX
  8
0
  5
3F86
 10
-1528.85
 20
7.10345
 30
0.000000
  70
    32
  0
VERTEX
  8
0
  5
3F87
 10
-1528.87
 20
7.10686
 30
0.000000
  70
    32
  0
VERTEX
  8
0
  5
3F88
 10
-1528.90
 20
7.11057
 30
0.000000
  70
    32
  0
VERTEX
  8
0
  5
3F89
 10
-1528.92
 20
7.11457
 30
0.000000
  70
    32
  0
VERTEX
  8
0
  5
3F8A
 10
-1528.94
 20
7.11887
 30
0.000000
  70
    32
  0
VERTEX
  8
0
  5
3F8B
 10
-1528.97
 20
7.12346
 30
0.000000
  70
    32
  0
VERTEX
  8
0
  5
3F8C
 10
-1528.99
 20
7.12834
 30
0.000000
  70
    32
  0
VERTEX
  8
0
  5
3F8D
 10
-1529.02
 20
7.13351
 30
0.000000
  70
    32
  0
VERTEX
  8
0
  5
3F8E
 10
-1529.04
 20
7.13898
 30
0.000000
  70
    32
  0
VERTEX
  8
0
  5
3F8F
 10
-1529.06
 20
7.14473
 30
0.000000
  70
    32
  0
VERTEX
  8
0
  5
3F90
 10
-1529.09
 20
7.15077
 30
0.000000
  70
    32
  0
VERTEX
  8
0
  5
3F91
 10
-1529.11
 20
7.15710
 30
0.000000
  70
    32
  0
VERTEX
  8
0
  5
3F92
 10
-1529.13
 20
7.16372
 30
0.000000
  70
    32
  0
VERTEX
  8
0
  5
3F93
 10
-1529.16
 20
7.17062
 30
0.000000
  70
    32
  0
VERTEX
  8
0
  5
3F94
 10
-1529.18
 20
7.17781
 30
0.000000
  70
    32
  0
VERTEX
  8
0
  5
3F95
 10
-1529.20
 20
7.18529
 30
0.000000
  70
    32
  0
VERTEX
  8
0
  5
3F96
 10
-1529.23
 20
7.19304
 30
0.000000
  70
    32
  0
VERTEX
  8
0
  5
3F97
 10
-1529.25
 20
7.20108
 30
0.000000
  70
    32
  0
VERTEX
  8
0
  5
3F98
 10
-1529.27
 20
7.20940
 30
0.000000
  70
    32
  0
VERTEX
  8
0
  5
3F99
 10
-1529.30
 20
7.21800
 30
0.000000
  70
    32
  0
VERTEX
  8
0
  5
3F9A
 10
-1529.32
 20
7.22687
 30
0.000000
  70
    32
  0
VERTEX
  8
0
  5
3F9B
 10
-1529.34
 20
7.23602
 30
0.000000
  70
    32
  0
VERTEX
  8
0
  5
3F9C
 10
-1529.36
 20
7.24545
 30
0.000000
  70
    32
  0
VERTEX
  8
0
  5
3F9D
 10
-1529.39
 20
7.25515
 30
0.000000
  70
    32
  0
VERTEX
  8
0
  5
3F9E
 10
-1529.41
 20
7.26513
 30
0.000000
  70
    32
  0
VERTEX
  8
0
  5
3F9F
 10
-1529.43
 20
7.27538
 30
0.000000
  70
    32
  0
VERTEX
  8
0
  5
3FA0
 10
-1529.45
 20
7.28589
 30
0.000000
  70
    32
  0
VERTEX
  8
0
  5
3FA1
 10
-1529.47
 20
7.29667
 30
0.000000
  70
    32
  0
VERTEX
  8
0
  5
3FA2
 10
-1529.50
 20
7.30772
 30
0.000000
  70
    32
  0
VERTEX
  8
0
  5
3FA3
 10
-1529.52
 20
7.31904
 30
0.000000
  70
    32
  0
VERTEX
  8
0
  5
3FA4
 10
-1529.54
 20
7.33062
 30
0.000000
  70
    32
  0
VERTEX
  8
0
  5
3FA5
 10
-1529.56
 20
7.34246
 30
0.000000
  70
    32
  0
VERTEX
  8
0
  5
3FA6
 10
-1529.58
 20
7.35455
 30
0.000000
  70
    32
  0
VERTEX
  8
0
  5
3FA7
 10
-1529.60
 20
7.36691
 30
0.000000
  70
    32
  0
VERTEX
  8
0
  5
3FA8
 10
-1529.62
 20
7.37952
 30
0.000000
  70
    32
  0
VERTEX
  8
0
  5
3FA9
 10
-1529.64
 20
7.39239
 30
0.000000
  70
    32
  0
VERTEX
  8
0
  5
3FAA
 10
-1529.66
 20
7.40551
 30
0.000000
  70
    32
  0
VERTEX
  8
0
  5
3FAB
 10
-1529.69
 20
7.41888
 30
0.000000
  70
    32
  0
VERTEX
  8
0
  5
3FAC
 10
-1529.71
 20
7.43249
 30
0.000000
  70
    32
  0
VERTEX
  8
0
  5
3FAD
 10
-1529.73
 20
7.44636
 30
0.000000
  70
    32
  0
VERTEX
  8
0
  5
3FAE
 10
-1529.75
 20
7.46046
 30
0.000000
  70
    32
  0
VERTEX
  8
0
  5
3FAF
 10
-1529.77
 20
7.47481
 30
0.000000
  70
    32
  0
VERTEX
  8
0
  5
3FB0
 10
-1529.78
 20
7.48940
 30
0.000000
  70
    32
  0
VERTEX
  8
0
  5
3FB1
 10
-1529.80
 20
7.50423
 30
0.000000
  70
    32
  0
VERTEX
  8
0
  5
3FB2
 10
-1529.82
 20
7.51929
 30
0.000000
  70
    32
  0
VERTEX
  8
0
  5
3FB3
 10
-1529.84
 20
7.53458
 30
0.000000
  70
    32
  0
VERTEX
  8
0
  5
3FB4
 10
-1529.86
 20
7.55011
 30
0.000000
  70
    32
  0
VERTEX
  8
0
  5
3FB5
 10
-1529.88
 20
7.56586
 30
0.000000
  70
    32
  0
VERTEX
  8
0
  5
3FB6
 10
-1529.90
 20
7.58185
 30
0.000000
  70
    32
  0
VERTEX
  8
0
  5
3FB7
 10
-1529.92
 20
7.59805
 30
0.000000
  70
    32
  0
VERTEX
  8
0
  5
3FB8
 10
-1529.93
 20
7.61448
 30
0.000000
  70
    32
  0
VERTEX
  8
0
  5
3FB9
 10
-1529.95
 20
7.63112
 30
0.000000
  70
    32
  0
VERTEX
  8
0
  5
3FBA
 10
-1529.97
 20
7.64799
 30
0.000000
  70
    32
  0
VERTEX
  8
0
  5
3FBB
 10
-1529.99
 20
7.66506
 30
0.000000
  70
    32
  0
VERTEX
  8
0
  5
3FBC
 10
-1530.00
 20
7.68235
 30
0.000000
  70
    32
  0
VERTEX
  8
0
  5
3FBD
 10
-1530.02
 20
7.69985
 30
0.000000
  70
    32
  0
VERTEX
  8
0
  5
3FBE
 10
-1530.04
 20
7.71755
 30
0.000000
  70
    32
  0
VERTEX
  8
0
  5
3FBF
 10
-1530.06
 20
7.73546
 30
0.000000
  70
    32
  0
VERTEX
  8
0
  5
3FC0
 10
-1530.07
 20
7.75356
 30
0.000000
  70
    32
  0
VERTEX
  8
0
  5
3FC1
 10
-1530.09
 20
7.77187
 30
0.000000
  70
    32
  0
VERTEX
  8
0
  5
3FC2
 10
-1530.10
 20
7.79037
 30
0.000000
  70
    32
  0
VERTEX
  8
0
  5
3FC3
 10
-1530.12
 20
7.80907
 30
0.000000
  70
    32
  0
VERTEX
  8
0
  5
3FC4
 10
-1530.13
 20
7.82795
 30
0.000000
  70
    32
  0
VERTEX
  8
0
  5
3FC5
 10
-1530.15
 20
7.84702
 30
0.000000
  70
    32
  0
VERTEX
  8
0
  5
3FC6
 10
-1530.17
 20
7.86628
 30
0.000000
  70
    32
  0
VERTEX
  8
0
  5
3FC7
 10
-1530.18
 20
7.88572
 30
0.000000
  70
    32
  0
VERTEX
  8
0
  5
3FC8
 10
-1530.19
 20
7.90534
 30
0.000000
  70
    32
  0
VERTEX
  8
0
  5
3FC9
 10
-1530.21
 20
7.92513
 30
0.000000
  70
    32
  0
VERTEX
  8
0
  5
3FCA
 10
-1530.22
 20
7.94509
 30
0.000000
  70
    32
  0
VERTEX
  8
0
  5
3FCB
 10
-1530.24
 20
7.96523
 30
0.000000
  70
    32
  0
VERTEX
  8
0
  5
3FCC
 10
-1530.25
 20
7.98553
 30
0.000000
  70
    32
  0
VERTEX
  8
0
  5
3FCD
 10
-1530.26
 20
8.00600
 30
0.000000
  70
    32
  0
VERTEX
  8
0
  5
3FCE
 10
-1530.28
 20
8.02662
 30
0.000000
  70
    32
  0
VERTEX
  8
0
  5
3FCF
 10
-1530.29
 20
8.04741
 30
0.000000
  70
    32
  0
VERTEX
  8
0
  5
3FD0
 10
-1530.30
 20
8.06834
 30
0.000000
  70
    32
  0
VERTEX
  8
0
  5
3FD1
 10
-1530.31
 20
8.08943
 30
0.000000
  70
    32
  0
VERTEX
  8
0
  5
3FD2
 10
-1530.33
 20
8.11067
 30
0.000000
  70
    32
  0
VERTEX
  8
0
  5
3FD3
 10
-1530.34
 20
8.13206
 30
0.000000
  70
    32
  0
VERTEX
  8
0
  5
3FD4
 10
-1530.35
 20
8.15358
 30
0.000000
  70
    32
  0
VERTEX
  8
0
  5
3FD5
 10
-1530.36
 20
8.17525
 30
0.000000
  70
    32
  0
VERTEX
  8
0
  5
3FD6
 10
-1530.37
 20
8.19705
 30
0.000000
  70
    32
  0
VERTEX
  8
0
  5
3FD7
 10
-1530.38
 20
8.21898
 30
0.000000
  70
    32
  0
VERTEX
  8
0
  5
3FD8
 10
-1530.39
 20
8.24104
 30
0.000000
  70
    32
  0
VERTEX
  8
0
  5
3FD9
 10
-1530.40
 20
8.26323
 30
0.000000
  70
    32
  0
VERTEX
  8
0
  5
3FDA
 10
-1530.41
 20
8.28554
 30
0.000000
  70
    32
  0
VERTEX
  8
0
  5
3FDB
 10
-1530.42
 20
8.30796
 30
0.000000
  70
    32
  0
VERTEX
  8
0
  5
3FDC
 10
-1530.43
 20
8.33051
 30
0.000000
  70
    32
  0
VERTEX
  8
0
  5
3FDD
 10
-1530.44
 20
8.35317
 30
0.000000
  70
    32
  0
VERTEX
  8
0
  5
3FDE
 10
-1530.45
 20
8.37593
 30
0.000000
  70
    32
  0
VERTEX
  8
0
  5
3FDF
 10
-1530.46
 20
8.39880
 30
0.000000
  70
    32
  0
VERTEX
  8
0
  5
3FE0
 10
-1530.47
 20
8.42178
 30
0.000000
  70
    32
  0
VERTEX
  8
0
  5
3FE1
 10
-1530.47
 20
8.44485
 30
0.000000
  70
    32
  0
VERTEX
  8
0
  5
3FE2
 10
-1530.48
 20
8.46802
 30
0.000000
  70
    32
  0
VERTEX
  8
0
  5
3FE3
 10
-1530.49
 20
8.49128
 30
0.000000
  70
    32
  0
VERTEX
  8
0
  5
3FE4
 10
-1530.50
 20
8.51463
 30
0.000000
  70
    32
  0
VERTEX
  8
0
  5
3FE5
 10
-1530.50
 20
8.53806
 30
0.000000
  70
    32
  0
VERTEX
  8
0
  5
3FE6
 10
-1530.51
 20
8.56157
 30
0.000000
  70
    32
  0
VERTEX
  8
0
  5
3FE7
 10
-1530.52
 20
8.58517
 30
0.000000
  70
    32
  0
VERTEX
  8
0
  5
3FE8
 10
-1530.52
 20
8.60883
 30
0.000000
  70
    32
  0
VERTEX
  8
0
  5
3FE9
 10
-1530.53
 20
8.63257
 30
0.000000
  70
    32
  0
VERTEX
  8
0
  5
3FEA
 10
-1530.53
 20
8.65638
 30
0.000000
  70
    32
  0
VERTEX
  8
0
  5
3FEB
 10
-1530.54
 20
8.68025
 30
0.000000
  70
    32
  0
VERTEX
  8
0
  5
3FEC
 10
-1530.54
 20
8.70418
 30
0.000000
  70
    32
  0
VERTEX
  8
0
  5
3FED
 10
-1530.55
 20
8.72816
 30
0.000000
  70
    32
  0
VERTEX
  8
0
  5
3FEE
 10
-1530.55
 20
8.75220
 30
0.000000
  70
    32
  0
VERTEX
  8
0
  5
3FEF
 10
-1530.56
 20
8.77629
 30
0.000000
  70
    32
  0
VERTEX
  8
0
  5
3FF0
 10
-1530.56
 20
8.80043
 30
0.000000
  70
    32
  0
VERTEX
  8
0
  5
3FF1
 10
-1530.56
 20
8.82461
 30
0.000000
  70
    32
  0
VERTEX
  8
0
  5
3FF2
 10
-1530.57
 20
8.84882
 30
0.000000
  70
    32
  0
VERTEX
  8
0
  5
3FF3
 10
-1530.57
 20
8.87308
 30
0.000000
  70
    32
  0
VERTEX
  8
0
  5
3FF4
 10
-1530.57
 20
8.89736
 30
0.000000
  70
    32
  0
VERTEX
  8
0
  5
3FF5
 10
-1530.57
 20
8.92167
 30
0.000000
  70
    32
  0
VERTEX
  8
0
  5
3FF6
 10
-1530.57
 20
8.94601
 30
0.000000
  70
    32
  0
VERTEX
  8
0
  5
3FF7
 10
-1530.58
 20
8.97036
 30
0.000000
  70
    32
  0
VERTEX
  8
0
  5
3FF8
 10
-1530.58
 20
8.99474
 30
0.000000
  70
    32
  0
VERTEX
  8
0
  5
3FF9
 10
-1530.58
 20
9.01913
 30
0.000000
  70
    32
  0
VERTEX
  8
0
  5
3FFA
 10
-1530.58
 20
9.04352
 30
0.000000
  70
    32
  0
VERTEX
  8
0
  5
3FFB
 10
-1530.58
 20
9.06793
 30
0.000000
  70
    32
  0
SEQEND
  8
0
  5
3FFC
  0
POLYLINE
  5
2D94
  8
AM_VIS
 66
     1
 10
0.0
 20
0.0
 30
0.0
  0
VERTEX
  5
3C04
  8
AM_VIS
 10
-1516.7982769458611
 20
1.0828270373642681
 30
0.0
  0
VERTEX
  5
3C05
  8
AM_VIS
 10
-1515.99830740741
 20
1.8898082657628941
 30
0.0
  0
SEQEND
  5
3C06
  8
AM_VIS
  0
LINE
  5
2D95
  8
AM_VIS
 10
-1516.043649123839
 20
7.0854543459363413
 30
0.0
 11
-1515.99830740741
 21
1.8898082657628941
 31
0.0
  0
POLYLINE
  5
2D96
  8
AM_VIS
 66
     1
 10
0.0
 20
0.0
 30
0.0
  0
VERTEX
  5
3C07
  8
AM_VIS
 10
-1519.543515854564
 20
7.0854543459363413
 30
0.0
  0
VERTEX
  5
3C08
  8
AM_VIS
 10
-1517.068720189231
 20
7.0854543459363413
 30
0.0
  0
VERTEX
  5
3C09
  8
AM_VIS
 10
-1516.043649123839
 20
7.0854543459363413
 30
0.0
  0
SEQEND
  5
3C0A
  8
AM_VIS
  0
LINE
  5
2D97
  8
AM_VIS
 10
-1528.57968478513
 20
7.0854543459363413
 30
0.0
 11
-1519.543515854564
 21
7.0854543459363413
 31
0.0
  0
ARC
  5
2D98
  8
AM_VIS
 10
-1516.44628241553
 20
7.3854543459361821
 30
0.0
 40
0.3
 50
180.4999999999965
 51
270.0
  0
POLYLINE
  5
2D99
  8
AM_VIS
 66
     1
 10
0.0
 20
0.0
 30
0.0
  0
VERTEX
  5
3C0B
  8
AM_VIS
 10
-1826.3501763588349
 20
145.89822734820379
 30
0.0
  0
VERTEX
  5
3C0C
  8
AM_VIS
 10
-1826.3501763588381
 20
400.98414251122421
 30
0.0
  0
SEQEND
  5
3C0D
  8
AM_VIS
  0
POLYLINE
  5
2D9A
  8
AM_VIS
 66
     1
 10
0.0
 20
0.0
 30
0.0
  0
VERTEX
  5
3C0E
  8
AM_VIS
 10
-1827.157157587237
 20
146.6981968866553
 30
0.0
  0
VERTEX
  5
3C0F
  8
AM_VIS
 10
-1827.157157587237
 20
400.18417297277273
 30
0.0
  0
SEQEND
  5
3C10
  8
AM_VIS
  0
LINE
  5
2D9B
  8
L1
  6
HIDDEN
 62
     1
 10
-1757.157157587237
 20
165.79755059076001
 30
0.0
 11
-1757.157157587236
 21
381.08481926866801
 31
0.0
  0
LINE
  5
2D9C
  8
AM_VIS
 10
-1754.157157587237
 20
385.87268893934561
 30
0.0
 11
-1754.157157587237
 21
161.00968092008171
 31
0.0
  0
LINE
  5
2D9D
  8
L1
  6
HIDDEN
 62
     1
 10
-1764.657157587237
 20
169.69137465211881
 30
0.0
 11
-1764.657157587237
 21
175.5909952073095
 31
0.0
  0
LINE
  5
2D9E
  8
L1
  6
HIDDEN
 62
     1
 10
-1757.157157587237
 20
165.79755059076001
 30
0.0
 11
-1826.3501763588381
 21
165.19371226389759
 31
0.0
  0
LINE
  5
2D9F
  8
AM_VIS
 10
-1752.4545396265869
 20
147.24313145556329
 30
0.0
 11
-1820.857148239314
 21
146.6461909336567
 31
0.0
  0
LINE
  5
2DA0
  8
AM_VIS
 10
-1754.6527943194869
 20
161.0244730167517
 30
0.0
 11
-1819.1720581744901
 21
160.4614219311315
 31
0.0
  0
LINE
  5
2DA1
  8
AM_VIS
 10
-1819.1720581744901
 20
145.960869836585
 30
0.0
 11
-1754.6527943194869
 21
146.52392092220489
 31
0.0
  0
POLYLINE
  5
2DA2
  8
AM_VIS
 66
     1
 10
0.0
 20
0.0
 30
0.0
  0
VERTEX
  5
3C11
  8
AM_VIS
 10
-1752.157157587237
 20
150.043024840143
 30
0.0
  0
VERTEX
  5
3C12
  8
AM_VIS
 10
-1752.157157587237
 20
149.65194493495801
 30
0.0
  0
VERTEX
  5
3C13
  8
AM_VIS
 10
-1752.157157587237
 20
149.27049847074269
 30
0.0
  0
VERTEX
  5
3C14
  8
AM_VIS
 10
-1752.157157587237
 20
148.90807701659239
 30
0.0
  0
VERTEX
  5
3C15
  8
AM_VIS
 10
-1752.157157587237
 20
148.5736037280416
 30
0.0
  0
VERTEX
  5
3C16
  8
AM_VIS
 10
-1752.157157587237
 20
148.27531365061961
 30
0.0
  0
VERTEX
  5
3C17
  8
AM_VIS
 10
-1752.157157587237
 20
148.0205509653201
 30
0.0
  0
VERTEX
  5
3C18
  8
AM_VIS
 10
-1752.157157587237
 20
147.81558816798761
 30
0.0
  0
VERTEX
  5
3C19
  8
AM_VIS
 10
-1752.157157587237
 20
147.6654716345983
 30
0.0
  0
VERTEX
  5
3C1A
  8
AM_VIS
 10
-1752.157157587237
 20
147.57389737475719
 30
0.0
  0
VERTEX
  5
3C1B
  8
AM_VIS
 10
-1752.157157587237
 20
147.54312003248239
 30
0.0
  0
SEQEND
  5
3C1C
  8
AM_VIS
  0
ARC
  5
2DA3
  8
AM_VIS
 10
-1752.4571575872369
 20
147.5431200324827
 30
0.0
 40
0.2999999999999999
 50
270.5000000000008
 51
0.000000000000007
  0
POLYLINE
  5
2DA4
  8
AM_VIS
 66
     1
 10
0.0
 20
0.0
 30
0.0
  0
VERTEX
  5
3C1D
  8
AM_VIS
 10
-1754.165901394304
 20
146.93080326449581
 30
0.0
  0
VERTEX
  5
3C1E
  8
AM_VIS
 10
-1754.157157587237
 20
147.0239018837369
 30
0.0
  0
SEQEND
  5
3C1F
  8
AM_VIS
  0
POLYLINE
  5
2DA5
  8
AM_VIS
 66
     1
 10
0.0
 20
0.0
 30
0.0
  0
VERTEX
  5
3C20
  8
AM_VIS
 10
-1754.6527943194869
 20
146.52392092220489
 30
0.0
  0
VERTEX
  5
3C21
  8
AM_VIS
 10
-1754.336536358107
 20
146.6402327197022
 30
0.0
  0
VERTEX
  5
3C22
  8
AM_VIS
 10
-1754.165901394304
 20
146.93080326449581
 30
0.0
  0
SEQEND
  5
3C23
  8
AM_VIS
  0
POLYLINE
  5
2DA6
  8
AM_VIS
 66
     1
 10
0.0
 20
0.0
 30
0.0
  0
VERTEX
  5
3C24
  8
AM_VIS
 10
-1754.157157587237
 20
147.22827293372251
 30
0.0
  0
VERTEX
  5
3C25
  8
AM_VIS
 10
-1754.157157587237
 20
147.17188012489819
 30
0.0
  0
VERTEX
  5
3C26
  8
AM_VIS
 10
-1754.157157587237
 20
147.0239018837369
 30
0.0
  0
SEQEND
  5
3C27
  8
AM_VIS
  0
LINE
  5
2DA7
  8
AM_VIS
 10
-1752.157157587237
 20
161.74379918219159
 30
0.0
 11
-1752.157157587237
 21
150.043024840143
 31
0.0
  0
LINE
  5
2DA8
  8
AM_VIS
 10
-1754.157157587237
 20
162.2586386655646
 30
0.0
 11
-1752.4545396265869
 21
162.2437801437238
 31
0.0
  0
POLYLINE
  5
2DA9
  8
AM_VIS
 66
     1
 10
0.0
 20
0.0
 30
0.0
  0
VERTEX
  5
3C28
  8
AM_VIS
 10
-1752.157157587237
 20
161.94379156680449
 30
0.0
  0
VERTEX
  5
3C29
  8
AM_VIS
 10
-1752.157157587237
 20
161.8852160773535
 30
0.0
  0
VERTEX
  5
3C2A
  8
AM_VIS
 10
-1752.157157587237
 20
161.74379918219159
 30
0.0
  0
SEQEND
  5
3C2B
  8
AM_VIS
  0
ARC
  5
2DAA
  8
AM_VIS
 10
-1752.4571575872369
 20
161.94379156680461
 30
0.0
 40
0.3
 50
0.000000000000007
 51
89.499999999985675
  0
LINE
  5
2DAB
  8
L1
  6
HIDDEN
 62
     1
 10
-1764.1658837904549
 20
169.19145080454061
 30
0.0
 11
-1763.057157587237
 21
169.17209791667571
 31
0.0
  0
ARC
  5
2DAC
  8
L1
  6
HIDDEN
 62
     1
 10
-1764.157157587237
 20
169.6913746521189
 30
0.0
 40
0.5
 50
180.0
 51
268.99999999999977
  0
LINE
  5
2DAD
  8
L1
  6
HIDDEN
 62
     1
 10
-1757.157157587237
 20
169.06911303359939
 30
0.0
 11
-1764.1658837904549
 21
169.19145080454061
 31
0.0
  0
POLYLINE
  5
2DAE
  8
AM_VIS
 66
     1
 10
0.0
 20
0.0
 30
0.0
  0
VERTEX
  5
3C2C
  8
AM_VIS
 10
-1754.157157587237
 20
161.00968092008171
 30
0.0
  0
VERTEX
  5
3C2D
  8
AM_VIS
 10
-1754.165901394382
 20
161.0252390009432
 30
0.0
  0
SEQEND
  5
3C2E
  8
AM_VIS
  0
POLYLINE
  5
2DAF
  8
AM_VIS
 66
     1
 10
0.0
 20
0.0
 30
0.0
  0
VERTEX
  5
3C2F
  8
AM_VIS
 10
-1754.165901394382
 20
161.0252390009432
 30
0.0
  0
VERTEX
  5
3C30
  8
AM_VIS
 10
-1754.3365363582691
 20
161.02625065338449
 30
0.0
  0
VERTEX
  5
3C31
  8
AM_VIS
 10
-1754.6527943194869
 20
161.0244730167517
 30
0.0
  0
SEQEND
  5
3C32
  8
AM_VIS
  0
POLYLINE
  5
2DB0
  8
AM_VIS
 66
     1
 10
0.0
 20
0.0
 30
0.0
  0
VERTEX
  5
3C33
  8
AM_VIS
 10
-1754.157157587237
 20
161.00968092008171
 30
0.0
  0
VERTEX
  5
3C34
  8
AM_VIS
 10
-1754.157157587237
 20
160.90042456438749
 30
0.0
  0
VERTEX
  5
3C35
  8
AM_VIS
 10
-1754.157157587237
 20
160.72533795508659
 30
0.0
  0
SEQEND
  5
3C36
  8
AM_VIS
  0
POLYLINE
  5
2DB1
  8
AM_VIS
 66
     1
 10
0.0
 20
0.0
 30
0.0
  0
VERTEX
  5
3C37
  8
AM_VIS
 10
-1821.1545302786651
 20
149.44343579535769
 30
0.0
  0
VERTEX
  5
3C38
  8
AM_VIS
 10
-1821.1545302786651
 20
146.96864013002499
 30
0.0
  0
VERTEX
  5
3C39
  8
AM_VIS
 10
-1821.1545302786651
 20
145.94356906463321
 30
0.0
  0
SEQEND
  5
3C3A
  8
AM_VIS
  0
POLYLINE
  5
2DB2
  8
AM_VIS
 66
     1
 10
0.0
 20
0.0
 30
0.0
  0
VERTEX
  5
3C3B
  8
AM_VIS
 10
-1826.350176358839
 20
145.89822734820399
 30
0.0
  0
VERTEX
  5
3C3C
  8
AM_VIS
 10
-1827.157157587237
 20
146.6981968866553
 30
0.0
  0
SEQEND
  5
3C3D
  8
AM_VIS
  0
LINE
  5
2DB3
  8
AM_VIS
 10
-1821.1545302786651
 20
145.94356906463321
 30
0.0
 11
-1826.3501763588349
 21
145.89822734820379
 31
0.0
  0
ARC
  5
2DB4
  8
AM_VIS
 10
-1820.8545302786649
 20
146.34620235673751
 30
0.0
 40
0.3
 50
90.500000000002643
 51
180.0
  0
LINE
  5
2DB5
  8
AM_VIS
 10
-1821.1545302786651
 20
145.94356906463321
 30
0.0
 11
-1819.1720581744901
 21
145.9608698365852
 31
0.0
  0
POLYLINE
  5
2DB6
  8
AM_VIS
 10
-1821.1545302786642
 20
158.46149807920429
 30
0.0
 66
     1
 70
     8
  0
VERTEX
  8
0
  5
3FFD
 10
-1821.15
 20
158.461
 30
0.000000
  70
    32
  0
VERTEX
  8
0
  5
3FFE
 10
-1821.15
 20
158.486
 30
0.000000
  70
    32
  0
VERTEX
  8
0
  5
3FFF
 10
-1821.15
 20
158.510
 30
0.000000
  70
    32
  0
VERTEX
  8
0
  5
4000
 10
-1821.15
 20
158.535
 30
0.000000
  70
    32
  0
VERTEX
  8
0
  5
4001
 10
-1821.15
 20
158.559
 30
0.000000
  70
    32
  0
VERTEX
  8
0
  5
4002
 10
-1821.15
 20
158.583
 30
0.000000
  70
    32
  0
VERTEX
  8
0
  5
4003
 10
-1821.15
 20
158.608
 30
0.000000
  70
    32
  0
VERTEX
  8
0
  5
4004
 10
-1821.15
 20
158.632
 30
0.000000
  70
    32
  0
VERTEX
  8
0
  5
4005
 10
-1821.15
 20
158.656
 30
0.000000
  70
    32
  0
VERTEX
  8
0
  5
4006
 10
-1821.14
 20
158.681
 30
0.000000
  70
    32
  0
VERTEX
  8
0
  5
4007
 10
-1821.14
 20
158.705
 30
0.000000
  70
    32
  0
VERTEX
  8
0
  5
4008
 10
-1821.14
 20
158.729
 30
0.000000
  70
    32
  0
VERTEX
  8
0
  5
4009
 10
-1821.13
 20
158.753
 30
0.000000
  70
    32
  0
VERTEX
  8
0
  5
400A
 10
-1821.13
 20
158.777
 30
0.000000
  70
    32
  0
VERTEX
  8
0
  5
400B
 10
-1821.13
 20
158.802
 30
0.000000
  70
    32
  0
VERTEX
  8
0
  5
400C
 10
-1821.12
 20
158.826
 30
0.000000
  70
    32
  0
VERTEX
  8
0
  5
400D
 10
-1821.12
 20
158.850
 30
0.000000
  70
    32
  0
VERTEX
  8
0
  5
400E
 10
-1821.11
 20
158.873
 30
0.000000
  70
    32
  0
VERTEX
  8
0
  5
400F
 10
-1821.11
 20
158.897
 30
0.000000
  70
    32
  0
VERTEX
  8
0
  5
4010
 10
-1821.10
 20
158.921
 30
0.000000
  70
    32
  0
VERTEX
  8
0
  5
4011
 10
-1821.10
 20
158.945
 30
0.000000
  70
    32
  0
VERTEX
  8
0
  5
4012
 10
-1821.09
 20
158.968
 30
0.000000
  70
    32
  0
VERTEX
  8
0
  5
4013
 10
-1821.08
 20
158.992
 30
0.000000
  70
    32
  0
VERTEX
  8
0
  5
4014
 10
-1821.08
 20
159.016
 30
0.000000
  70
    32
  0
VERTEX
  8
0
  5
4015
 10
-1821.07
 20
159.039
 30
0.000000
  70
    32
  0
VERTEX
  8
0
  5
4016
 10
-1821.06
 20
159.062
 30
0.000000
  70
    32
  0
VERTEX
  8
0
  5
4017
 10
-1821.05
 20
159.085
 30
0.000000
  70
    32
  0
VERTEX
  8
0
  5
4018
 10
-1821.05
 20
159.109
 30
0.000000
  70
    32
  0
VERTEX
  8
0
  5
4019
 10
-1821.04
 20
159.132
 30
0.000000
  70
    32
  0
VERTEX
  8
0
  5
401A
 10
-1821.03
 20
159.155
 30
0.000000
  70
    32
  0
VERTEX
  8
0
  5
401B
 10
-1821.02
 20
159.177
 30
0.000000
  70
    32
  0
VERTEX
  8
0
  5
401C
 10
-1821.01
 20
159.200
 30
0.000000
  70
    32
  0
VERTEX
  8
0
  5
401D
 10
-1821.00
 20
159.223
 30
0.000000
  70
    32
  0
VERTEX
  8
0
  5
401E
 10
-1820.99
 20
159.245
 30
0.000000
  70
    32
  0
VERTEX
  8
0
  5
401F
 10
-1820.98
 20
159.268
 30
0.000000
  70
    32
  0
VERTEX
  8
0
  5
4020
 10
-1820.97
 20
159.290
 30
0.000000
  70
    32
  0
VERTEX
  8
0
  5
4021
 10
-1820.96
 20
159.312
 30
0.000000
  70
    32
  0
VERTEX
  8
0
  5
4022
 10
-1820.95
 20
159.334
 30
0.000000
  70
    32
  0
VERTEX
  8
0
  5
4023
 10
-1820.94
 20
159.356
 30
0.000000
  70
    32
  0
VERTEX
  8
0
  5
4024
 10
-1820.93
 20
159.378
 30
0.000000
  70
    32
  0
VERTEX
  8
0
  5
4025
 10
-1820.92
 20
159.399
 30
0.000000
  70
    32
  0
VERTEX
  8
0
  5
4026
 10
-1820.91
 20
159.421
 30
0.000000
  70
    32
  0
VERTEX
  8
0
  5
4027
 10
-1820.90
 20
159.442
 30
0.000000
  70
    32
  0
VERTEX
  8
0
  5
4028
 10
-1820.89
 20
159.464
 30
0.000000
  70
    32
  0
VERTEX
  8
0
  5
4029
 10
-1820.87
 20
159.485
 30
0.000000
  70
    32
  0
VERTEX
  8
0
  5
402A
 10
-1820.86
 20
159.505
 30
0.000000
  70
    32
  0
VERTEX
  8
0
  5
402B
 10
-1820.85
 20
159.526
 30
0.000000
  70
    32
  0
VERTEX
  8
0
  5
402C
 10
-1820.83
 20
159.547
 30
0.000000
  70
    32
  0
VERTEX
  8
0
  5
402D
 10
-1820.82
 20
159.567
 30
0.000000
  70
    32
  0
VERTEX
  8
0
  5
402E
 10
-1820.81
 20
159.587
 30
0.000000
  70
    32
  0
VERTEX
  8
0
  5
402F
 10
-1820.79
 20
159.608
 30
0.000000
  70
    32
  0
VERTEX
  8
0
  5
4030
 10
-1820.78
 20
159.627
 30
0.000000
  70
    32
  0
VERTEX
  8
0
  5
4031
 10
-1820.77
 20
159.647
 30
0.000000
  70
    32
  0
VERTEX
  8
0
  5
4032
 10
-1820.75
 20
159.667
 30
0.000000
  70
    32
  0
VERTEX
  8
0
  5
4033
 10
-1820.74
 20
159.686
 30
0.000000
  70
    32
  0
VERTEX
  8
0
  5
4034
 10
-1820.72
 20
159.705
 30
0.000000
  70
    32
  0
VERTEX
  8
0
  5
4035
 10
-1820.71
 20
159.724
 30
0.000000
  70
    32
  0
VERTEX
  8
0
  5
4036
 10
-1820.69
 20
159.743
 30
0.000000
  70
    32
  0
VERTEX
  8
0
  5
4037
 10
-1820.67
 20
159.762
 30
0.000000
  70
    32
  0
VERTEX
  8
0
  5
4038
 10
-1820.66
 20
159.780
 30
0.000000
  70
    32
  0
VERTEX
  8
0
  5
4039
 10
-1820.64
 20
159.799
 30
0.000000
  70
    32
  0
VERTEX
  8
0
  5
403A
 10
-1820.63
 20
159.817
 30
0.000000
  70
    32
  0
VERTEX
  8
0
  5
403B
 10
-1820.61
 20
159.834
 30
0.000000
  70
    32
  0
VERTEX
  8
0
  5
403C
 10
-1820.59
 20
159.852
 30
0.000000
  70
    32
  0
VERTEX
  8
0
  5
403D
 10
-1820.57
 20
159.870
 30
0.000000
  70
    32
  0
VERTEX
  8
0
  5
403E
 10
-1820.56
 20
159.887
 30
0.000000
  70
    32
  0
VERTEX
  8
0
  5
403F
 10
-1820.54
 20
159.904
 30
0.000000
  70
    32
  0
VERTEX
  8
0
  5
4040
 10
-1820.52
 20
159.921
 30
0.000000
  70
    32
  0
VERTEX
  8
0
  5
4041
 10
-1820.50
 20
159.937
 30
0.000000
  70
    32
  0
VERTEX
  8
0
  5
4042
 10
-1820.49
 20
159.954
 30
0.000000
  70
    32
  0
VERTEX
  8
0
  5
4043
 10
-1820.47
 20
159.970
 30
0.000000
  70
    32
  0
VERTEX
  8
0
  5
4044
 10
-1820.45
 20
159.986
 30
0.000000
  70
    32
  0
VERTEX
  8
0
  5
4045
 10
-1820.43
 20
160.001
 30
0.000000
  70
    32
  0
VERTEX
  8
0
  5
4046
 10
-1820.41
 20
160.017
 30
0.000000
  70
    32
  0
VERTEX
  8
0
  5
4047
 10
-1820.39
 20
160.032
 30
0.000000
  70
    32
  0
VERTEX
  8
0
  5
4048
 10
-1820.37
 20
160.047
 30
0.000000
  70
    32
  0
VERTEX
  8
0
  5
4049
 10
-1820.35
 20
160.062
 30
0.000000
  70
    32
  0
VERTEX
  8
0
  5
404A
 10
-1820.33
 20
160.076
 30
0.000000
  70
    32
  0
VERTEX
  8
0
  5
404B
 10
-1820.31
 20
160.091
 30
0.000000
  70
    32
  0
VERTEX
  8
0
  5
404C
 10
-1820.29
 20
160.105
 30
0.000000
  70
    32
  0
VERTEX
  8
0
  5
404D
 10
-1820.27
 20
160.118
 30
0.000000
  70
    32
  0
VERTEX
  8
0
  5
404E
 10
-1820.25
 20
160.132
 30
0.000000
  70
    32
  0
VERTEX
  8
0
  5
404F
 10
-1820.23
 20
160.145
 30
0.000000
  70
    32
  0
VERTEX
  8
0
  5
4050
 10
-1820.21
 20
160.158
 30
0.000000
  70
    32
  0
VERTEX
  8
0
  5
4051
 10
-1820.19
 20
160.171
 30
0.000000
  70
    32
  0
VERTEX
  8
0
  5
4052
 10
-1820.17
 20
160.184
 30
0.000000
  70
    32
  0
VERTEX
  8
0
  5
4053
 10
-1820.15
 20
160.196
 30
0.000000
  70
    32
  0
VERTEX
  8
0
  5
4054
 10
-1820.13
 20
160.208
 30
0.000000
  70
    32
  0
VERTEX
  8
0
  5
4055
 10
-1820.11
 20
160.220
 30
0.000000
  70
    32
  0
VERTEX
  8
0
  5
4056
 10
-1820.09
 20
160.231
 30
0.000000
  70
    32
  0
VERTEX
  8
0
  5
4057
 10
-1820.06
 20
160.242
 30
0.000000
  70
    32
  0
VERTEX
  8
0
  5
4058
 10
-1820.04
 20
160.253
 30
0.000000
  70
    32
  0
VERTEX
  8
0
  5
4059
 10
-1820.02
 20
160.264
 30
0.000000
  70
    32
  0
VERTEX
  8
0
  5
405A
 10
-1820.00
 20
160.275
 30
0.000000
  70
    32
  0
VERTEX
  8
0
  5
405B
 10
-1819.98
 20
160.285
 30
0.000000
  70
    32
  0
VERTEX
  8
0
  5
405C
 10
-1819.95
 20
160.295
 30
0.000000
  70
    32
  0
VERTEX
  8
0
  5
405D
 10
-1819.93
 20
160.304
 30
0.000000
  70
    32
  0
VERTEX
  8
0
  5
405E
 10
-1819.91
 20
160.314
 30
0.000000
  70
    32
  0
VERTEX
  8
0
  5
405F
 10
-1819.89
 20
160.323
 30
0.000000
  70
    32
  0
VERTEX
  8
0
  5
4060
 10
-1819.86
 20
160.331
 30
0.000000
  70
    32
  0
VERTEX
  8
0
  5
4061
 10
-1819.84
 20
160.340
 30
0.000000
  70
    32
  0
VERTEX
  8
0
  5
4062
 10
-1819.82
 20
160.348
 30
0.000000
  70
    32
  0
VERTEX
  8
0
  5
4063
 10
-1819.80
 20
160.356
 30
0.000000
  70
    32
  0
VERTEX
  8
0
  5
4064
 10
-1819.77
 20
160.364
 30
0.000000
  70
    32
  0
VERTEX
  8
0
  5
4065
 10
-1819.75
 20
160.371
 30
0.000000
  70
    32
  0
VERTEX
  8
0
  5
4066
 10
-1819.73
 20
160.378
 30
0.000000
  70
    32
  0
VERTEX
  8
0
  5
4067
 10
-1819.70
 20
160.385
 30
0.000000
  70
    32
  0
VERTEX
  8
0
  5
4068
 10
-1819.68
 20
160.392
 30
0.000000
  70
    32
  0
VERTEX
  8
0
  5
4069
 10
-1819.65
 20
160.398
 30
0.000000
  70
    32
  0
VERTEX
  8
0
  5
406A
 10
-1819.63
 20
160.404
 30
0.000000
  70
    32
  0
VERTEX
  8
0
  5
406B
 10
-1819.61
 20
160.410
 30
0.000000
  70
    32
  0
VERTEX
  8
0
  5
406C
 10
-1819.58
 20
160.415
 30
0.000000
  70
    32
  0
VERTEX
  8
0
  5
406D
 10
-1819.56
 20
160.420
 30
0.000000
  70
    32
  0
VERTEX
  8
0
  5
406E
 10
-1819.54
 20
160.425
 30
0.000000
  70
    32
  0
VERTEX
  8
0
  5
406F
 10
-1819.51
 20
160.429
 30
0.000000
  70
    32
  0
VERTEX
  8
0
  5
4070
 10
-1819.49
 20
160.434
 30
0.000000
  70
    32
  0
VERTEX
  8
0
  5
4071
 10
-1819.46
 20
160.437
 30
0.000000
  70
    32
  0
VERTEX
  8
0
  5
4072
 10
-1819.44
 20
160.441
 30
0.000000
  70
    32
  0
VERTEX
  8
0
  5
4073
 10
-1819.42
 20
160.444
 30
0.000000
  70
    32
  0
VERTEX
  8
0
  5
4074
 10
-1819.39
 20
160.447
 30
0.000000
  70
    32
  0
VERTEX
  8
0
  5
4075
 10
-1819.37
 20
160.450
 30
0.000000
  70
    32
  0
VERTEX
  8
0
  5
4076
 10
-1819.34
 20
160.453
 30
0.000000
  70
    32
  0
VERTEX
  8
0
  5
4077
 10
-1819.32
 20
160.455
 30
0.000000
  70
    32
  0
VERTEX
  8
0
  5
4078
 10
-1819.29
 20
160.457
 30
0.000000
  70
    32
  0
VERTEX
  8
0
  5
4079
 10
-1819.27
 20
160.458
 30
0.000000
  70
    32
  0
VERTEX
  8
0
  5
407A
 10
-1819.25
 20
160.459
 30
0.000000
  70
    32
  0
VERTEX
  8
0
  5
407B
 10
-1819.22
 20
160.460
 30
0.000000
  70
    32
  0
VERTEX
  8
0
  5
407C
 10
-1819.20
 20
160.461
 30
0.000000
  70
    32
  0
VERTEX
  8
0
  5
407D
 10
-1819.17
 20
160.461
 30
0.000000
  70
    32
  0
SEQEND
  8
0
  5
407E
  0
LINE
  5
2DB7
  8
AM_VIS
 10
-1821.1545302786651
 20
158.46149807920429
 30
0.0
 11
-1821.1545302786651
 21
149.44343579535769
 31
0.0
  0
LINE
  5
2DB8
  8
L1
  6
HIDDEN
 62
     1
 10
-1781.157157587237
 20
165.58810576378201
 30
0.0
 11
-1782.7571575872371
 21
165.5741427753168
 31
0.0
  0
ARC
  5
2DB9
  8
L1
  6
HIDDEN
 62
     1
 10
-1764.157157587237
 20
175.59099520730959
 30
0.0
 40
0.5
 50
91.000000000000156
 51
180.0
  0
LINE
  5
2DBA
  8
L1
  6
HIDDEN
 62
     1
 10
-1757.157157587237
 20
176.21325682582889
 30
0.0
 11
-1764.1658837904549
 21
176.09091905488771
 31
0.0
  0
ARC
  5
2DBB
  8
L1
  6
HIDDEN
 62
     1
 10
-1764.157157587237
 20
213.89099520730949
 30
0.0
 40
0.5
 50
90.999999999999346
 51
180.0
  0
LINE
  5
2DBC
  8
L1
  6
HIDDEN
 62
     1
 10
-1757.157157587237
 20
214.51325682582899
 30
0.0
 11
-1764.1658837904549
 21
214.39091905488769
 31
0.0
  0
ARC
  5
2DBD
  8
L1
  6
HIDDEN
 62
     1
 10
-1764.157157587237
 20
207.99137465211879
 30
0.0
 40
0.5
 50
180.0
 51
268.99999999999898
  0
LINE
  5
2DBE
  8
L1
  6
HIDDEN
 62
     1
 10
-1764.1658837904549
 20
207.49145080454051
 30
0.0
 11
-1757.157157587237
 21
207.36911303359909
 31
0.0
  0
LINE
  5
2DBF
  8
L1
  6
HIDDEN
 62
     1
 10
-1764.657157587237
 20
207.99137465211871
 30
0.0
 11
-1764.657157587237
 21
213.89099520730949
 31
0.0
  0
LINE
  5
2DC0
  8
L1
  6
HIDDEN
 62
     1
 10
-1763.057157587237
 20
252.96344654823349
 30
0.0
 11
-1763.057157587237
 21
258.9189233111947
 31
0.0
  0
ARC
  5
2DC1
  8
L1
  6
HIDDEN
 62
     1
 10
-1762.5571575872359
 20
252.96344654823361
 30
0.0
 40
0.5
 50
180.0
 51
268.99999999999977
  0
LINE
  5
2DC2
  8
L1
  6
HIDDEN
 62
     1
 10
-1757.157157587236
 20
252.36911303359921
 30
0.0
 11
-1762.565883790455
 21
252.46352270065529
 31
0.0
  0
LINE
  5
2DC3
  8
L1
  6
HIDDEN
 62
     1
 10
-1764.657157587237
 20
262.76625503190758
 30
0.0
 11
-1764.657157587237
 21
264.11611482752068
 31
0.0
  0
ARC
  5
2DC4
  8
L1
  6
HIDDEN
 62
     1
 10
-1762.5571575872359
 20
258.91892331119482
 30
0.0
 40
0.5
 50
91.000000000000156
 51
180.0
  0
ARC
  5
2DC5
  8
L1
  6
HIDDEN
 62
     1
 10
-1764.157157587237
 20
264.11611482752079
 30
0.0
 40
0.5
 50
90.499999999999659
 51
180.0
  0
ARC
  5
2DC6
  8
L1
  6
HIDDEN
 62
     1
 10
-1764.157157587237
 20
262.76625503190758
 30
0.0
 40
0.5
 50
180.0
 51
269.50000000000028
  0
LINE
  5
2DC7
  8
L1
  6
HIDDEN
 62
     1
 10
-1757.157157587237
 20
264.67722194124889
 30
0.0
 11
-1764.1615208549861
 21
264.61609578905291
 31
0.0
  0
LINE
  5
2DC8
  8
L1
  6
HIDDEN
 62
     1
 10
-1764.1615208549861
 20
262.26627407037529
 30
0.0
 11
-1757.157157587237
 21
262.20514791817931
 31
0.0
  0
LINE
  5
2DC9
  8
L1
  6
HIDDEN
 62
     1
 10
-1762.565883790455
 20
259.41884715877291
 30
0.0
 11
-1757.157157587237
 21
259.51325682582882
 31
0.0
  0
LINE
  5
2DCA
  8
L1
  6
HIDDEN
 62
     1
 10
-1763.057157587237
 20
287.96344654823361
 30
0.0
 11
-1763.057157587237
 21
293.91892331119459
 31
0.0
  0
ARC
  5
2DCB
  8
L1
  6
HIDDEN
 62
     1
 10
-1764.157157587237
 20
276.39099520730957
 30
0.0
 40
0.5
 50
91.000000000000156
 51
180.0
  0
LINE
  5
2DCC
  8
L1
  6
HIDDEN
 62
     1
 10
-1757.157157587237
 20
277.01325682582899
 30
0.0
 11
-1764.1658837904549
 21
276.89091905488772
 31
0.0
  0
ARC
  5
2DCD
  8
L1
  6
HIDDEN
 62
     1
 10
-1764.157157587237
 20
270.49137465211891
 30
0.0
 40
0.5
 50
180.0
 51
268.99999999999977
  0
LINE
  5
2DCE
  8
L1
  6
HIDDEN
 62
     1
 10
-1764.1658837904549
 20
269.99145080454048
 30
0.0
 11
-1757.157157587237
 21
269.86911303359909
 31
0.0
  0
LINE
  5
2DCF
  8
L1
  6
HIDDEN
 62
     1
 10
-1764.657157587237
 20
270.49137465211868
 30
0.0
 11
-1764.657157587237
 21
276.39099520730952
 31
0.0
  0
LINE
  5
2DD0
  8
L1
  6
HIDDEN
 62
     1
 10
-1764.657157587237
 20
282.76625503190752
 30
0.0
 11
-1764.657157587237
 21
284.11611482752068
 31
0.0
  0
ARC
  5
2DD1
  8
L1
  6
HIDDEN
 62
     1
 10
-1762.5571575872359
 20
287.96344654823372
 30
0.0
 40
0.5
 50
180.0
 51
268.99999999999977
  0
ARC
  5
2DD2
  8
L1
  6
HIDDEN
 62
     1
 10
-1764.157157587237
 20
284.11611482752079
 30
0.0
 40
0.5
 50
90.499999999999659
 51
180.0
  0
ARC
  5
2DD3
  8
L1
  6
HIDDEN
 62
     1
 10
-1764.157157587237
 20
282.76625503190769
 30
0.0
 40
0.5
 50
180.0
 51
269.50000000000023
  0
LINE
  5
2DD4
  8
L1
  6
HIDDEN
 62
     1
 10
-1757.157157587237
 20
284.67722194124889
 30
0.0
 11
-1764.1615208549861
 21
284.61609578905279
 31
0.0
  0
LINE
  5
2DD5
  8
L1
  6
HIDDEN
 62
     1
 10
-1764.1615208549861
 20
282.2662740703754
 30
0.0
 11
-1757.157157587237
 21
282.20514791817931
 31
0.0
  0
LINE
  5
2DD6
  8
L1
  6
HIDDEN
 62
     1
 10
-1757.157157587237
 20
287.36911303359921
 30
0.0
 11
-1762.565883790455
 21
287.46352270065529
 31
0.0
  0
ARC
  5
2DD7
  8
L1
  6
HIDDEN
 62
     1
 10
-1762.5571575872359
 20
293.91892331119482
 30
0.0
 40
0.5
 50
91.000000000000156
 51
180.0
  0
LINE
  5
2DD8
  8
L1
  6
HIDDEN
 62
     1
 10
-1762.565883790455
 20
294.41884715877279
 30
0.0
 11
-1757.157157587237
 21
294.5132568258291
 31
0.0
  0
LINE
  5
2DD9
  8
L1
  6
HIDDEN
 62
     1
 10
-1764.657157587237
 20
332.99137465211868
 30
0.0
 11
-1764.657157587237
 21
338.89099520730952
 31
0.0
  0
ARC
  5
2DDA
  8
L1
  6
HIDDEN
 62
     1
 10
-1764.157157587237
 20
332.99137465211891
 30
0.0
 40
0.5
 50
180.0
 51
268.99999999999977
  0
LINE
  5
2DDB
  8
L1
  6
HIDDEN
 62
     1
 10
-1764.1658837904549
 20
332.49145080454048
 30
0.0
 11
-1757.157157587237
 21
332.36911303359909
 31
0.0
  0
ARC
  5
2DDC
  8
L1
  6
HIDDEN
 62
     1
 10
-1764.157157587237
 20
338.89099520730957
 30
0.0
 40
0.5
 50
91.000000000000156
 51
180.0
  0
LINE
  5
2DDD
  8
L1
  6
HIDDEN
 62
     1
 10
-1757.157157587237
 20
339.51325682582899
 30
0.0
 11
-1764.1658837904549
 21
339.39091905488772
 31
0.0
  0
LINE
  5
2DDE
  8
L1
  6
HIDDEN
 62
     1
 10
-1757.157157587237
 20
381.08481926866779
 30
0.0
 11
-1826.3501763588381
 21
381.6886575955308
 31
0.0
  0
LINE
  5
2DDF
  8
AM_VIS
 10
-1820.857148239314
 20
400.23617892630949
 30
0.0
 11
-1752.4545396265869
 21
399.63923840440287
 31
0.0
  0
LINE
  5
2DE0
  8
AM_VIS
 10
-1754.6527943194869
 20
400.35844893722327
 30
0.0
 11
-1819.1720581744901
 21
400.92150002284291
 31
0.0
  0
LINE
  5
2DE1
  8
AM_VIS
 10
-1819.1720581744901
 20
386.42094792829528
 30
0.0
 11
-1754.6527943194869
 21
385.85789684267593
 31
0.0
  0
ARC
  5
2DE2
  8
AM_VIS
 10
-1752.4571575872369
 20
384.93857829316158
 30
0.0
 40
0.2999999999999999
 50
270.50000000000892
 51
0.000000000000007
  0
LINE
  5
2DE3
  8
L1
  6
HIDDEN
 62
     1
 10
-1764.657157587237
 20
371.29137465211869
 30
0.0
 11
-1764.657157587237
 21
377.19099520730941
 31
0.0
  0
ARC
  5
2DE4
  8
L1
  6
HIDDEN
 62
     1
 10
-1764.157157587237
 20
371.2913746521188
 30
0.0
 40
0.5
 50
180.0
 51
268.99999999999977
  0
LINE
  5
2DE5
  8
L1
  6
HIDDEN
 62
     1
 10
-1764.1658837904549
 20
370.79145080454049
 30
0.0
 11
-1757.157157587237
 21
370.6691130335991
 31
0.0
  0
LINE
  5
2DE6
  8
AM_VIS
 10
-1752.4545396265869
 20
384.63858971624222
 30
0.0
 11
-1754.157157587237
 21
384.62373119440139
 31
0.0
  0
ARC
  5
2DE7
  8
L1
  6
HIDDEN
 62
     1
 10
-1764.157157587237
 20
377.19099520730953
 30
0.0
 40
0.5
 50
91.000000000000156
 51
180.0
  0
LINE
  5
2DE8
  8
L1
  6
HIDDEN
 62
     1
 10
-1757.157157587237
 20
377.81325682582928
 30
0.0
 11
-1764.1658837904549
 21
377.69091905488762
 31
0.0
  0
LINE
  5
2DE9
  8
AM_VIS
 10
-1752.157157587237
 20
399.33924982748368
 30
0.0
 11
-1752.157157587237
 21
384.93857829316158
 31
0.0
  0
POLYLINE
  5
2DEA
  8
AM_VIS
 66
     1
 10
0.0
 20
0.0
 30
0.0
  0
VERTEX
  5
3C3E
  8
AM_VIS
 10
-1754.165901394382
 20
385.85713085848442
 30
0.0
  0
VERTEX
  5
3C3F
  8
AM_VIS
 10
-1754.157157587237
 20
385.87268893934561
 30
0.0
  0
SEQEND
  5
3C40
  8
AM_VIS
  0
POLYLINE
  5
2DEB
  8
AM_VIS
 66
     1
 10
0.0
 20
0.0
 30
0.0
  0
VERTEX
  5
3C41
  8
AM_VIS
 10
-1754.6527943194869
 20
385.85789684267593
 30
0.0
  0
VERTEX
  5
3C42
  8
AM_VIS
 10
-1754.3365363582691
 20
385.8561192060431
 30
0.0
  0
VERTEX
  5
3C43
  8
AM_VIS
 10
-1754.165901394382
 20
385.85713085848442
 30
0.0
  0
SEQEND
  5
3C44
  8
AM_VIS
  0
POLYLINE
  5
2DEC
  8
AM_VIS
 66
     1
 10
0.0
 20
0.0
 30
0.0
  0
VERTEX
  5
3C45
  8
AM_VIS
 10
-1754.157157587237
 20
386.15703190434078
 30
0.0
  0
VERTEX
  5
3C46
  8
AM_VIS
 10
-1754.157157587237
 20
385.98194529504002
 30
0.0
  0
VERTEX
  5
3C47
  8
AM_VIS
 10
-1754.157157587237
 20
385.87268893934561
 30
0.0
  0
SEQEND
  5
3C48
  8
AM_VIS
  0
ARC
  5
2DED
  8
AM_VIS
 10
-1752.4571575872369
 20
399.33924982748368
 30
0.0
 40
0.3
 50
0.000000000000007
 51
89.500000000001975
  0
POLYLINE
  5
2DEE
  8
AM_VIS
 66
     1
 10
0.0
 20
0.0
 30
0.0
  0
VERTEX
  5
3C49
  8
AM_VIS
 10
-1754.157157587237
 20
399.8584679756911
 30
0.0
  0
VERTEX
  5
3C4A
  8
AM_VIS
 10
-1754.165901394405
 20
399.95156659547109
 30
0.0
  0
SEQEND
  5
3C4B
  8
AM_VIS
  0
POLYLINE
  5
2DEF
  8
AM_VIS
 66
     1
 10
0.0
 20
0.0
 30
0.0
  0
VERTEX
  5
3C4C
  8
AM_VIS
 10
-1754.165901394405
 20
399.95156659547109
 30
0.0
  0
VERTEX
  5
3C4D
  8
AM_VIS
 10
-1754.3365363583171
 20
400.24213713990179
 30
0.0
  0
VERTEX
  5
3C4E
  8
AM_VIS
 10
-1754.6527943194869
 20
400.35844893722327
 30
0.0
  0
SEQEND
  5
3C4F
  8
AM_VIS
  0
POLYLINE
  5
2DF0
  8
AM_VIS
 66
     1
 10
0.0
 20
0.0
 30
0.0
  0
VERTEX
  5
3C50
  8
AM_VIS
 10
-1754.157157587237
 20
399.85846797569138
 30
0.0
  0
VERTEX
  5
3C51
  8
AM_VIS
 10
-1754.157157587237
 20
399.71048973490218
 30
0.0
  0
VERTEX
  5
3C52
  8
AM_VIS
 10
-1754.157157587237
 20
399.65409692624343
 30
0.0
  0
SEQEND
  5
3C53
  8
AM_VIS
  0
POLYLINE
  5
2DF1
  8
AM_VIS
 66
     1
 10
0.0
 20
0.0
 30
0.0
  0
VERTEX
  5
3C54
  8
AM_VIS
 10
-1826.3501763588381
 20
400.98414251122421
 30
0.0
  0
VERTEX
  5
3C55
  8
AM_VIS
 10
-1827.157157587237
 20
400.18417297277273
 30
0.0
  0
SEQEND
  5
3C56
  8
AM_VIS
  0
LINE
  5
2DF2
  8
AM_VIS
 10
-1821.1545302786651
 20
397.43893406407051
 30
0.0
 11
-1821.1545302786651
 21
388.42087178022268
 31
0.0
  0
POLYLINE
  5
2DF3
  8
AM_VIS
 10
-1819.1720575100314
 20
386.42094792249685
 30
0.0
 66
     1
 70
     8
  0
VERTEX
  8
0
  5
407F
 10
-1819.17
 20
386.421
 30
0.000000
  70
    32
  0
VERTEX
  8
0
  5
4080
 10
-1819.20
 20
386.421
 30
0.000000
  70
    32
  0
VERTEX
  8
0
  5
4081
 10
-1819.22
 20
386.422
 30
0.000000
  70
    32
  0
VERTEX
  8
0
  5
4082
 10
-1819.25
 20
386.423
 30
0.000000
  70
    32
  0
VERTEX
  8
0
  5
4083
 10
-1819.27
 20
386.424
 30
0.000000
  70
    32
  0
VERTEX
  8
0
  5
4084
 10
-1819.29
 20
386.426
 30
0.000000
  70
    32
  0
VERTEX
  8
0
  5
4085
 10
-1819.32
 20
386.428
 30
0.000000
  70
    32
  0
VERTEX
  8
0
  5
4086
 10
-1819.34
 20
386.430
 30
0.000000
  70
    32
  0
VERTEX
  8
0
  5
4087
 10
-1819.37
 20
386.432
 30
0.000000
  70
    32
  0
VERTEX
  8
0
  5
4088
 10
-1819.39
 20
386.435
 30
0.000000
  70
    32
  0
VERTEX
  8
0
  5
4089
 10
-1819.42
 20
386.438
 30
0.000000
  70
    32
  0
VERTEX
  8
0
  5
408A
 10
-1819.44
 20
386.441
 30
0.000000
  70
    32
  0
VERTEX
  8
0
  5
408B
 10
-1819.46
 20
386.445
 30
0.000000
  70
    32
  0
VERTEX
  8
0
  5
408C
 10
-1819.49
 20
386.449
 30
0.000000
  70
    32
  0
VERTEX
  8
0
  5
408D
 10
-1819.51
 20
386.453
 30
0.000000
  70
    32
  0
VERTEX
  8
0
  5
408E
 10
-1819.54
 20
386.458
 30
0.000000
  70
    32
  0
VERTEX
  8
0
  5
408F
 10
-1819.56
 20
386.462
 30
0.000000
  70
    32
  0
VERTEX
  8
0
  5
4090
 10
-1819.58
 20
386.467
 30
0.000000
  70
    32
  0
VERTEX
  8
0
  5
4091
 10
-1819.61
 20
386.473
 30
0.000000
  70
    32
  0
VERTEX
  8
0
  5
4092
 10
-1819.63
 20
386.478
 30
0.000000
  70
    32
  0
VERTEX
  8
0
  5
4093
 10
-1819.65
 20
386.484
 30
0.000000
  70
    32
  0
VERTEX
  8
0
  5
4094
 10
-1819.68
 20
386.491
 30
0.000000
  70
    32
  0
VERTEX
  8
0
  5
4095
 10
-1819.70
 20
386.497
 30
0.000000
  70
    32
  0
VERTEX
  8
0
  5
4096
 10
-1819.73
 20
386.504
 30
0.000000
  70
    32
  0
VERTEX
  8
0
  5
4097
 10
-1819.75
 20
386.511
 30
0.000000
  70
    32
  0
VERTEX
  8
0
  5
4098
 10
-1819.77
 20
386.519
 30
0.000000
  70
    32
  0
VERTEX
  8
0
  5
4099
 10
-1819.80
 20
386.526
 30
0.000000
  70
    32
  0
VERTEX
  8
0
  5
409A
 10
-1819.82
 20
386.534
 30
0.000000
  70
    32
  0
VERTEX
  8
0
  5
409B
 10
-1819.84
 20
386.542
 30
0.000000
  70
    32
  0
VERTEX
  8
0
  5
409C
 10
-1819.86
 20
386.551
 30
0.000000
  70
    32
  0
VERTEX
  8
0
  5
409D
 10
-1819.89
 20
386.560
 30
0.000000
  70
    32
  0
VERTEX
  8
0
  5
409E
 10
-1819.91
 20
386.569
 30
0.000000
  70
    32
  0
VERTEX
  8
0
  5
409F
 10
-1819.93
 20
386.578
 30
0.000000
  70
    32
  0
VERTEX
  8
0
  5
40A0
 10
-1819.95
 20
386.588
 30
0.000000
  70
    32
  0
VERTEX
  8
0
  5
40A1
 10
-1819.98
 20
386.598
 30
0.000000
  70
    32
  0
VERTEX
  8
0
  5
40A2
 10
-1820.00
 20
386.608
 30
0.000000
  70
    32
  0
VERTEX
  8
0
  5
40A3
 10
-1820.02
 20
386.618
 30
0.000000
  70
    32
  0
VERTEX
  8
0
  5
40A4
 10
-1820.04
 20
386.629
 30
0.000000
  70
    32
  0
VERTEX
  8
0
  5
40A5
 10
-1820.06
 20
386.640
 30
0.000000
  70
    32
  0
VERTEX
  8
0
  5
40A6
 10
-1820.09
 20
386.651
 30
0.000000
  70
    32
  0
VERTEX
  8
0
  5
40A7
 10
-1820.11
 20
386.663
 30
0.000000
  70
    32
  0
VERTEX
  8
0
  5
40A8
 10
-1820.13
 20
386.674
 30
0.000000
  70
    32
  0
VERTEX
  8
0
  5
40A9
 10
-1820.15
 20
386.687
 30
0.000000
  70
    32
  0
VERTEX
  8
0
  5
40AA
 10
-1820.17
 20
386.699
 30
0.000000
  70
    32
  0
VERTEX
  8
0
  5
40AB
 10
-1820.19
 20
386.711
 30
0.000000
  70
    32
  0
VERTEX
  8
0
  5
40AC
 10
-1820.21
 20
386.724
 30
0.000000
  70
    32
  0
VERTEX
  8
0
  5
40AD
 10
-1820.23
 20
386.737
 30
0.000000
  70
    32
  0
VERTEX
  8
0
  5
40AE
 10
-1820.25
 20
386.750
 30
0.000000
  70
    32
  0
VERTEX
  8
0
  5
40AF
 10
-1820.27
 20
386.764
 30
0.000000
  70
    32
  0
VERTEX
  8
0
  5
40B0
 10
-1820.29
 20
386.778
 30
0.000000
  70
    32
  0
VERTEX
  8
0
  5
40B1
 10
-1820.31
 20
386.792
 30
0.000000
  70
    32
  0
VERTEX
  8
0
  5
40B2
 10
-1820.33
 20
386.806
 30
0.000000
  70
    32
  0
VERTEX
  8
0
  5
40B3
 10
-1820.35
 20
386.821
 30
0.000000
  70
    32
  0
VERTEX
  8
0
  5
40B4
 10
-1820.37
 20
386.835
 30
0.000000
  70
    32
  0
VERTEX
  8
0
  5
40B5
 10
-1820.39
 20
386.850
 30
0.000000
  70
    32
  0
VERTEX
  8
0
  5
40B6
 10
-1820.41
 20
386.866
 30
0.000000
  70
    32
  0
VERTEX
  8
0
  5
40B7
 10
-1820.43
 20
386.881
 30
0.000000
  70
    32
  0
VERTEX
  8
0
  5
40B8
 10
-1820.45
 20
386.897
 30
0.000000
  70
    32
  0
VERTEX
  8
0
  5
40B9
 10
-1820.47
 20
386.913
 30
0.000000
  70
    32
  0
VERTEX
  8
0
  5
40BA
 10
-1820.49
 20
386.929
 30
0.000000
  70
    32
  0
VERTEX
  8
0
  5
40BB
 10
-1820.50
 20
386.945
 30
0.000000
  70
    32
  0
VERTEX
  8
0
  5
40BC
 10
-1820.52
 20
386.962
 30
0.000000
  70
    32
  0
VERTEX
  8
0
  5
40BD
 10
-1820.54
 20
386.979
 30
0.000000
  70
    32
  0
VERTEX
  8
0
  5
40BE
 10
-1820.56
 20
386.996
 30
0.000000
  70
    32
  0
VERTEX
  8
0
  5
40BF
 10
-1820.57
 20
387.013
 30
0.000000
  70
    32
  0
VERTEX
  8
0
  5
40C0
 10
-1820.59
 20
387.030
 30
0.000000
  70
    32
  0
VERTEX
  8
0
  5
40C1
 10
-1820.61
 20
387.048
 30
0.000000
  70
    32
  0
VERTEX
  8
0
  5
40C2
 10
-1820.63
 20
387.066
 30
0.000000
  70
    32
  0
VERTEX
  8
0
  5
40C3
 10
-1820.64
 20
387.084
 30
0.000000
  70
    32
  0
VERTEX
  8
0
  5
40C4
 10
-1820.66
 20
387.102
 30
0.000000
  70
    32
  0
VERTEX
  8
0
  5
40C5
 10
-1820.67
 20
387.121
 30
0.000000
  70
    32
  0
VERTEX
  8
0
  5
40C6
 10
-1820.69
 20
387.139
 30
0.000000
  70
    32
  0
VERTEX
  8
0
  5
40C7
 10
-1820.71
 20
387.158
 30
0.000000
  70
    32
  0
VERTEX
  8
0
  5
40C8
 10
-1820.72
 20
387.177
 30
0.000000
  70
    32
  0
VERTEX
  8
0
  5
40C9
 10
-1820.74
 20
387.196
 30
0.000000
  70
    32
  0
VERTEX
  8
0
  5
40CA
 10
-1820.75
 20
387.216
 30
0.000000
  70
    32
  0
VERTEX
  8
0
  5
40CB
 10
-1820.77
 20
387.235
 30
0.000000
  70
    32
  0
VERTEX
  8
0
  5
40CC
 10
-1820.78
 20
387.255
 30
0.000000
  70
    32
  0
VERTEX
  8
0
  5
40CD
 10
-1820.79
 20
387.275
 30
0.000000
  70
    32
  0
VERTEX
  8
0
  5
40CE
 10
-1820.81
 20
387.295
 30
0.000000
  70
    32
  0
VERTEX
  8
0
  5
40CF
 10
-1820.82
 20
387.315
 30
0.000000
  70
    32
  0
VERTEX
  8
0
  5
40D0
 10
-1820.83
 20
387.336
 30
0.000000
  70
    32
  0
VERTEX
  8
0
  5
40D1
 10
-1820.85
 20
387.356
 30
0.000000
  70
    32
  0
VERTEX
  8
0
  5
40D2
 10
-1820.86
 20
387.377
 30
0.000000
  70
    32
  0
VERTEX
  8
0
  5
40D3
 10
-1820.87
 20
387.398
 30
0.000000
  70
    32
  0
VERTEX
  8
0
  5
40D4
 10
-1820.89
 20
387.419
 30
0.000000
  70
    32
  0
VERTEX
  8
0
  5
40D5
 10
-1820.90
 20
387.440
 30
0.000000
  70
    32
  0
VERTEX
  8
0
  5
40D6
 10
-1820.91
 20
387.461
 30
0.000000
  70
    32
  0
VERTEX
  8
0
  5
40D7
 10
-1820.92
 20
387.483
 30
0.000000
  70
    32
  0
VERTEX
  8
0
  5
40D8
 10
-1820.93
 20
387.505
 30
0.000000
  70
    32
  0
VERTEX
  8
0
  5
40D9
 10
-1820.94
 20
387.526
 30
0.000000
  70
    32
  0
VERTEX
  8
0
  5
40DA
 10
-1820.95
 20
387.548
 30
0.000000
  70
    32
  0
VERTEX
  8
0
  5
40DB
 10
-1820.96
 20
387.570
 30
0.000000
  70
    32
  0
VERTEX
  8
0
  5
40DC
 10
-1820.97
 20
387.592
 30
0.000000
  70
    32
  0
VERTEX
  8
0
  5
40DD
 10
-1820.98
 20
387.615
 30
0.000000
  70
    32
  0
VERTEX
  8
0
  5
40DE
 10
-1820.99
 20
387.637
 30
0.000000
  70
    32
  0
VERTEX
  8
0
  5
40DF
 10
-1821.00
 20
387.660
 30
0.000000
  70
    32
  0
VERTEX
  8
0
  5
40E0
 10
-1821.01
 20
387.682
 30
0.000000
  70
    32
  0
VERTEX
  8
0
  5
40E1
 10
-1821.02
 20
387.705
 30
0.000000
  70
    32
  0
VERTEX
  8
0
  5
40E2
 10
-1821.03
 20
387.728
 30
0.000000
  70
    32
  0
VERTEX
  8
0
  5
40E3
 10
-1821.04
 20
387.751
 30
0.000000
  70
    32
  0
VERTEX
  8
0
  5
40E4
 10
-1821.05
 20
387.774
 30
0.000000
  70
    32
  0
VERTEX
  8
0
  5
40E5
 10
-1821.05
 20
387.797
 30
0.000000
  70
    32
  0
VERTEX
  8
0
  5
40E6
 10
-1821.06
 20
387.820
 30
0.000000
  70
    32
  0
VERTEX
  8
0
  5
40E7
 10
-1821.07
 20
387.843
 30
0.000000
  70
    32
  0
VERTEX
  8
0
  5
40E8
 10
-1821.08
 20
387.867
 30
0.000000
  70
    32
  0
VERTEX
  8
0
  5
40E9
 10
-1821.08
 20
387.890
 30
0.000000
  70
    32
  0
VERTEX
  8
0
  5
40EA
 10
-1821.09
 20
387.914
 30
0.000000
  70
    32
  0
VERTEX
  8
0
  5
40EB
 10
-1821.10
 20
387.938
 30
0.000000
  70
    32
  0
VERTEX
  8
0
  5
40EC
 10
-1821.10
 20
387.961
 30
0.000000
  70
    32
  0
VERTEX
  8
0
  5
40ED
 10
-1821.11
 20
387.985
 30
0.000000
  70
    32
  0
VERTEX
  8
0
  5
40EE
 10
-1821.11
 20
388.009
 30
0.000000
  70
    32
  0
VERTEX
  8
0
  5
40EF
 10
-1821.12
 20
388.033
 30
0.000000
  70
    32
  0
VERTEX
  8
0
  5
40F0
 10
-1821.12
 20
388.057
 30
0.000000
  70
    32
  0
VERTEX
  8
0
  5
40F1
 10
-1821.13
 20
388.081
 30
0.000000
  70
    32
  0
VERTEX
  8
0
  5
40F2
 10
-1821.13
 20
388.105
 30
0.000000
  70
    32
  0
VERTEX
  8
0
  5
40F3
 10
-1821.13
 20
388.129
 30
0.000000
  70
    32
  0
VERTEX
  8
0
  5
40F4
 10
-1821.14
 20
388.153
 30
0.000000
  70
    32
  0
VERTEX
  8
0
  5
40F5
 10
-1821.14
 20
388.177
 30
0.000000
  70
    32
  0
VERTEX
  8
0
  5
40F6
 10
-1821.14
 20
388.202
 30
0.000000
  70
    32
  0
VERTEX
  8
0
  5
40F7
 10
-1821.15
 20
388.226
 30
0.000000
  70
    32
  0
VERTEX
  8
0
  5
40F8
 10
-1821.15
 20
388.250
 30
0.000000
  70
    32
  0
VERTEX
  8
0
  5
40F9
 10
-1821.15
 20
388.275
 30
0.000000
  70
    32
  0
VERTEX
  8
0
  5
40FA
 10
-1821.15
 20
388.299
 30
0.000000
  70
    32
  0
VERTEX
  8
0
  5
40FB
 10
-1821.15
 20
388.323
 30
0.000000
  70
    32
  0
VERTEX
  8
0
  5
40FC
 10
-1821.15
 20
388.348
 30
0.000000
  70
    32
  0
VERTEX
  8
0
  5
40FD
 10
-1821.15
 20
388.372
 30
0.000000
  70
    32
  0
VERTEX
  8
0
  5
40FE
 10
-1821.15
 20
388.396
 30
0.000000
  70
    32
  0
VERTEX
  8
0
  5
40FF
 10
-1821.15
 20
388.421
 30
0.000000
  70
    32
  0
SEQEND
  8
0
  5
4100
  0
LINE
  5
2DF4
  8
AM_VIS
 10
-1826.3501763588381
 20
400.98414251122421
 30
0.0
 11
-1821.1545302786651
 21
400.93880079479499
 31
0.0
  0
POLYLINE
  5
2DF5
  8
AM_VIS
 66
     1
 10
0.0
 20
0.0
 30
0.0
  0
VERTEX
  5
3C57
  8
AM_VIS
 10
-1821.1545302786651
 20
400.93880079479499
 30
0.0
  0
VERTEX
  5
3C58
  8
AM_VIS
 10
-1821.1545302786651
 20
399.91372972940297
 30
0.0
  0
VERTEX
  5
3C59
  8
AM_VIS
 10
-1821.1545302786651
 20
397.43893406407051
 30
0.0
  0
SEQEND
  5
3C5A
  8
AM_VIS
  0
ARC
  5
2DF6
  8
AM_VIS
 10
-1820.854530278664
 20
400.53616750322891
 30
0.0
 40
0.3
 50
180.0
 51
269.4999999999992
  0
LINE
  5
2DF7
  8
AM_VIS
 10
-1819.1720581744901
 20
400.92150002284291
 30
0.0
 11
-1821.1545302786651
 21
400.93880079479499
 31
0.0
  0
POLYLINE
  5
2DF8
  8
AM_VIS
 66
     1
 10
0.0
 20
0.0
 30
0.0
  0
VERTEX
  5
3C5B
  8
AM_VIS
 10
-1889.441417519077
 20
401.30105249780121
 30
0.0
 42
-0.4142135623559316
  0
VERTEX
  5
3C5C
  8
AM_VIS
 10
-1885.9415507881481
 20
397.80118576707667
 30
0.0
 42
0.9917273589615815
  0
SEQEND
  5
3C5D
  8
AM_VIS
  0
LINE
  5
2DF9
  8
AM_VIS
 10
-2062.667054634077
 20
385.4406221419726
 30
0.0
 11
-2062.667054634077
 21
384.1755105749366
 31
0.0
  0
ARC
  5
2DFA
  8
AM_VIS
 10
-2057.7345083696582
 20
393.00809491629121
 30
0.0
 40
9.8325462644184825
 50
270.0
 51
0.0000000000001597
  0
ARC
  5
2DFB
  8
AM_VIS
 10
-2057.7345083696582
 20
393.00809491629121
 30
0.0
 40
7.3731014374402699
 50
270.0
 51
0.0000000000002106
  0
LINE
  5
2DFC
  8
AM_VIS
 10
-2061.6670927110131
 20
383.1755486518727
 30
0.0
 11
-2057.7345083696582
 21
383.1755486518727
 31
0.0
  0
POLYLINE
  5
2DFD
  8
AM_VIS
 66
     1
 10
0.0
 20
0.0
 30
0.0
  0
VERTEX
  5
3C5E
  8
AM_VIS
 10
-2061.6670927110131
 20
383.1755486518727
 30
0.0
  0
VERTEX
  5
3C5F
  8
AM_VIS
 10
-2062.3741771868222
 20
383.4684260991275
 30
0.0
  0
VERTEX
  5
3C60
  8
AM_VIS
 10
-2062.667054634077
 20
384.1755105749366
 30
0.0
  0
SEQEND
  5
3C61
  8
AM_VIS
  0
LINE
  5
2DFE
  8
AM_VIS
 10
-2062.667054634077
 20
385.4406221419726
 30
0.0
 11
-2062.667054634077
 21
396.94064118044111
 31
0.0
  0
LINE
  5
2DFF
  8
AM_VIS
 10
-2064.6974203660629
 20
385.4406221419726
 30
0.0
 11
-2064.6974203660629
 21
397.97100691228292
 31
0.0
  0
LINE
  5
2E00
  8
AM_VIS
 10
-2047.90196210524
 20
393.0080949162911
 30
0.0
 11
-2047.90196210524
 21
396.9406792573763
 31
0.0
  0
LINE
  5
2E01
  8
AM_VIS
 10
-2050.361406932218
 20
397.49382554955372
 30
0.0
 11
-2050.361406932218
 21
393.0080949162911
 31
0.0
  0
ARC
  5
2E02
  8
AM_VIS
 10
-2057.7345083696582
 20
393.00809491629121
 30
0.0
 40
4.938745152550772
 50
218.38919377424421
 51
51.806350411164871
  0
ARC
  5
2E03
  8
AM_VIS
 10
-2057.7345083696582
 20
393.00809491629121
 30
0.0
 40
3.9749773270518478
 50
216.46589271525011
 51
53.776766583028802
  0
LINE
  5
2E04
  8
AM_VIS
 10
-2065.9648234627871
 20
386.73785791487262
 30
0.0
 11
-2065.4017723771681
 21
386.1748068292527
 31
0.0
  0
LINE
  5
2E05
  8
AM_VIS
 10
-2062.2202390031898
 20
385.6349934788509
 30
0.0
 11
-2062.2202390031898
 21
388.98119635373132
 31
0.0
  0
POLYLINE
  5
2E06
  8
AM_VIS
 66
     1
 10
0.0
 20
0.0
 30
0.0
  0
VERTEX
  5
3C62
  8
AM_VIS
 10
-2063.1670355956089
 20
384.94064118044071
 30
0.0
  0
VERTEX
  5
3C63
  8
AM_VIS
 10
-2062.8134933577039
 20
385.0870799040681
 30
0.0
  0
VERTEX
  5
3C64
  8
AM_VIS
 10
-2062.667054634077
 20
385.4406221419726
 30
0.0
  0
SEQEND
  5
3C65
  8
AM_VIS
  0
LINE
  5
2E07
  8
AM_VIS
 10
-2064.197439404531
 20
384.94064118044071
 30
0.0
 11
-2063.1670355956089
 21
384.94064118044071
 31
0.0
  0
POLYLINE
  5
2E08
  8
AM_VIS
 66
     1
 10
0.0
 20
0.0
 30
0.0
  0
VERTEX
  5
3C66
  8
AM_VIS
 10
-2064.6974203660639
 20
385.4406221419726
 30
0.0
  0
VERTEX
  5
3C67
  8
AM_VIS
 10
-2064.550981642436
 20
385.0870799040681
 30
0.0
  0
VERTEX
  5
3C68
  8
AM_VIS
 10
-2064.197439404531
 20
384.94064118044071
 30
0.0
  0
SEQEND
  5
3C69
  8
AM_VIS
  0
POLYLINE
  5
2E09
  8
AM_VIS
 66
     1
 10
0.0
 20
0.0
 30
0.0
  0
VERTEX
  5
3C6A
  8
AM_VIS
 10
-2064.6974203660629
 20
386.47394189091779
 30
0.0
  0
VERTEX
  5
3C6B
  8
AM_VIS
 10
-2064.7538131747601
 20
386.2988552816168
 30
0.0
  0
VERTEX
  5
3C6C
  8
AM_VIS
 10
-2064.9017914156352
 20
386.18959892592261
 30
0.0
  0
SEQEND
  5
3C6D
  8
AM_VIS
  0
POLYLINE
  5
2E0A
  8
AM_VIS
 66
     1
 10
0.0
 20
0.0
 30
0.0
  0
VERTEX
  5
3C6E
  8
AM_VIS
 10
-2064.9948900352911
 20
386.17404084506143
 30
0.0
  0
VERTEX
  5
3C6F
  8
AM_VIS
 10
-2064.9017914156352
 20
386.18959892592238
 30
0.0
  0
SEQEND
  5
3C70
  8
AM_VIS
  0
POLYLINE
  5
2E0B
  8
AM_VIS
 66
     1
 10
0.0
 20
0.0
 30
0.0
  0
VERTEX
  5
3C71
  8
AM_VIS
 10
-2065.4017723771672
 20
386.1748068292527
 30
0.0
  0
VERTEX
  5
3C72
  8
AM_VIS
 10
-2065.2854605798061
 20
386.17302919262011
 30
0.0
  0
VERTEX
  5
3C73
  8
AM_VIS
 10
-2064.9948900352911
 20
386.17404084506143
 30
0.0
  0
SEQEND
  5
3C74
  8
AM_VIS
  0
LINE
  5
2E0C
  8
AM_VIS
 10
-2057.7345083696582
 20
385.6349934788509
 30
0.0
 11
-2062.2202390031898
 21
385.6349934788509
 31
0.0
  0
CIRCLE
  5
2E0D
  8
AM_VIS
 10
-2057.7345083696582
 20
393.00809491629121
 30
0.0
 40
2.2281828305231031
  0
LINE
  5
2E0E
  8
AM_VIS
 10
-2048.9019240283042
 20
397.94064118044059
 30
0.0
 11
-2050.1670355956089
 21
397.94064118044059
 31
0.0
  0
POLYLINE
  5
2E0F
  8
AM_VIS
 66
     1
 10
0.0
 20
0.0
 30
0.0
  0
VERTEX
  5
3C75
  8
AM_VIS
 10
-2048.9019240283042
 20
397.94064118044059
 30
0.0
  0
VERTEX
  5
3C76
  8
AM_VIS
 10
-2048.1948395524951
 20
397.64776373318591
 30
0.0
  0
VERTEX
  5
3C77
  8
AM_VIS
 10
-2047.90196210524
 20
396.9406792573763
 30
0.0
  0
SEQEND
  5
3C78
  8
AM_VIS
  0
POLYLINE
  5
2E10
  8
AM_VIS
 66
     1
 10
0.0
 20
0.0
 30
0.0
  0
VERTEX
  5
3C79
  8
AM_VIS
 10
-2062.5275992202392
 20
401.30105249780121
 30
0.0
 42
0.4142135623559316
  0
VERTEX
  5
3C7A
  8
AM_VIS
 10
-2066.0274659511679
 20
397.80118576707667
 30
0.0
 42
-0.9917273589615815
  0
SEQEND
  5
3C7B
  8
AM_VIS
  0
ARC
  5
2E11
  8
AM_VIS
 10
-2061.667054634077
 20
396.94064118044128
 30
0.0
 40
1.0
 50
89.999999999997925
 51
180.0
  0
ARC
  5
2E12
  8
AM_VIS
 10
-2062.6974203660629
 20
397.97100691228297
 30
0.0
 40
2.0
 50
89.999999999999119
 51
180.0
  0
LINE
  5
2E13
  8
AM_VIS
 10
-2053.7076098070988
 20
397.49382554955372
 30
0.0
 11
-2050.361406932218
 21
397.49382554955372
 31
0.0
  0
POLYLINE
  5
2E14
  8
AM_VIS
 66
     1
 10
0.0
 20
0.0
 30
0.0
  0
VERTEX
  5
3C7C
  8
AM_VIS
 10
-2050.8979057324341
 20
400.1753779622681
 30
0.0
  0
VERTEX
  5
3C7D
  8
AM_VIS
 10
-2050.8823476517109
 20
400.26847658150922
 30
0.0
  0
SEQEND
  5
3C7E
  8
AM_VIS
  0
POLYLINE
  5
2E15
  8
AM_VIS
 66
     1
 10
0.0
 20
0.0
 30
0.0
  0
VERTEX
  5
3C7F
  8
AM_VIS
 10
-2050.8823476517109
 20
400.26847658150922
 30
0.0
  0
VERTEX
  5
3C80
  8
AM_VIS
 10
-2050.881335999266
 20
400.55904712630308
 30
0.0
  0
VERTEX
  5
3C81
  8
AM_VIS
 10
-2050.883113635899
 20
400.6753589238001
 30
0.0
  0
SEQEND
  5
3C82
  8
AM_VIS
  0
POLYLINE
  5
2E16
  8
AM_VIS
 66
     1
 10
0.0
 20
0.0
 30
0.0
  0
VERTEX
  5
3C83
  8
AM_VIS
 10
-2050.8979057324341
 20
400.1753779622681
 30
0.0
  0
VERTEX
  5
3C84
  8
AM_VIS
 10
-2051.0071620880899
 20
400.02739972110697
 30
0.0
  0
VERTEX
  5
3C85
  8
AM_VIS
 10
-2051.182248697568
 20
399.97100691228252
 30
0.0
  0
SEQEND
  5
3C86
  8
AM_VIS
  0
POLYLINE
  5
2E17
  8
AM_VIS
 66
     1
 10
0.0
 20
0.0
 30
0.0
  0
VERTEX
  5
3C87
  8
AM_VIS
 10
-2049.667054634077
 20
399.47102595075052
 30
0.0
  0
VERTEX
  5
3C88
  8
AM_VIS
 10
-2049.8134933577039
 20
399.82456818865512
 30
0.0
  0
VERTEX
  5
3C89
  8
AM_VIS
 10
-2050.1670355956089
 20
399.97100691228252
 30
0.0
  0
SEQEND
  5
3C8A
  8
AM_VIS
  0
LINE
  5
2E18
  8
AM_VIS
 10
-2049.667054634077
 20
398.4406221419726
 30
0.0
 11
-2049.667054634077
 21
399.47102595075052
 31
0.0
  0
POLYLINE
  5
2E19
  8
AM_VIS
 66
     1
 10
0.0
 20
0.0
 30
0.0
  0
VERTEX
  5
3C8B
  8
AM_VIS
 10
-2050.1670355956089
 20
397.94064118044059
 30
0.0
  0
VERTEX
  5
3C8C
  8
AM_VIS
 10
-2049.8134933577039
 20
398.0870799040681
 30
0.0
  0
VERTEX
  5
3C8D
  8
AM_VIS
 10
-2049.667054634077
 20
398.4406221419726
 30
0.0
  0
SEQEND
  5
3C8E
  8
AM_VIS
  0
LINE
  5
2E1A
  8
AM_VIS
 10
-2050.883113635899
 20
400.6753589238001
 30
0.0
 11
-2051.4461647215212
 21
401.23841000942002
 31
0.0
  0
LINE
  5
2E1B
  8
AM_VIS
 10
-2050.1670355956089
 20
397.94064118044059
 30
0.0
 11
-2061.667054634077
 21
397.94064118044111
 31
0.0
  0
LINE
  5
2E1C
  8
AM_VIS
 10
-2050.1670355956089
 20
399.97100691228252
 30
0.0
 11
-2062.6974203660629
 21
399.97100691228297
 31
0.0
  0
ARC
  5
2E1D
  8
AM_VIS
 10
-2057.7345083696582
 20
153.87427494313721
 30
0.0
 40
7.3731014374402699
 50
359.99999999999972
 51
90.000000000000028
  0
ARC
  5
2E1E
  8
AM_VIS
 10
-2057.7345083696582
 20
153.87427494313721
 30
0.0
 40
9.8325462644184825
 50
359.99999999999977
 51
90.000000000000028
  0
LINE
  5
2E1F
  8
AM_VIS
 10
-2062.667054634077
 20
161.4417477174558
 30
0.0
 11
-2062.667054634077
 21
162.7068592844918
 31
0.0
  0
POLYLINE
  5
2E20
  8
AM_VIS
 66
     1
 10
0.0
 20
0.0
 30
0.0
  0
VERTEX
  5
3C8F
  8
AM_VIS
 10
-2061.6670927110131
 20
163.70682120755569
 30
0.0
  0
VERTEX
  5
3C90
  8
AM_VIS
 10
-2062.3741771868222
 20
163.4139437603009
 30
0.0
  0
VERTEX
  5
3C91
  8
AM_VIS
 10
-2062.667054634077
 20
162.7068592844918
 30
0.0
  0
SEQEND
  5
3C92
  8
AM_VIS
  0
LINE
  5
2E21
  8
AM_VIS
 10
-2061.6670927110131
 20
163.70682120755569
 30
0.0
 11
-2057.7345083696582
 21
163.70682120755569
 31
0.0
  0
ARC
  5
2E22
  8
AM_VIS
 10
-2057.7345083696582
 20
153.87427494313721
 30
0.0
 40
3.9749773270518478
 50
306.2232334169712
 51
143.53410728474981
  0
ARC
  5
2E23
  8
AM_VIS
 10
-2057.7345083696582
 20
153.87427494313721
 30
0.0
 40
4.938745152550772
 50
308.19364958883511
 51
141.61080622575571
  0
LINE
  5
2E24
  8
AM_VIS
 10
-2050.361406932218
 20
149.3885443098747
 30
0.0
 11
-2050.361406932218
 21
153.87427494313729
 31
0.0
  0
LINE
  5
2E25
  8
AM_VIS
 10
-2047.90196210524
 20
153.87427494313729
 30
0.0
 11
-2047.90196210524
 21
149.94169060205209
 31
0.0
  0
LINE
  5
2E26
  8
AM_VIS
 10
-2064.6974203660629
 20
161.4417477174558
 30
0.0
 11
-2064.6974203660629
 21
148.91136294714551
 31
0.0
  0
LINE
  5
2E27
  8
AM_VIS
 10
-2062.667054634077
 20
161.4417477174558
 30
0.0
 11
-2062.667054634077
 21
149.94172867898729
 31
0.0
  0
CIRCLE
  5
2E28
  8
AM_VIS
 10
-2057.7345083696582
 20
153.87427494313721
 30
0.0
 40
2.2281828305231031
  0
LINE
  5
2E29
  8
AM_VIS
 10
-2057.7345083696582
 20
161.24737638057761
 30
0.0
 11
-2062.2202390031898
 21
161.24737638057761
 31
0.0
  0
POLYLINE
  5
2E2A
  8
AM_VIS
 66
     1
 10
0.0
 20
0.0
 30
0.0
  0
VERTEX
  5
3C93
  8
AM_VIS
 10
-2065.4017723771672
 20
160.70756303017581
 30
0.0
  0
VERTEX
  5
3C94
  8
AM_VIS
 10
-2065.2854605798061
 20
160.7093406668084
 30
0.0
  0
VERTEX
  5
3C95
  8
AM_VIS
 10
-2064.9948900352911
 20
160.70832901436711
 30
0.0
  0
SEQEND
  5
3C96
  8
AM_VIS
  0
POLYLINE
  5
2E2B
  8
AM_VIS
 66
     1
 10
0.0
 20
0.0
 30
0.0
  0
VERTEX
  5
3C97
  8
AM_VIS
 10
-2064.9948900352911
 20
160.70832901436711
 30
0.0
  0
VERTEX
  5
3C98
  8
AM_VIS
 10
-2064.9017914156352
 20
160.6927709335061
 30
0.0
  0
SEQEND
  5
3C99
  8
AM_VIS
  0
POLYLINE
  5
2E2C
  8
AM_VIS
 66
     1
 10
0.0
 20
0.0
 30
0.0
  0
VERTEX
  5
3C9A
  8
AM_VIS
 10
-2064.6974203660629
 20
160.40842796851069
 30
0.0
  0
VERTEX
  5
3C9B
  8
AM_VIS
 10
-2064.7538131747601
 20
160.5835145778116
 30
0.0
  0
VERTEX
  5
3C9C
  8
AM_VIS
 10
-2064.9017914156352
 20
160.6927709335059
 30
0.0
  0
SEQEND
  5
3C9D
  8
AM_VIS
  0
POLYLINE
  5
2E2D
  8
AM_VIS
 66
     1
 10
0.0
 20
0.0
 30
0.0
  0
VERTEX
  5
3C9E
  8
AM_VIS
 10
-2064.6974203660639
 20
161.4417477174558
 30
0.0
  0
VERTEX
  5
3C9F
  8
AM_VIS
 10
-2064.550981642436
 20
161.7952899553604
 30
0.0
  0
VERTEX
  5
3CA0
  8
AM_VIS
 10
-2064.197439404531
 20
161.9417286789878
 30
0.0
  0
SEQEND
  5
3CA1
  8
AM_VIS
  0
LINE
  5
2E2E
  8
AM_VIS
 10
-2064.197439404531
 20
161.9417286789878
 30
0.0
 11
-2063.1670355956089
 21
161.9417286789878
 31
0.0
  0
POLYLINE
  5
2E2F
  8
AM_VIS
 66
     1
 10
0.0
 20
0.0
 30
0.0
  0
VERTEX
  5
3CA2
  8
AM_VIS
 10
-2063.1670355956089
 20
161.9417286789878
 30
0.0
  0
VERTEX
  5
3CA3
  8
AM_VIS
 10
-2062.8134933577039
 20
161.7952899553604
 30
0.0
  0
VERTEX
  5
3CA4
  8
AM_VIS
 10
-2062.667054634077
 20
161.4417477174558
 30
0.0
  0
SEQEND
  5
3CA5
  8
AM_VIS
  0
LINE
  5
2E30
  8
AM_VIS
 10
-2062.2202390031898
 20
161.24737638057761
 30
0.0
 11
-2062.2202390031898
 21
157.90117350569719
 31
0.0
  0
LINE
  5
2E31
  8
AM_VIS
 10
-2065.9648234627871
 20
160.14451194455589
 30
0.0
 11
-2065.4017723771681
 21
160.70756303017581
 31
0.0
  0
LINE
  5
2E32
  8
AM_VIS
 10
-2050.1670355956089
 20
146.91136294714599
 30
0.0
 11
-2062.6974203660629
 21
146.91136294714551
 31
0.0
  0
LINE
  5
2E33
  8
AM_VIS
 10
-2050.1670355956089
 20
148.9417286789878
 30
0.0
 11
-2061.667054634077
 21
148.94172867898729
 31
0.0
  0
LINE
  5
2E34
  8
AM_VIS
 10
-2053.7076098070988
 20
149.3885443098747
 30
0.0
 11
-2050.361406932218
 21
149.3885443098747
 31
0.0
  0
LINE
  5
2E35
  8
AM_VIS
 10
-2050.883113635899
 20
146.2070109356284
 30
0.0
 11
-2051.4461647215212
 21
145.64395985000851
 31
0.0
  0
POLYLINE
  5
2E36
  8
AM_VIS
 66
     1
 10
0.0
 20
0.0
 30
0.0
  0
VERTEX
  5
3CA6
  8
AM_VIS
 10
-2050.8979057324341
 20
146.70699189716029
 30
0.0
  0
VERTEX
  5
3CA7
  8
AM_VIS
 10
-2051.0071620880899
 20
146.85497013832151
 30
0.0
  0
VERTEX
  5
3CA8
  8
AM_VIS
 10
-2051.182248697568
 20
146.91136294714599
 30
0.0
  0
SEQEND
  5
3CA9
  8
AM_VIS
  0
POLYLINE
  5
2E37
  8
AM_VIS
 66
     1
 10
0.0
 20
0.0
 30
0.0
  0
VERTEX
  5
3CAA
  8
AM_VIS
 10
-2050.8823476517109
 20
146.6138932779192
 30
0.0
  0
VERTEX
  5
3CAB
  8
AM_VIS
 10
-2050.881335999266
 20
146.32332273312539
 30
0.0
  0
VERTEX
  5
3CAC
  8
AM_VIS
 10
-2050.883113635899
 20
146.2070109356284
 30
0.0
  0
SEQEND
  5
3CAD
  8
AM_VIS
  0
POLYLINE
  5
2E38
  8
AM_VIS
 66
     1
 10
0.0
 20
0.0
 30
0.0
  0
VERTEX
  5
3CAE
  8
AM_VIS
 10
-2050.8979057324341
 20
146.70699189716029
 30
0.0
  0
VERTEX
  5
3CAF
  8
AM_VIS
 10
-2050.8823476517109
 20
146.6138932779192
 30
0.0
  0
SEQEND
  5
3CB0
  8
AM_VIS
  0
ARC
  5
2E39
  8
AM_VIS
 10
-2062.6974203660629
 20
148.91136294714539
 30
0.0
 40
2.0
 50
180.0
 51
270.0000000000008
  0
ARC
  5
2E3A
  8
AM_VIS
 10
-2061.667054634077
 20
149.9417286789872
 30
0.0
 40
1.0
 50
180.0
 51
270.0000000000021
  0
POLYLINE
  5
2E3B
  8
AM_VIS
 66
     1
 10
0.0
 20
0.0
 30
0.0
  0
VERTEX
  5
3CB1
  8
AM_VIS
 10
-2062.5275992202392
 20
145.58131736162721
 30
0.0
 42
-0.4142135623559316
  0
VERTEX
  5
3CB2
  8
AM_VIS
 10
-2066.0274659511679
 20
149.0811840923518
 30
0.0
 42
0.9917273589615815
  0
SEQEND
  5
3CB3
  8
AM_VIS
  0
POLYLINE
  5
2E3C
  8
AM_VIS
 66
     1
 10
0.0
 20
0.0
 30
0.0
  0
VERTEX
  5
3CB4
  8
AM_VIS
 10
-2050.1670355956089
 20
148.9417286789878
 30
0.0
  0
VERTEX
  5
3CB5
  8
AM_VIS
 10
-2049.8134933577039
 20
148.7952899553604
 30
0.0
  0
VERTEX
  5
3CB6
  8
AM_VIS
 10
-2049.667054634077
 20
148.4417477174558
 30
0.0
  0
SEQEND
  5
3CB7
  8
AM_VIS
  0
LINE
  5
2E3D
  8
AM_VIS
 10
-2049.667054634077
 20
148.4417477174558
 30
0.0
 11
-2049.667054634077
 21
147.41134390867791
 31
0.0
  0
POLYLINE
  5
2E3E
  8
AM_VIS
 66
     1
 10
0.0
 20
0.0
 30
0.0
  0
VERTEX
  5
3CB8
  8
AM_VIS
 10
-2049.667054634077
 20
147.41134390867791
 30
0.0
  0
VERTEX
  5
3CB9
  8
AM_VIS
 10
-2049.8134933577039
 20
147.05780167077339
 30
0.0
  0
VERTEX
  5
3CBA
  8
AM_VIS
 10
-2050.1670355956089
 20
146.91136294714599
 30
0.0
  0
SEQEND
  5
3CBB
  8
AM_VIS
  0
POLYLINE
  5
2E3F
  8
AM_VIS
 66
     1
 10
0.0
 20
0.0
 30
0.0
  0
VERTEX
  5
3CBC
  8
AM_VIS
 10
-2048.9019240283042
 20
148.9417286789878
 30
0.0
  0
VERTEX
  5
3CBD
  8
AM_VIS
 10
-2048.1948395524951
 20
149.2346061262426
 30
0.0
  0
VERTEX
  5
3CBE
  8
AM_VIS
 10
-2047.90196210524
 20
149.94169060205209
 30
0.0
  0
SEQEND
  5
3CBF
  8
AM_VIS
  0
LINE
  5
2E40
  8
AM_VIS
 10
-2048.9019240283042
 20
148.9417286789878
 30
0.0
 11
-2050.1670355956089
 21
148.9417286789878
 31
0.0
  0
LINE
  5
2E41
  8
AM_VIS
 10
-1889.301962105239
 20
161.4417477174558
 30
0.0
 11
-1889.301962105239
 21
162.7068592844918
 31
0.0
  0
ARC
  5
2E42
  8
AM_VIS
 10
-1894.234508369658
 20
153.87427494313721
 30
0.0
 40
9.8325462644184825
 50
90.000000000000028
 51
180.00000000000011
  0
ARC
  5
2E43
  8
AM_VIS
 10
-1894.234508369658
 20
153.87427494313721
 30
0.0
 40
7.3731014374402699
 50
90.000000000000028
 51
180.0000000000002
  0
LINE
  5
2E44
  8
AM_VIS
 10
-1890.301924028304
 20
163.70682120755569
 30
0.0
 11
-1894.234508369658
 21
163.70682120755569
 31
0.0
  0
POLYLINE
  5
2E45
  8
AM_VIS
 66
     1
 10
0.0
 20
0.0
 30
0.0
  0
VERTEX
  5
3CC0
  8
AM_VIS
 10
-1890.301924028304
 20
163.70682120755569
 30
0.0
  0
VERTEX
  5
3CC1
  8
AM_VIS
 10
-1889.594839552494
 20
163.4139437603009
 30
0.0
  0
VERTEX
  5
3CC2
  8
AM_VIS
 10
-1889.301962105239
 20
162.7068592844918
 30
0.0
  0
SEQEND
  5
3CC3
  8
AM_VIS
  0
LINE
  5
2E46
  8
AM_VIS
 10
-1889.301962105239
 20
161.4417477174558
 30
0.0
 11
-1889.301962105239
 21
149.94172867898729
 31
0.0
  0
LINE
  5
2E47
  8
AM_VIS
 10
-1887.2715963732519
 20
161.4417477174558
 30
0.0
 11
-1887.2715963732519
 21
148.91136294714551
 31
0.0
  0
LINE
  5
2E48
  8
AM_VIS
 10
-1904.0670546340759
 20
153.87427494313729
 30
0.0
 11
-1904.0670546340759
 21
149.94169060205209
 31
0.0
  0
LINE
  5
2E49
  8
AM_VIS
 10
-1901.607609807098
 20
149.3885443098747
 30
0.0
 11
-1901.607609807098
 21
153.87427494313729
 31
0.0
  0
ARC
  5
2E4A
  8
AM_VIS
 10
-1894.234508369658
 20
153.87427494313721
 30
0.0
 40
4.938745152550772
 50
38.389193774244212
 51
231.8063504111648
  0
ARC
  5
2E4B
  8
AM_VIS
 10
-1894.234508369658
 20
153.87427494313721
 30
0.0
 40
3.9749773270518478
 50
36.465892715250178
 51
233.7767665830288
  0
LINE
  5
2E4C
  8
AM_VIS
 10
-1886.0041932765289
 20
160.14451194455589
 30
0.0
 11
-1886.5672443621479
 21
160.70756303017581
 31
0.0
  0
LINE
  5
2E4D
  8
AM_VIS
 10
-1889.7487777361259
 20
161.24737638057761
 30
0.0
 11
-1889.7487777361259
 21
157.90117350569719
 31
0.0
  0
POLYLINE
  5
2E4E
  8
AM_VIS
 66
     1
 10
0.0
 20
0.0
 30
0.0
  0
VERTEX
  5
3CC4
  8
AM_VIS
 10
-1888.8019811437071
 20
161.9417286789878
 30
0.0
  0
VERTEX
  5
3CC5
  8
AM_VIS
 10
-1889.1555233816121
 20
161.7952899553604
 30
0.0
  0
VERTEX
  5
3CC6
  8
AM_VIS
 10
-1889.301962105239
 20
161.4417477174558
 30
0.0
  0
SEQEND
  5
3CC7
  8
AM_VIS
  0
LINE
  5
2E4F
  8
AM_VIS
 10
-1887.771577334785
 20
161.9417286789878
 30
0.0
 11
-1888.8019811437071
 21
161.9417286789878
 31
0.0
  0
POLYLINE
  5
2E50
  8
AM_VIS
 66
     1
 10
0.0
 20
0.0
 30
0.0
  0
VERTEX
  5
3CC8
  8
AM_VIS
 10
-1887.2715963732519
 20
161.4417477174558
 30
0.0
  0
VERTEX
  5
3CC9
  8
AM_VIS
 10
-1887.41803509688
 20
161.7952899553604
 30
0.0
  0
VERTEX
  5
3CCA
  8
AM_VIS
 10
-1887.771577334785
 20
161.9417286789878
 30
0.0
  0
SEQEND
  5
3CCB
  8
AM_VIS
  0
POLYLINE
  5
2E51
  8
AM_VIS
 66
     1
 10
0.0
 20
0.0
 30
0.0
  0
VERTEX
  5
3CCC
  8
AM_VIS
 10
-1887.2715963732519
 20
160.40842796851069
 30
0.0
  0
VERTEX
  5
3CCD
  8
AM_VIS
 10
-1887.2152035645549
 20
160.5835145778116
 30
0.0
  0
VERTEX
  5
3CCE
  8
AM_VIS
 10
-1887.067225323681
 20
160.6927709335059
 30
0.0
  0
SEQEND
  5
3CCF
  8
AM_VIS
  0
POLYLINE
  5
2E52
  8
AM_VIS
 66
     1
 10
0.0
 20
0.0
 30
0.0
  0
VERTEX
  5
3CD0
  8
AM_VIS
 10
-1886.9741267040249
 20
160.70832901436711
 30
0.0
  0
VERTEX
  5
3CD1
  8
AM_VIS
 10
-1887.067225323681
 20
160.6927709335061
 30
0.0
  0
SEQEND
  5
3CD2
  8
AM_VIS
  0
POLYLINE
  5
2E53
  8
AM_VIS
 66
     1
 10
0.0
 20
0.0
 30
0.0
  0
VERTEX
  5
3CD3
  8
AM_VIS
 10
-1886.567244362149
 20
160.70756303017581
 30
0.0
  0
VERTEX
  5
3CD4
  8
AM_VIS
 10
-1886.6835561595101
 20
160.7093406668084
 30
0.0
  0
VERTEX
  5
3CD5
  8
AM_VIS
 10
-1886.9741267040249
 20
160.70832901436711
 30
0.0
  0
SEQEND
  5
3CD6
  8
AM_VIS
  0
LINE
  5
2E54
  8
AM_VIS
 10
-1894.234508369658
 20
161.24737638057761
 30
0.0
 11
-1889.7487777361259
 21
161.24737638057761
 31
0.0
  0
CIRCLE
  5
2E55
  8
AM_VIS
 10
-1894.234508369658
 20
153.87427494313721
 30
0.0
 40
2.2281828305231031
  0
LINE
  5
2E56
  8
AM_VIS
 10
-1903.067092711012
 20
148.9417286789878
 30
0.0
 11
-1901.8019811437071
 21
148.9417286789878
 31
0.0
  0
POLYLINE
  5
2E57
  8
AM_VIS
 66
     1
 10
0.0
 20
0.0
 30
0.0
  0
VERTEX
  5
3CD7
  8
AM_VIS
 10
-1903.067092711012
 20
148.9417286789878
 30
0.0
  0
VERTEX
  5
3CD8
  8
AM_VIS
 10
-1903.7741771868209
 20
149.2346061262426
 30
0.0
  0
VERTEX
  5
3CD9
  8
AM_VIS
 10
-1904.0670546340759
 20
149.94169060205209
 30
0.0
  0
SEQEND
  5
3CDA
  8
AM_VIS
  0
POLYLINE
  5
2E58
  8
AM_VIS
 66
     1
 10
0.0
 20
0.0
 30
0.0
  0
VERTEX
  5
3CDB
  8
AM_VIS
 10
-1889.441417519077
 20
145.58131736162721
 30
0.0
 42
0.4142135623559316
  0
VERTEX
  5
3CDC
  8
AM_VIS
 10
-1885.9415507881481
 20
149.0811840923518
 30
0.0
 42
-0.9917273589615815
  0
SEQEND
  5
3CDD
  8
AM_VIS
  0
ARC
  5
2E59
  8
AM_VIS
 10
-1890.3019621052399
 20
149.9417286789872
 30
0.0
 40
1.0
 50
269.99999999999778
 51
0.0
  0
ARC
  5
2E5A
  8
AM_VIS
 10
-1889.271596373253
 20
148.91136294714539
 30
0.0
 40
2.0
 50
269.99999999999909
 51
0.0
  0
LINE
  5
2E5B
  8
AM_VIS
 10
-1898.2614069322169
 20
149.3885443098747
 30
0.0
 11
-1901.607609807098
 21
149.3885443098747
 31
0.0
  0
POLYLINE
  5
2E5C
  8
AM_VIS
 66
     1
 10
0.0
 20
0.0
 30
0.0
  0
VERTEX
  5
3CDE
  8
AM_VIS
 10
-1901.0711110068819
 20
146.70699189716029
 30
0.0
  0
VERTEX
  5
3CDF
  8
AM_VIS
 10
-1901.0866690876051
 20
146.6138932779192
 30
0.0
  0
SEQEND
  5
3CE0
  8
AM_VIS
  0
POLYLINE
  5
2E5D
  8
AM_VIS
 66
     1
 10
0.0
 20
0.0
 30
0.0
  0
VERTEX
  5
3CE1
  8
AM_VIS
 10
-1901.0866690876051
 20
146.6138932779192
 30
0.0
  0
VERTEX
  5
3CE2
  8
AM_VIS
 10
-1901.08768074005
 20
146.32332273312539
 30
0.0
  0
VERTEX
  5
3CE3
  8
AM_VIS
 10
-1901.085903103417
 20
146.2070109356284
 30
0.0
  0
SEQEND
  5
3CE4
  8
AM_VIS
  0
POLYLINE
  5
2E5E
  8
AM_VIS
 66
     1
 10
0.0
 20
0.0
 30
0.0
  0
VERTEX
  5
3CE5
  8
AM_VIS
 10
-1901.0711110068819
 20
146.70699189716029
 30
0.0
  0
VERTEX
  5
3CE6
  8
AM_VIS
 10
-1900.9618546512261
 20
146.85497013832151
 30
0.0
  0
VERTEX
  5
3CE7
  8
AM_VIS
 10
-1900.786768041748
 20
146.91136294714599
 30
0.0
  0
SEQEND
  5
3CE8
  8
AM_VIS
  0
POLYLINE
  5
2E5F
  8
AM_VIS
 66
     1
 10
0.0
 20
0.0
 30
0.0
  0
VERTEX
  5
3CE9
  8
AM_VIS
 10
-1902.301962105239
 20
147.41134390867791
 30
0.0
  0
VERTEX
  5
3CEA
  8
AM_VIS
 10
-1902.1555233816121
 20
147.05780167077339
 30
0.0
  0
VERTEX
  5
3CEB
  8
AM_VIS
 10
-1901.8019811437071
 20
146.91136294714599
 30
0.0
  0
SEQEND
  5
3CEC
  8
AM_VIS
  0
LINE
  5
2E60
  8
AM_VIS
 10
-1902.301962105239
 20
148.4417477174558
 30
0.0
 11
-1902.301962105239
 21
147.41134390867791
 31
0.0
  0
POLYLINE
  5
2E61
  8
AM_VIS
 66
     1
 10
0.0
 20
0.0
 30
0.0
  0
VERTEX
  5
3CED
  8
AM_VIS
 10
-1901.8019811437071
 20
148.9417286789878
 30
0.0
  0
VERTEX
  5
3CEE
  8
AM_VIS
 10
-1902.1555233816121
 20
148.7952899553604
 30
0.0
  0
VERTEX
  5
3CEF
  8
AM_VIS
 10
-1902.301962105239
 20
148.4417477174558
 30
0.0
  0
SEQEND
  5
3CF0
  8
AM_VIS
  0
LINE
  5
2E62
  8
AM_VIS
 10
-1901.085903103417
 20
146.2070109356284
 30
0.0
 11
-1900.522852017795
 21
145.64395985000851
 31
0.0
  0
LINE
  5
2E63
  8
AM_VIS
 10
-1901.8019811437071
 20
148.9417286789878
 30
0.0
 11
-1890.301962105239
 21
148.94172867898729
 31
0.0
  0
LINE
  5
2E64
  8
AM_VIS
 10
-1901.8019811437071
 20
146.91136294714599
 30
0.0
 11
-1889.2715963732519
 21
146.91136294714551
 31
0.0
  0
TEXT
  5
2E65
  8
AM_VIS
 10
-2007.9760807512559
 20
499.89061497835218
 30
-70.0
 40
5.0
  1
FIBOX MNX Base
  0
TEXT
  5
2E66
  8
AM_VIS
 10
-2007.9760807512559
 20
490.39061497835218
 30
-70.0
 40
5.0
  1
200 XH
  0
VIEWPORT
  5
1168
 67
     1
  8
0
 10
210.0
 20
148.5
 30
0.0
 40
420.0
 41
297.0
 68
    -1
 69
     1
1001
ACAD
1000
MVIEW
1002
{
1070
    16
1010
0.0
1020
0.0
1030
0.0
1010
0.0
1020
0.0
1030
1.0
1040
0.0
1040
326.3694267515923
1040
210.0
1040
163.18471337579609
1040
50.0
1040
0.0
1040
0.0
1070
     0
1070
  1000
1070
     1
1070
     1
1070
     0
1070
     0
1070
     0
1070
     0
1040
0.0
1040
0.0
1040
0.0
1040
10.0
1040
10.0
1040
10.0
1040
10.0
1070
     0
1002
{
1003
AMV_6_HATCH
1003
AMV_9_HATCH
1003
AMV_5_HATCH
1002
}
1002
}
  0
ENDSEC
  0
EOF
