  0
SECTION
  2
HEADER
  9
$ACADVER
  1
AC1009
  9
$INSBASE
 10
0.0
 20
0.0
 30
0.0
  9
$EXTMIN
 10
5.4774725845620651
 20
1.7335246831524951
 30
0.0
  9
$EXTMAX
 10
797.40792890013995
 20
410.26199351425009
 30
0.0
  9
$LIMMIN
 10
0.0
 20
0.0
  9
$LIMMAX
 10
799.72004727964679
 20
415.26434310345201
  9
$ORTHOMODE
 70
     1
  9
$REGENMODE
 70
     1
  9
$FILLMODE
 70
     1
  9
$QTEXTMODE
 70
     0
  9
$MIRRTEXT
 70
     1
  9
$DRAGMODE
 70
     2
  9
$LTSCALE
 40
15.0
  9
$OSMODE
 70
     5
  9
$ATTMODE
 70
     1
  9
$TEXTSIZE
 40
2.5
  9
$TRACEWID
 40
1.0
  9
$TEXTSTYLE
  7
SIMPLEX
  9
$CLAYER
  8
L1
  9
$CELTYPE
  6
BYLAYER
  9
$CECOLOR
 62
   256
  9
$DIMSCALE
 40
1.0
  9
$DIMASZ
 40
3.5
  9
$DIMEXO
 40
0.1
  9
$DIMDLI
 40
0.38
  9
$DIMRND
 40
0.0
  9
$DIMDLE
 40
0.0
  9
$DIMEXE
 40
0.18
  9
$DIMTP
 40
0.0
  9
$DIMTM
 40
0.0
  9
$DIMTXT
 40
3.5
  9
$DIMCEN
 40
1.0
  9
$DIMTSZ
 40
0.0
  9
$DIMTOL
 70
     0
  9
$DIMLIM
 70
     0
  9
$DIMTIH
 70
     0
  9
$DIMTOH
 70
     0
  9
$DIMSE1
 70
     0
  9
$DIMSE2
 70
     0
  9
$DIMTAD
 70
     1
  9
$DIMZIN
 70
     8
  9
$DIMBLK
  1

  9
$DIMASO
 70
     1
  9
$DIMSHO
 70
     1
  9
$DIMPOST
  1

  9
$DIMAPOST
  1

  9
$DIMALT
 70
     0
  9
$DIMALTD
 70
     2
  9
$DIMALTF
 40
25.399999999999999
  9
$DIMLFAC
 40
1.0
  9
$DIMTOFL
 70
     1
  9
$DIMTVP
 40
0.0
  9
$DIMTIX
 70
     0
  9
$DIMSOXD
 70
     0
  9
$DIMSAH
 70
     0
  9
$DIMBLK1
  1

  9
$DIMBLK2
  1

  9
$DIMSTYLE
  2
FIBOX
  9
$DIMCLRD
 70
     1
  9
$DIMCLRE
 70
     1
  9
$DIMCLRT
 70
     3
  9
$DIMTFAC
 40
1.0
  9
$DIMGAP
 40
1.0
  9
$LUNITS
 70
     2
  9
$LUPREC
 70
     4
  9
$SKETCHINC
 40
1.0
  9
$FILLETRAD
 40
0.0
  9
$AUNITS
 70
     0
  9
$AUPREC
 70
     0
  9
$MENU
  1
.
  9
$ELEVATION
 40
0.0
  9
$PELEVATION
 40
0.0
  9
$THICKNESS
 40
0.0
  9
$LIMCHECK
 70
     0
  9
$BLIPMODE
 70
     0
  9
$CHAMFERA
 40
10.0
  9
$CHAMFERB
 40
10.0
  9
$SKPOLY
 70
     0
  9
$TDCREATE
 40
2450519.5748858559
  9
$TDUPDATE
 40
2452502.5309963538
  9
$TDINDWG
 40
0.7471557755
  9
$TDUSRTIMER
 40
0.7471557755
  9
$USRTIMER
 70
     1
  9
$ANGBASE
 50
0.0
  9
$ANGDIR
 70
     0
  9
$PDMODE
 70
     0
  9
$PDSIZE
 40
0.0
  9
$PLINEWID
 40
0.0
  9
$COORDS
 70
     2
  9
$SPLFRAME
 70
     0
  9
$SPLINETYPE
 70
     6
  9
$SPLINESEGS
 70
     8
  9
$ATTDIA
 70
     0
  9
$ATTREQ
 70
     1
  9
$HANDLING
 70
 22529
  9
$HANDSEED
  5
19EC
  9
$SURFTAB1
 70
     6
  9
$SURFTAB2
 70
     6
  9
$SURFTYPE
 70
     6
  9
$SURFU
 70
     6
  9
$SURFV
 70
     6
  9
$UCSNAME
  2

  9
$UCSORG
 10
0.0
 20
0.0
 30
0.0
  9
$UCSXDIR
 10
1.0
 20
0.0
 30
0.0
  9
$UCSYDIR
 10
0.0
 20
1.0
 30
0.0
  9
$PUCSNAME
  2

  9
$PUCSORG
 10
0.0
 20
0.0
 30
0.0
  9
$PUCSXDIR
 10
1.0
 20
0.0
 30
0.0
  9
$PUCSYDIR
 10
0.0
 20
1.0
 30
0.0
  9
$USERI1
 70
     0
  9
$USERI2
 70
     0
  9
$USERI3
 70
     0
  9
$USERI4
 70
     0
  9
$USERI5
 70
     0
  9
$USERR1
 40
0.0
  9
$USERR2
 40
0.0
  9
$USERR3
 40
0.0
  9
$USERR4
 40
0.0
  9
$USERR5
 40
0.0
  9
$WORLDVIEW
 70
     1
  9
$SHADEDGE
 70
     3
  9
$SHADEDIF
 70
    70
  9
$TILEMODE
 70
     1
  9
$MAXACTVP
 70
    16
  9
$PLIMCHECK
 70
     0
  9
$PEXTMIN
 10
-654.13216052409575
 20
-8.3302140657851851
 30
0.0
  9
$PEXTMAX
 10
185.86783947590419
 20
585.66978593421481
 30
0.0
  9
$PLIMMIN
 10
0.0
 20
0.0
  9
$PLIMMAX
 10
420.0
 20
297.0
  9
$UNITMODE
 70
     0
  9
$VISRETAIN
 70
     0
  9
$PLINEGEN
 70
     0
  9
$PSLTSCALE
 70
     1
  0
ENDSEC
  0
SECTION
  2
TABLES
  0
TABLE
  2
VPORT
 70
     2
  0
VPORT
  2
*ACTIVE
 70
     0
 10
0.0
 20
0.0
 11
1.0
 21
1.0
 12
697.33130345379004
 22
-55.029699238521971
 13
0.0
 23
0.0
 14
10.0
 24
10.0
 15
10.0
 25
10.0
 16
0.0
 26
0.0
 36
1.0
 17
-295.88491921376237
 27
261.03024076843832
 37
121.7730677876708
 40
523.39417852011923
 41
1.5205479452054791
 42
50.0
 43
0.0
 44
0.0
 50
0.0
 51
0.0
 71
     0
 72
   500
 73
     1
 74
     1
 75
     0
 76
     0
 77
     0
 78
     0
  0
ENDTAB
  0
TABLE
  2
LTYPE
 70
     3
  0
LTYPE
  2
CONTINUOUS
 70
     0
  3
Solid line
 72
    65
 73
     0
 40
0.0
  0
LTYPE
  2
HIDDEN
 70
     0
  3
__ __ __ __ __ __ __ __ __ __ __ __ __ __ __ __
 72
    65
 73
     2
 40
0.375
 49
0.25
 49
-0.125
  0
LTYPE
  2
CENTER
 70
     0
  3
____ _ ____ _ ____ _ ____ _ ____ _ ____ _ ____ 
 72
    65
 73
     4
 40
2.0
 49
1.25
 49
-0.25
 49
0.25
 49
-0.25
  0
ENDTAB
  0
TABLE
  2
LAYER
 70
     4
  0
LAYER
  2
0
 70
     0
 62
     7
  6
CONTINUOUS
  0
LAYER
  2
L2
 70
     0
 62
     1
  6
HIDDEN
  0
LAYER
  2
L1
 70
     0
 62
     7
  6
CONTINUOUS
  0
LAYER
  2
L6
 70
     0
 62
     1
  6
CENTER
  0
ENDTAB
  0
TABLE
  2
STYLE
 70
     2
  0
STYLE
  2
STANDARD
 70
     0
 40
0.0
 41
1.0
 50
0.0
 71
     0
 42
2.5
  3
ISOCP
  4

  0
STYLE
  2
SIMPLEX
 70
     0
 40
0.0
 41
0.8
 50
0.0
 71
     0
 42
2.5
  3
SIMPLEX.SHX
  4

  0
ENDTAB
  0
TABLE
  2
VIEW
 70
     0
  0
ENDTAB
  0
TABLE
  2
UCS
 70
     0
  0
ENDTAB
  0
TABLE
  2
APPID
 70
     1
  0
APPID
  2
ACAD
 70
     0
  0
ENDTAB
  0
TABLE
  2
DIMSTYLE
 70
     1
  0
DIMSTYLE
  2
FIBOX
 70
     0
  3

  4

  5

  6

  7

 40
1.0
 41
3.5
 42
0.1
 43
0.38
 44
0.18
 45
0.0
 46
0.0
 47
0.0
 48
0.0
140
3.5
141
1.0
142
0.0
143
25.399999999999999
144
1.0
145
0.0
146
1.0
147
1.0
 71
     0
 72
     0
 73
     0
 74
     0
 75
     0
 76
     0
 77
     1
 78
     8
170
     0
171
     2
172
     1
173
     0
174
     0
175
     0
176
     1
177
     1
178
     3
  0
ENDTAB
  0
ENDSEC
  0
SECTION
  2
BLOCKS
  0
BLOCK
  8
0
  2
$MODEL_SPACE
 70
     0
 10
0.0
 20
0.0
 30
0.0
  3
$MODEL_SPACE
  1

  0
ENDBLK
  5
6
  8
0
  0
BLOCK
 67
     1
  8
0
  2
$PAPER_SPACE
 70
     0
 10
0.0
 20
0.0
 30
0.0
  3
$PAPER_SPACE
  1

  0
ENDBLK
  5
9
 67
     1
  8
0
  0
ENDSEC
  0
SECTION
  2
ENTITIES
  0
LINE
  5
1F
  8
L6
 10
421.63001895267138
 20
205.99775909870129
 30
0.0
 11
685.20732270918484
 21
205.99775909870129
 31
0.0
  0
LINE
  5
28
  8
L1
 10
447.07753595038719
 20
121.2639005097062
 30
0.0
 11
660.82686159022705
 21
121.2639005097062
 31
0.0
  0
LINE
  5
29
  8
L1
 10
662.20002064214998
 20
119.14670579934101
 30
0.0
 11
445.70433832458991
 21
119.14670579934101
 31
0.0
  0
LINE
  5
2A
  8
L1
 10
447.43987535246072
 20
134.98545496779201
 30
0.0
 11
660.46448361427906
 21
134.98545496779201
 31
0.0
  0
LINE
  5
2B
  8
L1
 10
431.28149679033191
 20
117.5315989409731
 30
0.0
 11
676.62286217640803
 21
117.5315989409731
 31
0.0
  0
LINE
  5
2C
  8
L1
 10
444.50937154648699
 20
117.9517390212381
 30
0.0
 11
663.39498742025285
 21
117.9517390212381
 31
0.0
  0
LINE
  5
2D
  8
L1
 10
677.96928024263821
 20
115.98545496779199
 30
0.0
 11
429.93507872410169
 21
115.98545496779199
 31
0.0
  0
LINE
  5
2E
  8
L1
 10
427.98601932564179
 20
381.49747591816032
 30
0.0
 11
679.91833964109821
 21
381.49747591816021
 31
0.0
  0
LINE
  5
2F
  8
L1
 10
431.71832089437498
 20
406.49747591816032
 30
0.0
 11
676.18603807236502
 21
406.49747591816038
 31
0.0
  0
LINE
  5
30
  8
L1
 10
428.50217948337013
 20
353.8266257660211
 30
0.0
 11
679.40217948336999
 21
353.8266257660211
 31
0.0
  0
LINE
  5
31
  8
L1
 10
427.15915538314528
 20
354.8974759181603
 30
0.0
 11
680.74520358359473
 21
354.8974759181603
 31
0.0
  0
LINE
  5
32
  8
L1
 10
426.44009104559581
 20
355.61654025570982
 30
0.0
 11
681.46426792114414
 21
355.61654025570982
 31
0.0
  0
LINE
  5
33
  8
L1
 10
677.96928024263821
 20
296.01006322961041
 30
0.0
 11
429.93507872410169
 21
296.01006322961041
 31
0.0
  0
LINE
  5
34
  8
L1
 10
444.50937154648699
 20
294.04377917616432
 30
0.0
 11
663.39498742025285
 21
294.04377917616432
 31
0.0
  0
LINE
  5
35
  8
L1
 10
431.28149679033191
 20
294.46391925642928
 30
0.0
 11
676.62286217640803
 21
294.46391925642928
 31
0.0
  0
LINE
  5
36
  8
L1
 10
447.43987535246072
 20
277.01006322961041
 30
0.0
 11
660.46448361427906
 21
277.01006322961041
 31
0.0
  0
LINE
  5
37
  8
L1
 10
662.20002064214998
 20
292.8488123980614
 30
0.0
 11
445.70433832458991
 21
292.8488123980614
 31
0.0
  0
LINE
  5
38
  8
L1
 10
447.07753595038719
 20
290.7316176876962
 30
0.0
 11
660.82686159022705
 21
290.7316176876962
 31
0.0
  0
LINE
  5
39
  8
L1
 10
445.70433832458991
 20
404.48833315718758
 30
0.0
 11
662.20002064214998
 21
404.48833315718758
 31
0.0
  0
LINE
  5
3A
  8
L6
 10
139.01894263799181
 20
303.23156996746621
 30
0.0
 11
139.01894263799181
 21
109.14197702679721
 31
0.0
  0
LINE
  5
3B
  8
L1
 10
431.71832089437481
 20
275.37240263168172
 30
0.0
 11
431.71832089437481
 21
136.62307699184399
 31
0.0
  0
LINE
  5
3C
  8
L1
 10
445.4398753524606
 20
275.01006322961041
 30
0.0
 11
445.4398753524606
 21
136.98545496779201
 31
0.0
  0
LINE
  5
3D
  8
L1
 10
429.60112618400967
 20
135.2499179399212
 30
0.0
 11
429.60112618400967
 21
276.74560025748121
 31
0.0
  0
LINE
  5
3E
  8
L1
 10
427.98601932564168
 20
291.16844179173933
 30
0.0
 11
427.98601932564168
 21
120.82707640566321
 31
0.0
  0
LINE
  5
3F
  8
L1
 10
428.40615940590658
 20
277.94056703558408
 30
0.0
 11
428.40615940590658
 21
134.05495116181831
 31
0.0
  0
LINE
  5
40
  8
L1
 10
426.43987535246072
 20
119.48065833943301
 30
0.0
 11
426.43987535246072
 21
292.51485985796938
 31
0.0
  0
LINE
  5
41
  8
L1
 10
14.907879124279919
 20
133.83664418373559
 30
0.0
 11
14.907879124279919
 21
277.85897681617388
 31
0.0
  0
LINE
  5
42
  8
L1
 10
11.506638507082579
 20
292.36491125922299
 30
0.0
 11
11.506638507082579
 21
119.3307097406866
 31
0.0
  0
LINE
  5
43
  8
L1
 10
12.22591853776691
 20
119.2908104999548
 30
0.0
 11
12.22591853776691
 21
292.40481049995492
 31
0.0
  0
LINE
  5
44
  8
L1
 10
14.06894263799154
 20
133.69781049995481
 30
0.0
 11
14.06894263799154
 21
277.99781049995482
 31
0.0
  0
LINE
  5
45
  8
L1
 10
13.06894263799142
 20
277.99781049995482
 30
0.0
 11
13.06894263799142
 21
133.69781049995481
 31
0.0
  0
LINE
  5
46
  8
L1
 10
313.29542854270539
 20
121.42921481331339
 30
0.0
 11
313.29542854270562
 21
290.7316176876962
 31
0.0
  0
LINE
  5
47
  8
L1
 10
365.96627869484479
 20
293.94775909870123
 30
0.0
 11
365.96627869484479
 21
118.04775909870131
 31
0.0
  0
LINE
  5
4B
  8
L2
 10
315.89542854270559
 20
275.57518128026459
 30
0.0
 11
315.89542854270559
 21
136.42033691713769
 31
0.0
  0
LINE
  5
4D
  8
L1
 10
264.96894263799209
 20
277.99781049995482
 30
0.0
 11
264.96894263799209
 21
133.69781049995481
 31
0.0
  0
LINE
  5
4E
  8
L1
 10
263.96894263799192
 20
133.69781049995481
 30
0.0
 11
263.96894263799192
 21
277.99781049995482
 31
0.0
  0
LINE
  5
4F
  8
L1
 10
265.8119667382166
 20
119.2908104999548
 30
0.0
 11
265.8119667382166
 21
292.40481049995492
 31
0.0
  0
LINE
  5
50
  8
L1
 10
266.53124676890098
 20
292.36491125922299
 30
0.0
 11
266.53124676890098
 21
119.3307097406866
 31
0.0
  0
LINE
  5
51
  8
L1
 10
263.1300061517037
 20
133.83664418373559
 30
0.0
 11
263.1300061517037
 21
277.85897681617388
 31
0.0
  0
LINE
  5
52
  8
L6
 10
5.4774725845620651
 20
205.8478104999549
 30
0.0
 11
270.48833896515902
 21
205.8478104999549
 31
0.0
  0
LINE
  5
53
  8
L1
 10
248.5301089542109
 20
119.23674698624311
 30
0.0
 11
29.50777632177255
 21
119.23674698624311
 31
0.0
  0
LINE
  5
54
  8
L1
 10
15.00184187872344
 20
115.8355063690456
 30
0.0
 11
263.0360433972599
 21
115.8355063690457
 31
0.0
  0
LINE
  5
55
  8
L1
 10
263.0759426379916
 20
116.5547863997302
 30
0.0
 11
14.96194263799168
 21
116.5547863997302
 31
0.0
  0
LINE
  5
56
  8
L1
 10
29.368942637991829
 20
117.3978104999546
 30
0.0
 11
248.66894263799171
 21
117.3978104999546
 31
0.0
  0
LINE
  5
57
  8
L1
 10
248.66894263799171
 20
118.3978104999547
 30
0.0
 11
29.368942637991719
 21
118.3978104999547
 31
0.0
  0
ARC
  5
58
  8
L1
 10
23.8078791242799
 20
128.1367469862432
 30
0.0
 40
5.3999999999999986
 50
0.0
 51
90.0
  0
LINE
  5
59
  8
L1
 10
26.974552847735019
 20
132.32196581710929
 30
0.0
 11
27.993097955146251
 21
131.30342070969809
 31
0.0
  0
LINE
  5
5A
  8
L1
 10
25.780554086443651
 20
131.6775719611162
 30
0.0
 11
26.56958453047298
 21
132.3396471156891
 31
0.0
  0
ARC
  5
5B
  8
L1
 10
19.768942637991689
 20
124.0978104999548
 30
0.0
 40
6.3999999999998796
 50
0.0
 51
90.000000000001023
  0
ARC
  5
5C
  8
L1
 10
19.768942637991689
 20
124.0978104999548
 30
0.0
 40
7.3999999999999027
 50
0.0
 51
90.0
  0
ARC
  5
5D
  8
L1
 10
16.268942637991699
 20
133.6978104999549
 30
0.0
 40
2.200000000000204
 50
180.0
 51
270.0
  0
ARC
  5
5E
  8
L1
 10
19.768942637991689
 20
124.0978104999551
 30
0.0
 40
9.4389364862881635
 50
53.310709947555161
 51
90.000000000000725
  0
ARC
  5
5F
  8
L1
 10
16.268942637991699
 20
133.6978104999549
 30
0.0
 40
3.2000000000002271
 50
180.0
 51
219.5179466840772
  0
LINE
  5
60
  8
L1
 10
27.16894263799167
 20
124.0978104999548
 30
0.0
 11
27.16894263799167
 21
120.5978104999549
 31
0.0
  0
LINE
  5
61
  8
L1
 10
29.207879124279881
 20
124.0978104999551
 30
0.0
 11
29.207879124279881
 21
119.5366441837357
 31
0.0
  0
LINE
  5
62
  8
L1
 10
13.268942637991699
 20
120.197810499955
 30
0.0
 11
13.268942637991699
 21
131.47071860350499
 31
0.0
  0
LINE
  5
63
  8
L1
 10
26.16894263799156
 20
121.29781049995471
 30
0.0
 11
26.16894263799156
 21
124.0978104999548
 31
0.0
  0
ARC
  5
64
  8
L1
 10
19.768942637991689
 20
124.0978104999548
 30
0.0
 40
4.981314598045679
 50
177.3515976587116
 51
272.64840234128889
  0
LINE
  5
65
  8
L1
 10
19.999113655925829
 20
119.1218164859707
 30
0.0
 11
24.744936651976101
 21
123.86763948202091
 31
0.0
  0
LINE
  5
66
  8
L1
 10
27.141850741541582
 20
117.5978104999549
 30
0.0
 11
15.86894263799172
 21
117.5978104999549
 31
0.0
  0
POLYLINE
  5
67
  8
L1
 66
     1
 10
0.0
 20
0.0
 30
0.0
  0
VERTEX
  5
12C0
  8
L1
 10
15.00184187872355
 20
115.8355063690457
 30
0.0
  0
VERTEX
  5
12C1
  8
L1
 10
14.981894605953469
 20
115.8355602927661
 30
0.0
  0
VERTEX
  5
12C2
  8
L1
 10
14.96194263799168
 20
115.83572206218081
 30
0.0
  0
SEQEND
  5
12C3
  8
L1
  0
POLYLINE
  5
68
  8
L1
 66
     1
 10
0.0
 20
0.0
 30
0.0
  0
VERTEX
  5
12C4
  8
L1
 10
11.50685420021761
 20
119.2908104999548
 30
0.0
  0
VERTEX
  5
12C5
  8
L1
 10
11.5066924308029
 20
119.3107624679166
 30
0.0
  0
VERTEX
  5
12C6
  8
L1
 10
11.506638507082579
 20
119.3307097406867
 30
0.0
  0
SEQEND
  5
12C7
  8
L1
  0
ARC
  5
69
  8
L1
 10
14.96194263799168
 20
119.290810499955
 30
0.0
 40
2.7360241002247609
 50
180.0000000000006
 51
270.0
  0
POLYLINE
  5
6A
  8
L1
 66
     1
 10
0.0
 20
0.0
 30
0.0
  0
VERTEX
  5
12C8
  8
L1
 10
14.96194263799168
 20
115.83572206218081
 30
0.0
  0
VERTEX
  5
12C9
  8
L1
 10
14.30015503554648
 20
115.9060961098405
 30
0.0
  0
VERTEX
  5
12CA
  8
L1
 10
13.64517025175075
 20
116.1082254979523
 30
0.0
  0
VERTEX
  5
12CB
  8
L1
 10
13.04232340709563
 20
116.43436974976881
 30
0.0
  0
VERTEX
  5
12CC
  8
L1
 10
12.52901351891796
 20
116.8578813808812
 30
0.0
  0
VERTEX
  5
12CD
  8
L1
 10
12.105501887805641
 20
117.3711912690588
 30
0.0
  0
VERTEX
  5
12CE
  8
L1
 10
11.7793576359893
 20
117.9740381137139
 30
0.0
  0
VERTEX
  5
12CF
  8
L1
 10
11.57722824787731
 20
118.6290228975096
 30
0.0
  0
VERTEX
  5
12D0
  8
L1
 10
11.50685420021761
 20
119.2908104999548
 30
0.0
  0
SEQEND
  5
12D1
  8
L1
  0
ARC
  5
6B
  8
L1
 10
15.86894263799172
 20
120.197810499955
 30
0.0
 40
2.6000000000000001
 50
180.0
 51
270.0
  0
ARC
  5
6C
  8
L1
 10
29.368942637991719
 20
120.5978104999549
 30
0.0
 40
3.200000000000085
 50
230.4820533159226
 51
270.0
  0
ARC
  5
6D
  8
L1
 10
29.368942637991719
 20
120.5978104999549
 30
0.0
 40
2.2000000000000619
 50
180.0
 51
270.0
  0
POLYLINE
  5
6E
  8
L1
 66
     1
 10
0.0
 20
0.0
 30
0.0
  0
VERTEX
  5
12D2
  8
L1
 10
29.207879124279881
 20
119.5366441837357
 30
0.0
  0
VERTEX
  5
12D3
  8
L1
 10
29.20787920334385
 20
119.5364901337784
 30
0.0
  0
VERTEX
  5
12D4
  8
L1
 10
29.207879440535748
 20
119.53633616292549
 30
0.0
  0
SEQEND
  5
12D5
  8
L1
  0
POLYLINE
  5
6F
  8
L1
 66
     1
 10
0.0
 20
0.0
 30
0.0
  0
VERTEX
  5
12D6
  8
L1
 10
29.207879440535748
 20
119.53633616292559
 30
0.0
  0
VERTEX
  5
12D7
  8
L1
 10
29.29583190621895
 20
119.3246997681824
 30
0.0
  0
VERTEX
  5
12D8
  8
L1
 10
29.507468300962159
 20
119.236747302499
 30
0.0
  0
SEQEND
  5
12D9
  8
L1
  0
POLYLINE
  5
70
  8
L1
 66
     1
 10
0.0
 20
0.0
 30
0.0
  0
VERTEX
  5
12DA
  8
L1
 10
29.507468300961929
 20
119.2367473024988
 30
0.0
  0
VERTEX
  5
12DB
  8
L1
 10
29.507622271814959
 20
119.2367470653069
 30
0.0
  0
VERTEX
  5
12DC
  8
L1
 10
29.50777632177244
 20
119.23674698624311
 30
0.0
  0
SEQEND
  5
12DD
  8
L1
  0
POLYLINE
  5
71
  8
L1
 66
     1
 10
0.0
 20
0.0
 30
0.0
  0
VERTEX
  5
12DE
  8
L1
 10
27.332719009011718
 20
118.1292495157407
 30
0.0
  0
VERTEX
  5
12DF
  8
L1
 10
27.334389480376672
 20
118.1278614165786
 30
0.0
  0
VERTEX
  5
12E0
  8
L1
 10
27.40827493803112
 20
118.03568416903271
 30
0.0
  0
VERTEX
  5
12E1
  8
L1
 10
27.440372959795582
 20
117.9274252633319
 30
0.0
  0
VERTEX
  5
12E2
  8
L1
 10
27.429062937358701
 20
117.8111752622918
 30
0.0
  0
VERTEX
  5
12E3
  8
L1
 10
27.3734998049257
 20
117.70718402911869
 30
0.0
  0
VERTEX
  5
12E4
  8
L1
 10
27.284731692207622
 20
117.6340196052704
 30
0.0
  0
VERTEX
  5
12E5
  8
L1
 10
27.198081864263141
 20
117.6031272120032
 30
0.0
  0
VERTEX
  5
12E6
  8
L1
 10
27.141850741541582
 20
117.5978104999549
 30
0.0
  0
SEQEND
  5
12E7
  8
L1
  0
ARC
  5
72
  8
L1
 10
29.368942637991719
 20
120.5978104999549
 30
0.0
 40
3.200000000000085
 50
180.0
 51
230.4820533159226
  0
LINE
  5
73
  8
L1
 10
26.16894263799156
 20
120.5978104999549
 30
0.0
 11
26.16894263799156
 21
121.29781049995471
 31
0.0
  0
POLYLINE
  5
74
  8
L1
 66
     1
 10
0.0
 20
0.0
 30
0.0
  0
VERTEX
  5
12E8
  8
L1
 10
25.827526666646349
 20
120.98476836846309
 30
0.0
  0
VERTEX
  5
12E9
  8
L1
 10
25.92993017529249
 20
121.0395039658743
 30
0.0
  0
VERTEX
  5
12EA
  8
L1
 10
26.04548284223403
 20
121.02811937805291
 30
0.0
  0
VERTEX
  5
12EB
  8
L1
 10
26.13523761814519
 20
120.9544517825837
 30
0.0
  0
VERTEX
  5
12EC
  8
L1
 10
26.16894263799167
 20
120.8433308571401
 30
0.0
  0
SEQEND
  5
12ED
  8
L1
  0
POLYLINE
  5
75
  8
L1
 66
     1
 10
0.0
 20
0.0
 30
0.0
  0
VERTEX
  5
12EE
  8
L1
 10
22.983490221960551
 20
118.0138892650877
 30
0.0
  0
VERTEX
  5
12EF
  8
L1
 10
23.00583252122896
 20
118.1300807131784
 30
0.0
  0
VERTEX
  5
12F0
  8
L1
 10
23.071366734029759
 20
118.2286084358465
 30
0.0
  0
SEQEND
  5
12F1
  8
L1
  0
POLYLINE
  5
76
  8
L1
 66
     1
 10
0.0
 20
0.0
 30
0.0
  0
VERTEX
  5
12F2
  8
L1
 10
22.983490221960551
 20
118.0138892650877
 30
0.0
  0
VERTEX
  5
12F3
  8
L1
 10
23.070423602884478
 20
117.8026848477509
 30
0.0
  0
VERTEX
  5
12F4
  8
L1
 10
23.547629910200381
 20
117.597810499955
 30
0.0
  0
SEQEND
  5
12F5
  8
L1
  0
LINE
  5
77
  8
L1
 10
25.827526666646349
 20
120.98476836846309
 30
0.0
 11
23.071366734029759
 21
118.2286084358465
 31
0.0
  0
ARC
  5
78
  8
L1
 10
19.768942637991689
 20
124.0978104999548
 30
0.0
 40
4.981314598045679
 50
357.35159765871231
 51
92.648402341288346
  0
LINE
  5
79
  8
L1
 10
16.268942637991699
 20
131.49781049995471
 30
0.0
 11
19.768942637991689
 21
131.49781049995471
 31
0.0
  0
LINE
  5
7A
  8
L1
 10
19.768942637991689
 20
130.49781049995471
 30
0.0
 11
16.96894263799151
 21
130.49781049995471
 31
0.0
  0
LINE
  5
7B
  8
L1
 10
19.53877162005778
 20
129.07380451393911
 30
0.0
 11
14.79294862400752
 21
124.3279815178889
 31
0.0
  0
ARC
  5
7C
  8
L1
 10
16.268942637991699
 20
133.6978104999549
 30
0.0
 40
3.2000000000002271
 50
219.5179466840772
 51
270.0
  0
LINE
  5
7D
  8
L1
 10
16.96894263799151
 20
130.49781049995471
 30
0.0
 11
16.268942637991699
 21
130.49781049995471
 31
0.0
  0
POLYLINE
  5
7E
  8
L1
 66
     1
 10
0.0
 20
0.0
 30
0.0
  0
VERTEX
  5
12F6
  8
L1
 10
13.899740573883371
 20
127.4002345959928
 30
0.0
  0
VERTEX
  5
12F7
  8
L1
 10
13.80121285121515
 20
127.334700383192
 30
0.0
  0
VERTEX
  5
12F8
  8
L1
 10
13.685021403124431
 20
127.3123580839235
 30
0.0
  0
SEQEND
  5
12F9
  8
L1
  0
LINE
  5
7F
  8
L1
 10
13.899740573883371
 20
127.4002345959928
 30
0.0
 11
16.65590050649984
 21
130.1563945286093
 31
0.0
  0
POLYLINE
  5
80
  8
L1
 66
     1
 10
0.0
 20
0.0
 30
0.0
  0
VERTEX
  5
12FA
  8
L1
 10
16.5144629951767
 20
130.49781049995471
 30
0.0
  0
VERTEX
  5
12FB
  8
L1
 10
16.625583920620329
 20
130.46410548010809
 30
0.0
  0
VERTEX
  5
12FC
  8
L1
 10
16.699251516089589
 20
130.3743507041971
 30
0.0
  0
VERTEX
  5
12FD
  8
L1
 10
16.710636103911039
 20
130.25879803725539
 30
0.0
  0
VERTEX
  5
12FE
  8
L1
 10
16.65590050649984
 20
130.1563945286093
 30
0.0
  0
SEQEND
  5
12FF
  8
L1
  0
POLYLINE
  5
81
  8
L1
 66
     1
 10
0.0
 20
0.0
 30
0.0
  0
VERTEX
  5
1300
  8
L1
 10
13.268942637991699
 20
127.8764977721636
 30
0.0
  0
VERTEX
  5
1301
  8
L1
 10
13.473816985787719
 20
127.39929146484739
 30
0.0
  0
VERTEX
  5
1302
  8
L1
 10
13.685021403124431
 20
127.3123580839235
 30
0.0
  0
SEQEND
  5
1303
  8
L1
  0
POLYLINE
  5
82
  8
L1
 66
     1
 10
0.0
 20
0.0
 30
0.0
  0
VERTEX
  5
1304
  8
L1
 10
13.268942637991699
 20
131.47071860350479
 30
0.0
  0
VERTEX
  5
1305
  8
L1
 10
13.269164880250051
 20
131.48226439645799
 30
0.0
  0
VERTEX
  5
1306
  8
L1
 10
13.29695598995033
 20
131.59730383831439
 30
0.0
  0
VERTEX
  5
1307
  8
L1
 10
13.366678740056379
 20
131.69227966948799
 30
0.0
  0
VERTEX
  5
1308
  8
L1
 10
13.45455020735141
 20
131.7480484769381
 30
0.0
  0
VERTEX
  5
1309
  8
L1
 10
13.5416236938023
 20
131.76946273404579
 30
0.0
  0
VERTEX
  5
130A
  8
L1
 10
13.626722466377711
 20
131.76508795924329
 30
0.0
  0
VERTEX
  5
130B
  8
L1
 10
13.715661055490161
 20
131.7323763515416
 30
0.0
  0
VERTEX
  5
130C
  8
L1
 10
13.80038165377743
 20
131.66158687097479
 30
0.0
  0
SEQEND
  5
130D
  8
L1
  0
ARC
  5
83
  8
L1
 10
19.768942637991689
 20
124.0978104999551
 30
0.0
 40
9.4389364862881635
 50
0.0
 51
36.689290052442303
  0
LINE
  5
84
  8
L1
 10
29.207879124279881
 20
124.0978104999551
 30
0.0
 11
29.207879124279881
 21
128.1367469862432
 31
0.0
  0
ARC
  5
85
  8
L1
 10
27.780965920790319
 20
131.0912886753421
 30
0.0
 40
0.3
 50
320.0
 51
45.0
  0
LINE
  5
86
  8
L1
 10
28.01077925372601
 20
130.8984523924361
 30
0.0
 11
27.34870409915311
 21
130.10942194840661
 31
0.0
  0
POLYLINE
  5
87
  8
L1
 66
     1
 10
0.0
 20
0.0
 30
0.0
  0
VERTEX
  5
130E
  8
L1
 10
27.34870409915311
 20
130.10942194840661
 30
0.0
  0
VERTEX
  5
130F
  8
L1
 10
27.335656171175849
 20
130.09270681981511
 30
0.0
  0
VERTEX
  5
1310
  8
L1
 10
27.286512305407651
 20
129.98544574379289
 30
0.0
  0
VERTEX
  5
1311
  8
L1
 10
27.282214803399022
 20
129.8694186571656
 30
0.0
  0
VERTEX
  5
1312
  8
L1
 10
27.32028149602035
 20
129.7638194699029
 30
0.0
  0
VERTEX
  5
1313
  8
L1
 10
27.337906315335768
 20
129.73734158358511
 30
0.0
  0
SEQEND
  5
1314
  8
L1
  0
POLYLINE
  5
88
  8
L1
 66
     1
 10
0.0
 20
0.0
 30
0.0
  0
VERTEX
  5
1315
  8
L1
 10
25.408473721622041
 20
131.66677417729889
 30
0.0
  0
VERTEX
  5
1316
  8
L1
 10
25.458049408934009
 20
131.63681247522919
 30
0.0
  0
VERTEX
  5
1317
  8
L1
 10
25.545282733474771
 20
131.61036866789269
 30
0.0
  0
VERTEX
  5
1318
  8
L1
 10
25.62931671310173
 20
131.6102639124089
 30
0.0
  0
VERTEX
  5
1319
  8
L1
 10
25.716542698671098
 20
131.6364477903102
 30
0.0
  0
VERTEX
  5
131A
  8
L1
 10
25.780554086443651
 20
131.6775719611162
 30
0.0
  0
SEQEND
  5
131B
  8
L1
  0
LINE
  5
89
  8
L1
 10
23.8078791242799
 20
133.5367469862432
 30
0.0
 11
19.768942637991579
 21
133.5367469862432
 31
0.0
  0
LINE
  5
8A
  8
L1
 10
15.20777632177248
 20
133.5367469862432
 30
0.0
 11
19.768942637991579
 21
133.5367469862432
 31
0.0
  0
POLYLINE
  5
8B
  8
L1
 66
     1
 10
0.0
 20
0.0
 30
0.0
  0
VERTEX
  5
131C
  8
L1
 10
14.907879124279701
 20
133.8366441837357
 30
0.0
  0
VERTEX
  5
131D
  8
L1
 10
14.90787920334367
 20
133.8364901337782
 30
0.0
  0
VERTEX
  5
131E
  8
L1
 10
14.907879440535559
 20
133.83633616292531
 30
0.0
  0
SEQEND
  5
131F
  8
L1
  0
POLYLINE
  5
8C
  8
L1
 66
     1
 10
0.0
 20
0.0
 30
0.0
  0
VERTEX
  5
1320
  8
L1
 10
14.90787944053579
 20
133.83633616292551
 30
0.0
  0
VERTEX
  5
1321
  8
L1
 10
14.99583190621899
 20
133.6246997681823
 30
0.0
  0
VERTEX
  5
1322
  8
L1
 10
15.20746830096197
 20
133.53674730249901
 30
0.0
  0
SEQEND
  5
1323
  8
L1
  0
POLYLINE
  5
8D
  8
L1
 66
     1
 10
0.0
 20
0.0
 30
0.0
  0
VERTEX
  5
1324
  8
L1
 10
15.20746830096175
 20
133.53674730249881
 30
0.0
  0
VERTEX
  5
1325
  8
L1
 10
15.207622271814779
 20
133.536747065307
 30
0.0
  0
VERTEX
  5
1326
  8
L1
 10
15.20777632177248
 20
133.536746986243
 30
0.0
  0
SEQEND
  5
1327
  8
L1
  0
ARC
  5
8E
  8
L1
 10
26.762420813378981
 20
132.10983378275341
 30
0.0
 40
0.3
 50
45.000000000001577
 51
130.00000000000199
  0
LINE
  5
A5
  8
L6
 10
370.33759374445822
 20
205.99775909870129
 30
0.0
 11
310.49643006659988
 21
205.99775909870129
 31
0.0
  0
LINE
  5
A7
  8
L2
 10
317.31692460834108
 20
134.92239261500589
 30
0.0
 11
340.49542854270561
 21
133.68669558498939
 31
0.0
  0
LINE
  5
A8
  8
L1
 10
250.8960345344419
 20
117.5978104999549
 30
0.0
 11
262.16894263799168
 21
117.5978104999549
 31
0.0
  0
ARC
  5
A9
  8
L1
 10
258.26894263799159
 20
124.0978104999548
 30
0.0
 40
4.981314598045679
 50
87.351597658711654
 51
182.64840234128761
  0
LINE
  5
AA
  8
L1
 10
258.26894263799159
 20
130.49781049995471
 30
0.0
 11
261.06894263799182
 21
130.49781049995471
 31
0.0
  0
LINE
  5
AB
  8
L1
 10
261.7689426379917
 20
131.49781049995471
 30
0.0
 11
258.26894263799159
 21
131.49781049995471
 31
0.0
  0
LINE
  5
AC
  8
L1
 10
262.83010895421103
 20
133.5367469862432
 30
0.0
 11
258.26894263799193
 21
133.5367469862432
 31
0.0
  0
ARC
  5
AD
  8
L1
 10
258.26894263799159
 20
124.0978104999548
 30
0.0
 40
4.981314598045679
 50
267.35159765871089
 51
2.6484023412883562
  0
ARC
  5
AE
  8
L1
 10
258.26894263799159
 20
124.0978104999548
 30
0.0
 40
6.3999999999998796
 50
89.999999999998977
 51
180.0
  0
LINE
  5
AF
  8
L1
 10
252.25733118953991
 20
131.6775719611162
 30
0.0
 11
251.46830074551039
 21
132.3396471156891
 31
0.0
  0
LINE
  5
B0
  8
L1
 10
251.0633324282486
 20
132.32196581710929
 30
0.0
 11
250.0447873208372
 21
131.30342070969809
 31
0.0
  0
ARC
  5
B1
  8
L1
 10
258.26894263799181
 20
124.0978104999551
 30
0.0
 40
9.4389364862881635
 50
89.999999999999275
 51
126.6892900524448
  0
ARC
  5
B2
  8
L1
 10
254.23000615170349
 20
128.1367469862432
 30
0.0
 40
5.3999999999999986
 50
90.0
 51
180.0
  0
ARC
  5
B3
  8
L1
 10
258.26894263799159
 20
124.0978104999548
 30
0.0
 40
7.3999999999999027
 50
90.0
 51
180.0
  0
LINE
  5
B4
  8
L1
 10
258.03877162005762
 20
119.1218164859707
 30
0.0
 11
253.29294862400741
 21
123.86763948202091
 31
0.0
  0
LINE
  5
B5
  8
L1
 10
251.86894263799189
 20
121.29781049995471
 30
0.0
 11
251.86894263799189
 21
124.0978104999548
 31
0.0
  0
LINE
  5
B6
  8
L1
 10
248.83000615170349
 20
124.0978104999551
 30
0.0
 11
248.83000615170349
 21
119.5366441837357
 31
0.0
  0
LINE
  5
B7
  8
L1
 10
250.86894263799181
 20
124.0978104999548
 30
0.0
 11
250.86894263799181
 21
120.5978104999549
 31
0.0
  0
POLYLINE
  5
B8
  8
L1
 66
     1
 10
0.0
 20
0.0
 30
0.0
  0
VERTEX
  5
1328
  8
L1
 10
248.83000583544759
 20
119.53633616292559
 30
0.0
  0
VERTEX
  5
1329
  8
L1
 10
248.74205336976439
 20
119.3246997681824
 30
0.0
  0
VERTEX
  5
132A
  8
L1
 10
248.53041697502121
 20
119.236747302499
 30
0.0
  0
SEQEND
  5
132B
  8
L1
  0
ARC
  5
B9
  8
L1
 10
248.66894263799171
 20
120.5978104999549
 30
0.0
 40
2.2000000000000619
 50
270.0
 51
0.0
  0
ARC
  5
BA
  8
L1
 10
248.66894263799171
 20
120.5978104999549
 30
0.0
 40
3.200000000000085
 50
270.0
 51
309.51794668407729
  0
POLYLINE
  5
BB
  8
L1
 66
     1
 10
0.0
 20
0.0
 30
0.0
  0
VERTEX
  5
132C
  8
L1
 10
248.53041697502169
 20
119.2367473024988
 30
0.0
  0
VERTEX
  5
132D
  8
L1
 10
248.5302630041686
 20
119.2367470653069
 30
0.0
  0
VERTEX
  5
132E
  8
L1
 10
248.5301089542109
 20
119.23674698624311
 30
0.0
  0
SEQEND
  5
132F
  8
L1
  0
POLYLINE
  5
BC
  8
L1
 66
     1
 10
0.0
 20
0.0
 30
0.0
  0
VERTEX
  5
1330
  8
L1
 10
255.05439505402299
 20
118.0138892650877
 30
0.0
  0
VERTEX
  5
1331
  8
L1
 10
255.03205275475449
 20
118.1300807131784
 30
0.0
  0
VERTEX
  5
1332
  8
L1
 10
254.96651854195369
 20
118.2286084358465
 30
0.0
  0
SEQEND
  5
1333
  8
L1
  0
LINE
  5
BD
  8
L1
 10
252.21035860933719
 20
120.98476836846309
 30
0.0
 11
254.9665185419538
 21
118.2286084358465
 31
0.0
  0
POLYLINE
  5
BE
  8
L1
 66
     1
 10
0.0
 20
0.0
 30
0.0
  0
VERTEX
  5
1334
  8
L1
 10
252.21035860933719
 20
120.98476836846309
 30
0.0
  0
VERTEX
  5
1335
  8
L1
 10
252.1079551006911
 20
121.0395039658743
 30
0.0
  0
VERTEX
  5
1336
  8
L1
 10
251.99240243374939
 20
121.02811937805291
 30
0.0
  0
VERTEX
  5
1337
  8
L1
 10
251.9026476578384
 20
120.9544517825837
 30
0.0
  0
VERTEX
  5
1338
  8
L1
 10
251.86894263799181
 20
120.8433308571401
 30
0.0
  0
SEQEND
  5
1339
  8
L1
  0
LINE
  5
BF
  8
L1
 10
251.86894263799189
 20
120.5978104999549
 30
0.0
 11
251.86894263799189
 21
121.29781049995471
 31
0.0
  0
ARC
  5
C0
  8
L1
 10
248.66894263799171
 20
120.5978104999549
 30
0.0
 40
3.200000000000085
 50
309.51794668407729
 51
0.0
  0
POLYLINE
  5
C1
  8
L1
 66
     1
 10
0.0
 20
0.0
 30
0.0
  0
VERTEX
  5
133A
  8
L1
 10
250.7051662669717
 20
118.1292495157407
 30
0.0
  0
VERTEX
  5
133B
  8
L1
 10
250.70349579560681
 20
118.1278614165786
 30
0.0
  0
VERTEX
  5
133C
  8
L1
 10
250.6296103379523
 20
118.03568416903271
 30
0.0
  0
VERTEX
  5
133D
  8
L1
 10
250.5975123161879
 20
117.9274252633319
 30
0.0
  0
VERTEX
  5
133E
  8
L1
 10
250.60882233862489
 20
117.8111752622918
 30
0.0
  0
VERTEX
  5
133F
  8
L1
 10
250.66438547105781
 20
117.70718402911869
 30
0.0
  0
VERTEX
  5
1340
  8
L1
 10
250.7531535837758
 20
117.6340196052704
 30
0.0
  0
VERTEX
  5
1341
  8
L1
 10
250.8398034117202
 20
117.6031272120032
 30
0.0
  0
VERTEX
  5
1342
  8
L1
 10
250.8960345344419
 20
117.5978104999549
 30
0.0
  0
SEQEND
  5
1343
  8
L1
  0
POLYLINE
  5
C2
  8
L1
 66
     1
 10
0.0
 20
0.0
 30
0.0
  0
VERTEX
  5
1344
  8
L1
 10
255.0543950540229
 20
118.0138892650877
 30
0.0
  0
VERTEX
  5
1345
  8
L1
 10
254.967461673099
 20
117.8026848477509
 30
0.0
  0
VERTEX
  5
1346
  8
L1
 10
254.4902553657831
 20
117.597810499955
 30
0.0
  0
SEQEND
  5
1347
  8
L1
  0
POLYLINE
  5
C3
  8
L1
 66
     1
 10
0.0
 20
0.0
 30
0.0
  0
VERTEX
  5
1348
  8
L1
 10
248.83000615170349
 20
119.5366441837357
 30
0.0
  0
VERTEX
  5
1349
  8
L1
 10
248.83000607263961
 20
119.5364901337784
 30
0.0
  0
VERTEX
  5
134A
  8
L1
 10
248.83000583544779
 20
119.53633616292549
 30
0.0
  0
SEQEND
  5
134B
  8
L1
  0
ARC
  5
C4
  8
L1
 10
258.26894263799181
 20
124.0978104999551
 30
0.0
 40
9.4389364862881635
 50
143.3107099475576
 51
180.0
  0
POLYLINE
  5
C5
  8
L1
 66
     1
 10
0.0
 20
0.0
 30
0.0
  0
VERTEX
  5
134C
  8
L1
 10
252.62941155436141
 20
131.66677417729889
 30
0.0
  0
VERTEX
  5
134D
  8
L1
 10
252.5798358670495
 20
131.63681247522919
 30
0.0
  0
VERTEX
  5
134E
  8
L1
 10
252.49260254250871
 20
131.61036866789269
 30
0.0
  0
VERTEX
  5
134F
  8
L1
 10
252.40856856288181
 20
131.6102639124089
 30
0.0
  0
VERTEX
  5
1350
  8
L1
 10
252.32134257731241
 20
131.6364477903102
 30
0.0
  0
VERTEX
  5
1351
  8
L1
 10
252.25733118953991
 20
131.6775719611162
 30
0.0
  0
SEQEND
  5
1352
  8
L1
  0
POLYLINE
  5
C6
  8
L1
 66
     1
 10
0.0
 20
0.0
 30
0.0
  0
VERTEX
  5
1353
  8
L1
 10
250.6891811768304
 20
130.10942194840661
 30
0.0
  0
VERTEX
  5
1354
  8
L1
 10
250.70222910480771
 20
130.09270681981511
 30
0.0
  0
VERTEX
  5
1355
  8
L1
 10
250.7513729705758
 20
129.98544574379289
 30
0.0
  0
VERTEX
  5
1356
  8
L1
 10
250.7556704725844
 20
129.8694186571656
 30
0.0
  0
VERTEX
  5
1357
  8
L1
 10
250.71760377996321
 20
129.7638194699029
 30
0.0
  0
VERTEX
  5
1358
  8
L1
 10
250.6999789606478
 20
129.73734158358511
 30
0.0
  0
SEQEND
  5
1359
  8
L1
  0
LINE
  5
C7
  8
L1
 10
250.0271060222575
 20
130.8984523924361
 30
0.0
 11
250.6891811768304
 21
130.10942194840661
 31
0.0
  0
ARC
  5
C8
  8
L1
 10
250.25691935519319
 20
131.0912886753421
 30
0.0
 40
0.3
 50
135.0
 51
219.99999999999989
  0
LINE
  5
C9
  8
L1
 10
248.8300061517036
 20
124.0978104999551
 30
0.0
 11
248.8300061517036
 21
128.1367469862432
 31
0.0
  0
ARC
  5
CA
  8
L1
 10
251.2754644626045
 20
132.10983378275341
 30
0.0
 40
0.3
 50
49.99999999999801
 51
134.99999999999841
  0
LINE
  5
CB
  8
L1
 10
254.23000615170349
 20
133.5367469862432
 30
0.0
 11
258.26894263799193
 21
133.5367469862432
 31
0.0
  0
ARC
  5
CC
  8
L1
 10
261.7689426379917
 20
133.6978104999549
 30
0.0
 40
2.200000000000204
 50
270.0
 51
0.0
  0
ARC
  5
CD
  8
L1
 10
261.7689426379917
 20
133.6978104999549
 30
0.0
 40
3.2000000000002271
 50
320.48205331592283
 51
0.0
  0
LINE
  5
CE
  8
L1
 10
264.76894263799181
 20
120.197810499955
 30
0.0
 11
264.76894263799181
 21
131.47071860350499
 31
0.0
  0
ARC
  5
CF
  8
L1
 10
262.16894263799168
 20
120.197810499955
 30
0.0
 40
2.6000000000000001
 50
270.0
 51
0.0
  0
POLYLINE
  5
D0
  8
L1
 66
     1
 10
0.0
 20
0.0
 30
0.0
  0
VERTEX
  5
135A
  8
L1
 10
263.0360433972599
 20
115.8355063690457
 30
0.0
  0
VERTEX
  5
135B
  8
L1
 10
263.05599067002993
 20
115.8355602927661
 30
0.0
  0
VERTEX
  5
135C
  8
L1
 10
263.0759426379916
 20
115.83572206218081
 30
0.0
  0
SEQEND
  5
135D
  8
L1
  0
POLYLINE
  5
D1
  8
L1
 66
     1
 10
0.0
 20
0.0
 30
0.0
  0
VERTEX
  5
135E
  8
L1
 10
263.0759426379916
 20
115.83572206218081
 30
0.0
  0
VERTEX
  5
135F
  8
L1
 10
263.73773024043709
 20
115.9060961098405
 30
0.0
  0
VERTEX
  5
1360
  8
L1
 10
264.39271502423281
 20
116.1082254979523
 30
0.0
  0
VERTEX
  5
1361
  8
L1
 10
264.99556186888782
 20
116.43436974976881
 30
0.0
  0
VERTEX
  5
1362
  8
L1
 10
265.50887175706549
 20
116.8578813808812
 30
0.0
  0
VERTEX
  5
1363
  8
L1
 10
265.93238338817793
 20
117.3711912690588
 30
0.0
  0
VERTEX
  5
1364
  8
L1
 10
266.25852763999421
 20
117.9740381137139
 30
0.0
  0
VERTEX
  5
1365
  8
L1
 10
266.46065702810608
 20
118.6290228975096
 30
0.0
  0
VERTEX
  5
1366
  8
L1
 10
266.5310310757659
 20
119.2908104999548
 30
0.0
  0
SEQEND
  5
1367
  8
L1
  0
POLYLINE
  5
D2
  8
L1
 66
     1
 10
0.0
 20
0.0
 30
0.0
  0
VERTEX
  5
1368
  8
L1
 10
266.53103107576601
 20
119.2908104999548
 30
0.0
  0
VERTEX
  5
1369
  8
L1
 10
266.53119284518061
 20
119.3107624679166
 30
0.0
  0
VERTEX
  5
136A
  8
L1
 10
266.53124676890098
 20
119.3307097406867
 30
0.0
  0
SEQEND
  5
136B
  8
L1
  0
ARC
  5
D3
  8
L1
 10
263.0759426379916
 20
119.290810499955
 30
0.0
 40
2.7360241002247609
 50
270.0
 51
359.99999999999932
  0
POLYLINE
  5
D4
  8
L1
 66
     1
 10
0.0
 20
0.0
 30
0.0
  0
VERTEX
  5
136C
  8
L1
 10
261.52342228080681
 20
130.49781049995471
 30
0.0
  0
VERTEX
  5
136D
  8
L1
 10
261.41230135536313
 20
130.46410548010809
 30
0.0
  0
VERTEX
  5
136E
  8
L1
 10
261.33863375989392
 20
130.3743507041971
 30
0.0
  0
VERTEX
  5
136F
  8
L1
 10
261.32724917207253
 20
130.25879803725539
 30
0.0
  0
VERTEX
  5
1370
  8
L1
 10
261.38198476948361
 20
130.1563945286093
 30
0.0
  0
SEQEND
  5
1371
  8
L1
  0
LINE
  5
D5
  8
L1
 10
264.13814470210019
 20
127.4002345959928
 30
0.0
 11
261.38198476948361
 21
130.1563945286093
 31
0.0
  0
POLYLINE
  5
D6
  8
L1
 66
     1
 10
0.0
 20
0.0
 30
0.0
  0
VERTEX
  5
1372
  8
L1
 10
264.13814470210019
 20
127.4002345959928
 30
0.0
  0
VERTEX
  5
1373
  8
L1
 10
264.23667242476819
 20
127.334700383192
 30
0.0
  0
VERTEX
  5
1374
  8
L1
 10
264.35286387285902
 20
127.3123580839235
 30
0.0
  0
SEQEND
  5
1375
  8
L1
  0
POLYLINE
  5
D7
  8
L1
 66
     1
 10
0.0
 20
0.0
 30
0.0
  0
VERTEX
  5
1376
  8
L1
 10
264.76894263799181
 20
131.47071860350479
 30
0.0
  0
VERTEX
  5
1377
  8
L1
 10
264.76872039573351
 20
131.48226439645799
 30
0.0
  0
VERTEX
  5
1378
  8
L1
 10
264.74092928603318
 20
131.59730383831439
 30
0.0
  0
VERTEX
  5
1379
  8
L1
 10
264.67120653592713
 20
131.69227966948799
 30
0.0
  0
VERTEX
  5
137A
  8
L1
 10
264.58333506863198
 20
131.7480484769381
 30
0.0
  0
VERTEX
  5
137B
  8
L1
 10
264.49626158218132
 20
131.76946273404579
 30
0.0
  0
VERTEX
  5
137C
  8
L1
 10
264.41116280960568
 20
131.76508795924329
 30
0.0
  0
VERTEX
  5
137D
  8
L1
 10
264.3222242204933
 20
131.7323763515416
 30
0.0
  0
VERTEX
  5
137E
  8
L1
 10
264.23750362220591
 20
131.66158687097479
 30
0.0
  0
SEQEND
  5
137F
  8
L1
  0
LINE
  5
D8
  8
L1
 10
261.06894263799182
 20
130.49781049995471
 30
0.0
 11
261.7689426379917
 21
130.49781049995471
 31
0.0
  0
ARC
  5
D9
  8
L1
 10
261.7689426379917
 20
133.6978104999549
 30
0.0
 40
3.2000000000002271
 50
270.0
 51
320.48205331592283
  0
POLYLINE
  5
DA
  8
L1
 66
     1
 10
0.0
 20
0.0
 30
0.0
  0
VERTEX
  5
1380
  8
L1
 10
264.76894263799181
 20
127.8764977721636
 30
0.0
  0
VERTEX
  5
1381
  8
L1
 10
264.56406829019591
 20
127.39929146484739
 30
0.0
  0
VERTEX
  5
1382
  8
L1
 10
264.35286387285902
 20
127.3123580839235
 30
0.0
  0
SEQEND
  5
1383
  8
L1
  0
LINE
  5
DB
  8
L1
 10
258.49911365592573
 20
129.07380451393911
 30
0.0
 11
263.24493665197599
 21
124.3279815178889
 31
0.0
  0
POLYLINE
  5
DC
  8
L1
 66
     1
 10
0.0
 20
0.0
 30
0.0
  0
VERTEX
  5
1384
  8
L1
 10
262.83041697502159
 20
133.53674730249881
 30
0.0
  0
VERTEX
  5
1385
  8
L1
 10
262.83026300416861
 20
133.536747065307
 30
0.0
  0
VERTEX
  5
1386
  8
L1
 10
262.83010895421108
 20
133.536746986243
 30
0.0
  0
SEQEND
  5
1387
  8
L1
  0
POLYLINE
  5
DD
  8
L1
 66
     1
 10
0.0
 20
0.0
 30
0.0
  0
VERTEX
  5
1388
  8
L1
 10
263.13000583544778
 20
133.83633616292551
 30
0.0
  0
VERTEX
  5
1389
  8
L1
 10
263.04205336976457
 20
133.6246997681823
 30
0.0
  0
VERTEX
  5
138A
  8
L1
 10
262.83041697502142
 20
133.53674730249901
 30
0.0
  0
SEQEND
  5
138B
  8
L1
  0
POLYLINE
  5
DE
  8
L1
 66
     1
 10
0.0
 20
0.0
 30
0.0
  0
VERTEX
  5
138C
  8
L1
 10
263.1300061517037
 20
133.8366441837357
 30
0.0
  0
VERTEX
  5
138D
  8
L1
 10
263.13000607263979
 20
133.8364901337782
 30
0.0
  0
VERTEX
  5
138E
  8
L1
 10
263.130005835448
 20
133.83633616292531
 30
0.0
  0
SEQEND
  5
138F
  8
L1
  0
ARC
  5
DF
  8
L2
 10
317.39542854270559
 20
136.42033691713769
 30
0.0
 40
1.5
 50
180.0
 51
266.99999999999977
  0
LINE
  5
E0
  8
L1
 10
315.3045713036783
 20
119.14670579934101
 30
0.0
 11
313.29542854270539
 21
121.42921481331339
 31
0.0
  0
LINE
  5
E3
  8
L1
 10
364.1761485120212
 20
115.98545496779199
 30
0.0
 11
338.484961351457
 21
117.33187303402219
 31
0.0
  0
ARC
  5
E9
  8
L1
 10
338.49542854270561
 20
117.531598940973
 30
0.0
 40
0.2
 50
180.0
 51
266.99999999999932
  0
LINE
  5
F2
  8
L1
 10
364.89542854270621
 20
205.99775909870129
 30
0.0
 11
364.89542854270547
 21
116.7047349984764
 31
0.0
  0
LINE
  5
F3
  8
L1
 10
364.89542854270559
 20
116.7047349984764
 30
0.0
 11
364.1761485120212
 21
115.9854549677919
 31
0.0
  0
LINE
  5
F8
  8
L2
 10
364.89542854270559
 20
133.04775909870111
 30
0.0
 11
340.49542854270561
 21
133.68669558498931
 31
0.0
  0
POLYLINE
  5
FA
  8
L1
 66
     1
 10
0.0
 20
0.0
 30
0.0
  0
VERTEX
  5
1390
  8
L1
 10
442.51211247697779
 20
124.46810762817449
 30
0.0
  0
VERTEX
  5
1391
  8
L1
 10
442.50678904425149
 20
124.75213908683889
 30
0.0
  0
VERTEX
  5
1392
  8
L1
 10
442.49086700471599
 20
125.03574639782001
 30
0.0
  0
VERTEX
  5
1393
  8
L1
 10
442.46436854919972
 20
125.3185342925903
 30
0.0
  0
VERTEX
  5
1394
  8
L1
 10
442.42733060906852
 20
125.6001086446572
 30
0.0
  0
VERTEX
  5
1395
  8
L1
 10
442.37980480475528
 20
125.880077018864
 30
0.0
  0
VERTEX
  5
1396
  8
L1
 10
442.32185737381428
 20
126.1580492183338
 30
0.0
  0
VERTEX
  5
1397
  8
L1
 10
442.25356907860538
 20
126.4336378282939
 30
0.0
  0
VERTEX
  5
1398
  8
L1
 10
442.17503509373392
 20
126.7064587560223
 30
0.0
  0
VERTEX
  5
1399
  8
L1
 10
442.08636487340419
 20
126.9761317661646
 30
0.0
  0
VERTEX
  5
139A
  8
L1
 10
441.9876819988711
 20
127.2422810106749
 30
0.0
  0
VERTEX
  5
139B
  8
L1
 10
441.87912400620309
 20
127.5045355526422
 30
0.0
  0
VERTEX
  5
139C
  8
L1
 10
441.76084219459528
 20
127.7625298832708
 30
0.0
  0
VERTEX
  5
139D
  8
L1
 10
441.6330014155015
 20
128.01590443129709
 30
0.0
  0
VERTEX
  5
139E
  8
L1
 10
441.49577984287743
 20
128.26430606413049
 30
0.0
  0
VERTEX
  5
139F
  8
L1
 10
441.3493687248569
 20
128.50738858001989
 30
0.0
  0
VERTEX
  5
13A0
  8
L1
 10
441.19397211720587
 20
128.74481319056201
 30
0.0
  0
VERTEX
  5
13A1
  8
L1
 10
441.0298065989258
 20
128.9762489928759
 30
0.0
  0
VERTEX
  5
13A2
  8
L1
 10
440.8571009704043
 20
129.201373430789
 30
0.0
  0
VERTEX
  5
13A3
  8
L1
 10
440.67609593453182
 20
129.4198727443889
 30
0.0
  0
VERTEX
  5
13A4
  8
L1
 10
440.48704376122919
 20
129.6314424073158
 30
0.0
  0
VERTEX
  5
13A5
  8
L1
 10
440.29020793585602
 20
129.83578755118739
 30
0.0
  0
VERTEX
  5
13A6
  8
L1
 10
440.08586279198443
 20
130.03262337656071
 30
0.0
  0
VERTEX
  5
13A7
  8
L1
 10
439.87429312905738
 20
130.22167554986311
 30
0.0
  0
VERTEX
  5
13A8
  8
L1
 10
439.65579381545763
 20
130.40268058573571
 30
0.0
  0
VERTEX
  5
13A9
  8
L1
 10
439.43066937754452
 20
130.57538621425721
 30
0.0
  0
VERTEX
  5
13AA
  8
L1
 10
439.19923357523061
 20
130.73955173253719
 30
0.0
  0
VERTEX
  5
13AB
  8
L1
 10
438.96180896468849
 20
130.89494834018831
 30
0.0
  0
VERTEX
  5
13AC
  8
L1
 10
438.71872644879898
 20
131.0413594582088
 30
0.0
  0
VERTEX
  5
13AD
  8
L1
 10
438.47032481596568
 20
131.1785810308329
 30
0.0
  0
VERTEX
  5
13AE
  8
L1
 10
438.2169502679393
 20
131.30642180992669
 30
0.0
  0
VERTEX
  5
13AF
  8
L1
 10
437.9589559373108
 20
131.42470362153441
 30
0.0
  0
VERTEX
  5
13B0
  8
L1
 10
437.6967013953435
 20
131.5332616142025
 30
0.0
  0
VERTEX
  5
13B1
  8
L1
 10
437.43055215083319
 20
131.6319444887356
 30
0.0
  0
VERTEX
  5
13B2
  8
L1
 10
437.16087914069089
 20
131.7206147090653
 30
0.0
  0
VERTEX
  5
13B3
  8
L1
 10
436.88805821296262
 20
131.79914869393679
 30
0.0
  0
VERTEX
  5
13B4
  8
L1
 10
436.61246960300241
 20
131.86743698914569
 30
0.0
  0
VERTEX
  5
13B5
  8
L1
 10
436.33449740353262
 20
131.9253844200866
 30
0.0
  0
VERTEX
  5
13B6
  8
L1
 10
436.05452902932569
 20
131.9729102243999
 30
0.0
  0
VERTEX
  5
13B7
  8
L1
 10
435.77295467725878
 20
132.00994816453101
 30
0.0
  0
VERTEX
  5
13B8
  8
L1
 10
435.49016678248847
 20
132.0364466200474
 30
0.0
  0
VERTEX
  5
13B9
  8
L1
 10
435.20655947150749
 20
132.0523686595829
 30
0.0
  0
VERTEX
  5
13BA
  8
L1
 10
434.92252801284309
 20
132.0576920923092
 30
0.0
  0
SEQEND
  5
13BB
  8
L1
  0
POLYLINE
  5
FB
  8
L1
 66
     1
 10
0.0
 20
0.0
 30
0.0
  0
VERTEX
  5
13BC
  8
L1
 10
436.13139709841909
 20
133.26656117788531
 30
0.0
  0
VERTEX
  5
13BD
  8
L1
 10
436.17765097346961
 20
133.26641898825611
 30
0.0
  0
VERTEX
  5
13BE
  8
L1
 10
436.37246322257278
 20
133.26261152129669
 30
0.0
  0
VERTEX
  5
13BF
  8
L1
 10
436.79783417657001
 20
133.2362695187341
 30
0.0
  0
VERTEX
  5
13C0
  8
L1
 10
437.00853116244298
 20
133.21413272997481
 30
0.0
  0
VERTEX
  5
13C1
  8
L1
 10
437.26177326934578
 20
133.17950515785051
 30
0.0
  0
VERTEX
  5
13C2
  8
L1
 10
437.55304208972098
 20
133.12877623559439
 30
0.0
  0
VERTEX
  5
13C3
  8
L1
 10
437.87781921601191
 20
133.05833539644021
 30
0.0
  0
VERTEX
  5
13C4
  8
L1
 10
438.81199545180971
 20
132.76979788074661
 30
0.0
  0
VERTEX
  5
13C5
  8
L1
 10
439.70176246889542
 20
132.36366639021421
 30
0.0
  0
VERTEX
  5
13C6
  8
L1
 10
440.33058476404022
 20
131.98621499668349
 30
0.0
  0
VERTEX
  5
13C7
  8
L1
 10
440.92037704606429
 20
131.55010056943101
 30
0.0
  0
VERTEX
  5
13C8
  8
L1
 10
441.4800679730991
 20
131.0449589336811
 30
0.0
  0
VERTEX
  5
13C9
  8
L1
 10
441.98715194184751
 20
130.4869689845124
 30
0.0
  0
VERTEX
  5
13CA
  8
L1
 10
442.38500479001209
 20
129.95789163597351
 30
0.0
  0
VERTEX
  5
13CB
  8
L1
 10
442.73559113294158
 20
129.3962937194369
 30
0.0
  0
VERTEX
  5
13CC
  8
L1
 10
443.03037442723371
 20
128.81926746393651
 30
0.0
  0
VERTEX
  5
13CD
  8
L1
 10
443.27502202311541
 20
128.21933893590329
 30
0.0
  0
VERTEX
  5
13CE
  8
L1
 10
443.51188124120949
 20
127.4261388290391
 30
0.0
  0
VERTEX
  5
13CF
  8
L1
 10
443.66055797038882
 20
126.6172046944894
 30
0.0
  0
VERTEX
  5
13D0
  8
L1
 10
443.70076796421989
 20
126.2208820667008
 30
0.0
  0
VERTEX
  5
13D1
  8
L1
 10
443.71873414873471
 20
125.8591679012038
 30
0.0
  0
VERTEX
  5
13D2
  8
L1
 10
443.72099673005022
 20
125.68592230373019
 30
0.0
  0
VERTEX
  5
13D3
  8
L1
 10
443.72100206386631
 20
125.676997215063
 30
0.0
  0
SEQEND
  5
13D4
  8
L1
  0
POLYLINE
  5
FC
  8
L1
 66
     1
 10
0.0
 20
0.0
 30
0.0
  0
VERTEX
  5
13D5
  8
L1
 10
445.69864765330851
 20
122.5872720301242
 30
0.0
  0
VERTEX
  5
13D6
  8
L1
 10
445.69879253143898
 20
124.5737302880666
 30
0.0
  0
VERTEX
  5
13D7
  8
L1
 10
445.69887067770679
 20
125.5107678183012
 30
0.0
  0
VERTEX
  5
13D8
  8
L1
 10
445.69894626125767
 20
126.3656652994124
 30
0.0
  0
VERTEX
  5
13D9
  8
L1
 10
445.69901450645187
 20
127.10491349392539
 30
0.0
  0
VERTEX
  5
13DA
  8
L1
 10
445.69904438477818
 20
127.420697471997
 30
0.0
  0
VERTEX
  5
13DB
  8
L1
 10
445.69907063765049
 20
127.695003164366
 30
0.0
  0
VERTEX
  5
13DC
  8
L1
 10
445.69909266811402
 20
127.9236419163482
 30
0.0
  0
VERTEX
  5
13DD
  8
L1
 10
445.69910987921389
 20
128.1024250732595
 30
0.0
  0
VERTEX
  5
13DE
  8
L1
 10
445.69912167399491
 20
128.2271639804153
 30
0.0
  0
VERTEX
  5
13DF
  8
L1
 10
445.69912745550272
 20
128.29366998313159
 30
0.0
  0
VERTEX
  5
13E0
  8
L1
 10
445.69900198921943
 20
128.9193190285603
 30
0.0
  0
VERTEX
  5
13E1
  8
L1
 10
445.69820879615742
 20
129.58691784488181
 30
0.0
  0
VERTEX
  5
13E2
  8
L1
 10
445.69624861101488
 20
130.2420315435742
 30
0.0
  0
VERTEX
  5
13E3
  8
L1
 10
445.69262216849057
 20
130.83022523611569
 30
0.0
  0
VERTEX
  5
13E4
  8
L1
 10
445.68884752278268
 20
131.17738063915769
 30
0.0
  0
VERTEX
  5
13E5
  8
L1
 10
445.68462227833578
 20
131.4548276800993
 30
0.0
  0
VERTEX
  5
13E6
  8
L1
 10
445.67697043227167
 20
131.90748952548421
 30
0.0
  0
VERTEX
  5
13E7
  8
L1
 10
445.67351751669747
 20
132.25554848861631
 30
0.0
  0
VERTEX
  5
13E8
  8
L1
 10
445.6726089784699
 20
132.5108378034754
 30
0.0
  0
VERTEX
  5
13E9
  8
L1
 10
445.66758260392822
 20
132.9038950308252
 30
0.0
  0
VERTEX
  5
13EA
  8
L1
 10
445.62326594196759
 20
133.44025837464861
 30
0.0
  0
VERTEX
  5
13EB
  8
L1
 10
445.51150171865743
 20
133.87104493674161
 30
0.0
  0
VERTEX
  5
13EC
  8
L1
 10
445.33440193310918
 20
134.2221712983619
 30
0.0
  0
VERTEX
  5
13ED
  8
L1
 10
445.10819610121791
 20
134.51874576581849
 30
0.0
  0
VERTEX
  5
13EE
  8
L1
 10
444.77505518456752
 20
134.81256294322961
 30
0.0
  0
VERTEX
  5
13EF
  8
L1
 10
444.48133310020421
 20
134.98572550611189
 30
0.0
  0
VERTEX
  5
13F0
  8
L1
 10
444.14484837851222
 20
135.11107643494461
 30
0.0
  0
VERTEX
  5
13F1
  8
L1
 10
443.7773414958362
 20
135.17880107512701
 30
0.0
  0
VERTEX
  5
13F2
  8
L1
 10
443.18836621526663
 20
135.21214681634311
 30
0.0
  0
VERTEX
  5
13F3
  8
L1
 10
442.82669840604427
 20
135.21445698703411
 30
0.0
  0
VERTEX
  5
13F4
  8
L1
 10
442.35122744632753
 20
135.21844895375011
 30
0.0
  0
VERTEX
  5
13F5
  8
L1
 10
441.82965441223263
 20
135.22784060003619
 30
0.0
  0
VERTEX
  5
13F6
  8
L1
 10
441.50348917670811
 20
135.23314209751419
 30
0.0
  0
VERTEX
  5
13F7
  8
L1
 10
441.08626507307611
 20
135.2378144549952
 30
0.0
  0
VERTEX
  5
13F8
  8
L1
 10
440.6664373537256
 20
135.2408703043356
 30
0.0
  0
VERTEX
  5
13F9
  8
L1
 10
440.19937337818283
 20
135.24295651597239
 30
0.0
  0
VERTEX
  5
13FA
  8
L1
 10
439.6250159664134
 20
135.2442366390618
 30
0.0
  0
VERTEX
  5
13FB
  8
L1
 10
439.27883435318319
 20
135.24462552651261
 30
0.0
  0
VERTEX
  5
13FC
  8
L1
 10
438.88330793838361
 20
135.2448742227601
 30
0.0
  0
VERTEX
  5
13FD
  8
L1
 10
438.43092957451017
 20
135.24500317144879
 30
0.0
  0
VERTEX
  5
13FE
  8
L1
 10
437.91419211405889
 20
135.2450328162233
 30
0.0
  0
VERTEX
  5
13FF
  8
L1
 10
437.32558840952538
 20
135.24498360072809
 30
0.0
  0
VERTEX
  5
1400
  8
L1
 10
436.6576113134052
 20
135.2448759686076
 30
0.0
  0
VERTEX
  5
1401
  8
L1
 10
435.9027536781943
 20
135.24473036350651
 30
0.0
  0
VERTEX
  5
1402
  8
L1
 10
435.05350835638842
 20
135.24456722906919
 30
0.0
  0
VERTEX
  5
1403
  8
L1
 10
434.10236820048323
 20
135.24440700894019
 30
0.0
  0
VERTEX
  5
1404
  8
L1
 10
433.04182606297428
 20
135.24427014676411
 30
0.0
  0
SEQEND
  5
1405
  8
L1
  0
POLYLINE
  5
FD
  8
L1
 66
     1
 10
0.0
 20
0.0
 30
0.0
  0
VERTEX
  5
1406
  8
L1
 10
426.44009104559569
 20
119.44075909870131
 30
0.0
  0
VERTEX
  5
1407
  8
L1
 10
426.51046509325539
 20
118.77897149625591
 30
0.0
  0
VERTEX
  5
1408
  8
L1
 10
426.71259448136749
 20
118.12398671246019
 30
0.0
  0
VERTEX
  5
1409
  8
L1
 10
427.03873873318378
 20
117.5211398678053
 30
0.0
  0
VERTEX
  5
140A
  8
L1
 10
427.4622503642961
 20
117.0078299796276
 30
0.0
  0
VERTEX
  5
140B
  8
L1
 10
427.97556025247383
 20
116.5843183485152
 30
0.0
  0
VERTEX
  5
140C
  8
L1
 10
428.57840709712877
 20
116.2581740966988
 30
0.0
  0
VERTEX
  5
140D
  8
L1
 10
429.2333918809245
 20
116.0560447085869
 30
0.0
  0
VERTEX
  5
140E
  8
L1
 10
429.89517948336987
 20
115.9856706609271
 30
0.0
  0
SEQEND
  5
140F
  8
L1
  0
POLYLINE
  5
FE
  8
L1
 66
     1
 10
0.0
 20
0.0
 30
0.0
  0
VERTEX
  5
1410
  8
L1
 10
431.28149679033191
 20
117.5315989409732
 30
0.0
  0
VERTEX
  5
1411
  8
L1
 10
431.08233900584872
 20
117.53760687343021
 30
0.0
  0
VERTEX
  5
1412
  8
L1
 10
430.88393830721748
 20
117.5556088248711
 30
0.0
  0
VERTEX
  5
1413
  8
L1
 10
430.68701611530651
 20
117.5855393369405
 30
0.0
  0
VERTEX
  5
1414
  8
L1
 10
430.49228847486552
 20
117.62728957687639
 30
0.0
  0
VERTEX
  5
1415
  8
L1
 10
430.30046345085799
 20
117.68070773324609
 30
0.0
  0
VERTEX
  5
1416
  8
L1
 10
430.11223855380831
 20
117.7455995679594
 30
0.0
  0
VERTEX
  5
1417
  8
L1
 10
429.9282982035275
 20
117.8217291225544
 30
0.0
  0
VERTEX
  5
1418
  8
L1
 10
429.7493112404382
 20
117.9088195761843
 30
0.0
  0
VERTEX
  5
1419
  8
L1
 10
429.5759284935508
 20
118.00655425218891
 30
0.0
  0
VERTEX
  5
141A
  8
L1
 10
429.40878041393017
 20
118.1145777695877
 30
0.0
  0
VERTEX
  5
141B
  8
L1
 10
429.24847478226252
 20
118.2324973353096
 30
0.0
  0
VERTEX
  5
141C
  8
L1
 10
429.09559449885381
 20
118.3598841724598
 30
0.0
  0
VERTEX
  5
141D
  8
L1
 10
428.95069546409923
 20
118.4962750794305
 30
0.0
  0
VERTEX
  5
141E
  8
L1
 10
428.81430455712848
 20
118.64117411418511
 30
0.0
  0
VERTEX
  5
141F
  8
L1
 10
428.68691771997828
 20
118.7940543975938
 30
0.0
  0
VERTEX
  5
1420
  8
L1
 10
428.56899815425641
 20
118.95436002926149
 30
0.0
  0
VERTEX
  5
1421
  8
L1
 10
428.4609746368576
 20
119.121508108882
 30
0.0
  0
VERTEX
  5
1422
  8
L1
 10
428.36323996085298
 20
119.29489085576949
 30
0.0
  0
VERTEX
  5
1423
  8
L1
 10
428.27614950722312
 20
119.4738778188587
 30
0.0
  0
VERTEX
  5
1424
  8
L1
 10
428.200019952628
 20
119.6578181691396
 30
0.0
  0
VERTEX
  5
1425
  8
L1
 10
428.13512811791469
 20
119.8460430661893
 30
0.0
  0
VERTEX
  5
1426
  8
L1
 10
428.08170996154507
 20
120.0378680901968
 30
0.0
  0
VERTEX
  5
1427
  8
L1
 10
428.03995972160919
 20
120.2325957306378
 30
0.0
  0
VERTEX
  5
1428
  8
L1
 10
428.01002920953982
 20
120.4295179225488
 30
0.0
  0
VERTEX
  5
1429
  8
L1
 10
427.99202725809891
 20
120.62791862118
 30
0.0
  0
VERTEX
  5
142A
  8
L1
 10
427.98601932564179
 20
120.82707640566321
 30
0.0
  0
SEQEND
  5
142B
  8
L1
  0
CIRCLE
  5
FF
  8
L1
 10
434.70217948336989
 20
124.2477590987012
 30
0.0
 40
6.097393363178492
  0
ARC
  5
100
  8
L1
 10
434.70217948336989
 20
124.2477590987012
 30
0.0
 40
4.9551339946734032
 50
177.4687382067074
 51
272.53126179329121
  0
CIRCLE
  5
101
  8
L1
 10
434.70217948336989
 20
124.2477590987012
 30
0.0
 40
5.7974047862592784
  0
LINE
  5
102
  8
L1
 10
442.51211247697779
 20
119.9489980907473
 30
0.0
 11
442.51211247697779
 21
124.46810762817449
 31
0.0
  0
LINE
  5
103
  8
L1
 10
439.65247862105667
 20
124.0289181688299
 30
0.0
 11
434.92102041324108
 21
119.2974599610145
 31
0.0
  0
POLYLINE
  5
104
  8
L1
 66
     1
 10
0.0
 20
0.0
 30
0.0
  0
VERTEX
  5
142C
  8
L1
 10
443.72100206386631
 20
125.676997215063
 30
0.0
  0
VERTEX
  5
142D
  8
L1
 10
443.72111188126388
 20
125.0435944368338
 30
0.0
  0
VERTEX
  5
142E
  8
L1
 10
443.72118671407628
 20
124.7105380472065
 30
0.0
  0
VERTEX
  5
142F
  8
L1
 10
443.72122579868358
 20
124.4452321569064
 30
0.0
  0
VERTEX
  5
1430
  8
L1
 10
443.72122725635381
 20
123.9935856516003
 30
0.0
  0
VERTEX
  5
1431
  8
L1
 10
443.72120489595221
 20
123.74510192525059
 30
0.0
  0
VERTEX
  5
1432
  8
L1
 10
443.7211773204171
 20
123.4400824755409
 30
0.0
  0
VERTEX
  5
1433
  8
L1
 10
443.72115216301552
 20
123.0474557467992
 30
0.0
  0
VERTEX
  5
1434
  8
L1
 10
443.72113705701588
 20
122.5361501833538
 30
0.0
  0
VERTEX
  5
1435
  8
L1
 10
443.72115220644088
 20
121.1580378202103
 30
0.0
  0
SEQEND
  5
1436
  8
L1
  0
POLYLINE
  5
105
  8
L1
 66
     1
 10
0.0
 20
0.0
 30
0.0
  0
VERTEX
  5
1437
  8
L1
 10
447.07749737651289
 20
121.2639005097062
 30
0.0
  0
VERTEX
  5
1438
  8
L1
 10
446.71006386509509
 20
121.2977824355178
 30
0.0
  0
VERTEX
  5
1439
  8
L1
 10
446.3003396874102
 20
121.44358417077341
 30
0.0
  0
VERTEX
  5
143A
  8
L1
 10
446.118623857633
 20
121.5683916948491
 30
0.0
  0
VERTEX
  5
143B
  8
L1
 10
445.96529912956009
 20
121.7265202331814
 30
0.0
  0
VERTEX
  5
143C
  8
L1
 10
445.84243587333668
 20
121.92022026597481
 30
0.0
  0
VERTEX
  5
143D
  8
L1
 10
445.75905224654679
 20
122.1343698759603
 30
0.0
  0
VERTEX
  5
143E
  8
L1
 10
445.69864765330851
 20
122.5872720301242
 30
0.0
  0
SEQEND
  5
143F
  8
L1
  0
POLYLINE
  5
106
  8
L1
 66
     1
 10
0.0
 20
0.0
 30
0.0
  0
VERTEX
  5
1440
  8
L1
 10
444.50937154648688
 20
117.9517390212381
 30
0.0
  0
VERTEX
  5
1441
  8
L1
 10
444.22482943877088
 20
117.971981008426
 30
0.0
  0
VERTEX
  5
1442
  8
L1
 10
443.94618204987847
 20
118.0324517752347
 30
0.0
  0
VERTEX
  5
1443
  8
L1
 10
443.67908210527662
 20
118.1319245933429
 30
0.0
  0
VERTEX
  5
1444
  8
L1
 10
443.42894807547412
 20
118.2683815269844
 30
0.0
  0
VERTEX
  5
1445
  8
L1
 10
443.20085425528509
 20
118.4390543694053
 30
0.0
  0
VERTEX
  5
1446
  8
L1
 10
442.99942782514501
 20
118.6404807995455
 30
0.0
  0
VERTEX
  5
1447
  8
L1
 10
442.82875498272398
 20
118.8685746197345
 30
0.0
  0
VERTEX
  5
1448
  8
L1
 10
442.69229804908252
 20
119.1187086495369
 30
0.0
  0
VERTEX
  5
1449
  8
L1
 10
442.59282523097443
 20
119.38580859413879
 30
0.0
  0
VERTEX
  5
144A
  8
L1
 10
442.53235446416568
 20
119.6644559830313
 30
0.0
  0
VERTEX
  5
144B
  8
L1
 10
442.51211247697779
 20
119.9489980907473
 30
0.0
  0
SEQEND
  5
144C
  8
L1
  0
POLYLINE
  5
107
  8
L1
 66
     1
 10
0.0
 20
0.0
 30
0.0
  0
VERTEX
  5
144D
  8
L1
 10
443.72115220644088
 20
121.1580378202103
 30
0.0
  0
VERTEX
  5
144E
  8
L1
 10
443.72119212048977
 20
121.1457397508069
 30
0.0
  0
VERTEX
  5
144F
  8
L1
 10
443.72181573672952
 20
121.1077748136933
 30
0.0
  0
VERTEX
  5
1450
  8
L1
 10
443.72505621405759
 20
121.0362081080311
 30
0.0
  0
VERTEX
  5
1451
  8
L1
 10
443.74081694854618
 20
120.8855962070926
 30
0.0
  0
VERTEX
  5
1452
  8
L1
 10
443.75760447070951
 20
120.78831022253161
 30
0.0
  0
SEQEND
  5
1453
  8
L1
  0
POLYLINE
  5
108
  8
L1
 66
     1
 10
0.0
 20
0.0
 30
0.0
  0
VERTEX
  5
1454
  8
L1
 10
443.75760447070951
 20
120.78831022253161
 30
0.0
  0
VERTEX
  5
1455
  8
L1
 10
443.83766076663562
 20
120.5003082579077
 30
0.0
  0
VERTEX
  5
1456
  8
L1
 10
443.96009275629382
 20
120.2248554073839
 30
0.0
  0
VERTEX
  5
1457
  8
L1
 10
444.15108757437838
 20
119.93083430309849
 30
0.0
  0
VERTEX
  5
1458
  8
L1
 10
444.38728243094738
 20
119.6743560549248
 30
0.0
  0
VERTEX
  5
1459
  8
L1
 10
444.6625012434057
 20
119.4611493082775
 30
0.0
  0
VERTEX
  5
145A
  8
L1
 10
444.96078926471409
 20
119.3007545093292
 30
0.0
  0
SEQEND
  5
145B
  8
L1
  0
POLYLINE
  5
109
  8
L1
 66
     1
 10
0.0
 20
0.0
 30
0.0
  0
VERTEX
  5
145C
  8
L1
 10
445.70433832458991
 20
119.14670579934111
 30
0.0
  0
VERTEX
  5
145D
  8
L1
 10
445.32350560291229
 20
119.1855764306421
 30
0.0
  0
VERTEX
  5
145E
  8
L1
 10
444.96078926471409
 20
119.3007545093292
 30
0.0
  0
SEQEND
  5
145F
  8
L1
  0
ARC
  5
10A
  8
L1
 10
434.70217948336989
 20
124.2477590987012
 30
0.0
 40
4.9551339946734032
 50
357.46873820670811
 51
92.531261793293183
  0
LINE
  5
10B
  8
L1
 10
429.75188034568322
 20
124.4666000285726
 30
0.0
 11
434.48333855349841
 21
129.19805823638791
 31
0.0
  0
POLYLINE
  5
10C
  8
L1
 66
     1
 10
0.0
 20
0.0
 30
0.0
  0
VERTEX
  5
1460
  8
L1
 10
429.75510639442268
 20
134.506526082644
 30
0.0
  0
VERTEX
  5
1461
  8
L1
 10
429.63997936871402
 20
134.869169437799
 30
0.0
  0
VERTEX
  5
1462
  8
L1
 10
429.60112618400967
 20
135.24991793992129
 30
0.0
  0
SEQEND
  5
1463
  8
L1
  0
POLYLINE
  5
10D
  8
L1
 66
     1
 10
0.0
 20
0.0
 30
0.0
  0
VERTEX
  5
1464
  8
L1
 10
430.40341847541572
 20
132.0576920923092
 30
0.0
  0
VERTEX
  5
1465
  8
L1
 10
430.11887636769973
 20
132.0779340794972
 30
0.0
  0
VERTEX
  5
1466
  8
L1
 10
429.84022897880732
 20
132.13840484630589
 30
0.0
  0
VERTEX
  5
1467
  8
L1
 10
429.57312903420552
 20
132.23787766441399
 30
0.0
  0
VERTEX
  5
1468
  8
L1
 10
429.32299500440291
 20
132.3743345980555
 30
0.0
  0
VERTEX
  5
1469
  8
L1
 10
429.094901184214
 20
132.54500744047641
 30
0.0
  0
VERTEX
  5
146A
  8
L1
 10
428.89347475407379
 20
132.74643387061661
 30
0.0
  0
VERTEX
  5
146B
  8
L1
 10
428.72280191165288
 20
132.9745276908055
 30
0.0
  0
VERTEX
  5
146C
  8
L1
 10
428.58634497801143
 20
133.22466172060811
 30
0.0
  0
VERTEX
  5
146D
  8
L1
 10
428.48687215990321
 20
133.49176166520991
 30
0.0
  0
VERTEX
  5
146E
  8
L1
 10
428.42640139309458
 20
133.7704090541024
 30
0.0
  0
VERTEX
  5
146F
  8
L1
 10
428.40615940590658
 20
134.05495116181839
 30
0.0
  0
SEQEND
  5
1470
  8
L1
  0
LINE
  5
10E
  8
L1
 10
434.92252801284309
 20
132.0576920923092
 30
0.0
 11
430.40341847541572
 21
132.0576920923092
 31
0.0
  0
POLYLINE
  5
10F
  8
L1
 66
     1
 10
0.0
 20
0.0
 30
0.0
  0
VERTEX
  5
1471
  8
L1
 10
431.61244722119511
 20
133.2667208380885
 30
0.0
  0
VERTEX
  5
1472
  8
L1
 10
433.36820601390042
 20
133.26673183886351
 30
0.0
  0
VERTEX
  5
1473
  8
L1
 10
433.80768302723573
 20
133.26676079567571
 30
0.0
  0
VERTEX
  5
1474
  8
L1
 10
434.1635293191236
 20
133.26678837353441
 30
0.0
  0
VERTEX
  5
1475
  8
L1
 10
434.81384963440621
 20
133.2667915348882
 30
0.0
  0
VERTEX
  5
1476
  8
L1
 10
435.2273248944428
 20
133.26673009300299
 30
0.0
  0
VERTEX
  5
1477
  8
L1
 10
435.5588154261556
 20
133.26664528851589
 30
0.0
  0
VERTEX
  5
1478
  8
L1
 10
436.13139709841909
 20
133.26656117788531
 30
0.0
  0
SEQEND
  5
1479
  8
L1
  0
POLYLINE
  5
110
  8
L1
 66
     1
 10
0.0
 20
0.0
 30
0.0
  0
VERTEX
  5
147A
  8
L1
 10
431.24264695641619
 20
133.30318772910911
 30
0.0
  0
VERTEX
  5
147B
  8
L1
 10
431.33078984335361
 20
133.2877500205135
 30
0.0
  0
VERTEX
  5
147C
  8
L1
 10
431.4501132699977
 20
133.2736629529048
 30
0.0
  0
VERTEX
  5
147D
  8
L1
 10
431.52227527097898
 20
133.26885734218459
 30
0.0
  0
VERTEX
  5
147E
  8
L1
 10
431.56642366493639
 20
133.26727710061229
 30
0.0
  0
VERTEX
  5
147F
  8
L1
 10
431.6033084772522
 20
133.26674291918869
 30
0.0
  0
VERTEX
  5
1480
  8
L1
 10
431.61244722119511
 20
133.2667208380885
 30
0.0
  0
SEQEND
  5
1481
  8
L1
  0
POLYLINE
  5
111
  8
L1
 66
     1
 10
0.0
 20
0.0
 30
0.0
  0
VERTEX
  5
1482
  8
L1
 10
429.75510639442268
 20
134.506526082644
 30
0.0
  0
VERTEX
  5
1483
  8
L1
 10
430.00533636468703
 20
134.08039641904071
 30
0.0
  0
VERTEX
  5
1484
  8
L1
 10
430.23951805996279
 20
133.8210467681549
 30
0.0
  0
VERTEX
  5
1485
  8
L1
 10
430.51698672231493
 20
133.60229648283249
 30
0.0
  0
VERTEX
  5
1486
  8
L1
 10
430.84135732227571
 20
133.4277723731534
 30
0.0
  0
VERTEX
  5
1487
  8
L1
 10
431.18940778381642
 20
133.31458094463039
 30
0.0
  0
VERTEX
  5
1488
  8
L1
 10
431.24264695641619
 20
133.30318772910911
 30
0.0
  0
SEQEND
  5
1489
  8
L1
  0
POLYLINE
  5
112
  8
L1
 66
     1
 10
0.0
 20
0.0
 30
0.0
  0
VERTEX
  5
148A
  8
L1
 10
433.04182606297428
 20
135.24427014676411
 30
0.0
  0
VERTEX
  5
148B
  8
L1
 10
432.75516669624233
 20
135.2670465929084
 30
0.0
  0
VERTEX
  5
148C
  8
L1
 10
432.36593262496461
 20
135.39248684611039
 30
0.0
  0
VERTEX
  5
148D
  8
L1
 10
432.18796445866627
 20
135.50543535918379
 30
0.0
  0
VERTEX
  5
148E
  8
L1
 10
432.03488323040409
 20
135.65016642633461
 30
0.0
  0
VERTEX
  5
148F
  8
L1
 10
431.90124560239337
 20
135.84016923452
 30
0.0
  0
VERTEX
  5
1490
  8
L1
 10
431.80636524487892
 20
136.05272201088471
 30
0.0
  0
VERTEX
  5
1491
  8
L1
 10
431.73880818265758
 20
136.3336384261207
 30
0.0
  0
VERTEX
  5
1492
  8
L1
 10
431.71832089437481
 20
136.62311556572081
 30
0.0
  0
SEQEND
  5
1493
  8
L1
  0
ARC
  5
113
  8
L1
 10
447.43987535246072
 20
136.98545496779201
 30
0.0
 40
2.0
 50
180.0
 51
270.0
  0
LINE
  5
114
  8
L1
 10
248.66894263799171
 20
293.29781049995501
 30
0.0
 11
29.368942637991719
 21
293.29781049995501
 31
0.0
  0
LINE
  5
115
  8
L1
 10
29.368942637991829
 20
294.29781049995512
 30
0.0
 11
248.66894263799171
 21
294.29781049995512
 31
0.0
  0
LINE
  5
116
  8
L1
 10
263.0759426379916
 20
295.14083460017952
 30
0.0
 11
14.96194263799168
 21
295.14083460017952
 31
0.0
  0
LINE
  5
117
  8
L1
 10
15.00184187872344
 20
295.86011463086408
 30
0.0
 11
263.0360433972599
 21
295.86011463086402
 31
0.0
  0
LINE
  5
118
  8
L1
 10
248.5301089542109
 20
292.45887401366662
 30
0.0
 11
29.50777632177255
 21
292.45887401366662
 31
0.0
  0
ARC
  5
119
  8
L1
 10
23.8078791242799
 20
283.55887401366653
 30
0.0
 40
5.3999999999999986
 50
270.0
 51
0.0
  0
LINE
  5
11A
  8
L1
 10
19.999113655925829
 20
292.57380451393902
 30
0.0
 11
24.744936651976101
 21
287.82798151788882
 31
0.0
  0
ARC
  5
11B
  8
L1
 10
19.768942637991689
 20
287.59781049995479
 30
0.0
 40
4.981314598045679
 50
87.351597658710986
 51
182.64840234128829
  0
LINE
  5
11C
  8
L1
 10
26.16894263799156
 20
290.39781049995503
 30
0.0
 11
26.16894263799156
 21
287.59781049995479
 31
0.0
  0
LINE
  5
11D
  8
L1
 10
13.268942637991699
 20
291.49781049995471
 30
0.0
 11
13.268942637991699
 21
280.22490239640467
 31
0.0
  0
LINE
  5
11E
  8
L1
 10
29.207879124279881
 20
287.59781049995462
 30
0.0
 11
29.207879124279881
 21
292.15897681617389
 31
0.0
  0
LINE
  5
11F
  8
L1
 10
27.16894263799167
 20
287.59781049995479
 30
0.0
 11
27.16894263799167
 21
291.0978104999549
 31
0.0
  0
LINE
  5
120
  8
L1
 10
25.780554086443651
 20
280.01804903879361
 30
0.0
 11
26.56958453047298
 21
279.3559738842207
 31
0.0
  0
LINE
  5
121
  8
L1
 10
26.974552847735019
 20
279.37365518280041
 30
0.0
 11
27.993097955146251
 21
280.39220029021158
 31
0.0
  0
ARC
  5
122
  8
L1
 10
19.768942637991689
 20
287.59781049995462
 30
0.0
 40
9.4389364862881635
 50
269.9999999999992
 51
306.68929005244479
  0
ARC
  5
123
  8
L1
 10
16.268942637991699
 20
277.99781049995482
 30
0.0
 40
2.200000000000204
 50
90.0
 51
180.0
  0
ARC
  5
124
  8
L1
 10
16.268942637991699
 20
277.99781049995482
 30
0.0
 40
3.2000000000002271
 50
140.4820533159228
 51
180.0
  0
ARC
  5
125
  8
L1
 10
19.768942637991689
 20
287.59781049995479
 30
0.0
 40
7.3999999999999027
 50
270.0
 51
0.0
  0
LINE
  5
126
  8
L1
 10
23.8078791242799
 20
278.15887401366649
 30
0.0
 11
19.768942637991579
 21
278.15887401366649
 31
0.0
  0
POLYLINE
  5
127
  8
L1
 66
     1
 10
0.0
 20
0.0
 30
0.0
  0
VERTEX
  5
1494
  8
L1
 10
15.20746830096175
 20
278.15887369741091
 30
0.0
  0
VERTEX
  5
1495
  8
L1
 10
15.207622271814779
 20
278.1588739346027
 30
0.0
  0
VERTEX
  5
1496
  8
L1
 10
15.20777632177248
 20
278.15887401366672
 30
0.0
  0
SEQEND
  5
1497
  8
L1
  0
POLYLINE
  5
128
  8
L1
 66
     1
 10
0.0
 20
0.0
 30
0.0
  0
VERTEX
  5
1498
  8
L1
 10
14.90787944053579
 20
277.85928483698422
 30
0.0
  0
VERTEX
  5
1499
  8
L1
 10
14.99583190621899
 20
278.07092123172743
 30
0.0
  0
VERTEX
  5
149A
  8
L1
 10
15.20746830096197
 20
278.15887369741068
 30
0.0
  0
SEQEND
  5
149B
  8
L1
  0
POLYLINE
  5
129
  8
L1
 66
     1
 10
0.0
 20
0.0
 30
0.0
  0
VERTEX
  5
149C
  8
L1
 10
14.907879124279701
 20
277.85897681617399
 30
0.0
  0
VERTEX
  5
149D
  8
L1
 10
14.90787920334367
 20
277.85913086613152
 30
0.0
  0
VERTEX
  5
149E
  8
L1
 10
14.907879440535559
 20
277.85928483698439
 30
0.0
  0
SEQEND
  5
149F
  8
L1
  0
LINE
  5
12A
  8
L1
 10
15.20777632177248
 20
278.15887401366649
 30
0.0
 11
19.768942637991579
 21
278.15887401366649
 31
0.0
  0
ARC
  5
12B
  8
L1
 10
26.762420813378981
 20
279.58578721715639
 30
0.0
 40
0.3
 50
229.99999999999801
 51
314.99999999999841
  0
ARC
  5
12C
  8
L1
 10
19.768942637991689
 20
287.59781049995479
 30
0.0
 40
4.981314598045679
 50
267.35159765871163
 51
2.648402341287694
  0
ARC
  5
12D
  8
L1
 10
19.768942637991689
 20
287.59781049995479
 30
0.0
 40
6.3999999999998796
 50
269.99999999999892
 51
0.0
  0
POLYLINE
  5
12E
  8
L1
 66
     1
 10
0.0
 20
0.0
 30
0.0
  0
VERTEX
  5
14A0
  8
L1
 10
16.5144629951767
 20
281.19781049995498
 30
0.0
  0
VERTEX
  5
14A1
  8
L1
 10
16.625583920620329
 20
281.23151551980158
 30
0.0
  0
VERTEX
  5
14A2
  8
L1
 10
16.699251516089589
 20
281.32127029571262
 30
0.0
  0
VERTEX
  5
14A3
  8
L1
 10
16.710636103911039
 20
281.43682296265428
 30
0.0
  0
VERTEX
  5
14A4
  8
L1
 10
16.65590050649984
 20
281.53922647130042
 30
0.0
  0
SEQEND
  5
14A5
  8
L1
  0
LINE
  5
12F
  8
L1
 10
13.899740573883371
 20
284.29538640391689
 30
0.0
 11
16.65590050649984
 21
281.53922647130042
 31
0.0
  0
POLYLINE
  5
130
  8
L1
 66
     1
 10
0.0
 20
0.0
 30
0.0
  0
VERTEX
  5
14A6
  8
L1
 10
13.899740573883371
 20
284.29538640391689
 30
0.0
  0
VERTEX
  5
14A7
  8
L1
 10
13.80121285121515
 20
284.36092061671769
 30
0.0
  0
VERTEX
  5
14A8
  8
L1
 10
13.685021403124431
 20
284.38326291598622
 30
0.0
  0
SEQEND
  5
14A9
  8
L1
  0
POLYLINE
  5
131
  8
L1
 66
     1
 10
0.0
 20
0.0
 30
0.0
  0
VERTEX
  5
14AA
  8
L1
 10
13.268942637991699
 20
280.2249023964049
 30
0.0
  0
VERTEX
  5
14AB
  8
L1
 10
13.269164880250051
 20
280.2133566034517
 30
0.0
  0
VERTEX
  5
14AC
  8
L1
 10
13.29695598995033
 20
280.09831716159528
 30
0.0
  0
VERTEX
  5
14AD
  8
L1
 10
13.366678740056379
 20
280.00334133042179
 30
0.0
  0
VERTEX
  5
14AE
  8
L1
 10
13.45455020735141
 20
279.9475725229716
 30
0.0
  0
VERTEX
  5
14AF
  8
L1
 10
13.5416236938023
 20
279.92615826586388
 30
0.0
  0
VERTEX
  5
14B0
  8
L1
 10
13.626722466377711
 20
279.93053304066638
 30
0.0
  0
VERTEX
  5
14B1
  8
L1
 10
13.715661055490161
 20
279.96324464836812
 30
0.0
  0
VERTEX
  5
14B2
  8
L1
 10
13.80038165377743
 20
280.03403412893488
 30
0.0
  0
SEQEND
  5
14B3
  8
L1
  0
LINE
  5
132
  8
L1
 10
16.96894263799151
 20
281.19781049995498
 30
0.0
 11
16.268942637991699
 21
281.19781049995498
 31
0.0
  0
ARC
  5
133
  8
L1
 10
16.268942637991699
 20
277.99781049995482
 30
0.0
 40
3.2000000000002271
 50
90.0
 51
140.4820533159228
  0
POLYLINE
  5
134
  8
L1
 66
     1
 10
0.0
 20
0.0
 30
0.0
  0
VERTEX
  5
14B4
  8
L1
 10
13.268942637991699
 20
283.8191232277461
 30
0.0
  0
VERTEX
  5
14B5
  8
L1
 10
13.473816985787719
 20
284.29632953506228
 30
0.0
  0
VERTEX
  5
14B6
  8
L1
 10
13.685021403124431
 20
284.38326291598622
 30
0.0
  0
SEQEND
  5
14B7
  8
L1
  0
LINE
  5
135
  8
L1
 10
19.53877162005778
 20
282.62181648597061
 30
0.0
 11
14.79294862400752
 21
287.36763948202082
 31
0.0
  0
LINE
  5
136
  8
L1
 10
19.768942637991689
 20
281.19781049995498
 30
0.0
 11
16.96894263799151
 21
281.19781049995498
 31
0.0
  0
LINE
  5
137
  8
L1
 10
16.268942637991699
 20
280.19781049995498
 30
0.0
 11
19.768942637991689
 21
280.19781049995498
 31
0.0
  0
POLYLINE
  5
138
  8
L1
 66
     1
 10
0.0
 20
0.0
 30
0.0
  0
VERTEX
  5
14B8
  8
L1
 10
25.408473721622041
 20
280.02884682261077
 30
0.0
  0
VERTEX
  5
14B9
  8
L1
 10
25.458049408934009
 20
280.0588085246805
 30
0.0
  0
VERTEX
  5
14BA
  8
L1
 10
25.545282733474771
 20
280.08525233201698
 30
0.0
  0
VERTEX
  5
14BB
  8
L1
 10
25.62931671310173
 20
280.08535708750082
 30
0.0
  0
VERTEX
  5
14BC
  8
L1
 10
25.716542698671098
 20
280.05917320959952
 30
0.0
  0
VERTEX
  5
14BD
  8
L1
 10
25.780554086443651
 20
280.01804903879361
 30
0.0
  0
SEQEND
  5
14BE
  8
L1
  0
POLYLINE
  5
139
  8
L1
 66
     1
 10
0.0
 20
0.0
 30
0.0
  0
VERTEX
  5
14BF
  8
L1
 10
27.34870409915311
 20
281.58619905150312
 30
0.0
  0
VERTEX
  5
14C0
  8
L1
 10
27.335656171175849
 20
281.60291418009461
 30
0.0
  0
VERTEX
  5
14C1
  8
L1
 10
27.286512305407651
 20
281.71017525611683
 30
0.0
  0
VERTEX
  5
14C2
  8
L1
 10
27.282214803399022
 20
281.82620234274418
 30
0.0
  0
VERTEX
  5
14C3
  8
L1
 10
27.32028149602035
 20
281.93180153000679
 30
0.0
  0
VERTEX
  5
14C4
  8
L1
 10
27.337906315335768
 20
281.95827941632461
 30
0.0
  0
SEQEND
  5
14C5
  8
L1
  0
LINE
  5
13A
  8
L1
 10
28.01077925372601
 20
280.79716860747362
 30
0.0
 11
27.34870409915311
 21
281.58619905150312
 31
0.0
  0
ARC
  5
13B
  8
L1
 10
27.780965920790319
 20
280.60433232456762
 30
0.0
 40
0.3
 50
315.0
 51
39.999999999999957
  0
LINE
  5
13C
  8
L1
 10
29.207879124279881
 20
287.59781049995462
 30
0.0
 11
29.207879124279881
 21
283.55887401366653
 31
0.0
  0
ARC
  5
13D
  8
L1
 10
19.768942637991689
 20
287.59781049995462
 30
0.0
 40
9.4389364862881635
 50
323.31070994755771
 51
0.0
  0
LINE
  5
13E
  8
L1
 10
27.141850741541582
 20
294.09781049995479
 30
0.0
 11
15.86894263799172
 21
294.09781049995479
 31
0.0
  0
ARC
  5
13F
  8
L1
 10
15.86894263799172
 20
291.49781049995471
 30
0.0
 40
2.6000000000000001
 50
90.0
 51
180.0
  0
POLYLINE
  5
140
  8
L1
 66
     1
 10
0.0
 20
0.0
 30
0.0
  0
VERTEX
  5
14C6
  8
L1
 10
15.00184187872355
 20
295.86011463086402
 30
0.0
  0
VERTEX
  5
14C7
  8
L1
 10
14.981894605953469
 20
295.8600607071437
 30
0.0
  0
VERTEX
  5
14C8
  8
L1
 10
14.96194263799168
 20
295.85989893772887
 30
0.0
  0
SEQEND
  5
14C9
  8
L1
  0
POLYLINE
  5
141
  8
L1
 66
     1
 10
0.0
 20
0.0
 30
0.0
  0
VERTEX
  5
14CA
  8
L1
 10
14.96194263799168
 20
295.85989893772887
 30
0.0
  0
VERTEX
  5
14CB
  8
L1
 10
14.30015503554648
 20
295.78952489006929
 30
0.0
  0
VERTEX
  5
14CC
  8
L1
 10
13.64517025175075
 20
295.58739550195742
 30
0.0
  0
VERTEX
  5
14CD
  8
L1
 10
13.04232340709563
 20
295.2612512501409
 30
0.0
  0
VERTEX
  5
14CE
  8
L1
 10
12.52901351891796
 20
294.83773961902853
 30
0.0
  0
VERTEX
  5
14CF
  8
L1
 10
12.105501887805641
 20
294.32442973085091
 30
0.0
  0
VERTEX
  5
14D0
  8
L1
 10
11.7793576359893
 20
293.72158288619579
 30
0.0
  0
VERTEX
  5
14D1
  8
L1
 10
11.57722824787731
 20
293.06659810240012
 30
0.0
  0
VERTEX
  5
14D2
  8
L1
 10
11.50685420021761
 20
292.40481049995492
 30
0.0
  0
SEQEND
  5
14D3
  8
L1
  0
POLYLINE
  5
142
  8
L1
 66
     1
 10
0.0
 20
0.0
 30
0.0
  0
VERTEX
  5
14D4
  8
L1
 10
11.50685420021761
 20
292.40481049995492
 30
0.0
  0
VERTEX
  5
14D5
  8
L1
 10
11.5066924308029
 20
292.38485853199307
 30
0.0
  0
VERTEX
  5
14D6
  8
L1
 10
11.506638507082579
 20
292.36491125922299
 30
0.0
  0
SEQEND
  5
14D7
  8
L1
  0
ARC
  5
143
  8
L1
 10
14.96194263799168
 20
292.40481049995481
 30
0.0
 40
2.7360241002247609
 50
90.0
 51
179.99999999999929
  0
POLYLINE
  5
144
  8
L1
 66
     1
 10
0.0
 20
0.0
 30
0.0
  0
VERTEX
  5
14D8
  8
L1
 10
22.983490221960551
 20
293.68173173482199
 30
0.0
  0
VERTEX
  5
14D9
  8
L1
 10
23.00583252122896
 20
293.56554028673128
 30
0.0
  0
VERTEX
  5
14DA
  8
L1
 10
23.071366734029759
 20
293.46701256406322
 30
0.0
  0
SEQEND
  5
14DB
  8
L1
  0
LINE
  5
145
  8
L1
 10
25.827526666646349
 20
290.71085263144658
 30
0.0
 11
23.071366734029759
 21
293.46701256406322
 31
0.0
  0
POLYLINE
  5
146
  8
L1
 66
     1
 10
0.0
 20
0.0
 30
0.0
  0
VERTEX
  5
14DC
  8
L1
 10
25.827526666646349
 20
290.71085263144658
 30
0.0
  0
VERTEX
  5
14DD
  8
L1
 10
25.92993017529249
 20
290.65611703403539
 30
0.0
  0
VERTEX
  5
14DE
  8
L1
 10
26.04548284223403
 20
290.6675016218569
 30
0.0
  0
VERTEX
  5
14DF
  8
L1
 10
26.13523761814519
 20
290.74116921732599
 30
0.0
  0
VERTEX
  5
14E0
  8
L1
 10
26.16894263799167
 20
290.85229014276962
 30
0.0
  0
SEQEND
  5
14E1
  8
L1
  0
LINE
  5
147
  8
L1
 10
26.16894263799156
 20
291.0978104999549
 30
0.0
 11
26.16894263799156
 21
290.39781049995503
 31
0.0
  0
ARC
  5
148
  8
L1
 10
29.368942637991719
 20
291.0978104999549
 30
0.0
 40
3.200000000000085
 50
129.51794668407729
 51
180.0
  0
POLYLINE
  5
149
  8
L1
 66
     1
 10
0.0
 20
0.0
 30
0.0
  0
VERTEX
  5
14E2
  8
L1
 10
27.332719009011718
 20
293.566371484169
 30
0.0
  0
VERTEX
  5
14E3
  8
L1
 10
27.334389480376672
 20
293.56775958333111
 30
0.0
  0
VERTEX
  5
14E4
  8
L1
 10
27.40827493803112
 20
293.65993683087697
 30
0.0
  0
VERTEX
  5
14E5
  8
L1
 10
27.440372959795582
 20
293.76819573657781
 30
0.0
  0
VERTEX
  5
14E6
  8
L1
 10
27.429062937358701
 20
293.88444573761791
 30
0.0
  0
VERTEX
  5
14E7
  8
L1
 10
27.3734998049257
 20
293.9884369707911
 30
0.0
  0
VERTEX
  5
14E8
  8
L1
 10
27.284731692207622
 20
294.06160139463941
 30
0.0
  0
VERTEX
  5
14E9
  8
L1
 10
27.198081864263141
 20
294.09249378790639
 30
0.0
  0
VERTEX
  5
14EA
  8
L1
 10
27.141850741541582
 20
294.09781049995479
 30
0.0
  0
SEQEND
  5
14EB
  8
L1
  0
POLYLINE
  5
14A
  8
L1
 66
     1
 10
0.0
 20
0.0
 30
0.0
  0
VERTEX
  5
14EC
  8
L1
 10
22.983490221960551
 20
293.68173173482199
 30
0.0
  0
VERTEX
  5
14ED
  8
L1
 10
23.070423602884478
 20
293.89293615215888
 30
0.0
  0
VERTEX
  5
14EE
  8
L1
 10
23.547629910200381
 20
294.09781049995479
 30
0.0
  0
SEQEND
  5
14EF
  8
L1
  0
POLYLINE
  5
14B
  8
L1
 66
     1
 10
0.0
 20
0.0
 30
0.0
  0
VERTEX
  5
14F0
  8
L1
 10
29.507468300961929
 20
292.45887369741092
 30
0.0
  0
VERTEX
  5
14F1
  8
L1
 10
29.507622271814959
 20
292.45887393460282
 30
0.0
  0
VERTEX
  5
14F2
  8
L1
 10
29.50777632177244
 20
292.45887401366662
 30
0.0
  0
SEQEND
  5
14F3
  8
L1
  0
POLYLINE
  5
14C
  8
L1
 66
     1
 10
0.0
 20
0.0
 30
0.0
  0
VERTEX
  5
14F4
  8
L1
 10
29.207879440535748
 20
292.15928483698411
 30
0.0
  0
VERTEX
  5
14F5
  8
L1
 10
29.29583190621895
 20
292.37092123172732
 30
0.0
  0
VERTEX
  5
14F6
  8
L1
 10
29.507468300962159
 20
292.45887369741081
 30
0.0
  0
SEQEND
  5
14F7
  8
L1
  0
POLYLINE
  5
14D
  8
L1
 66
     1
 10
0.0
 20
0.0
 30
0.0
  0
VERTEX
  5
14F8
  8
L1
 10
29.207879124279881
 20
292.15897681617389
 30
0.0
  0
VERTEX
  5
14F9
  8
L1
 10
29.20787920334385
 20
292.15913086613131
 30
0.0
  0
VERTEX
  5
14FA
  8
L1
 10
29.207879440535748
 20
292.15928483698423
 30
0.0
  0
SEQEND
  5
14FB
  8
L1
  0
ARC
  5
14E
  8
L1
 10
29.368942637991719
 20
291.0978104999549
 30
0.0
 40
2.2000000000000619
 50
90.0
 51
180.0
  0
ARC
  5
14F
  8
L1
 10
29.368942637991719
 20
291.0978104999549
 30
0.0
 40
3.200000000000085
 50
90.0
 51
129.51794668407729
  0
LINE
  5
152
  8
L1
 10
261.7689426379917
 20
280.19781049995498
 30
0.0
 11
258.26894263799159
 21
280.19781049995498
 31
0.0
  0
LINE
  5
153
  8
L1
 10
262.83010895421103
 20
278.15887401366649
 30
0.0
 11
258.26894263799193
 21
278.15887401366649
 31
0.0
  0
LINE
  5
154
  8
L1
 10
250.8960345344419
 20
294.09781049995479
 30
0.0
 11
262.16894263799168
 21
294.09781049995479
 31
0.0
  0
LINE
  5
155
  8
L1
 10
258.26894263799159
 20
281.19781049995498
 30
0.0
 11
261.06894263799182
 21
281.19781049995498
 31
0.0
  0
ARC
  5
156
  8
L1
 10
258.26894263799159
 20
287.59781049995479
 30
0.0
 40
4.981314598045679
 50
357.35159765871163
 51
92.648402341289
  0
ARC
  5
157
  8
L1
 10
258.26894263799159
 20
287.59781049995479
 30
0.0
 40
4.981314598045679
 50
177.35159765871231
 51
272.64840234128832
  0
LINE
  5
158
  8
L1
 10
250.86894263799181
 20
287.59781049995479
 30
0.0
 11
250.86894263799181
 21
291.0978104999549
 31
0.0
  0
LINE
  5
159
  8
L1
 10
248.83000615170349
 20
287.59781049995462
 30
0.0
 11
248.83000615170349
 21
292.15897681617389
 31
0.0
  0
LINE
  5
15A
  8
L1
 10
251.86894263799189
 20
290.39781049995503
 30
0.0
 11
251.86894263799189
 21
287.59781049995479
 31
0.0
  0
LINE
  5
15B
  8
L1
 10
258.03877162005762
 20
292.57380451393902
 30
0.0
 11
253.29294862400741
 21
287.82798151788882
 31
0.0
  0
ARC
  5
15C
  8
L1
 10
258.26894263799159
 20
287.59781049995479
 30
0.0
 40
7.3999999999999027
 50
180.0
 51
270.0
  0
ARC
  5
15D
  8
L1
 10
258.26894263799181
 20
287.59781049995462
 30
0.0
 40
9.4389364862881635
 50
233.3107099475551
 51
270.00000000000068
  0
LINE
  5
15E
  8
L1
 10
252.25733118953991
 20
280.01804903879361
 30
0.0
 11
251.46830074551039
 21
279.3559738842207
 31
0.0
  0
LINE
  5
15F
  8
L1
 10
251.0633324282486
 20
279.37365518280041
 30
0.0
 11
250.0447873208372
 21
280.39220029021158
 31
0.0
  0
ARC
  5
160
  8
L1
 10
254.23000615170349
 20
283.55887401366653
 30
0.0
 40
5.3999999999999986
 50
180.0
 51
270.0
  0
ARC
  5
161
  8
L1
 10
251.2754644626045
 20
279.58578721715639
 30
0.0
 40
0.3
 50
225.00000000000151
 51
310.00000000000199
  0
LINE
  5
162
  8
L1
 10
254.23000615170349
 20
278.15887401366649
 30
0.0
 11
258.26894263799193
 21
278.15887401366649
 31
0.0
  0
ARC
  5
163
  8
L1
 10
258.26894263799181
 20
287.59781049995462
 30
0.0
 40
9.4389364862881635
 50
180.0
 51
216.6892900524422
  0
ARC
  5
164
  8
L1
 10
250.25691935519319
 20
280.60433232456762
 30
0.0
 40
0.3
 50
140.0
 51
225.0
  0
LINE
  5
165
  8
L1
 10
250.0271060222575
 20
280.79716860747362
 30
0.0
 11
250.6891811768304
 21
281.58619905150312
 31
0.0
  0
POLYLINE
  5
166
  8
L1
 66
     1
 10
0.0
 20
0.0
 30
0.0
  0
VERTEX
  5
14FC
  8
L1
 10
250.6891811768304
 20
281.58619905150312
 30
0.0
  0
VERTEX
  5
14FD
  8
L1
 10
250.70222910480771
 20
281.60291418009461
 30
0.0
  0
VERTEX
  5
14FE
  8
L1
 10
250.7513729705758
 20
281.71017525611683
 30
0.0
  0
VERTEX
  5
14FF
  8
L1
 10
250.7556704725844
 20
281.82620234274418
 30
0.0
  0
VERTEX
  5
1500
  8
L1
 10
250.71760377996321
 20
281.93180153000679
 30
0.0
  0
VERTEX
  5
1501
  8
L1
 10
250.6999789606478
 20
281.95827941632461
 30
0.0
  0
SEQEND
  5
1502
  8
L1
  0
POLYLINE
  5
167
  8
L1
 66
     1
 10
0.0
 20
0.0
 30
0.0
  0
VERTEX
  5
1503
  8
L1
 10
252.62941155436141
 20
280.02884682261077
 30
0.0
  0
VERTEX
  5
1504
  8
L1
 10
252.5798358670495
 20
280.0588085246805
 30
0.0
  0
VERTEX
  5
1505
  8
L1
 10
252.49260254250871
 20
280.08525233201698
 30
0.0
  0
VERTEX
  5
1506
  8
L1
 10
252.40856856288181
 20
280.08535708750082
 30
0.0
  0
VERTEX
  5
1507
  8
L1
 10
252.32134257731241
 20
280.05917320959952
 30
0.0
  0
VERTEX
  5
1508
  8
L1
 10
252.25733118953991
 20
280.01804903879361
 30
0.0
  0
SEQEND
  5
1509
  8
L1
  0
LINE
  5
168
  8
L1
 10
248.8300061517036
 20
287.59781049995462
 30
0.0
 11
248.8300061517036
 21
283.55887401366653
 31
0.0
  0
ARC
  5
169
  8
L1
 10
258.26894263799159
 20
287.59781049995479
 30
0.0
 40
6.3999999999998796
 50
180.0
 51
270.00000000000102
  0
ARC
  5
16A
  8
L1
 10
248.66894263799171
 20
291.0978104999549
 30
0.0
 40
3.200000000000085
 50
50.48205331592267
 51
90.0
  0
ARC
  5
16B
  8
L1
 10
248.66894263799171
 20
291.0978104999549
 30
0.0
 40
2.2000000000000619
 50
0.0
 51
90.0
  0
POLYLINE
  5
16C
  8
L1
 66
     1
 10
0.0
 20
0.0
 30
0.0
  0
VERTEX
  5
150A
  8
L1
 10
248.83000583544759
 20
292.15928483698411
 30
0.0
  0
VERTEX
  5
150B
  8
L1
 10
248.74205336976439
 20
292.37092123172732
 30
0.0
  0
VERTEX
  5
150C
  8
L1
 10
248.53041697502121
 20
292.45887369741081
 30
0.0
  0
SEQEND
  5
150D
  8
L1
  0
POLYLINE
  5
16D
  8
L1
 66
     1
 10
0.0
 20
0.0
 30
0.0
  0
VERTEX
  5
150E
  8
L1
 10
248.53041697502169
 20
292.45887369741092
 30
0.0
  0
VERTEX
  5
150F
  8
L1
 10
248.5302630041686
 20
292.45887393460282
 30
0.0
  0
VERTEX
  5
1510
  8
L1
 10
248.5301089542109
 20
292.45887401366662
 30
0.0
  0
SEQEND
  5
1511
  8
L1
  0
POLYLINE
  5
16E
  8
L1
 66
     1
 10
0.0
 20
0.0
 30
0.0
  0
VERTEX
  5
1512
  8
L1
 10
248.83000615170349
 20
292.15897681617389
 30
0.0
  0
VERTEX
  5
1513
  8
L1
 10
248.83000607263961
 20
292.15913086613131
 30
0.0
  0
VERTEX
  5
1514
  8
L1
 10
248.83000583544779
 20
292.15928483698423
 30
0.0
  0
SEQEND
  5
1515
  8
L1
  0
POLYLINE
  5
16F
  8
L1
 66
     1
 10
0.0
 20
0.0
 30
0.0
  0
VERTEX
  5
1516
  8
L1
 10
250.7051662669717
 20
293.566371484169
 30
0.0
  0
VERTEX
  5
1517
  8
L1
 10
250.70349579560681
 20
293.56775958333111
 30
0.0
  0
VERTEX
  5
1518
  8
L1
 10
250.6296103379523
 20
293.65993683087697
 30
0.0
  0
VERTEX
  5
1519
  8
L1
 10
250.5975123161879
 20
293.76819573657781
 30
0.0
  0
VERTEX
  5
151A
  8
L1
 10
250.60882233862489
 20
293.88444573761791
 30
0.0
  0
VERTEX
  5
151B
  8
L1
 10
250.66438547105781
 20
293.9884369707911
 30
0.0
  0
VERTEX
  5
151C
  8
L1
 10
250.7531535837758
 20
294.06160139463941
 30
0.0
  0
VERTEX
  5
151D
  8
L1
 10
250.8398034117202
 20
294.09249378790639
 30
0.0
  0
VERTEX
  5
151E
  8
L1
 10
250.8960345344419
 20
294.09781049995479
 30
0.0
  0
SEQEND
  5
151F
  8
L1
  0
ARC
  5
170
  8
L1
 10
248.66894263799171
 20
291.0978104999549
 30
0.0
 40
3.200000000000085
 50
0.0
 51
50.48205331592267
  0
LINE
  5
171
  8
L1
 10
251.86894263799189
 20
291.0978104999549
 30
0.0
 11
251.86894263799189
 21
290.39781049995503
 31
0.0
  0
POLYLINE
  5
172
  8
L1
 66
     1
 10
0.0
 20
0.0
 30
0.0
  0
VERTEX
  5
1520
  8
L1
 10
252.21035860933719
 20
290.71085263144658
 30
0.0
  0
VERTEX
  5
1521
  8
L1
 10
252.1079551006911
 20
290.65611703403539
 30
0.0
  0
VERTEX
  5
1522
  8
L1
 10
251.99240243374939
 20
290.6675016218569
 30
0.0
  0
VERTEX
  5
1523
  8
L1
 10
251.9026476578384
 20
290.74116921732599
 30
0.0
  0
VERTEX
  5
1524
  8
L1
 10
251.86894263799181
 20
290.85229014276962
 30
0.0
  0
SEQEND
  5
1525
  8
L1
  0
LINE
  5
173
  8
L1
 10
252.21035860933719
 20
290.71085263144658
 30
0.0
 11
254.9665185419538
 21
293.46701256406322
 31
0.0
  0
POLYLINE
  5
174
  8
L1
 66
     1
 10
0.0
 20
0.0
 30
0.0
  0
VERTEX
  5
1526
  8
L1
 10
255.05439505402299
 20
293.68173173482199
 30
0.0
  0
VERTEX
  5
1527
  8
L1
 10
255.03205275475449
 20
293.56554028673128
 30
0.0
  0
VERTEX
  5
1528
  8
L1
 10
254.96651854195369
 20
293.46701256406322
 30
0.0
  0
SEQEND
  5
1529
  8
L1
  0
POLYLINE
  5
175
  8
L1
 66
     1
 10
0.0
 20
0.0
 30
0.0
  0
VERTEX
  5
152A
  8
L1
 10
255.0543950540229
 20
293.68173173482199
 30
0.0
  0
VERTEX
  5
152B
  8
L1
 10
254.967461673099
 20
293.89293615215888
 30
0.0
  0
VERTEX
  5
152C
  8
L1
 10
254.4902553657831
 20
294.09781049995479
 30
0.0
  0
SEQEND
  5
152D
  8
L1
  0
LINE
  5
176
  8
L1
 10
264.76894263799181
 20
291.49781049995471
 30
0.0
 11
264.76894263799181
 21
280.22490239640467
 31
0.0
  0
ARC
  5
177
  8
L1
 10
261.7689426379917
 20
277.99781049995482
 30
0.0
 40
3.2000000000002271
 50
0.0
 51
39.51794668407716
  0
ARC
  5
178
  8
L1
 10
261.7689426379917
 20
277.99781049995482
 30
0.0
 40
2.200000000000204
 50
0.0
 51
90.0
  0
POLYLINE
  5
179
  8
L1
 66
     1
 10
0.0
 20
0.0
 30
0.0
  0
VERTEX
  5
152E
  8
L1
 10
263.1300061517037
 20
277.85897681617399
 30
0.0
  0
VERTEX
  5
152F
  8
L1
 10
263.13000607263979
 20
277.85913086613152
 30
0.0
  0
VERTEX
  5
1530
  8
L1
 10
263.130005835448
 20
277.85928483698439
 30
0.0
  0
SEQEND
  5
1531
  8
L1
  0
POLYLINE
  5
17A
  8
L1
 66
     1
 10
0.0
 20
0.0
 30
0.0
  0
VERTEX
  5
1532
  8
L1
 10
263.13000583544778
 20
277.85928483698422
 30
0.0
  0
VERTEX
  5
1533
  8
L1
 10
263.04205336976457
 20
278.07092123172743
 30
0.0
  0
VERTEX
  5
1534
  8
L1
 10
262.83041697502142
 20
278.15887369741068
 30
0.0
  0
SEQEND
  5
1535
  8
L1
  0
POLYLINE
  5
17B
  8
L1
 66
     1
 10
0.0
 20
0.0
 30
0.0
  0
VERTEX
  5
1536
  8
L1
 10
262.83041697502159
 20
278.15887369741091
 30
0.0
  0
VERTEX
  5
1537
  8
L1
 10
262.83026300416861
 20
278.1588739346027
 30
0.0
  0
VERTEX
  5
1538
  8
L1
 10
262.83010895421108
 20
278.15887401366672
 30
0.0
  0
SEQEND
  5
1539
  8
L1
  0
ARC
  5
17C
  8
L1
 10
261.7689426379917
 20
277.99781049995482
 30
0.0
 40
3.2000000000002271
 50
39.51794668407716
 51
90.0
  0
LINE
  5
17D
  8
L1
 10
261.06894263799182
 20
281.19781049995498
 30
0.0
 11
261.7689426379917
 21
281.19781049995498
 31
0.0
  0
POLYLINE
  5
17E
  8
L1
 66
     1
 10
0.0
 20
0.0
 30
0.0
  0
VERTEX
  5
153A
  8
L1
 10
264.76894263799181
 20
280.2249023964049
 30
0.0
  0
VERTEX
  5
153B
  8
L1
 10
264.76872039573351
 20
280.2133566034517
 30
0.0
  0
VERTEX
  5
153C
  8
L1
 10
264.74092928603318
 20
280.09831716159528
 30
0.0
  0
VERTEX
  5
153D
  8
L1
 10
264.67120653592713
 20
280.00334133042179
 30
0.0
  0
VERTEX
  5
153E
  8
L1
 10
264.58333506863198
 20
279.9475725229716
 30
0.0
  0
VERTEX
  5
153F
  8
L1
 10
264.49626158218132
 20
279.92615826586388
 30
0.0
  0
VERTEX
  5
1540
  8
L1
 10
264.41116280960568
 20
279.93053304066638
 30
0.0
  0
VERTEX
  5
1541
  8
L1
 10
264.3222242204933
 20
279.96324464836812
 30
0.0
  0
VERTEX
  5
1542
  8
L1
 10
264.23750362220591
 20
280.03403412893488
 30
0.0
  0
SEQEND
  5
1543
  8
L1
  0
POLYLINE
  5
17F
  8
L1
 66
     1
 10
0.0
 20
0.0
 30
0.0
  0
VERTEX
  5
1544
  8
L1
 10
264.13814470210019
 20
284.29538640391689
 30
0.0
  0
VERTEX
  5
1545
  8
L1
 10
264.23667242476819
 20
284.36092061671769
 30
0.0
  0
VERTEX
  5
1546
  8
L1
 10
264.35286387285902
 20
284.38326291598622
 30
0.0
  0
SEQEND
  5
1547
  8
L1
  0
LINE
  5
180
  8
L1
 10
264.13814470210019
 20
284.29538640391689
 30
0.0
 11
261.38198476948361
 21
281.53922647130042
 31
0.0
  0
POLYLINE
  5
181
  8
L1
 66
     1
 10
0.0
 20
0.0
 30
0.0
  0
VERTEX
  5
1548
  8
L1
 10
261.52342228080681
 20
281.19781049995498
 30
0.0
  0
VERTEX
  5
1549
  8
L1
 10
261.41230135536313
 20
281.23151551980158
 30
0.0
  0
VERTEX
  5
154A
  8
L1
 10
261.33863375989392
 20
281.32127029571262
 30
0.0
  0
VERTEX
  5
154B
  8
L1
 10
261.32724917207253
 20
281.43682296265428
 30
0.0
  0
VERTEX
  5
154C
  8
L1
 10
261.38198476948361
 20
281.53922647130042
 30
0.0
  0
SEQEND
  5
154D
  8
L1
  0
LINE
  5
182
  8
L1
 10
258.49911365592573
 20
282.62181648597061
 30
0.0
 11
263.24493665197599
 21
287.36763948202082
 31
0.0
  0
POLYLINE
  5
183
  8
L1
 66
     1
 10
0.0
 20
0.0
 30
0.0
  0
VERTEX
  5
154E
  8
L1
 10
264.76894263799181
 20
283.8191232277461
 30
0.0
  0
VERTEX
  5
154F
  8
L1
 10
264.56406829019591
 20
284.29632953506228
 30
0.0
  0
VERTEX
  5
1550
  8
L1
 10
264.35286387285902
 20
284.38326291598622
 30
0.0
  0
SEQEND
  5
1551
  8
L1
  0
ARC
  5
184
  8
L2
 10
317.39542854270559
 20
275.57518128026481
 30
0.0
 40
1.5
 50
93.000000000000156
 51
180.0
  0
ARC
  5
186
  8
L1
 10
263.0759426379916
 20
292.40481049995481
 30
0.0
 40
2.7360241002247609
 50
0.0000000000006395
 51
90.0
  0
POLYLINE
  5
187
  8
L1
 66
     1
 10
0.0
 20
0.0
 30
0.0
  0
VERTEX
  5
1552
  8
L1
 10
266.53103107576601
 20
292.40481049995492
 30
0.0
  0
VERTEX
  5
1553
  8
L1
 10
266.53119284518061
 20
292.38485853199307
 30
0.0
  0
VERTEX
  5
1554
  8
L1
 10
266.53124676890098
 20
292.36491125922299
 30
0.0
  0
SEQEND
  5
1555
  8
L1
  0
POLYLINE
  5
188
  8
L1
 66
     1
 10
0.0
 20
0.0
 30
0.0
  0
VERTEX
  5
1556
  8
L1
 10
263.0759426379916
 20
295.85989893772887
 30
0.0
  0
VERTEX
  5
1557
  8
L1
 10
263.73773024043709
 20
295.78952489006929
 30
0.0
  0
VERTEX
  5
1558
  8
L1
 10
264.39271502423281
 20
295.58739550195742
 30
0.0
  0
VERTEX
  5
1559
  8
L1
 10
264.99556186888782
 20
295.2612512501409
 30
0.0
  0
VERTEX
  5
155A
  8
L1
 10
265.50887175706549
 20
294.83773961902853
 30
0.0
  0
VERTEX
  5
155B
  8
L1
 10
265.93238338817793
 20
294.32442973085091
 30
0.0
  0
VERTEX
  5
155C
  8
L1
 10
266.25852763999421
 20
293.72158288619579
 30
0.0
  0
VERTEX
  5
155D
  8
L1
 10
266.46065702810608
 20
293.06659810240012
 30
0.0
  0
VERTEX
  5
155E
  8
L1
 10
266.5310310757659
 20
292.40481049995492
 30
0.0
  0
SEQEND
  5
155F
  8
L1
  0
POLYLINE
  5
189
  8
L1
 66
     1
 10
0.0
 20
0.0
 30
0.0
  0
VERTEX
  5
1560
  8
L1
 10
263.0360433972599
 20
295.86011463086402
 30
0.0
  0
VERTEX
  5
1561
  8
L1
 10
263.05599067002993
 20
295.8600607071437
 30
0.0
  0
VERTEX
  5
1562
  8
L1
 10
263.0759426379916
 20
295.85989893772887
 30
0.0
  0
SEQEND
  5
1563
  8
L1
  0
ARC
  5
18A
  8
L1
 10
262.16894263799168
 20
291.49781049995471
 30
0.0
 40
2.6000000000000001
 50
0.0
 51
90.0
  0
LINE
  5
18B
  8
L1
 10
364.89542854270621
 20
205.99775909870129
 30
0.0
 11
364.89542854270547
 21
295.29078319892608
 31
0.0
  0
LINE
  5
19C
  8
L1
 10
364.1761485120212
 20
296.01006322961052
 30
0.0
 11
338.484961351457
 21
294.66364516338029
 31
0.0
  0
ARC
  5
19E
  8
L1
 10
338.49542854270561
 20
294.46391925642951
 30
0.0
 40
0.2
 50
93.000000000000654
 51
180.0
  0
LINE
  5
1A3
  8
L1
 10
364.89542854270559
 20
295.29078319892608
 30
0.0
 11
364.1761485120212
 21
296.01006322961052
 31
0.0
  0
POLYLINE
  5
1A4
  8
L1
 66
     1
 10
0.0
 20
0.0
 30
0.0
  0
VERTEX
  5
1564
  8
L1
 10
447.07749737651289
 20
290.7316176876962
 30
0.0
  0
VERTEX
  5
1565
  8
L1
 10
446.71006386509509
 20
290.69773576188459
 30
0.0
  0
VERTEX
  5
1566
  8
L1
 10
446.3003396874102
 20
290.551934026629
 30
0.0
  0
VERTEX
  5
1567
  8
L1
 10
446.118623857633
 20
290.42712650255328
 30
0.0
  0
VERTEX
  5
1568
  8
L1
 10
445.96529912956009
 20
290.268997964221
 30
0.0
  0
VERTEX
  5
1569
  8
L1
 10
445.84243587333668
 20
290.0752979314276
 30
0.0
  0
VERTEX
  5
156A
  8
L1
 10
445.75905224654679
 20
289.86114832144222
 30
0.0
  0
VERTEX
  5
156B
  8
L1
 10
445.69864765330851
 20
289.40824616727832
 30
0.0
  0
SEQEND
  5
156C
  8
L1
  0
POLYLINE
  5
1A5
  8
L1
 66
     1
 10
0.0
 20
0.0
 30
0.0
  0
VERTEX
  5
156D
  8
L1
 10
443.72100206386631
 20
286.31852098233952
 30
0.0
  0
VERTEX
  5
156E
  8
L1
 10
443.72111188126388
 20
286.9519237605686
 30
0.0
  0
VERTEX
  5
156F
  8
L1
 10
443.72118671407628
 20
287.28498015019591
 30
0.0
  0
VERTEX
  5
1570
  8
L1
 10
443.72122579868358
 20
287.55028604049602
 30
0.0
  0
VERTEX
  5
1571
  8
L1
 10
443.72122725635381
 20
288.00193254580222
 30
0.0
  0
VERTEX
  5
1572
  8
L1
 10
443.72120489595221
 20
288.25041627215182
 30
0.0
  0
VERTEX
  5
1573
  8
L1
 10
443.7211773204171
 20
288.55543572186161
 30
0.0
  0
VERTEX
  5
1574
  8
L1
 10
443.72115216301552
 20
288.94806245060329
 30
0.0
  0
VERTEX
  5
1575
  8
L1
 10
443.72113705701588
 20
289.45936801404872
 30
0.0
  0
VERTEX
  5
1576
  8
L1
 10
443.72115220644088
 20
290.83748037719209
 30
0.0
  0
SEQEND
  5
1577
  8
L1
  0
CIRCLE
  5
1A6
  8
L1
 10
434.70217948336989
 20
287.74775909870118
 30
0.0
 40
5.7974047862592784
  0
LINE
  5
1A7
  8
L1
 10
439.65247862105667
 20
287.96660002857249
 30
0.0
 11
434.92102041324108
 21
292.69805823638802
 31
0.0
  0
ARC
  5
1A8
  8
L1
 10
434.70217948336989
 20
287.74775909870118
 30
0.0
 40
4.9551339946734032
 50
87.468738206708764
 51
182.53126179329249
  0
CIRCLE
  5
1A9
  8
L1
 10
434.70217948336989
 20
287.74775909870118
 30
0.0
 40
6.097393363178492
  0
LINE
  5
1AA
  8
L1
 10
442.51211247697779
 20
292.04652010665518
 30
0.0
 11
442.51211247697779
 21
287.52741056922798
 31
0.0
  0
POLYLINE
  5
1AB
  8
L1
 66
     1
 10
0.0
 20
0.0
 30
0.0
  0
VERTEX
  5
1578
  8
L1
 10
429.75510639442268
 20
277.4889921147585
 30
0.0
  0
VERTEX
  5
1579
  8
L1
 10
429.63997936871402
 20
277.12634875960339
 30
0.0
  0
VERTEX
  5
157A
  8
L1
 10
429.60112618400967
 20
276.74560025748121
 30
0.0
  0
SEQEND
  5
157B
  8
L1
  0
POLYLINE
  5
1AC
  8
L1
 66
     1
 10
0.0
 20
0.0
 30
0.0
  0
VERTEX
  5
157C
  8
L1
 10
430.40341847541572
 20
279.93782610509322
 30
0.0
  0
VERTEX
  5
157D
  8
L1
 10
430.11887636769973
 20
279.91758411790528
 30
0.0
  0
VERTEX
  5
157E
  8
L1
 10
429.84022897880732
 20
279.85711335109659
 30
0.0
  0
VERTEX
  5
157F
  8
L1
 10
429.57312903420552
 20
279.75764053298849
 30
0.0
  0
VERTEX
  5
1580
  8
L1
 10
429.32299500440291
 20
279.62118359934698
 30
0.0
  0
VERTEX
  5
1581
  8
L1
 10
429.094901184214
 20
279.45051075692601
 30
0.0
  0
VERTEX
  5
1582
  8
L1
 10
428.89347475407379
 20
279.24908432678592
 30
0.0
  0
VERTEX
  5
1583
  8
L1
 10
428.72280191165288
 20
279.02099050659689
 30
0.0
  0
VERTEX
  5
1584
  8
L1
 10
428.58634497801143
 20
278.77085647679428
 30
0.0
  0
VERTEX
  5
1585
  8
L1
 10
428.48687215990321
 20
278.50375653219248
 30
0.0
  0
VERTEX
  5
1586
  8
L1
 10
428.42640139309458
 20
278.22510914330007
 30
0.0
  0
VERTEX
  5
1587
  8
L1
 10
428.40615940590658
 20
277.94056703558408
 30
0.0
  0
SEQEND
  5
1588
  8
L1
  0
POLYLINE
  5
1AD
  8
L1
 66
     1
 10
0.0
 20
0.0
 30
0.0
  0
VERTEX
  5
1589
  8
L1
 10
445.69864765330851
 20
289.40824616727832
 30
0.0
  0
VERTEX
  5
158A
  8
L1
 10
445.69879253143898
 20
287.42178790933582
 30
0.0
  0
VERTEX
  5
158B
  8
L1
 10
445.69887067770679
 20
286.48475037910129
 30
0.0
  0
VERTEX
  5
158C
  8
L1
 10
445.69894626125767
 20
285.62985289799002
 30
0.0
  0
VERTEX
  5
158D
  8
L1
 10
445.69901450645187
 20
284.89060470347709
 30
0.0
  0
VERTEX
  5
158E
  8
L1
 10
445.69904438477818
 20
284.57482072540552
 30
0.0
  0
VERTEX
  5
158F
  8
L1
 10
445.69907063765049
 20
284.3005150330365
 30
0.0
  0
VERTEX
  5
1590
  8
L1
 10
445.69909266811402
 20
284.07187628105419
 30
0.0
  0
VERTEX
  5
1591
  8
L1
 10
445.69910987921389
 20
283.89309312414292
 30
0.0
  0
VERTEX
  5
1592
  8
L1
 10
445.69912167399491
 20
283.76835421698712
 30
0.0
  0
VERTEX
  5
1593
  8
L1
 10
445.69912745550272
 20
283.70184821427091
 30
0.0
  0
VERTEX
  5
1594
  8
L1
 10
445.69900198921943
 20
283.07619916884221
 30
0.0
  0
VERTEX
  5
1595
  8
L1
 10
445.69820879615742
 20
282.40860035252069
 30
0.0
  0
VERTEX
  5
1596
  8
L1
 10
445.69624861101488
 20
281.7534866538283
 30
0.0
  0
VERTEX
  5
1597
  8
L1
 10
445.69262216849057
 20
281.16529296128681
 30
0.0
  0
VERTEX
  5
1598
  8
L1
 10
445.68884752278268
 20
280.8181375582447
 30
0.0
  0
VERTEX
  5
1599
  8
L1
 10
445.68462227833578
 20
280.54069051730312
 30
0.0
  0
VERTEX
  5
159A
  8
L1
 10
445.67697043227167
 20
280.08802867191832
 30
0.0
  0
VERTEX
  5
159B
  8
L1
 10
445.67351751669747
 20
279.73996970878619
 30
0.0
  0
VERTEX
  5
159C
  8
L1
 10
445.6726089784699
 20
279.48468039392702
 30
0.0
  0
VERTEX
  5
159D
  8
L1
 10
445.66758260392822
 20
279.09162316657722
 30
0.0
  0
VERTEX
  5
159E
  8
L1
 10
445.62326594196759
 20
278.5552598227539
 30
0.0
  0
VERTEX
  5
159F
  8
L1
 10
445.51150171865743
 20
278.12447326066092
 30
0.0
  0
VERTEX
  5
15A0
  8
L1
 10
445.33440193310918
 20
277.77334689904052
 30
0.0
  0
VERTEX
  5
15A1
  8
L1
 10
445.10819610121791
 20
277.47677243158392
 30
0.0
  0
VERTEX
  5
15A2
  8
L1
 10
444.77505518456752
 20
277.1829552541729
 30
0.0
  0
VERTEX
  5
15A3
  8
L1
 10
444.48133310020421
 20
277.00979269129061
 30
0.0
  0
VERTEX
  5
15A4
  8
L1
 10
444.14484837851222
 20
276.88444176245781
 30
0.0
  0
VERTEX
  5
15A5
  8
L1
 10
443.7773414958362
 20
276.81671712227541
 30
0.0
  0
VERTEX
  5
15A6
  8
L1
 10
443.18836621526663
 20
276.78337138105928
 30
0.0
  0
VERTEX
  5
15A7
  8
L1
 10
442.82669840604427
 20
276.78106121036842
 30
0.0
  0
VERTEX
  5
15A8
  8
L1
 10
442.35122744632753
 20
276.77706924365242
 30
0.0
  0
VERTEX
  5
15A9
  8
L1
 10
441.82965441223263
 20
276.76767759736617
 30
0.0
  0
VERTEX
  5
15AA
  8
L1
 10
441.50348917670811
 20
276.76237609988829
 30
0.0
  0
VERTEX
  5
15AB
  8
L1
 10
441.08626507307611
 20
276.75770374240727
 30
0.0
  0
VERTEX
  5
15AC
  8
L1
 10
440.6664373537256
 20
276.75464789306687
 30
0.0
  0
VERTEX
  5
15AD
  8
L1
 10
440.19937337818283
 20
276.75256168143
 30
0.0
  0
VERTEX
  5
15AE
  8
L1
 10
439.6250159664134
 20
276.75128155834068
 30
0.0
  0
VERTEX
  5
15AF
  8
L1
 10
439.27883435318319
 20
276.75089267088993
 30
0.0
  0
VERTEX
  5
15B0
  8
L1
 10
438.88330793838361
 20
276.75064397464229
 30
0.0
  0
VERTEX
  5
15B1
  8
L1
 10
438.43092957451017
 20
276.75051502595369
 30
0.0
  0
VERTEX
  5
15B2
  8
L1
 10
437.91419211405889
 20
276.75048538117909
 30
0.0
  0
VERTEX
  5
15B3
  8
L1
 10
437.32558840952538
 20
276.7505345966743
 30
0.0
  0
VERTEX
  5
15B4
  8
L1
 10
436.6576113134052
 20
276.7506422287949
 30
0.0
  0
VERTEX
  5
15B5
  8
L1
 10
435.9027536781943
 20
276.75078783389591
 30
0.0
  0
VERTEX
  5
15B6
  8
L1
 10
435.05350835638842
 20
276.75095096833331
 30
0.0
  0
VERTEX
  5
15B7
  8
L1
 10
434.10236820048323
 20
276.75111118846218
 30
0.0
  0
VERTEX
  5
15B8
  8
L1
 10
433.04182606297428
 20
276.75124805063842
 30
0.0
  0
SEQEND
  5
15B9
  8
L1
  0
POLYLINE
  5
1AE
  8
L1
 66
     1
 10
0.0
 20
0.0
 30
0.0
  0
VERTEX
  5
15BA
  8
L1
 10
436.13139709841909
 20
278.72895701951711
 30
0.0
  0
VERTEX
  5
15BB
  8
L1
 10
436.17765097346961
 20
278.7290992091464
 30
0.0
  0
VERTEX
  5
15BC
  8
L1
 10
436.37246322257278
 20
278.73290667610581
 30
0.0
  0
VERTEX
  5
15BD
  8
L1
 10
436.79783417657001
 20
278.75924867866843
 30
0.0
  0
VERTEX
  5
15BE
  8
L1
 10
437.00853116244298
 20
278.78138546742758
 30
0.0
  0
VERTEX
  5
15BF
  8
L1
 10
437.26177326934578
 20
278.81601303955199
 30
0.0
  0
VERTEX
  5
15C0
  8
L1
 10
437.55304208972098
 20
278.86674196180797
 30
0.0
  0
VERTEX
  5
15C1
  8
L1
 10
437.87781921601191
 20
278.93718280096232
 30
0.0
  0
VERTEX
  5
15C2
  8
L1
 10
438.81199545180971
 20
279.22572031665578
 30
0.0
  0
VERTEX
  5
15C3
  8
L1
 10
439.70176246889542
 20
279.6318518071883
 30
0.0
  0
VERTEX
  5
15C4
  8
L1
 10
440.33058476404022
 20
280.00930320071888
 30
0.0
  0
VERTEX
  5
15C5
  8
L1
 10
440.92037704606429
 20
280.44541762797149
 30
0.0
  0
VERTEX
  5
15C6
  8
L1
 10
441.4800679730991
 20
280.9505592637214
 30
0.0
  0
VERTEX
  5
15C7
  8
L1
 10
441.98715194184751
 20
281.5085492128901
 30
0.0
  0
VERTEX
  5
15C8
  8
L1
 10
442.38500479001209
 20
282.03762656142902
 30
0.0
  0
VERTEX
  5
15C9
  8
L1
 10
442.73559113294158
 20
282.59922447796549
 30
0.0
  0
VERTEX
  5
15CA
  8
L1
 10
443.03037442723371
 20
283.17625073346591
 30
0.0
  0
VERTEX
  5
15CB
  8
L1
 10
443.27502202311541
 20
283.77617926149912
 30
0.0
  0
VERTEX
  5
15CC
  8
L1
 10
443.51188124120949
 20
284.56937936836329
 30
0.0
  0
VERTEX
  5
15CD
  8
L1
 10
443.66055797038882
 20
285.37831350291299
 30
0.0
  0
VERTEX
  5
15CE
  8
L1
 10
443.70076796421989
 20
285.77463613070159
 30
0.0
  0
VERTEX
  5
15CF
  8
L1
 10
443.71873414873471
 20
286.1363502961986
 30
0.0
  0
VERTEX
  5
15D0
  8
L1
 10
443.72099673005022
 20
286.30959589367222
 30
0.0
  0
VERTEX
  5
15D1
  8
L1
 10
443.72100206386631
 20
286.31852098233952
 30
0.0
  0
SEQEND
  5
15D2
  8
L1
  0
POLYLINE
  5
1AF
  8
L1
 66
     1
 10
0.0
 20
0.0
 30
0.0
  0
VERTEX
  5
15D3
  8
L1
 10
433.04182606297428
 20
276.75124805063842
 30
0.0
  0
VERTEX
  5
15D4
  8
L1
 10
432.75516669624233
 20
276.72847160449402
 30
0.0
  0
VERTEX
  5
15D5
  8
L1
 10
432.36593262496461
 20
276.60303135129197
 30
0.0
  0
VERTEX
  5
15D6
  8
L1
 10
432.18796445866627
 20
276.4900828382186
 30
0.0
  0
VERTEX
  5
15D7
  8
L1
 10
432.03488323040409
 20
276.34535177106778
 30
0.0
  0
VERTEX
  5
15D8
  8
L1
 10
431.90124560239337
 20
276.1553489628825
 30
0.0
  0
VERTEX
  5
15D9
  8
L1
 10
431.80636524487892
 20
275.94279618651768
 30
0.0
  0
VERTEX
  5
15DA
  8
L1
 10
431.73880818265758
 20
275.66187977128169
 30
0.0
  0
VERTEX
  5
15DB
  8
L1
 10
431.71832089437481
 20
275.37240263168172
 30
0.0
  0
SEQEND
  5
15DC
  8
L1
  0
POLYLINE
  5
1B0
  8
L1
 66
     1
 10
0.0
 20
0.0
 30
0.0
  0
VERTEX
  5
15DD
  8
L1
 10
429.75510639442268
 20
277.4889921147585
 30
0.0
  0
VERTEX
  5
15DE
  8
L1
 10
430.00533636468703
 20
277.91512177836182
 30
0.0
  0
VERTEX
  5
15DF
  8
L1
 10
430.23951805996279
 20
278.1744714292476
 30
0.0
  0
VERTEX
  5
15E0
  8
L1
 10
430.51698672231493
 20
278.3932217145699
 30
0.0
  0
VERTEX
  5
15E1
  8
L1
 10
430.84135732227571
 20
278.56774582424902
 30
0.0
  0
VERTEX
  5
15E2
  8
L1
 10
431.18940778381642
 20
278.68093725277203
 30
0.0
  0
VERTEX
  5
15E3
  8
L1
 10
431.24264695641619
 20
278.69233046829328
 30
0.0
  0
SEQEND
  5
15E4
  8
L1
  0
POLYLINE
  5
1B1
  8
L1
 66
     1
 10
0.0
 20
0.0
 30
0.0
  0
VERTEX
  5
15E5
  8
L1
 10
431.24264695641619
 20
278.69233046829328
 30
0.0
  0
VERTEX
  5
15E6
  8
L1
 10
431.33078984335361
 20
278.70776817688892
 30
0.0
  0
VERTEX
  5
15E7
  8
L1
 10
431.4501132699977
 20
278.72185524449759
 30
0.0
  0
VERTEX
  5
15E8
  8
L1
 10
431.52227527097898
 20
278.7266608552178
 30
0.0
  0
VERTEX
  5
15E9
  8
L1
 10
431.56642366493639
 20
278.72824109679021
 30
0.0
  0
VERTEX
  5
15EA
  8
L1
 10
431.6033084772522
 20
278.72877527821379
 30
0.0
  0
VERTEX
  5
15EB
  8
L1
 10
431.61244722119511
 20
278.72879735931389
 30
0.0
  0
SEQEND
  5
15EC
  8
L1
  0
POLYLINE
  5
1B2
  8
L1
 66
     1
 10
0.0
 20
0.0
 30
0.0
  0
VERTEX
  5
15ED
  8
L1
 10
431.61244722119511
 20
278.72879735931389
 30
0.0
  0
VERTEX
  5
15EE
  8
L1
 10
433.36820601390042
 20
278.72878635853891
 30
0.0
  0
VERTEX
  5
15EF
  8
L1
 10
433.80768302723573
 20
278.72875740172668
 30
0.0
  0
VERTEX
  5
15F0
  8
L1
 10
434.1635293191236
 20
278.72872982386798
 30
0.0
  0
VERTEX
  5
15F1
  8
L1
 10
434.81384963440621
 20
278.72872666251419
 30
0.0
  0
VERTEX
  5
15F2
  8
L1
 10
435.2273248944428
 20
278.72878810439943
 30
0.0
  0
VERTEX
  5
15F3
  8
L1
 10
435.5588154261556
 20
278.72887290888661
 30
0.0
  0
VERTEX
  5
15F4
  8
L1
 10
436.13139709841909
 20
278.72895701951711
 30
0.0
  0
SEQEND
  5
15F5
  8
L1
  0
ARC
  5
1B3
  8
L1
 10
447.43987535246072
 20
275.01006322961041
 30
0.0
 40
2.0
 50
90.0
 51
180.0
  0
ARC
  5
1B4
  8
L1
 10
434.70217948336989
 20
287.74775909870118
 30
0.0
 40
4.9551339946734032
 50
267.4687382067068
 51
2.531261793291907
  0
POLYLINE
  5
1B5
  8
L1
 66
     1
 10
0.0
 20
0.0
 30
0.0
  0
VERTEX
  5
15F6
  8
L1
 10
442.51211247697779
 20
287.52741056922798
 30
0.0
  0
VERTEX
  5
15F7
  8
L1
 10
442.50678904425149
 20
287.24337911056352
 30
0.0
  0
VERTEX
  5
15F8
  8
L1
 10
442.49086700471599
 20
286.95977179958248
 30
0.0
  0
VERTEX
  5
15F9
  8
L1
 10
442.46436854919972
 20
286.67698390481218
 30
0.0
  0
VERTEX
  5
15FA
  8
L1
 10
442.42733060906852
 20
286.39540955274532
 30
0.0
  0
VERTEX
  5
15FB
  8
L1
 10
442.37980480475528
 20
286.11544117853839
 30
0.0
  0
VERTEX
  5
15FC
  8
L1
 10
442.32185737381428
 20
285.8374689790686
 30
0.0
  0
VERTEX
  5
15FD
  8
L1
 10
442.25356907860538
 20
285.56188036910851
 30
0.0
  0
VERTEX
  5
15FE
  8
L1
 10
442.17503509373392
 20
285.28905944138018
 30
0.0
  0
VERTEX
  5
15FF
  8
L1
 10
442.08636487340419
 20
285.01938643123788
 30
0.0
  0
VERTEX
  5
1600
  8
L1
 10
441.9876819988711
 20
284.75323718672752
 30
0.0
  0
VERTEX
  5
1601
  8
L1
 10
441.87912400620309
 20
284.49098264476032
 30
0.0
  0
VERTEX
  5
1602
  8
L1
 10
441.76084219459528
 20
284.23298831413172
 30
0.0
  0
VERTEX
  5
1603
  8
L1
 10
441.6330014155015
 20
283.97961376610527
 30
0.0
  0
VERTEX
  5
1604
  8
L1
 10
441.49577984287743
 20
283.73121213327198
 30
0.0
  0
VERTEX
  5
1605
  8
L1
 10
441.3493687248569
 20
283.48812961738253
 30
0.0
  0
VERTEX
  5
1606
  8
L1
 10
441.19397211720587
 20
283.25070500684052
 30
0.0
  0
VERTEX
  5
1607
  8
L1
 10
441.0298065989258
 20
283.01926920452661
 30
0.0
  0
VERTEX
  5
1608
  8
L1
 10
440.8571009704043
 20
282.79414476661339
 30
0.0
  0
VERTEX
  5
1609
  8
L1
 10
440.67609593453182
 20
282.57564545301358
 30
0.0
  0
VERTEX
  5
160A
  8
L1
 10
440.48704376122919
 20
282.36407579008659
 30
0.0
  0
VERTEX
  5
160B
  8
L1
 10
440.29020793585602
 20
282.15973064621511
 30
0.0
  0
VERTEX
  5
160C
  8
L1
 10
440.08586279198443
 20
281.96289482084183
 30
0.0
  0
VERTEX
  5
160D
  8
L1
 10
439.87429312905738
 20
281.77384264753931
 30
0.0
  0
VERTEX
  5
160E
  8
L1
 10
439.65579381545763
 20
281.59283761166682
 30
0.0
  0
VERTEX
  5
160F
  8
L1
 10
439.43066937754452
 20
281.42013198314532
 30
0.0
  0
VERTEX
  5
1610
  8
L1
 10
439.19923357523061
 20
281.2559664648652
 30
0.0
  0
VERTEX
  5
1611
  8
L1
 10
438.96180896468849
 20
281.10056985721411
 30
0.0
  0
VERTEX
  5
1612
  8
L1
 10
438.71872644879898
 20
280.95415873919359
 30
0.0
  0
VERTEX
  5
1613
  8
L1
 10
438.47032481596568
 20
280.81693716656957
 30
0.0
  0
VERTEX
  5
1614
  8
L1
 10
438.2169502679393
 20
280.68909638747567
 30
0.0
  0
VERTEX
  5
1615
  8
L1
 10
437.9589559373108
 20
280.57081457586798
 30
0.0
  0
VERTEX
  5
1616
  8
L1
 10
437.6967013953435
 20
280.46225658319992
 30
0.0
  0
VERTEX
  5
1617
  8
L1
 10
437.43055215083319
 20
280.36357370866688
 30
0.0
  0
VERTEX
  5
1618
  8
L1
 10
437.16087914069089
 20
280.27490348833709
 30
0.0
  0
VERTEX
  5
1619
  8
L1
 10
436.88805821296262
 20
280.19636950346558
 30
0.0
  0
VERTEX
  5
161A
  8
L1
 10
436.61246960300241
 20
280.12808120825679
 30
0.0
  0
VERTEX
  5
161B
  8
L1
 10
436.33449740353262
 20
280.07013377731579
 30
0.0
  0
VERTEX
  5
161C
  8
L1
 10
436.05452902932569
 20
280.02260797300249
 30
0.0
  0
VERTEX
  5
161D
  8
L1
 10
435.77295467725878
 20
279.98557003287141
 30
0.0
  0
VERTEX
  5
161E
  8
L1
 10
435.49016678248847
 20
279.95907157735502
 30
0.0
  0
VERTEX
  5
161F
  8
L1
 10
435.20655947150749
 20
279.94314953781958
 30
0.0
  0
VERTEX
  5
1620
  8
L1
 10
434.92252801284309
 20
279.93782610509322
 30
0.0
  0
SEQEND
  5
1621
  8
L1
  0
LINE
  5
1B6
  8
L1
 10
429.75188034568322
 20
287.52891816882982
 30
0.0
 11
434.48333855349841
 21
282.79745996101462
 31
0.0
  0
LINE
  5
1B7
  8
L1
 10
434.92252801284309
 20
279.93782610509322
 30
0.0
 11
430.40341847541572
 21
279.93782610509322
 31
0.0
  0
POLYLINE
  5
1B8
  8
L1
 66
     1
 10
0.0
 20
0.0
 30
0.0
  0
VERTEX
  5
1622
  8
L1
 10
431.28149679033191
 20
294.46391925642928
 30
0.0
  0
VERTEX
  5
1623
  8
L1
 10
431.08233900584872
 20
294.45791132397221
 30
0.0
  0
VERTEX
  5
1624
  8
L1
 10
430.88393830721748
 20
294.4399093725313
 30
0.0
  0
VERTEX
  5
1625
  8
L1
 10
430.68701611530651
 20
294.40997886046188
 30
0.0
  0
VERTEX
  5
1626
  8
L1
 10
430.49228847486552
 20
294.368228620526
 30
0.0
  0
VERTEX
  5
1627
  8
L1
 10
430.30046345085799
 20
294.31481046415638
 30
0.0
  0
VERTEX
  5
1628
  8
L1
 10
430.11223855380831
 20
294.24991862944302
 30
0.0
  0
VERTEX
  5
1629
  8
L1
 10
429.9282982035275
 20
294.17378907484812
 30
0.0
  0
VERTEX
  5
162A
  8
L1
 10
429.7493112404382
 20
294.08669862121809
 30
0.0
  0
VERTEX
  5
162B
  8
L1
 10
429.5759284935508
 20
293.98896394521353
 30
0.0
  0
VERTEX
  5
162C
  8
L1
 10
429.40878041393017
 20
293.88094042781472
 30
0.0
  0
VERTEX
  5
162D
  8
L1
 10
429.24847478226252
 20
293.76302086209279
 30
0.0
  0
VERTEX
  5
162E
  8
L1
 10
429.09559449885381
 20
293.63563402494259
 30
0.0
  0
VERTEX
  5
162F
  8
L1
 10
428.95069546409923
 20
293.4992431179719
 30
0.0
  0
VERTEX
  5
1630
  8
L1
 10
428.81430455712848
 20
293.35434408321731
 30
0.0
  0
VERTEX
  5
1631
  8
L1
 10
428.68691771997828
 20
293.20146379980861
 30
0.0
  0
VERTEX
  5
1632
  8
L1
 10
428.56899815425641
 20
293.04115816814101
 30
0.0
  0
VERTEX
  5
1633
  8
L1
 10
428.4609746368576
 20
292.87401008852038
 30
0.0
  0
VERTEX
  5
1634
  8
L1
 10
428.36323996085298
 20
292.70062734163298
 30
0.0
  0
VERTEX
  5
1635
  8
L1
 10
428.27614950722312
 20
292.52164037854368
 30
0.0
  0
VERTEX
  5
1636
  8
L1
 10
428.200019952628
 20
292.33770002826287
 30
0.0
  0
VERTEX
  5
1637
  8
L1
 10
428.13512811791469
 20
292.14947513121319
 30
0.0
  0
VERTEX
  5
1638
  8
L1
 10
428.08170996154507
 20
291.95765010720572
 30
0.0
  0
VERTEX
  5
1639
  8
L1
 10
428.03995972160919
 20
291.76292246676468
 30
0.0
  0
VERTEX
  5
163A
  8
L1
 10
428.01002920953982
 20
291.56600027485359
 30
0.0
  0
VERTEX
  5
163B
  8
L1
 10
427.99202725809891
 20
291.36759957622252
 30
0.0
  0
VERTEX
  5
163C
  8
L1
 10
427.98601932564179
 20
291.16844179173933
 30
0.0
  0
SEQEND
  5
163D
  8
L1
  0
POLYLINE
  5
1B9
  8
L1
 66
     1
 10
0.0
 20
0.0
 30
0.0
  0
VERTEX
  5
163E
  8
L1
 10
426.44009104559569
 20
292.5547590987012
 30
0.0
  0
VERTEX
  5
163F
  8
L1
 10
426.51046509325539
 20
293.21654670114651
 30
0.0
  0
VERTEX
  5
1640
  8
L1
 10
426.71259448136749
 20
293.87153148494218
 30
0.0
  0
VERTEX
  5
1641
  8
L1
 10
427.03873873318378
 20
294.47437832959719
 30
0.0
  0
VERTEX
  5
1642
  8
L1
 10
427.4622503642961
 20
294.98768821777492
 30
0.0
  0
VERTEX
  5
1643
  8
L1
 10
427.97556025247383
 20
295.41119984888729
 30
0.0
  0
VERTEX
  5
1644
  8
L1
 10
428.57840709712877
 20
295.73734410070369
 30
0.0
  0
VERTEX
  5
1645
  8
L1
 10
429.2333918809245
 20
295.93947348881562
 30
0.0
  0
VERTEX
  5
1646
  8
L1
 10
429.89517948336987
 20
296.00984753647532
 30
0.0
  0
SEQEND
  5
1647
  8
L1
  0
POLYLINE
  5
1BA
  8
L1
 66
     1
 10
0.0
 20
0.0
 30
0.0
  0
VERTEX
  5
1648
  8
L1
 10
445.70433832458991
 20
292.84881239806128
 30
0.0
  0
VERTEX
  5
1649
  8
L1
 10
445.32350560291229
 20
292.8099417667604
 30
0.0
  0
VERTEX
  5
164A
  8
L1
 10
444.96078926471409
 20
292.69476368807318
 30
0.0
  0
SEQEND
  5
164B
  8
L1
  0
POLYLINE
  5
1BB
  8
L1
 66
     1
 10
0.0
 20
0.0
 30
0.0
  0
VERTEX
  5
164C
  8
L1
 10
443.75760447070951
 20
291.20720797487093
 30
0.0
  0
VERTEX
  5
164D
  8
L1
 10
443.83766076663562
 20
291.49520993949471
 30
0.0
  0
VERTEX
  5
164E
  8
L1
 10
443.96009275629382
 20
291.77066279001849
 30
0.0
  0
VERTEX
  5
164F
  8
L1
 10
444.15108757437838
 20
292.06468389430398
 30
0.0
  0
VERTEX
  5
1650
  8
L1
 10
444.38728243094738
 20
292.32116214247759
 30
0.0
  0
VERTEX
  5
1651
  8
L1
 10
444.6625012434057
 20
292.53436888912489
 30
0.0
  0
VERTEX
  5
1652
  8
L1
 10
444.96078926471409
 20
292.69476368807318
 30
0.0
  0
SEQEND
  5
1653
  8
L1
  0
POLYLINE
  5
1BC
  8
L1
 66
     1
 10
0.0
 20
0.0
 30
0.0
  0
VERTEX
  5
1654
  8
L1
 10
443.72115220644088
 20
290.83748037719209
 30
0.0
  0
VERTEX
  5
1655
  8
L1
 10
443.72119212048977
 20
290.84977844659562
 30
0.0
  0
VERTEX
  5
1656
  8
L1
 10
443.72181573672952
 20
290.88774338370922
 30
0.0
  0
VERTEX
  5
1657
  8
L1
 10
443.72505621405759
 20
290.95931008937129
 30
0.0
  0
VERTEX
  5
1658
  8
L1
 10
443.74081694854618
 20
291.10992199030977
 30
0.0
  0
VERTEX
  5
1659
  8
L1
 10
443.75760447070951
 20
291.20720797487093
 30
0.0
  0
SEQEND
  5
165A
  8
L1
  0
POLYLINE
  5
1BD
  8
L1
 66
     1
 10
0.0
 20
0.0
 30
0.0
  0
VERTEX
  5
165B
  8
L1
 10
444.50937154648688
 20
294.04377917616432
 30
0.0
  0
VERTEX
  5
165C
  8
L1
 10
444.22482943877088
 20
294.02353718897638
 30
0.0
  0
VERTEX
  5
165D
  8
L1
 10
443.94618204987847
 20
293.96306642216769
 30
0.0
  0
VERTEX
  5
165E
  8
L1
 10
443.67908210527662
 20
293.86359360405947
 30
0.0
  0
VERTEX
  5
165F
  8
L1
 10
443.42894807547412
 20
293.72713667041802
 30
0.0
  0
VERTEX
  5
1660
  8
L1
 10
443.20085425528509
 20
293.55646382799711
 30
0.0
  0
VERTEX
  5
1661
  8
L1
 10
442.99942782514501
 20
293.35503739785702
 30
0.0
  0
VERTEX
  5
1662
  8
L1
 10
442.82875498272398
 20
293.12694357766799
 30
0.0
  0
VERTEX
  5
1663
  8
L1
 10
442.69229804908252
 20
292.87680954786549
 30
0.0
  0
VERTEX
  5
1664
  8
L1
 10
442.59282523097443
 20
292.60970960326358
 30
0.0
  0
VERTEX
  5
1665
  8
L1
 10
442.53235446416568
 20
292.33106221437117
 30
0.0
  0
VERTEX
  5
1666
  8
L1
 10
442.51211247697779
 20
292.04652010665518
 30
0.0
  0
SEQEND
  5
1667
  8
L1
  0
LINE
  5
1BE
  8
L1
 10
427.78629341869089
 20
381.30794310940888
 30
0.0
 11
426.43987535246072
 21
355.61675594884468
 31
0.0
  0
LINE
  5
1BF
  8
L1
 10
428.13696337833761
 20
354.13307846505393
 30
0.0
 11
428.00274196230629
 21
354.8942859415954
 31
0.0
  0
ARC
  5
1C0
  8
L1
 10
428.50217948337013
 20
354.19747591816031
 30
0.0
 40
0.3708501521392529
 50
189.99999999999281
 51
270.0
  0
LINE
  5
1C1
  8
L1
 10
426.44009104559581
 20
355.61654025570982
 30
0.0
 11
427.15915538314528
 21
354.8974759181603
 31
0.0
  0
LINE
  5
1C2
  8
L1
 10
429.60112618400967
 20
404.48833315718758
 30
0.0
 11
428.40615940590681
 21
381.6870087269117
 31
0.0
  0
LINE
  5
1C3
  8
L1
 10
443.72115220644088
 20
404.75686106569049
 30
0.0
 11
442.5121124769779
 21
381.68700872691181
 31
0.0
  0
ARC
  5
1C4
  8
L1
 10
427.98601932564179
 20
381.29747591816027
 30
0.0
 40
0.1999999999999879
 50
90.0
 51
177.00000000000031
  0
ARC
  5
1C5
  8
L1
 10
428.2064334989559
 20
381.69747591816031
 30
0.0
 40
0.1999999999999957
 50
270.0
 51
357.00000000000028
  0
ARC
  5
1C6
  8
L1
 10
442.312386570027
 20
381.69747591816031
 30
0.0
 40
0.1999999999999957
 50
270.0
 51
357.00000000000028
  0
POLYLINE
  5
1C7
  8
L1
 66
     1
 10
0.0
 20
0.0
 30
0.0
  0
VERTEX
  5
1668
  8
L1
 10
429.7551063944228
 20
404.6344549208448
 30
0.0
  0
VERTEX
  5
1669
  8
L1
 10
429.63997936871408
 20
404.52520345277611
 30
0.0
  0
VERTEX
  5
166A
  8
L1
 10
429.60112618400967
 20
404.48833315718758
 30
0.0
  0
SEQEND
  5
166B
  8
L1
  0
POLYLINE
  5
1C8
  8
L1
 66
     1
 10
0.0
 20
0.0
 30
0.0
  0
VERTEX
  5
166C
  8
L1
 10
436.1313970984192
 20
404.7536049863586
 30
0.0
  0
VERTEX
  5
166D
  8
L1
 10
436.1762744969094
 20
404.75357811578539
 30
0.0
  0
VERTEX
  5
166E
  8
L1
 10
436.37032201436358
 20
404.75123903858741
 30
0.0
  0
VERTEX
  5
166F
  8
L1
 10
436.82812554953648
 20
404.73365206614437
 30
0.0
  0
VERTEX
  5
1670
  8
L1
 10
437.37146257505879
 20
404.70335630250389
 30
0.0
  0
VERTEX
  5
1671
  8
L1
 10
438.09296825575763
 20
404.66635478790118
 30
0.0
  0
VERTEX
  5
1672
  8
L1
 10
438.9739878526135
 20
404.62905433318758
 30
0.0
  0
VERTEX
  5
1673
  8
L1
 10
439.8122216187362
 20
404.59930664544288
 30
0.0
  0
VERTEX
  5
1674
  8
L1
 10
440.95386819017489
 20
404.57443546229609
 30
0.0
  0
VERTEX
  5
1675
  8
L1
 10
442.01642697674743
 20
404.57332443652462
 30
0.0
  0
VERTEX
  5
1676
  8
L1
 10
442.75640281733331
 20
404.59424914464182
 30
0.0
  0
VERTEX
  5
1677
  8
L1
 10
443.30468305655052
 20
404.64005939343491
 30
0.0
  0
VERTEX
  5
1678
  8
L1
 10
443.63691242005308
 20
404.70762544813419
 30
0.0
  0
VERTEX
  5
1679
  8
L1
 10
443.71413513345749
 20
404.74914163112601
 30
0.0
  0
VERTEX
  5
167A
  8
L1
 10
443.7204447834626
 20
404.75360201078269
 30
0.0
  0
VERTEX
  5
167B
  8
L1
 10
443.72099991439069
 20
404.75399590078081
 30
0.0
  0
SEQEND
  5
167C
  8
L1
  0
POLYLINE
  5
1C9
  8
L1
 66
     1
 10
0.0
 20
0.0
 30
0.0
  0
VERTEX
  5
167D
  8
L1
 10
431.61244722119523
 20
404.7566514845181
 30
0.0
  0
VERTEX
  5
167E
  8
L1
 10
433.36820601390048
 20
404.75686139180868
 30
0.0
  0
VERTEX
  5
167F
  8
L1
 10
433.8076830272563
 20
404.75741392070131
 30
0.0
  0
VERTEX
  5
1680
  8
L1
 10
434.16352931914008
 20
404.7579401375919
 30
0.0
  0
VERTEX
  5
1681
  8
L1
 10
434.81384963440638
 20
404.75800045981839
 30
0.0
  0
VERTEX
  5
1682
  8
L1
 10
435.22732489444348
 20
404.75682807880798
 30
0.0
  0
VERTEX
  5
1683
  8
L1
 10
435.55881542615651
 20
404.75520991279637
 30
0.0
  0
VERTEX
  5
1684
  8
L1
 10
436.1313970984192
 20
404.7536049863586
 30
0.0
  0
SEQEND
  5
1685
  8
L1
  0
POLYLINE
  5
1CA
  8
L1
 66
     1
 10
0.0
 20
0.0
 30
0.0
  0
VERTEX
  5
1686
  8
L1
 10
431.24264695641631
 20
404.7889483807798
 30
0.0
  0
VERTEX
  5
1687
  8
L1
 10
431.3307898433531
 20
404.7753058582943
 30
0.0
  0
VERTEX
  5
1688
  8
L1
 10
431.45011326999901
 20
404.76283944897779
 30
0.0
  0
VERTEX
  5
1689
  8
L1
 10
431.54714428518571
 20
404.75766650550781
 30
0.0
  0
VERTEX
  5
168A
  8
L1
 10
431.59046543493548
 20
404.75677287165479
 30
0.0
  0
VERTEX
  5
168B
  8
L1
 10
431.61244722119523
 20
404.7566514845181
 30
0.0
  0
SEQEND
  5
168C
  8
L1
  0
POLYLINE
  5
1CB
  8
L1
 66
     1
 10
0.0
 20
0.0
 30
0.0
  0
VERTEX
  5
168D
  8
L1
 10
429.7551063944228
 20
404.6344549208448
 30
0.0
  0
VERTEX
  5
168E
  8
L1
 10
430.00533636468668
 20
404.78091080423422
 30
0.0
  0
VERTEX
  5
168F
  8
L1
 10
430.51698672231458
 20
404.85832684599899
 30
0.0
  0
VERTEX
  5
1690
  8
L1
 10
431.18940778381602
 20
404.79810877287139
 30
0.0
  0
VERTEX
  5
1691
  8
L1
 10
431.24264695641631
 20
404.7889483807798
 30
0.0
  0
SEQEND
  5
1692
  8
L1
  0
POLYLINE
  5
1CC
  8
L1
 66
     1
 10
0.0
 20
0.0
 30
0.0
  0
VERTEX
  5
1693
  8
L1
 10
431.71832089437498
 20
406.49747591816032
 30
0.0
  0
VERTEX
  5
1694
  8
L1
 10
431.66572540436761
 20
406.44756466177438
 30
0.0
  0
VERTEX
  5
1695
  8
L1
 10
431.66497698446801
 20
406.44685443780861
 30
0.0
  0
VERTEX
  5
1696
  8
L1
 10
431.23285570406978
 20
406.03678665418732
 30
0.0
  0
VERTEX
  5
1697
  8
L1
 10
431.0625522107328
 20
405.8751746734228
 30
0.0
  0
VERTEX
  5
1698
  8
L1
 10
430.8915691991532
 20
405.71291785392339
 30
0.0
  0
VERTEX
  5
1699
  8
L1
 10
430.72003726022552
 20
405.55014012182119
 30
0.0
  0
VERTEX
  5
169A
  8
L1
 10
430.54808709453982
 20
405.3869655073446
 30
0.0
  0
VERTEX
  5
169B
  8
L1
 10
430.3758494806354
 20
405.22351811469377
 30
0.0
  0
VERTEX
  5
169C
  8
L1
 10
430.203455272128
 20
405.0599221193134
 30
0.0
  0
VERTEX
  5
169D
  8
L1
 10
430.0310353946191
 20
404.8963017649603
 30
0.0
  0
VERTEX
  5
169E
  8
L1
 10
429.86518297045609
 20
404.73891369112579
 30
0.0
  0
VERTEX
  5
169F
  8
L1
 10
429.85872084173758
 20
404.73278135994639
 30
0.0
  0
VERTEX
  5
16A0
  8
L1
 10
429.7551063944228
 20
404.6344549208448
 30
0.0
  0
SEQEND
  5
16A1
  8
L1
  0
POLYLINE
  5
1CD
  8
L1
 66
     1
 10
0.0
 20
0.0
 30
0.0
  0
VERTEX
  5
16A2
  8
L1
 10
429.82716088463218
 20
404.69240873144759
 30
0.0
  0
VERTEX
  5
16A3
  8
L1
 10
429.75517489399789
 20
404.63451992451451
 30
0.0
  0
SEQEND
  5
16A4
  8
L1
  0
POLYLINE
  5
1CE
  8
L1
 66
     1
 10
0.0
 20
0.0
 30
0.0
  0
VERTEX
  5
16A5
  8
L1
 10
445.69904735205819
 20
406.49747591785149
 30
0.0
  0
VERTEX
  5
16A6
  8
L1
 10
445.6609863051907
 20
406.46400257162861
 30
0.0
  0
VERTEX
  5
16A7
  8
L1
 10
445.58360819675408
 20
406.3959520114401
 30
0.0
  0
VERTEX
  5
16A8
  8
L1
 10
445.429631155447
 20
406.26053673714358
 30
0.0
  0
VERTEX
  5
16A9
  8
L1
 10
445.12239469654872
 20
405.99033768381202
 30
0.0
  0
VERTEX
  5
16AA
  8
L1
 10
444.50840608847142
 20
405.45036571971281
 30
0.0
  0
VERTEX
  5
16AB
  8
L1
 10
443.72121564577338
 20
404.75807156033892
 30
0.0
  0
SEQEND
  5
16AC
  8
L1
  0
POLYLINE
  5
1CF
  8
L1
 66
     1
 10
0.0
 20
0.0
 30
0.0
  0
VERTEX
  5
16AD
  8
L1
 10
445.70433832458991
 20
404.48833315718758
 30
0.0
  0
VERTEX
  5
16AE
  8
L1
 10
445.32350560291229
 20
404.52522000897812
 30
0.0
  0
VERTEX
  5
16AF
  8
L1
 10
444.96078926471409
 20
404.63451992451451
 30
0.0
  0
SEQEND
  5
16B0
  8
L1
  0
POLYLINE
  5
1D0
  8
L1
 66
     1
 10
0.0
 20
0.0
 30
0.0
  0
VERTEX
  5
16B1
  8
L1
 10
443.75760447070962
 20
404.78914351580931
 30
0.0
  0
VERTEX
  5
16B2
  8
L1
 10
443.82617149781743
 20
404.82816377114432
 30
0.0
  0
VERTEX
  5
16B3
  8
L1
 10
444.15878533847962
 20
404.85260090535729
 30
0.0
  0
VERTEX
  5
16B4
  8
L1
 10
444.6818982522895
 20
404.73726643699229
 30
0.0
  0
VERTEX
  5
16B5
  8
L1
 10
444.96078926471409
 20
404.63451992451451
 30
0.0
  0
SEQEND
  5
16B6
  8
L1
  0
POLYLINE
  5
1D1
  8
L1
 66
     1
 10
0.0
 20
0.0
 30
0.0
  0
VERTEX
  5
16B7
  8
L1
 10
443.72115220644099
 20
404.75686106569037
 30
0.0
  0
VERTEX
  5
16B8
  8
L1
 10
443.7211920690952
 20
404.75690186595938
 30
0.0
  0
VERTEX
  5
16B9
  8
L1
 10
443.72181543250503
 20
404.75746863835047
 30
0.0
  0
VERTEX
  5
16BA
  8
L1
 10
443.72505440092777
 20
404.76035539596171
 30
0.0
  0
VERTEX
  5
16BB
  8
L1
 10
443.74080660646831
 20
404.77430212122209
 30
0.0
  0
VERTEX
  5
16BC
  8
L1
 10
443.75760447070962
 20
404.78914351580931
 30
0.0
  0
SEQEND
  5
16BD
  8
L1
  0
POLYLINE
  5
1D2
  8
L1
 66
     1
 10
0.0
 20
0.0
 30
0.0
  0
VERTEX
  5
16BE
  8
L1
 10
443.72123674230329
 20
404.75847410603632
 30
0.0
  0
VERTEX
  5
16BF
  8
L1
 10
443.72119243780082
 20
404.7576287257674
 30
0.0
  0
VERTEX
  5
16C0
  8
L1
 10
443.72115830065007
 20
404.75697735012932
 30
0.0
  0
VERTEX
  5
16C1
  8
L1
 10
443.72113705701588
 20
404.75657199744143
 30
0.0
  0
VERTEX
  5
16C2
  8
L1
 10
443.72113501108549
 20
404.75653295876191
 30
0.0
  0
SEQEND
  5
16C3
  8
L1
  0
POLYLINE
  5
1D3
  8
L1
 66
     1
 10
0.0
 20
0.0
 30
0.0
  0
VERTEX
  5
16C4
  8
L1
 10
443.72122304599372
 20
404.75821276487869
 30
0.0
  0
VERTEX
  5
16C5
  8
L1
 10
443.72122322063041
 20
404.75821609714581
 30
0.0
  0
SEQEND
  5
16C6
  8
L1
  0
LINE
  5
1D4
  8
L6
 10
553.95217948336995
 20
302.64640432736411
 30
0.0
 11
553.95217948336995
 21
109.07127813997231
 31
0.0
  0
LINE
  5
1DA
  8
L1
 10
681.46448361427917
 20
119.48065833943301
 30
0.0
 11
681.46448361427917
 21
292.51485985796938
 31
0.0
  0
LINE
  5
1DB
  8
L1
 10
679.49819956083309
 20
277.94056703558408
 30
0.0
 11
679.49819956083309
 21
134.05495116181831
 31
0.0
  0
LINE
  5
1DC
  8
L1
 10
679.9183396410981
 20
291.16844179173933
 30
0.0
 11
679.9183396410981
 21
120.82707640566321
 31
0.0
  0
LINE
  5
1DD
  8
L1
 10
678.30323278273022
 20
135.2499179399212
 30
0.0
 11
678.30323278273022
 21
276.74560025748121
 31
0.0
  0
LINE
  5
1DE
  8
L1
 10
662.46448361427929
 20
275.01006322961041
 30
0.0
 11
662.46448361427929
 21
136.98545496779201
 31
0.0
  0
LINE
  5
1DF
  8
L1
 10
676.18603807236514
 20
275.37240263168172
 30
0.0
 11
676.18603807236514
 21
136.62307699184399
 31
0.0
  0
POLYLINE
  5
1F9
  8
L1
 66
     1
 10
0.0
 20
0.0
 30
0.0
  0
VERTEX
  5
16C7
  8
L1
 10
665.3922464897621
 20
124.46810762817449
 30
0.0
  0
VERTEX
  5
16C8
  8
L1
 10
665.3975699224884
 20
124.75213908683889
 30
0.0
  0
VERTEX
  5
16C9
  8
L1
 10
665.41349196202384
 20
125.03574639782001
 30
0.0
  0
VERTEX
  5
16CA
  8
L1
 10
665.43999041754023
 20
125.3185342925903
 30
0.0
  0
VERTEX
  5
16CB
  8
L1
 10
665.47702835767132
 20
125.6001086446572
 30
0.0
  0
VERTEX
  5
16CC
  8
L1
 10
665.52455416198461
 20
125.880077018864
 30
0.0
  0
VERTEX
  5
16CD
  8
L1
 10
665.58250159292561
 20
126.1580492183338
 30
0.0
  0
VERTEX
  5
16CE
  8
L1
 10
665.65078988813434
 20
126.4336378282939
 30
0.0
  0
VERTEX
  5
16CF
  8
L1
 10
665.7293238730058
 20
126.7064587560223
 30
0.0
  0
VERTEX
  5
16D0
  8
L1
 10
665.81799409333576
 20
126.9761317661646
 30
0.0
  0
VERTEX
  5
16D1
  8
L1
 10
665.91667696786874
 20
127.2422810106749
 30
0.0
  0
VERTEX
  5
16D2
  8
L1
 10
666.02523496053675
 20
127.5045355526422
 30
0.0
  0
VERTEX
  5
16D3
  8
L1
 10
666.14351677214461
 20
127.7625298832708
 30
0.0
  0
VERTEX
  5
16D4
  8
L1
 10
666.27135755123845
 20
128.01590443129709
 30
0.0
  0
VERTEX
  5
16D5
  8
L1
 10
666.4085791238623
 20
128.26430606413049
 30
0.0
  0
VERTEX
  5
16D6
  8
L1
 10
666.55499024188293
 20
128.50738858001989
 30
0.0
  0
VERTEX
  5
16D7
  8
L1
 10
666.71038684953385
 20
128.74481319056201
 30
0.0
  0
VERTEX
  5
16D8
  8
L1
 10
666.87455236781409
 20
128.9762489928759
 30
0.0
  0
VERTEX
  5
16D9
  8
L1
 10
667.04725799633547
 20
129.201373430789
 30
0.0
  0
VERTEX
  5
16DA
  8
L1
 10
667.22826303220813
 20
129.4198727443889
 30
0.0
  0
VERTEX
  5
16DB
  8
L1
 10
667.41731520551048
 20
129.6314424073158
 30
0.0
  0
VERTEX
  5
16DC
  8
L1
 10
667.61415103088393
 20
129.83578755118739
 30
0.0
  0
VERTEX
  5
16DD
  8
L1
 10
667.81849617475541
 20
130.03262337656071
 30
0.0
  0
VERTEX
  5
16DE
  8
L1
 10
668.0300658376824
 20
130.22167554986311
 30
0.0
  0
VERTEX
  5
16DF
  8
L1
 10
668.24856515128226
 20
130.40268058573571
 30
0.0
  0
VERTEX
  5
16E0
  8
L1
 10
668.47368958919526
 20
130.57538621425721
 30
0.0
  0
VERTEX
  5
16E1
  8
L1
 10
668.70512539150923
 20
130.73955173253719
 30
0.0
  0
VERTEX
  5
16E2
  8
L1
 10
668.94255000205135
 20
130.89494834018831
 30
0.0
  0
VERTEX
  5
16E3
  8
L1
 10
669.1856325179408
 20
131.0413594582088
 30
0.0
  0
VERTEX
  5
16E4
  8
L1
 10
669.43403415077398
 20
131.1785810308329
 30
0.0
  0
VERTEX
  5
16E5
  8
L1
 10
669.68740869880037
 20
131.30642180992669
 30
0.0
  0
VERTEX
  5
16E6
  8
L1
 10
669.94540302942914
 20
131.42470362153441
 30
0.0
  0
VERTEX
  5
16E7
  8
L1
 10
670.20765757139634
 20
131.5332616142025
 30
0.0
  0
VERTEX
  5
16E8
  8
L1
 10
670.47380681590676
 20
131.6319444887356
 30
0.0
  0
VERTEX
  5
16E9
  8
L1
 10
670.74347982604888
 20
131.7206147090653
 30
0.0
  0
VERTEX
  5
16EA
  8
L1
 10
671.01630075377727
 20
131.79914869393679
 30
0.0
  0
VERTEX
  5
16EB
  8
L1
 10
671.29188936373737
 20
131.86743698914569
 30
0.0
  0
VERTEX
  5
16EC
  8
L1
 10
671.56986156320727
 20
131.9253844200866
 30
0.0
  0
VERTEX
  5
16ED
  8
L1
 10
671.84982993741414
 20
131.9729102243999
 30
0.0
  0
VERTEX
  5
16EE
  8
L1
 10
672.13140428948088
 20
132.00994816453101
 30
0.0
  0
VERTEX
  5
16EF
  8
L1
 10
672.41419218425119
 20
132.0364466200474
 30
0.0
  0
VERTEX
  5
16F0
  8
L1
 10
672.69779949523229
 20
132.0523686595829
 30
0.0
  0
VERTEX
  5
16F1
  8
L1
 10
672.98183095389675
 20
132.0576920923092
 30
0.0
  0
SEQEND
  5
16F2
  8
L1
  0
POLYLINE
  5
1FA
  8
L1
 66
     1
 10
0.0
 20
0.0
 30
0.0
  0
VERTEX
  5
16F3
  8
L1
 10
662.20571131343115
 20
122.5872720301242
 30
0.0
  0
VERTEX
  5
16F4
  8
L1
 10
662.20556643530085
 20
124.5737302880666
 30
0.0
  0
VERTEX
  5
16F5
  8
L1
 10
662.20548828903304
 20
125.5107678183012
 30
0.0
  0
VERTEX
  5
16F6
  8
L1
 10
662.2054127054821
 20
126.3656652994124
 30
0.0
  0
VERTEX
  5
16F7
  8
L1
 10
662.20534446028796
 20
127.10491349392539
 30
0.0
  0
VERTEX
  5
16F8
  8
L1
 10
662.2053145819616
 20
127.420697471997
 30
0.0
  0
VERTEX
  5
16F9
  8
L1
 10
662.20528832908929
 20
127.695003164366
 30
0.0
  0
VERTEX
  5
16FA
  8
L1
 10
662.20526629862593
 20
127.9236419163482
 30
0.0
  0
VERTEX
  5
16FB
  8
L1
 10
662.205249087526
 20
128.1024250732595
 30
0.0
  0
VERTEX
  5
16FC
  8
L1
 10
662.20523729274475
 20
128.2271639804153
 30
0.0
  0
VERTEX
  5
16FD
  8
L1
 10
662.205231511237
 20
128.29366998313159
 30
0.0
  0
VERTEX
  5
16FE
  8
L1
 10
662.20535697752041
 20
128.9193190285603
 30
0.0
  0
VERTEX
  5
16FF
  8
L1
 10
662.20615017058253
 20
129.58691784488181
 30
0.0
  0
VERTEX
  5
1700
  8
L1
 10
662.20811035572501
 20
130.2420315435742
 30
0.0
  0
VERTEX
  5
1701
  8
L1
 10
662.21173679824926
 20
130.83022523611569
 30
0.0
  0
VERTEX
  5
1702
  8
L1
 10
662.21551144395698
 20
131.17738063915769
 30
0.0
  0
VERTEX
  5
1703
  8
L1
 10
662.21973668840405
 20
131.4548276800993
 30
0.0
  0
VERTEX
  5
1704
  8
L1
 10
662.22738853446822
 20
131.90748952548421
 30
0.0
  0
VERTEX
  5
1705
  8
L1
 10
662.23084145004225
 20
132.25554848861631
 30
0.0
  0
VERTEX
  5
1706
  8
L1
 10
662.23174998826994
 20
132.5108378034754
 30
0.0
  0
VERTEX
  5
1707
  8
L1
 10
662.23677636281172
 20
132.9038950308252
 30
0.0
  0
VERTEX
  5
1708
  8
L1
 10
662.28109302477208
 20
133.44025837464861
 30
0.0
  0
VERTEX
  5
1709
  8
L1
 10
662.39285724808235
 20
133.87104493674161
 30
0.0
  0
VERTEX
  5
170A
  8
L1
 10
662.56995703363066
 20
134.2221712983619
 30
0.0
  0
VERTEX
  5
170B
  8
L1
 10
662.79616286552198
 20
134.51874576581849
 30
0.0
  0
VERTEX
  5
170C
  8
L1
 10
663.1293037821722
 20
134.81256294322961
 30
0.0
  0
VERTEX
  5
170D
  8
L1
 10
663.42302586653568
 20
134.98572550611189
 30
0.0
  0
VERTEX
  5
170E
  8
L1
 10
663.75951058822761
 20
135.11107643494461
 30
0.0
  0
VERTEX
  5
170F
  8
L1
 10
664.12701747090364
 20
135.17880107512701
 30
0.0
  0
VERTEX
  5
1710
  8
L1
 10
664.7159927514731
 20
135.21214681634311
 30
0.0
  0
VERTEX
  5
1711
  8
L1
 10
665.07766056069556
 20
135.21445698703411
 30
0.0
  0
VERTEX
  5
1712
  8
L1
 10
665.55313152041231
 20
135.21844895375011
 30
0.0
  0
VERTEX
  5
1713
  8
L1
 10
666.07470455450721
 20
135.22784060003619
 30
0.0
  0
VERTEX
  5
1714
  8
L1
 10
666.40086979003172
 20
135.23314209751419
 30
0.0
  0
VERTEX
  5
1715
  8
L1
 10
666.81809389366379
 20
135.2378144549952
 30
0.0
  0
VERTEX
  5
1716
  8
L1
 10
667.23792161301435
 20
135.2408703043356
 30
0.0
  0
VERTEX
  5
1717
  8
L1
 10
667.70498558855695
 20
135.24295651597239
 30
0.0
  0
VERTEX
  5
1718
  8
L1
 10
668.27934300032643
 20
135.2442366390618
 30
0.0
  0
VERTEX
  5
1719
  8
L1
 10
668.62552461355665
 20
135.24462552651261
 30
0.0
  0
VERTEX
  5
171A
  8
L1
 10
669.02105102835628
 20
135.2448742227601
 30
0.0
  0
VERTEX
  5
171B
  8
L1
 10
669.47342939222972
 20
135.24500317144879
 30
0.0
  0
VERTEX
  5
171C
  8
L1
 10
669.990166852681
 20
135.2450328162233
 30
0.0
  0
VERTEX
  5
171D
  8
L1
 10
670.57877055721451
 20
135.24498360072809
 30
0.0
  0
VERTEX
  5
171E
  8
L1
 10
671.24674765333464
 20
135.2448759686076
 30
0.0
  0
VERTEX
  5
171F
  8
L1
 10
672.00160528854553
 20
135.24473036350651
 30
0.0
  0
VERTEX
  5
1720
  8
L1
 10
672.85085061035147
 20
135.24456722906919
 30
0.0
  0
VERTEX
  5
1721
  8
L1
 10
673.80199076625672
 20
135.24440700894019
 30
0.0
  0
VERTEX
  5
1722
  8
L1
 10
674.86253290376555
 20
135.24427014676411
 30
0.0
  0
SEQEND
  5
1723
  8
L1
  0
POLYLINE
  5
1FB
  8
L1
 66
     1
 10
0.0
 20
0.0
 30
0.0
  0
VERTEX
  5
1724
  8
L1
 10
671.77296186832064
 20
133.26656117788531
 30
0.0
  0
VERTEX
  5
1725
  8
L1
 10
671.72670799327022
 20
133.26641898825611
 30
0.0
  0
VERTEX
  5
1726
  8
L1
 10
671.53189574416695
 20
133.26261152129669
 30
0.0
  0
VERTEX
  5
1727
  8
L1
 10
671.10652479016971
 20
133.2362695187341
 30
0.0
  0
VERTEX
  5
1728
  8
L1
 10
670.8958278042968
 20
133.21413272997481
 30
0.0
  0
VERTEX
  5
1729
  8
L1
 10
670.642585697394
 20
133.17950515785051
 30
0.0
  0
VERTEX
  5
172A
  8
L1
 10
670.3513168770188
 20
133.12877623559439
 30
0.0
  0
VERTEX
  5
172B
  8
L1
 10
670.02653975072792
 20
133.05833539644021
 30
0.0
  0
VERTEX
  5
172C
  8
L1
 10
669.09236351492996
 20
132.76979788074661
 30
0.0
  0
VERTEX
  5
172D
  8
L1
 10
668.20259649784441
 20
132.36366639021421
 30
0.0
  0
VERTEX
  5
172E
  8
L1
 10
667.57377420269961
 20
131.98621499668349
 30
0.0
  0
VERTEX
  5
172F
  8
L1
 10
666.98398192067555
 20
131.55010056943101
 30
0.0
  0
VERTEX
  5
1730
  8
L1
 10
666.42429099364074
 20
131.0449589336811
 30
0.0
  0
VERTEX
  5
1731
  8
L1
 10
665.91720702489226
 20
130.4869689845124
 30
0.0
  0
VERTEX
  5
1732
  8
L1
 10
665.51935417672769
 20
129.95789163597351
 30
0.0
  0
VERTEX
  5
1733
  8
L1
 10
665.16876783379826
 20
129.3962937194369
 30
0.0
  0
VERTEX
  5
1734
  8
L1
 10
664.87398453950618
 20
128.81926746393651
 30
0.0
  0
VERTEX
  5
1735
  8
L1
 10
664.62933694362448
 20
128.21933893590329
 30
0.0
  0
VERTEX
  5
1736
  8
L1
 10
664.39247772553028
 20
127.4261388290391
 30
0.0
  0
VERTEX
  5
1737
  8
L1
 10
664.24380099635107
 20
126.6172046944894
 30
0.0
  0
VERTEX
  5
1738
  8
L1
 10
664.20359100251994
 20
126.2208820667008
 30
0.0
  0
VERTEX
  5
1739
  8
L1
 10
664.18562481800518
 20
125.8591679012038
 30
0.0
  0
VERTEX
  5
173A
  8
L1
 10
664.1833622366895
 20
125.68592230373019
 30
0.0
  0
VERTEX
  5
173B
  8
L1
 10
664.18335690287358
 20
125.676997215063
 30
0.0
  0
SEQEND
  5
173C
  8
L1
  0
POLYLINE
  5
1FC
  8
L1
 66
     1
 10
0.0
 20
0.0
 30
0.0
  0
VERTEX
  5
173D
  8
L1
 10
676.62286217640803
 20
117.5315989409732
 30
0.0
  0
VERTEX
  5
173E
  8
L1
 10
676.82201996089111
 20
117.53760687343021
 30
0.0
  0
VERTEX
  5
173F
  8
L1
 10
677.02042065952242
 20
117.5556088248711
 30
0.0
  0
VERTEX
  5
1740
  8
L1
 10
677.21734285143327
 20
117.5855393369405
 30
0.0
  0
VERTEX
  5
1741
  8
L1
 10
677.41207049187426
 20
117.62728957687639
 30
0.0
  0
VERTEX
  5
1742
  8
L1
 10
677.60389551588185
 20
117.68070773324609
 30
0.0
  0
VERTEX
  5
1743
  8
L1
 10
677.79212041293158
 20
117.7455995679594
 30
0.0
  0
VERTEX
  5
1744
  8
L1
 10
677.97606076321244
 20
117.8217291225544
 30
0.0
  0
VERTEX
  5
1745
  8
L1
 10
678.15504772630163
 20
117.9088195761843
 30
0.0
  0
VERTEX
  5
1746
  8
L1
 10
678.32843047318909
 20
118.00655425218891
 30
0.0
  0
VERTEX
  5
1747
  8
L1
 10
678.49557855280955
 20
118.1145777695877
 30
0.0
  0
VERTEX
  5
1748
  8
L1
 10
678.65588418447726
 20
118.2324973353096
 30
0.0
  0
VERTEX
  5
1749
  8
L1
 10
678.80876446788602
 20
118.3598841724598
 30
0.0
  0
VERTEX
  5
174A
  8
L1
 10
678.95366350264055
 20
118.4962750794305
 30
0.0
  0
VERTEX
  5
174B
  8
L1
 10
679.09005440961141
 20
118.64117411418511
 30
0.0
  0
VERTEX
  5
174C
  8
L1
 10
679.21744124676161
 20
118.7940543975938
 30
0.0
  0
VERTEX
  5
174D
  8
L1
 10
679.33536081248337
 20
118.95436002926149
 30
0.0
  0
VERTEX
  5
174E
  8
L1
 10
679.44338432988229
 20
119.121508108882
 30
0.0
  0
VERTEX
  5
174F
  8
L1
 10
679.54111900588691
 20
119.29489085576949
 30
0.0
  0
VERTEX
  5
1750
  8
L1
 10
679.62820945951682
 20
119.4738778188587
 30
0.0
  0
VERTEX
  5
1751
  8
L1
 10
679.70433901411184
 20
119.6578181691396
 30
0.0
  0
VERTEX
  5
1752
  8
L1
 10
679.76923084882515
 20
119.8460430661893
 30
0.0
  0
VERTEX
  5
1753
  8
L1
 10
679.82264900519476
 20
120.0378680901968
 30
0.0
  0
VERTEX
  5
1754
  8
L1
 10
679.8643992451307
 20
120.2325957306378
 30
0.0
  0
VERTEX
  5
1755
  8
L1
 10
679.89432975720001
 20
120.4295179225488
 30
0.0
  0
VERTEX
  5
1756
  8
L1
 10
679.91233170864098
 20
120.62791862118
 30
0.0
  0
VERTEX
  5
1757
  8
L1
 10
679.9183396410981
 20
120.82707640566321
 30
0.0
  0
SEQEND
  5
1758
  8
L1
  0
LINE
  5
1FD
  8
L1
 10
678.15247862105662
 20
124.4666000285726
 30
0.0
 11
673.42102041324142
 21
129.19805823638791
 31
0.0
  0
CIRCLE
  5
1FE
  8
L1
 10
673.20217948336995
 20
124.2477590987012
 30
0.0
 40
5.7974047862592784
  0
ARC
  5
1FF
  8
L1
 10
673.20217948336995
 20
124.2477590987012
 30
0.0
 40
4.9551339946734032
 50
267.46873820670868
 51
2.5312617932925421
  0
CIRCLE
  5
200
  8
L1
 10
673.20217948336995
 20
124.2477590987012
 30
0.0
 40
6.097393363178492
  0
POLYLINE
  5
201
  8
L1
 66
     1
 10
0.0
 20
0.0
 30
0.0
  0
VERTEX
  5
1759
  8
L1
 10
660.82686159022705
 20
121.2639005097062
 30
0.0
  0
VERTEX
  5
175A
  8
L1
 10
661.19429510164457
 20
121.2977824355178
 30
0.0
  0
VERTEX
  5
175B
  8
L1
 10
661.60401927932946
 20
121.44358417077341
 30
0.0
  0
VERTEX
  5
175C
  8
L1
 10
661.78573510910678
 20
121.5683916948491
 30
0.0
  0
VERTEX
  5
175D
  8
L1
 10
661.9390598371798
 20
121.7265202331814
 30
0.0
  0
VERTEX
  5
175E
  8
L1
 10
662.06192309340315
 20
121.92022026597481
 30
0.0
  0
VERTEX
  5
175F
  8
L1
 10
662.14530672019305
 20
122.1343698759603
 30
0.0
  0
VERTEX
  5
1760
  8
L1
 10
662.20571131343115
 20
122.5872720301242
 30
0.0
  0
SEQEND
  5
1761
  8
L1
  0
POLYLINE
  5
202
  8
L1
 66
     1
 10
0.0
 20
0.0
 30
0.0
  0
VERTEX
  5
1762
  8
L1
 10
664.18335690287358
 20
125.676997215063
 30
0.0
  0
VERTEX
  5
1763
  8
L1
 10
664.18324708547595
 20
125.0435944368338
 30
0.0
  0
VERTEX
  5
1764
  8
L1
 10
664.18317225266355
 20
124.7105380472065
 30
0.0
  0
VERTEX
  5
1765
  8
L1
 10
664.18313316805609
 20
124.4452321569064
 30
0.0
  0
VERTEX
  5
1766
  8
L1
 10
664.18313171038608
 20
123.9935856516003
 30
0.0
  0
VERTEX
  5
1767
  8
L1
 10
664.18315407078762
 20
123.74510192525059
 30
0.0
  0
VERTEX
  5
1768
  8
L1
 10
664.18318164632274
 20
123.4400824755409
 30
0.0
  0
VERTEX
  5
1769
  8
L1
 10
664.18320680372415
 20
123.0474557467992
 30
0.0
  0
VERTEX
  5
176A
  8
L1
 10
664.18322190972378
 20
122.5361501833538
 30
0.0
  0
VERTEX
  5
176B
  8
L1
 10
664.18320676029884
 20
121.1580378202103
 30
0.0
  0
SEQEND
  5
176C
  8
L1
  0
LINE
  5
203
  8
L1
 10
668.25188034568316
 20
124.0289181688299
 30
0.0
 11
672.9833385534987
 21
119.2974599610145
 31
0.0
  0
LINE
  5
204
  8
L1
 10
665.3922464897621
 20
119.9489980907473
 30
0.0
 11
665.3922464897621
 21
124.46810762817449
 31
0.0
  0
POLYLINE
  5
205
  8
L1
 66
     1
 10
0.0
 20
0.0
 30
0.0
  0
VERTEX
  5
176D
  8
L1
 10
662.20002064214998
 20
119.14670579934111
 30
0.0
  0
VERTEX
  5
176E
  8
L1
 10
662.58085336382749
 20
119.1855764306421
 30
0.0
  0
VERTEX
  5
176F
  8
L1
 10
662.9435697020258
 20
119.3007545093292
 30
0.0
  0
SEQEND
  5
1770
  8
L1
  0
POLYLINE
  5
206
  8
L1
 66
     1
 10
0.0
 20
0.0
 30
0.0
  0
VERTEX
  5
1771
  8
L1
 10
664.14675449603033
 20
120.78831022253161
 30
0.0
  0
VERTEX
  5
1772
  8
L1
 10
664.06669820010416
 20
120.5003082579077
 30
0.0
  0
VERTEX
  5
1773
  8
L1
 10
663.9442662104459
 20
120.2248554073839
 30
0.0
  0
VERTEX
  5
1774
  8
L1
 10
663.75327139236151
 20
119.93083430309849
 30
0.0
  0
VERTEX
  5
1775
  8
L1
 10
663.5170765357924
 20
119.6743560549248
 30
0.0
  0
VERTEX
  5
1776
  8
L1
 10
663.24185772333419
 20
119.4611493082775
 30
0.0
  0
VERTEX
  5
1777
  8
L1
 10
662.9435697020258
 20
119.3007545093292
 30
0.0
  0
SEQEND
  5
1778
  8
L1
  0
POLYLINE
  5
207
  8
L1
 66
     1
 10
0.0
 20
0.0
 30
0.0
  0
VERTEX
  5
1779
  8
L1
 10
664.18320676029884
 20
121.1580378202103
 30
0.0
  0
VERTEX
  5
177A
  8
L1
 10
664.18316684625006
 20
121.1457397508069
 30
0.0
  0
VERTEX
  5
177B
  8
L1
 10
664.18254323001031
 20
121.1077748136933
 30
0.0
  0
VERTEX
  5
177C
  8
L1
 10
664.17930275268225
 20
121.0362081080311
 30
0.0
  0
VERTEX
  5
177D
  8
L1
 10
664.16354201819365
 20
120.8855962070926
 30
0.0
  0
VERTEX
  5
177E
  8
L1
 10
664.14675449603033
 20
120.78831022253161
 30
0.0
  0
SEQEND
  5
177F
  8
L1
  0
POLYLINE
  5
208
  8
L1
 66
     1
 10
0.0
 20
0.0
 30
0.0
  0
VERTEX
  5
1780
  8
L1
 10
663.39498742025285
 20
117.9517390212381
 30
0.0
  0
VERTEX
  5
1781
  8
L1
 10
663.67952952796895
 20
117.971981008426
 30
0.0
  0
VERTEX
  5
1782
  8
L1
 10
663.95817691686125
 20
118.0324517752347
 30
0.0
  0
VERTEX
  5
1783
  8
L1
 10
664.22527686146316
 20
118.1319245933429
 30
0.0
  0
VERTEX
  5
1784
  8
L1
 10
664.47541089126571
 20
118.2683815269844
 30
0.0
  0
VERTEX
  5
1785
  8
L1
 10
664.7035047114548
 20
118.4390543694053
 30
0.0
  0
VERTEX
  5
1786
  8
L1
 10
664.90493114159494
 20
118.6404807995455
 30
0.0
  0
VERTEX
  5
1787
  8
L1
 10
665.07560398401574
 20
118.8685746197345
 30
0.0
  0
VERTEX
  5
1788
  8
L1
 10
665.21206091765725
 20
119.1187086495369
 30
0.0
  0
VERTEX
  5
1789
  8
L1
 10
665.31153373576535
 20
119.38580859413879
 30
0.0
  0
VERTEX
  5
178A
  8
L1
 10
665.3720045025741
 20
119.6644559830313
 30
0.0
  0
VERTEX
  5
178B
  8
L1
 10
665.3922464897621
 20
119.9489980907473
 30
0.0
  0
SEQEND
  5
178C
  8
L1
  0
ARC
  5
209
  8
L1
 10
673.20217948336995
 20
124.2477590987012
 30
0.0
 40
4.9551339946734032
 50
87.468738206706774
 51
182.53126179329189
  0
POLYLINE
  5
20A
  8
L1
 66
     1
 10
0.0
 20
0.0
 30
0.0
  0
VERTEX
  5
178D
  8
L1
 10
681.46426792114403
 20
119.44075909870131
 30
0.0
  0
VERTEX
  5
178E
  8
L1
 10
681.39389387348433
 20
118.77897149625591
 30
0.0
  0
VERTEX
  5
178F
  8
L1
 10
681.19176448537235
 20
118.12398671246019
 30
0.0
  0
VERTEX
  5
1790
  8
L1
 10
680.86562023355611
 20
117.5211398678053
 30
0.0
  0
VERTEX
  5
1791
  8
L1
 10
680.44210860244357
 20
117.0078299796276
 30
0.0
  0
VERTEX
  5
1792
  8
L1
 10
679.92879871426612
 20
116.5843183485152
 30
0.0
  0
VERTEX
  5
1793
  8
L1
 10
679.32595186961089
 20
116.2581740966988
 30
0.0
  0
VERTEX
  5
1794
  8
L1
 10
678.67096708581539
 20
116.0560447085869
 30
0.0
  0
VERTEX
  5
1795
  8
L1
 10
678.00917948336985
 20
115.9856706609271
 30
0.0
  0
SEQEND
  5
1796
  8
L1
  0
LINE
  5
20B
  8
L1
 10
672.98183095389675
 20
132.0576920923092
 30
0.0
 11
677.50094049132406
 21
132.0576920923092
 31
0.0
  0
POLYLINE
  5
20C
  8
L1
 66
     1
 10
0.0
 20
0.0
 30
0.0
  0
VERTEX
  5
1797
  8
L1
 10
678.14925257231721
 20
134.506526082644
 30
0.0
  0
VERTEX
  5
1798
  8
L1
 10
677.89902260205292
 20
134.08039641904071
 30
0.0
  0
VERTEX
  5
1799
  8
L1
 10
677.66484090677704
 20
133.8210467681549
 30
0.0
  0
VERTEX
  5
179A
  8
L1
 10
677.38737224442502
 20
133.60229648283249
 30
0.0
  0
VERTEX
  5
179B
  8
L1
 10
677.06300164446395
 20
133.4277723731534
 30
0.0
  0
VERTEX
  5
179C
  8
L1
 10
676.7149511829233
 20
133.31458094463039
 30
0.0
  0
VERTEX
  5
179D
  8
L1
 10
676.66171201032364
 20
133.30318772910911
 30
0.0
  0
SEQEND
  5
179E
  8
L1
  0
ARC
  5
20D
  8
L1
 10
660.46448361427906
 20
136.98545496779201
 30
0.0
 40
2.0
 50
270.0
 51
0.0
  0
POLYLINE
  5
20E
  8
L1
 66
     1
 10
0.0
 20
0.0
 30
0.0
  0
VERTEX
  5
179F
  8
L1
 10
674.86253290376555
 20
135.24427014676411
 30
0.0
  0
VERTEX
  5
17A0
  8
L1
 10
675.14919227049757
 20
135.2670465929084
 30
0.0
  0
VERTEX
  5
17A1
  8
L1
 10
675.53842634177533
 20
135.39248684611039
 30
0.0
  0
VERTEX
  5
17A2
  8
L1
 10
675.71639450807345
 20
135.50543535918379
 30
0.0
  0
VERTEX
  5
17A3
  8
L1
 10
675.86947573633574
 20
135.65016642633461
 30
0.0
  0
VERTEX
  5
17A4
  8
L1
 10
676.00311336434652
 20
135.84016923452
 30
0.0
  0
VERTEX
  5
17A5
  8
L1
 10
676.09799372186092
 20
136.05272201088471
 30
0.0
  0
VERTEX
  5
17A6
  8
L1
 10
676.16555078408226
 20
136.3336384261207
 30
0.0
  0
VERTEX
  5
17A7
  8
L1
 10
676.18603807236514
 20
136.62311556572081
 30
0.0
  0
SEQEND
  5
17A8
  8
L1
  0
POLYLINE
  5
20F
  8
L1
 66
     1
 10
0.0
 20
0.0
 30
0.0
  0
VERTEX
  5
17A9
  8
L1
 10
676.66171201032364
 20
133.30318772910911
 30
0.0
  0
VERTEX
  5
17AA
  8
L1
 10
676.57356912338628
 20
133.2877500205135
 30
0.0
  0
VERTEX
  5
17AB
  8
L1
 10
676.45424569674208
 20
133.2736629529048
 30
0.0
  0
VERTEX
  5
17AC
  8
L1
 10
676.3820836957608
 20
133.26885734218459
 30
0.0
  0
VERTEX
  5
17AD
  8
L1
 10
676.33793530180333
 20
133.26727710061229
 30
0.0
  0
VERTEX
  5
17AE
  8
L1
 10
676.30105048948747
 20
133.26674291918869
 30
0.0
  0
VERTEX
  5
17AF
  8
L1
 10
676.29191174554478
 20
133.2667208380885
 30
0.0
  0
SEQEND
  5
17B0
  8
L1
  0
POLYLINE
  5
210
  8
L1
 66
     1
 10
0.0
 20
0.0
 30
0.0
  0
VERTEX
  5
17B1
  8
L1
 10
676.29191174554478
 20
133.2667208380885
 30
0.0
  0
VERTEX
  5
17B2
  8
L1
 10
674.53615295283942
 20
133.26673183886351
 30
0.0
  0
VERTEX
  5
17B3
  8
L1
 10
674.09667593950417
 20
133.26676079567571
 30
0.0
  0
VERTEX
  5
17B4
  8
L1
 10
673.74082964761624
 20
133.26678837353441
 30
0.0
  0
VERTEX
  5
17B5
  8
L1
 10
673.09050933233357
 20
133.2667915348882
 30
0.0
  0
VERTEX
  5
17B6
  8
L1
 10
672.67703407229715
 20
133.26673009300299
 30
0.0
  0
VERTEX
  5
17B7
  8
L1
 10
672.34554354058423
 20
133.26664528851589
 30
0.0
  0
VERTEX
  5
17B8
  8
L1
 10
671.77296186832064
 20
133.26656117788531
 30
0.0
  0
SEQEND
  5
17B9
  8
L1
  0
POLYLINE
  5
211
  8
L1
 66
     1
 10
0.0
 20
0.0
 30
0.0
  0
VERTEX
  5
17BA
  8
L1
 10
678.14925257231721
 20
134.506526082644
 30
0.0
  0
VERTEX
  5
17BB
  8
L1
 10
678.26437959802593
 20
134.869169437799
 30
0.0
  0
VERTEX
  5
17BC
  8
L1
 10
678.30323278273022
 20
135.24991793992129
 30
0.0
  0
SEQEND
  5
17BD
  8
L1
  0
POLYLINE
  5
212
  8
L1
 66
     1
 10
0.0
 20
0.0
 30
0.0
  0
VERTEX
  5
17BE
  8
L1
 10
677.50094049132406
 20
132.0576920923092
 30
0.0
  0
VERTEX
  5
17BF
  8
L1
 10
677.78548259904005
 20
132.0779340794972
 30
0.0
  0
VERTEX
  5
17C0
  8
L1
 10
678.06412998793246
 20
132.13840484630589
 30
0.0
  0
VERTEX
  5
17C1
  8
L1
 10
678.33122993253426
 20
132.23787766441399
 30
0.0
  0
VERTEX
  5
17C2
  8
L1
 10
678.58136396233692
 20
132.3743345980555
 30
0.0
  0
VERTEX
  5
17C3
  8
L1
 10
678.80945778252578
 20
132.54500744047641
 30
0.0
  0
VERTEX
  5
17C4
  8
L1
 10
679.01088421266604
 20
132.74643387061661
 30
0.0
  0
VERTEX
  5
17C5
  8
L1
 10
679.18155705508696
 20
132.9745276908055
 30
0.0
  0
VERTEX
  5
17C6
  8
L1
 10
679.31801398872835
 20
133.22466172060811
 30
0.0
  0
VERTEX
  5
17C7
  8
L1
 10
679.41748680683668
 20
133.49176166520991
 30
0.0
  0
VERTEX
  5
17C8
  8
L1
 10
679.4779575736452
 20
133.7704090541024
 30
0.0
  0
VERTEX
  5
17C9
  8
L1
 10
679.49819956083309
 20
134.05495116181839
 30
0.0
  0
SEQEND
  5
17CA
  8
L1
  0
LINE
  5
21B
  8
L6
 10
553.95217948336995
 20
410.26199351425009
 30
0.0
 11
553.95217948336995
 21
349.03243355807609
 31
0.0
  0
LINE
  5
21C
  8
L1
 10
665.3922464897621
 20
292.04652010665518
 30
0.0
 11
665.3922464897621
 21
287.52741056922798
 31
0.0
  0
CIRCLE
  5
21D
  8
L1
 10
673.20217948336995
 20
287.74775909870118
 30
0.0
 40
6.097393363178492
  0
ARC
  5
21E
  8
L1
 10
673.20217948336995
 20
287.74775909870118
 30
0.0
 40
4.9551339946734032
 50
357.46873820670743
 51
92.53126179329125
  0
LINE
  5
21F
  8
L1
 10
668.25188034568316
 20
287.96660002857249
 30
0.0
 11
672.9833385534987
 21
292.69805823638802
 31
0.0
  0
CIRCLE
  5
220
  8
L1
 10
673.20217948336995
 20
287.74775909870118
 30
0.0
 40
5.7974047862592784
  0
POLYLINE
  5
221
  8
L1
 66
     1
 10
0.0
 20
0.0
 30
0.0
  0
VERTEX
  5
17CB
  8
L1
 10
664.18335690287358
 20
286.31852098233952
 30
0.0
  0
VERTEX
  5
17CC
  8
L1
 10
664.18324708547595
 20
286.9519237605686
 30
0.0
  0
VERTEX
  5
17CD
  8
L1
 10
664.18317225266355
 20
287.28498015019591
 30
0.0
  0
VERTEX
  5
17CE
  8
L1
 10
664.18313316805609
 20
287.55028604049602
 30
0.0
  0
VERTEX
  5
17CF
  8
L1
 10
664.18313171038608
 20
288.00193254580222
 30
0.0
  0
VERTEX
  5
17D0
  8
L1
 10
664.18315407078762
 20
288.25041627215182
 30
0.0
  0
VERTEX
  5
17D1
  8
L1
 10
664.18318164632274
 20
288.55543572186161
 30
0.0
  0
VERTEX
  5
17D2
  8
L1
 10
664.18320680372415
 20
288.94806245060329
 30
0.0
  0
VERTEX
  5
17D3
  8
L1
 10
664.18322190972378
 20
289.45936801404872
 30
0.0
  0
VERTEX
  5
17D4
  8
L1
 10
664.18320676029884
 20
290.83748037719209
 30
0.0
  0
SEQEND
  5
17D5
  8
L1
  0
POLYLINE
  5
222
  8
L1
 66
     1
 10
0.0
 20
0.0
 30
0.0
  0
VERTEX
  5
17D6
  8
L1
 10
660.82686159022705
 20
290.7316176876962
 30
0.0
  0
VERTEX
  5
17D7
  8
L1
 10
661.19429510164457
 20
290.69773576188459
 30
0.0
  0
VERTEX
  5
17D8
  8
L1
 10
661.60401927932946
 20
290.551934026629
 30
0.0
  0
VERTEX
  5
17D9
  8
L1
 10
661.78573510910678
 20
290.42712650255328
 30
0.0
  0
VERTEX
  5
17DA
  8
L1
 10
661.9390598371798
 20
290.268997964221
 30
0.0
  0
VERTEX
  5
17DB
  8
L1
 10
662.06192309340315
 20
290.0752979314276
 30
0.0
  0
VERTEX
  5
17DC
  8
L1
 10
662.14530672019305
 20
289.86114832144222
 30
0.0
  0
VERTEX
  5
17DD
  8
L1
 10
662.20571131343115
 20
289.40824616727832
 30
0.0
  0
SEQEND
  5
17DE
  8
L1
  0
LINE
  5
223
  8
L1
 10
672.98183095389675
 20
279.93782610509322
 30
0.0
 11
677.50094049132406
 21
279.93782610509322
 31
0.0
  0
LINE
  5
224
  8
L1
 10
678.15247862105662
 20
287.52891816882982
 30
0.0
 11
673.42102041324142
 21
282.79745996101462
 31
0.0
  0
POLYLINE
  5
225
  8
L1
 66
     1
 10
0.0
 20
0.0
 30
0.0
  0
VERTEX
  5
17DF
  8
L1
 10
678.14925257231721
 20
277.4889921147585
 30
0.0
  0
VERTEX
  5
17E0
  8
L1
 10
677.89902260205292
 20
277.91512177836182
 30
0.0
  0
VERTEX
  5
17E1
  8
L1
 10
677.66484090677704
 20
278.1744714292476
 30
0.0
  0
VERTEX
  5
17E2
  8
L1
 10
677.38737224442502
 20
278.3932217145699
 30
0.0
  0
VERTEX
  5
17E3
  8
L1
 10
677.06300164446395
 20
278.56774582424902
 30
0.0
  0
VERTEX
  5
17E4
  8
L1
 10
676.7149511829233
 20
278.68093725277203
 30
0.0
  0
VERTEX
  5
17E5
  8
L1
 10
676.66171201032364
 20
278.69233046829328
 30
0.0
  0
SEQEND
  5
17E6
  8
L1
  0
POLYLINE
  5
226
  8
L1
 66
     1
 10
0.0
 20
0.0
 30
0.0
  0
VERTEX
  5
17E7
  8
L1
 10
671.77296186832064
 20
278.72895701951711
 30
0.0
  0
VERTEX
  5
17E8
  8
L1
 10
671.72670799327022
 20
278.7290992091464
 30
0.0
  0
VERTEX
  5
17E9
  8
L1
 10
671.53189574416695
 20
278.73290667610581
 30
0.0
  0
VERTEX
  5
17EA
  8
L1
 10
671.10652479016971
 20
278.75924867866843
 30
0.0
  0
VERTEX
  5
17EB
  8
L1
 10
670.8958278042968
 20
278.78138546742758
 30
0.0
  0
VERTEX
  5
17EC
  8
L1
 10
670.642585697394
 20
278.81601303955199
 30
0.0
  0
VERTEX
  5
17ED
  8
L1
 10
670.3513168770188
 20
278.86674196180797
 30
0.0
  0
VERTEX
  5
17EE
  8
L1
 10
670.02653975072792
 20
278.93718280096232
 30
0.0
  0
VERTEX
  5
17EF
  8
L1
 10
669.09236351492996
 20
279.22572031665578
 30
0.0
  0
VERTEX
  5
17F0
  8
L1
 10
668.20259649784441
 20
279.6318518071883
 30
0.0
  0
VERTEX
  5
17F1
  8
L1
 10
667.57377420269961
 20
280.00930320071888
 30
0.0
  0
VERTEX
  5
17F2
  8
L1
 10
666.98398192067555
 20
280.44541762797149
 30
0.0
  0
VERTEX
  5
17F3
  8
L1
 10
666.42429099364074
 20
280.9505592637214
 30
0.0
  0
VERTEX
  5
17F4
  8
L1
 10
665.91720702489226
 20
281.5085492128901
 30
0.0
  0
VERTEX
  5
17F5
  8
L1
 10
665.51935417672769
 20
282.03762656142902
 30
0.0
  0
VERTEX
  5
17F6
  8
L1
 10
665.16876783379826
 20
282.59922447796549
 30
0.0
  0
VERTEX
  5
17F7
  8
L1
 10
664.87398453950618
 20
283.17625073346591
 30
0.0
  0
VERTEX
  5
17F8
  8
L1
 10
664.62933694362448
 20
283.77617926149912
 30
0.0
  0
VERTEX
  5
17F9
  8
L1
 10
664.39247772553028
 20
284.56937936836329
 30
0.0
  0
VERTEX
  5
17FA
  8
L1
 10
664.24380099635107
 20
285.37831350291299
 30
0.0
  0
VERTEX
  5
17FB
  8
L1
 10
664.20359100251994
 20
285.77463613070159
 30
0.0
  0
VERTEX
  5
17FC
  8
L1
 10
664.18562481800518
 20
286.1363502961986
 30
0.0
  0
VERTEX
  5
17FD
  8
L1
 10
664.1833622366895
 20
286.30959589367222
 30
0.0
  0
VERTEX
  5
17FE
  8
L1
 10
664.18335690287358
 20
286.31852098233952
 30
0.0
  0
SEQEND
  5
17FF
  8
L1
  0
POLYLINE
  5
227
  8
L1
 66
     1
 10
0.0
 20
0.0
 30
0.0
  0
VERTEX
  5
1800
  8
L1
 10
662.20571131343115
 20
289.40824616727832
 30
0.0
  0
VERTEX
  5
1801
  8
L1
 10
662.20556643530085
 20
287.42178790933582
 30
0.0
  0
VERTEX
  5
1802
  8
L1
 10
662.20548828903304
 20
286.48475037910129
 30
0.0
  0
VERTEX
  5
1803
  8
L1
 10
662.2054127054821
 20
285.62985289799002
 30
0.0
  0
VERTEX
  5
1804
  8
L1
 10
662.20534446028796
 20
284.89060470347709
 30
0.0
  0
VERTEX
  5
1805
  8
L1
 10
662.2053145819616
 20
284.57482072540552
 30
0.0
  0
VERTEX
  5
1806
  8
L1
 10
662.20528832908929
 20
284.3005150330365
 30
0.0
  0
VERTEX
  5
1807
  8
L1
 10
662.20526629862593
 20
284.07187628105419
 30
0.0
  0
VERTEX
  5
1808
  8
L1
 10
662.205249087526
 20
283.89309312414292
 30
0.0
  0
VERTEX
  5
1809
  8
L1
 10
662.20523729274475
 20
283.76835421698712
 30
0.0
  0
VERTEX
  5
180A
  8
L1
 10
662.205231511237
 20
283.70184821427091
 30
0.0
  0
VERTEX
  5
180B
  8
L1
 10
662.20535697752041
 20
283.07619916884221
 30
0.0
  0
VERTEX
  5
180C
  8
L1
 10
662.20615017058253
 20
282.40860035252069
 30
0.0
  0
VERTEX
  5
180D
  8
L1
 10
662.20811035572501
 20
281.7534866538283
 30
0.0
  0
VERTEX
  5
180E
  8
L1
 10
662.21173679824926
 20
281.16529296128681
 30
0.0
  0
VERTEX
  5
180F
  8
L1
 10
662.21551144395698
 20
280.8181375582447
 30
0.0
  0
VERTEX
  5
1810
  8
L1
 10
662.21973668840405
 20
280.54069051730312
 30
0.0
  0
VERTEX
  5
1811
  8
L1
 10
662.22738853446822
 20
280.08802867191832
 30
0.0
  0
VERTEX
  5
1812
  8
L1
 10
662.23084145004225
 20
279.73996970878619
 30
0.0
  0
VERTEX
  5
1813
  8
L1
 10
662.23174998826994
 20
279.48468039392702
 30
0.0
  0
VERTEX
  5
1814
  8
L1
 10
662.23677636281172
 20
279.09162316657722
 30
0.0
  0
VERTEX
  5
1815
  8
L1
 10
662.28109302477208
 20
278.5552598227539
 30
0.0
  0
VERTEX
  5
1816
  8
L1
 10
662.39285724808235
 20
278.12447326066092
 30
0.0
  0
VERTEX
  5
1817
  8
L1
 10
662.56995703363066
 20
277.77334689904052
 30
0.0
  0
VERTEX
  5
1818
  8
L1
 10
662.79616286552198
 20
277.47677243158392
 30
0.0
  0
VERTEX
  5
1819
  8
L1
 10
663.1293037821722
 20
277.1829552541729
 30
0.0
  0
VERTEX
  5
181A
  8
L1
 10
663.42302586653568
 20
277.00979269129061
 30
0.0
  0
VERTEX
  5
181B
  8
L1
 10
663.75951058822761
 20
276.88444176245781
 30
0.0
  0
VERTEX
  5
181C
  8
L1
 10
664.12701747090364
 20
276.81671712227541
 30
0.0
  0
VERTEX
  5
181D
  8
L1
 10
664.7159927514731
 20
276.78337138105928
 30
0.0
  0
VERTEX
  5
181E
  8
L1
 10
665.07766056069556
 20
276.78106121036842
 30
0.0
  0
VERTEX
  5
181F
  8
L1
 10
665.55313152041231
 20
276.77706924365242
 30
0.0
  0
VERTEX
  5
1820
  8
L1
 10
666.07470455450721
 20
276.76767759736617
 30
0.0
  0
VERTEX
  5
1821
  8
L1
 10
666.40086979003172
 20
276.76237609988829
 30
0.0
  0
VERTEX
  5
1822
  8
L1
 10
666.81809389366379
 20
276.75770374240727
 30
0.0
  0
VERTEX
  5
1823
  8
L1
 10
667.23792161301435
 20
276.75464789306687
 30
0.0
  0
VERTEX
  5
1824
  8
L1
 10
667.70498558855695
 20
276.75256168143
 30
0.0
  0
VERTEX
  5
1825
  8
L1
 10
668.27934300032643
 20
276.75128155834068
 30
0.0
  0
VERTEX
  5
1826
  8
L1
 10
668.62552461355665
 20
276.75089267088993
 30
0.0
  0
VERTEX
  5
1827
  8
L1
 10
669.02105102835628
 20
276.75064397464229
 30
0.0
  0
VERTEX
  5
1828
  8
L1
 10
669.47342939222972
 20
276.75051502595369
 30
0.0
  0
VERTEX
  5
1829
  8
L1
 10
669.990166852681
 20
276.75048538117909
 30
0.0
  0
VERTEX
  5
182A
  8
L1
 10
670.57877055721451
 20
276.7505345966743
 30
0.0
  0
VERTEX
  5
182B
  8
L1
 10
671.24674765333464
 20
276.7506422287949
 30
0.0
  0
VERTEX
  5
182C
  8
L1
 10
672.00160528854553
 20
276.75078783389591
 30
0.0
  0
VERTEX
  5
182D
  8
L1
 10
672.85085061035147
 20
276.75095096833331
 30
0.0
  0
VERTEX
  5
182E
  8
L1
 10
673.80199076625672
 20
276.75111118846218
 30
0.0
  0
VERTEX
  5
182F
  8
L1
 10
674.86253290376555
 20
276.75124805063842
 30
0.0
  0
SEQEND
  5
1830
  8
L1
  0
ARC
  5
228
  8
L1
 10
660.46448361427906
 20
275.01006322961041
 30
0.0
 40
2.0
 50
0.0
 51
90.0
  0
POLYLINE
  5
229
  8
L1
 66
     1
 10
0.0
 20
0.0
 30
0.0
  0
VERTEX
  5
1831
  8
L1
 10
676.29191174554478
 20
278.72879735931389
 30
0.0
  0
VERTEX
  5
1832
  8
L1
 10
674.53615295283942
 20
278.72878635853891
 30
0.0
  0
VERTEX
  5
1833
  8
L1
 10
674.09667593950417
 20
278.72875740172668
 30
0.0
  0
VERTEX
  5
1834
  8
L1
 10
673.74082964761624
 20
278.72872982386798
 30
0.0
  0
VERTEX
  5
1835
  8
L1
 10
673.09050933233357
 20
278.72872666251419
 30
0.0
  0
VERTEX
  5
1836
  8
L1
 10
672.67703407229715
 20
278.72878810439943
 30
0.0
  0
VERTEX
  5
1837
  8
L1
 10
672.34554354058423
 20
278.72887290888661
 30
0.0
  0
VERTEX
  5
1838
  8
L1
 10
671.77296186832064
 20
278.72895701951711
 30
0.0
  0
SEQEND
  5
1839
  8
L1
  0
POLYLINE
  5
22A
  8
L1
 66
     1
 10
0.0
 20
0.0
 30
0.0
  0
VERTEX
  5
183A
  8
L1
 10
676.66171201032364
 20
278.69233046829328
 30
0.0
  0
VERTEX
  5
183B
  8
L1
 10
676.57356912338628
 20
278.70776817688892
 30
0.0
  0
VERTEX
  5
183C
  8
L1
 10
676.45424569674208
 20
278.72185524449759
 30
0.0
  0
VERTEX
  5
183D
  8
L1
 10
676.3820836957608
 20
278.7266608552178
 30
0.0
  0
VERTEX
  5
183E
  8
L1
 10
676.33793530180333
 20
278.72824109679021
 30
0.0
  0
VERTEX
  5
183F
  8
L1
 10
676.30105048948747
 20
278.72877527821379
 30
0.0
  0
VERTEX
  5
1840
  8
L1
 10
676.29191174554478
 20
278.72879735931389
 30
0.0
  0
SEQEND
  5
1841
  8
L1
  0
POLYLINE
  5
22B
  8
L1
 66
     1
 10
0.0
 20
0.0
 30
0.0
  0
VERTEX
  5
1842
  8
L1
 10
674.86253290376555
 20
276.75124805063842
 30
0.0
  0
VERTEX
  5
1843
  8
L1
 10
675.14919227049757
 20
276.72847160449402
 30
0.0
  0
VERTEX
  5
1844
  8
L1
 10
675.53842634177533
 20
276.60303135129197
 30
0.0
  0
VERTEX
  5
1845
  8
L1
 10
675.71639450807345
 20
276.4900828382186
 30
0.0
  0
VERTEX
  5
1846
  8
L1
 10
675.86947573633574
 20
276.34535177106778
 30
0.0
  0
VERTEX
  5
1847
  8
L1
 10
676.00311336434652
 20
276.1553489628825
 30
0.0
  0
VERTEX
  5
1848
  8
L1
 10
676.09799372186092
 20
275.94279618651768
 30
0.0
  0
VERTEX
  5
1849
  8
L1
 10
676.16555078408226
 20
275.66187977128169
 30
0.0
  0
VERTEX
  5
184A
  8
L1
 10
676.18603807236514
 20
275.37240263168172
 30
0.0
  0
SEQEND
  5
184B
  8
L1
  0
POLYLINE
  5
22C
  8
L1
 66
     1
 10
0.0
 20
0.0
 30
0.0
  0
VERTEX
  5
184C
  8
L1
 10
665.3922464897621
 20
287.52741056922798
 30
0.0
  0
VERTEX
  5
184D
  8
L1
 10
665.3975699224884
 20
287.24337911056352
 30
0.0
  0
VERTEX
  5
184E
  8
L1
 10
665.41349196202384
 20
286.95977179958248
 30
0.0
  0
VERTEX
  5
184F
  8
L1
 10
665.43999041754023
 20
286.67698390481218
 30
0.0
  0
VERTEX
  5
1850
  8
L1
 10
665.47702835767132
 20
286.39540955274532
 30
0.0
  0
VERTEX
  5
1851
  8
L1
 10
665.52455416198461
 20
286.11544117853839
 30
0.0
  0
VERTEX
  5
1852
  8
L1
 10
665.58250159292561
 20
285.8374689790686
 30
0.0
  0
VERTEX
  5
1853
  8
L1
 10
665.65078988813434
 20
285.56188036910851
 30
0.0
  0
VERTEX
  5
1854
  8
L1
 10
665.7293238730058
 20
285.28905944138018
 30
0.0
  0
VERTEX
  5
1855
  8
L1
 10
665.81799409333576
 20
285.01938643123788
 30
0.0
  0
VERTEX
  5
1856
  8
L1
 10
665.91667696786874
 20
284.75323718672752
 30
0.0
  0
VERTEX
  5
1857
  8
L1
 10
666.02523496053675
 20
284.49098264476032
 30
0.0
  0
VERTEX
  5
1858
  8
L1
 10
666.14351677214461
 20
284.23298831413172
 30
0.0
  0
VERTEX
  5
1859
  8
L1
 10
666.27135755123845
 20
283.97961376610527
 30
0.0
  0
VERTEX
  5
185A
  8
L1
 10
666.4085791238623
 20
283.73121213327198
 30
0.0
  0
VERTEX
  5
185B
  8
L1
 10
666.55499024188293
 20
283.48812961738253
 30
0.0
  0
VERTEX
  5
185C
  8
L1
 10
666.71038684953385
 20
283.25070500684052
 30
0.0
  0
VERTEX
  5
185D
  8
L1
 10
666.87455236781409
 20
283.01926920452661
 30
0.0
  0
VERTEX
  5
185E
  8
L1
 10
667.04725799633547
 20
282.79414476661339
 30
0.0
  0
VERTEX
  5
185F
  8
L1
 10
667.22826303220813
 20
282.57564545301358
 30
0.0
  0
VERTEX
  5
1860
  8
L1
 10
667.41731520551048
 20
282.36407579008659
 30
0.0
  0
VERTEX
  5
1861
  8
L1
 10
667.61415103088393
 20
282.15973064621511
 30
0.0
  0
VERTEX
  5
1862
  8
L1
 10
667.81849617475541
 20
281.96289482084183
 30
0.0
  0
VERTEX
  5
1863
  8
L1
 10
668.0300658376824
 20
281.77384264753931
 30
0.0
  0
VERTEX
  5
1864
  8
L1
 10
668.24856515128226
 20
281.59283761166682
 30
0.0
  0
VERTEX
  5
1865
  8
L1
 10
668.47368958919526
 20
281.42013198314532
 30
0.0
  0
VERTEX
  5
1866
  8
L1
 10
668.70512539150923
 20
281.2559664648652
 30
0.0
  0
VERTEX
  5
1867
  8
L1
 10
668.94255000205135
 20
281.10056985721411
 30
0.0
  0
VERTEX
  5
1868
  8
L1
 10
669.1856325179408
 20
280.95415873919359
 30
0.0
  0
VERTEX
  5
1869
  8
L1
 10
669.43403415077398
 20
280.81693716656957
 30
0.0
  0
VERTEX
  5
186A
  8
L1
 10
669.68740869880037
 20
280.68909638747567
 30
0.0
  0
VERTEX
  5
186B
  8
L1
 10
669.94540302942914
 20
280.57081457586798
 30
0.0
  0
VERTEX
  5
186C
  8
L1
 10
670.20765757139634
 20
280.46225658319992
 30
0.0
  0
VERTEX
  5
186D
  8
L1
 10
670.47380681590676
 20
280.36357370866688
 30
0.0
  0
VERTEX
  5
186E
  8
L1
 10
670.74347982604888
 20
280.27490348833709
 30
0.0
  0
VERTEX
  5
186F
  8
L1
 10
671.01630075377727
 20
280.19636950346558
 30
0.0
  0
VERTEX
  5
1870
  8
L1
 10
671.29188936373737
 20
280.12808120825679
 30
0.0
  0
VERTEX
  5
1871
  8
L1
 10
671.56986156320727
 20
280.07013377731579
 30
0.0
  0
VERTEX
  5
1872
  8
L1
 10
671.84982993741414
 20
280.02260797300249
 30
0.0
  0
VERTEX
  5
1873
  8
L1
 10
672.13140428948088
 20
279.98557003287141
 30
0.0
  0
VERTEX
  5
1874
  8
L1
 10
672.41419218425119
 20
279.95907157735502
 30
0.0
  0
VERTEX
  5
1875
  8
L1
 10
672.69779949523229
 20
279.94314953781958
 30
0.0
  0
VERTEX
  5
1876
  8
L1
 10
672.98183095389675
 20
279.93782610509322
 30
0.0
  0
SEQEND
  5
1877
  8
L1
  0
ARC
  5
22D
  8
L1
 10
673.20217948336995
 20
287.74775909870118
 30
0.0
 40
4.9551339946734032
 50
177.468738206708
 51
272.5312617932932
  0
POLYLINE
  5
22E
  8
L1
 66
     1
 10
0.0
 20
0.0
 30
0.0
  0
VERTEX
  5
1878
  8
L1
 10
677.50094049132406
 20
279.93782610509322
 30
0.0
  0
VERTEX
  5
1879
  8
L1
 10
677.78548259904005
 20
279.91758411790528
 30
0.0
  0
VERTEX
  5
187A
  8
L1
 10
678.06412998793246
 20
279.85711335109659
 30
0.0
  0
VERTEX
  5
187B
  8
L1
 10
678.33122993253426
 20
279.75764053298849
 30
0.0
  0
VERTEX
  5
187C
  8
L1
 10
678.58136396233692
 20
279.62118359934698
 30
0.0
  0
VERTEX
  5
187D
  8
L1
 10
678.80945778252578
 20
279.45051075692601
 30
0.0
  0
VERTEX
  5
187E
  8
L1
 10
679.01088421266604
 20
279.24908432678592
 30
0.0
  0
VERTEX
  5
187F
  8
L1
 10
679.18155705508696
 20
279.02099050659689
 30
0.0
  0
VERTEX
  5
1880
  8
L1
 10
679.31801398872835
 20
278.77085647679428
 30
0.0
  0
VERTEX
  5
1881
  8
L1
 10
679.41748680683668
 20
278.50375653219248
 30
0.0
  0
VERTEX
  5
1882
  8
L1
 10
679.4779575736452
 20
278.22510914330007
 30
0.0
  0
VERTEX
  5
1883
  8
L1
 10
679.49819956083309
 20
277.94056703558408
 30
0.0
  0
SEQEND
  5
1884
  8
L1
  0
POLYLINE
  5
22F
  8
L1
 66
     1
 10
0.0
 20
0.0
 30
0.0
  0
VERTEX
  5
1885
  8
L1
 10
678.14925257231721
 20
277.4889921147585
 30
0.0
  0
VERTEX
  5
1886
  8
L1
 10
678.26437959802593
 20
277.12634875960339
 30
0.0
  0
VERTEX
  5
1887
  8
L1
 10
678.30323278273022
 20
276.74560025748121
 30
0.0
  0
SEQEND
  5
1888
  8
L1
  0
POLYLINE
  5
230
  8
L1
 66
     1
 10
0.0
 20
0.0
 30
0.0
  0
VERTEX
  5
1889
  8
L1
 10
676.62286217640803
 20
294.46391925642928
 30
0.0
  0
VERTEX
  5
188A
  8
L1
 10
676.82201996089111
 20
294.45791132397221
 30
0.0
  0
VERTEX
  5
188B
  8
L1
 10
677.02042065952242
 20
294.4399093725313
 30
0.0
  0
VERTEX
  5
188C
  8
L1
 10
677.21734285143327
 20
294.40997886046188
 30
0.0
  0
VERTEX
  5
188D
  8
L1
 10
677.41207049187426
 20
294.368228620526
 30
0.0
  0
VERTEX
  5
188E
  8
L1
 10
677.60389551588185
 20
294.31481046415638
 30
0.0
  0
VERTEX
  5
188F
  8
L1
 10
677.79212041293158
 20
294.24991862944302
 30
0.0
  0
VERTEX
  5
1890
  8
L1
 10
677.97606076321244
 20
294.17378907484812
 30
0.0
  0
VERTEX
  5
1891
  8
L1
 10
678.15504772630163
 20
294.08669862121809
 30
0.0
  0
VERTEX
  5
1892
  8
L1
 10
678.32843047318909
 20
293.98896394521353
 30
0.0
  0
VERTEX
  5
1893
  8
L1
 10
678.49557855280955
 20
293.88094042781472
 30
0.0
  0
VERTEX
  5
1894
  8
L1
 10
678.65588418447726
 20
293.76302086209279
 30
0.0
  0
VERTEX
  5
1895
  8
L1
 10
678.80876446788602
 20
293.63563402494259
 30
0.0
  0
VERTEX
  5
1896
  8
L1
 10
678.95366350264055
 20
293.4992431179719
 30
0.0
  0
VERTEX
  5
1897
  8
L1
 10
679.09005440961141
 20
293.35434408321731
 30
0.0
  0
VERTEX
  5
1898
  8
L1
 10
679.21744124676161
 20
293.20146379980861
 30
0.0
  0
VERTEX
  5
1899
  8
L1
 10
679.33536081248337
 20
293.04115816814101
 30
0.0
  0
VERTEX
  5
189A
  8
L1
 10
679.44338432988229
 20
292.87401008852038
 30
0.0
  0
VERTEX
  5
189B
  8
L1
 10
679.54111900588691
 20
292.70062734163298
 30
0.0
  0
VERTEX
  5
189C
  8
L1
 10
679.62820945951682
 20
292.52164037854368
 30
0.0
  0
VERTEX
  5
189D
  8
L1
 10
679.70433901411184
 20
292.33770002826287
 30
0.0
  0
VERTEX
  5
189E
  8
L1
 10
679.76923084882515
 20
292.14947513121319
 30
0.0
  0
VERTEX
  5
189F
  8
L1
 10
679.82264900519476
 20
291.95765010720572
 30
0.0
  0
VERTEX
  5
18A0
  8
L1
 10
679.8643992451307
 20
291.76292246676468
 30
0.0
  0
VERTEX
  5
18A1
  8
L1
 10
679.89432975720001
 20
291.56600027485359
 30
0.0
  0
VERTEX
  5
18A2
  8
L1
 10
679.91233170864098
 20
291.36759957622252
 30
0.0
  0
VERTEX
  5
18A3
  8
L1
 10
679.9183396410981
 20
291.16844179173933
 30
0.0
  0
SEQEND
  5
18A4
  8
L1
  0
POLYLINE
  5
231
  8
L1
 66
     1
 10
0.0
 20
0.0
 30
0.0
  0
VERTEX
  5
18A5
  8
L1
 10
663.39498742025285
 20
294.04377917616432
 30
0.0
  0
VERTEX
  5
18A6
  8
L1
 10
663.67952952796895
 20
294.02353718897638
 30
0.0
  0
VERTEX
  5
18A7
  8
L1
 10
663.95817691686125
 20
293.96306642216769
 30
0.0
  0
VERTEX
  5
18A8
  8
L1
 10
664.22527686146316
 20
293.86359360405947
 30
0.0
  0
VERTEX
  5
18A9
  8
L1
 10
664.47541089126571
 20
293.72713667041802
 30
0.0
  0
VERTEX
  5
18AA
  8
L1
 10
664.7035047114548
 20
293.55646382799711
 30
0.0
  0
VERTEX
  5
18AB
  8
L1
 10
664.90493114159494
 20
293.35503739785702
 30
0.0
  0
VERTEX
  5
18AC
  8
L1
 10
665.07560398401574
 20
293.12694357766799
 30
0.0
  0
VERTEX
  5
18AD
  8
L1
 10
665.21206091765725
 20
292.87680954786549
 30
0.0
  0
VERTEX
  5
18AE
  8
L1
 10
665.31153373576535
 20
292.60970960326358
 30
0.0
  0
VERTEX
  5
18AF
  8
L1
 10
665.3720045025741
 20
292.33106221437117
 30
0.0
  0
VERTEX
  5
18B0
  8
L1
 10
665.3922464897621
 20
292.04652010665518
 30
0.0
  0
SEQEND
  5
18B1
  8
L1
  0
POLYLINE
  5
232
  8
L1
 66
     1
 10
0.0
 20
0.0
 30
0.0
  0
VERTEX
  5
18B2
  8
L1
 10
664.18320676029884
 20
290.83748037719209
 30
0.0
  0
VERTEX
  5
18B3
  8
L1
 10
664.18316684625006
 20
290.84977844659562
 30
0.0
  0
VERTEX
  5
18B4
  8
L1
 10
664.18254323001031
 20
290.88774338370922
 30
0.0
  0
VERTEX
  5
18B5
  8
L1
 10
664.17930275268225
 20
290.95931008937129
 30
0.0
  0
VERTEX
  5
18B6
  8
L1
 10
664.16354201819365
 20
291.10992199030977
 30
0.0
  0
VERTEX
  5
18B7
  8
L1
 10
664.14675449603033
 20
291.20720797487093
 30
0.0
  0
SEQEND
  5
18B8
  8
L1
  0
POLYLINE
  5
233
  8
L1
 66
     1
 10
0.0
 20
0.0
 30
0.0
  0
VERTEX
  5
18B9
  8
L1
 10
664.14675449603033
 20
291.20720797487093
 30
0.0
  0
VERTEX
  5
18BA
  8
L1
 10
664.06669820010416
 20
291.49520993949471
 30
0.0
  0
VERTEX
  5
18BB
  8
L1
 10
663.9442662104459
 20
291.77066279001849
 30
0.0
  0
VERTEX
  5
18BC
  8
L1
 10
663.75327139236151
 20
292.06468389430398
 30
0.0
  0
VERTEX
  5
18BD
  8
L1
 10
663.5170765357924
 20
292.32116214247759
 30
0.0
  0
VERTEX
  5
18BE
  8
L1
 10
663.24185772333419
 20
292.53436888912489
 30
0.0
  0
VERTEX
  5
18BF
  8
L1
 10
662.9435697020258
 20
292.69476368807318
 30
0.0
  0
SEQEND
  5
18C0
  8
L1
  0
POLYLINE
  5
234
  8
L1
 66
     1
 10
0.0
 20
0.0
 30
0.0
  0
VERTEX
  5
18C1
  8
L1
 10
662.20002064214998
 20
292.84881239806128
 30
0.0
  0
VERTEX
  5
18C2
  8
L1
 10
662.58085336382749
 20
292.8099417667604
 30
0.0
  0
VERTEX
  5
18C3
  8
L1
 10
662.9435697020258
 20
292.69476368807318
 30
0.0
  0
SEQEND
  5
18C4
  8
L1
  0
POLYLINE
  5
235
  8
L1
 66
     1
 10
0.0
 20
0.0
 30
0.0
  0
VERTEX
  5
18C5
  8
L1
 10
681.46426792114403
 20
292.5547590987012
 30
0.0
  0
VERTEX
  5
18C6
  8
L1
 10
681.39389387348433
 20
293.21654670114651
 30
0.0
  0
VERTEX
  5
18C7
  8
L1
 10
681.19176448537235
 20
293.87153148494218
 30
0.0
  0
VERTEX
  5
18C8
  8
L1
 10
680.86562023355611
 20
294.47437832959719
 30
0.0
  0
VERTEX
  5
18C9
  8
L1
 10
680.44210860244357
 20
294.98768821777492
 30
0.0
  0
VERTEX
  5
18CA
  8
L1
 10
679.92879871426612
 20
295.41119984888729
 30
0.0
  0
VERTEX
  5
18CB
  8
L1
 10
679.32595186961089
 20
295.73734410070369
 30
0.0
  0
VERTEX
  5
18CC
  8
L1
 10
678.67096708581539
 20
295.93947348881562
 30
0.0
  0
VERTEX
  5
18CD
  8
L1
 10
678.00917948336985
 20
296.00984753647532
 30
0.0
  0
SEQEND
  5
18CE
  8
L1
  0
LINE
  5
23C
  8
L1
 10
680.11806554804912
 20
381.30794310940888
 30
0.0
 11
681.46448361427917
 21
355.61675594884468
 31
0.0
  0
LINE
  5
23D
  8
L1
 10
681.46426792114426
 20
355.61654025570982
 30
0.0
 11
680.74520358359473
 21
354.8974759181603
 31
0.0
  0
LINE
  5
23E
  8
L1
 10
679.76739558840245
 20
354.13307846505393
 30
0.0
 11
679.90161700443355
 21
354.8942859415954
 31
0.0
  0
ARC
  5
23F
  8
L1
 10
679.40217948336999
 20
354.19747591816031
 30
0.0
 40
0.3708501521392529
 50
270.0
 51
350.00000000000711
  0
POLYLINE
  5
240
  8
L1
 66
     1
 10
0.0
 20
0.0
 30
0.0
  0
VERTEX
  5
18CF
  8
L1
 10
676.18603807236514
 20
406.49747591816032
 30
0.0
  0
VERTEX
  5
18D0
  8
L1
 10
676.23863356237246
 20
406.44756466177438
 30
0.0
  0
VERTEX
  5
18D1
  8
L1
 10
676.23938198227211
 20
406.44685443780861
 30
0.0
  0
VERTEX
  5
18D2
  8
L1
 10
676.67150326267006
 20
406.03678665418732
 30
0.0
  0
VERTEX
  5
18D3
  8
L1
 10
676.84180675600714
 20
405.8751746734228
 30
0.0
  0
VERTEX
  5
18D4
  8
L1
 10
677.01278976758681
 20
405.71291785392339
 30
0.0
  0
VERTEX
  5
18D5
  8
L1
 10
677.18432170651454
 20
405.55014012182119
 30
0.0
  0
VERTEX
  5
18D6
  8
L1
 10
677.35627187220018
 20
405.3869655073446
 30
0.0
  0
VERTEX
  5
18D7
  8
L1
 10
677.52850948610467
 20
405.22351811469377
 30
0.0
  0
VERTEX
  5
18D8
  8
L1
 10
677.70090369461195
 20
405.0599221193134
 30
0.0
  0
VERTEX
  5
18D9
  8
L1
 10
677.87332357212085
 20
404.8963017649603
 30
0.0
  0
VERTEX
  5
18DA
  8
L1
 10
678.03917599628392
 20
404.73891369112579
 30
0.0
  0
VERTEX
  5
18DB
  8
L1
 10
678.04563812500226
 20
404.73278135994639
 30
0.0
  0
VERTEX
  5
18DC
  8
L1
 10
678.14925257231721
 20
404.6344549208448
 30
0.0
  0
SEQEND
  5
18DD
  8
L1
  0
POLYLINE
  5
241
  8
L1
 66
     1
 10
0.0
 20
0.0
 30
0.0
  0
VERTEX
  5
18DE
  8
L1
 10
678.14925257231721
 20
404.6344549208448
 30
0.0
  0
VERTEX
  5
18DF
  8
L1
 10
677.89902260205315
 20
404.78091080423422
 30
0.0
  0
VERTEX
  5
18E0
  8
L1
 10
677.38737224442525
 20
404.85832684599899
 30
0.0
  0
VERTEX
  5
18E1
  8
L1
 10
676.7149511829241
 20
404.79810877287139
 30
0.0
  0
VERTEX
  5
18E2
  8
L1
 10
676.66171201032375
 20
404.7889483807798
 30
0.0
  0
SEQEND
  5
18E3
  8
L1
  0
LINE
  5
242
  8
L1
 10
664.18320676029896
 20
404.75686106569049
 30
0.0
 11
665.3922464897621
 21
381.68700872691181
 31
0.0
  0
ARC
  5
243
  8
L1
 10
665.59197239671312
 20
381.69747591816031
 30
0.0
 40
0.1999999999999957
 50
182.9999999999996
 51
270.0
  0
POLYLINE
  5
244
  8
L1
 66
     1
 10
0.0
 20
0.0
 30
0.0
  0
VERTEX
  5
18E4
  8
L1
 10
671.77296186832075
 20
404.7536049863586
 30
0.0
  0
VERTEX
  5
18E5
  8
L1
 10
671.72808446983061
 20
404.75357811578539
 30
0.0
  0
VERTEX
  5
18E6
  8
L1
 10
671.53403695237637
 20
404.75123903858741
 30
0.0
  0
VERTEX
  5
18E7
  8
L1
 10
671.0762334172033
 20
404.73365206614437
 30
0.0
  0
VERTEX
  5
18E8
  8
L1
 10
670.53289639168099
 20
404.70335630250389
 30
0.0
  0
VERTEX
  5
18E9
  8
L1
 10
669.81139071098232
 20
404.66635478790118
 30
0.0
  0
VERTEX
  5
18EA
  8
L1
 10
668.93037111412639
 20
404.62905433318758
 30
0.0
  0
VERTEX
  5
18EB
  8
L1
 10
668.09213734800392
 20
404.59930664544288
 30
0.0
  0
VERTEX
  5
18EC
  8
L1
 10
666.95049077656495
 20
404.57443546229609
 30
0.0
  0
VERTEX
  5
18ED
  8
L1
 10
665.88793198999247
 20
404.57332443652462
 30
0.0
  0
VERTEX
  5
18EE
  8
L1
 10
665.14795614940681
 20
404.59424914464182
 30
0.0
  0
VERTEX
  5
18EF
  8
L1
 10
664.59967591018949
 20
404.64005939343491
 30
0.0
  0
VERTEX
  5
18F0
  8
L1
 10
664.26744654668687
 20
404.70762544813419
 30
0.0
  0
VERTEX
  5
18F1
  8
L1
 10
664.19022383328252
 20
404.74914163112601
 30
0.0
  0
VERTEX
  5
18F2
  8
L1
 10
664.18391418327735
 20
404.75360201078269
 30
0.0
  0
VERTEX
  5
18F3
  8
L1
 10
664.18335905234915
 20
404.75399590078081
 30
0.0
  0
SEQEND
  5
18F4
  8
L1
  0
POLYLINE
  5
245
  8
L1
 66
     1
 10
0.0
 20
0.0
 30
0.0
  0
VERTEX
  5
18F5
  8
L1
 10
664.18313592074639
 20
404.75821276487869
 30
0.0
  0
VERTEX
  5
18F6
  8
L1
 10
664.18313574610966
 20
404.75821609714581
 30
0.0
  0
SEQEND
  5
18F7
  8
L1
  0
POLYLINE
  5
246
  8
L1
 66
     1
 10
0.0
 20
0.0
 30
0.0
  0
VERTEX
  5
18F8
  8
L1
 10
664.18312222443649
 20
404.75847410603632
 30
0.0
  0
VERTEX
  5
18F9
  8
L1
 10
664.18316652893918
 20
404.7576287257674
 30
0.0
  0
VERTEX
  5
18FA
  8
L1
 10
664.18320066608999
 20
404.75697735012932
 30
0.0
  0
VERTEX
  5
18FB
  8
L1
 10
664.18322190972412
 20
404.75657199744143
 30
0.0
  0
VERTEX
  5
18FC
  8
L1
 10
664.18322395565451
 20
404.75653295876191
 30
0.0
  0
SEQEND
  5
18FD
  8
L1
  0
POLYLINE
  5
247
  8
L1
 66
     1
 10
0.0
 20
0.0
 30
0.0
  0
VERTEX
  5
18FE
  8
L1
 10
664.18320676029896
 20
404.75686106569037
 30
0.0
  0
VERTEX
  5
18FF
  8
L1
 10
664.18316689764481
 20
404.75690186595938
 30
0.0
  0
VERTEX
  5
1900
  8
L1
 10
664.18254353423504
 20
404.75746863835047
 30
0.0
  0
VERTEX
  5
1901
  8
L1
 10
664.17930456581234
 20
404.76035539596171
 30
0.0
  0
VERTEX
  5
1902
  8
L1
 10
664.16355236027175
 20
404.77430212122209
 30
0.0
  0
VERTEX
  5
1903
  8
L1
 10
664.14675449603044
 20
404.78914351580931
 30
0.0
  0
SEQEND
  5
1904
  8
L1
  0
POLYLINE
  5
248
  8
L1
 66
     1
 10
0.0
 20
0.0
 30
0.0
  0
VERTEX
  5
1905
  8
L1
 10
664.14675449603044
 20
404.78914351580931
 30
0.0
  0
VERTEX
  5
1906
  8
L1
 10
664.07818746892247
 20
404.82816377114432
 30
0.0
  0
VERTEX
  5
1907
  8
L1
 10
663.74557362826044
 20
404.85260090535729
 30
0.0
  0
VERTEX
  5
1908
  8
L1
 10
663.22246071445056
 20
404.73726643699229
 30
0.0
  0
VERTEX
  5
1909
  8
L1
 10
662.94356970202591
 20
404.63451992451451
 30
0.0
  0
SEQEND
  5
190A
  8
L1
  0
POLYLINE
  5
249
  8
L1
 66
     1
 10
0.0
 20
0.0
 30
0.0
  0
VERTEX
  5
190B
  8
L1
 10
662.20002064215009
 20
404.48833315718758
 30
0.0
  0
VERTEX
  5
190C
  8
L1
 10
662.58085336382749
 20
404.52522000897812
 30
0.0
  0
VERTEX
  5
190D
  8
L1
 10
662.94356970202591
 20
404.63451992451451
 30
0.0
  0
SEQEND
  5
190E
  8
L1
  0
POLYLINE
  5
24A
  8
L1
 66
     1
 10
0.0
 20
0.0
 30
0.0
  0
VERTEX
  5
190F
  8
L1
 10
662.20531161468159
 20
406.49747591785149
 30
0.0
  0
VERTEX
  5
1910
  8
L1
 10
662.2433726615493
 20
406.46400257162861
 30
0.0
  0
VERTEX
  5
1911
  8
L1
 10
662.32075076998569
 20
406.3959520114401
 30
0.0
  0
VERTEX
  5
1912
  8
L1
 10
662.47472781129306
 20
406.26053673714358
 30
0.0
  0
VERTEX
  5
1913
  8
L1
 10
662.78196427019134
 20
405.99033768381202
 30
0.0
  0
VERTEX
  5
1914
  8
L1
 10
663.39595287826864
 20
405.45036571971281
 30
0.0
  0
VERTEX
  5
1915
  8
L1
 10
664.18314332096656
 20
404.75807156033892
 30
0.0
  0
SEQEND
  5
1916
  8
L1
  0
POLYLINE
  5
24B
  8
L1
 66
     1
 10
0.0
 20
0.0
 30
0.0
  0
VERTEX
  5
1917
  8
L1
 10
676.66171201032375
 20
404.7889483807798
 30
0.0
  0
VERTEX
  5
1918
  8
L1
 10
676.57356912338685
 20
404.7753058582943
 30
0.0
  0
VERTEX
  5
1919
  8
L1
 10
676.45424569674105
 20
404.76283944897779
 30
0.0
  0
VERTEX
  5
191A
  8
L1
 10
676.35721468155418
 20
404.75766650550781
 30
0.0
  0
VERTEX
  5
191B
  8
L1
 10
676.31389353180452
 20
404.75677287165479
 30
0.0
  0
VERTEX
  5
191C
  8
L1
 10
676.29191174554489
 20
404.7566514845181
 30
0.0
  0
SEQEND
  5
191D
  8
L1
  0
POLYLINE
  5
24C
  8
L1
 66
     1
 10
0.0
 20
0.0
 30
0.0
  0
VERTEX
  5
191E
  8
L1
 10
676.29191174554489
 20
404.7566514845181
 30
0.0
  0
VERTEX
  5
191F
  8
L1
 10
674.53615295283953
 20
404.75686139180868
 30
0.0
  0
VERTEX
  5
1920
  8
L1
 10
674.0966759394837
 20
404.75741392070131
 30
0.0
  0
VERTEX
  5
1921
  8
L1
 10
673.74082964759975
 20
404.7579401375919
 30
0.0
  0
VERTEX
  5
1922
  8
L1
 10
673.09050933233357
 20
404.75800045981839
 30
0.0
  0
VERTEX
  5
1923
  8
L1
 10
672.67703407229635
 20
404.75682807880798
 30
0.0
  0
VERTEX
  5
1924
  8
L1
 10
672.34554354058355
 20
404.75520991279637
 30
0.0
  0
VERTEX
  5
1925
  8
L1
 10
671.77296186832075
 20
404.7536049863586
 30
0.0
  0
SEQEND
  5
1926
  8
L1
  0
LINE
  5
24D
  8
L1
 10
678.30323278273033
 20
404.48833315718758
 30
0.0
 11
679.49819956083309
 21
381.6870087269117
 31
0.0
  0
ARC
  5
24E
  8
L1
 10
679.69792546778399
 20
381.69747591816031
 30
0.0
 40
0.1999999999999957
 50
182.9999999999996
 51
270.0
  0
ARC
  5
24F
  8
L1
 10
679.91833964109821
 20
381.29747591816027
 30
0.0
 40
0.1999999999999879
 50
2.9999999999996598
 51
90.0
  0
POLYLINE
  5
250
  8
L1
 66
     1
 10
0.0
 20
0.0
 30
0.0
  0
VERTEX
  5
1927
  8
L1
 10
678.07719808210777
 20
404.69240873144759
 30
0.0
  0
VERTEX
  5
1928
  8
L1
 10
678.14918407274206
 20
404.63451992451451
 30
0.0
  0
SEQEND
  5
1929
  8
L1
  0
POLYLINE
  5
251
  8
L1
 66
     1
 10
0.0
 20
0.0
 30
0.0
  0
VERTEX
  5
192A
  8
L1
 10
678.14925257231721
 20
404.6344549208448
 30
0.0
  0
VERTEX
  5
192B
  8
L1
 10
678.26437959802593
 20
404.52520345277611
 30
0.0
  0
VERTEX
  5
192C
  8
L1
 10
678.30323278273033
 20
404.48833315718758
 30
0.0
  0
SEQEND
  5
192D
  8
L1
  0
LINE
  5
992
  8
L2
 10
433.09139375163841
 20
404.29747591816022
 30
0.0
 11
675.37639841232146
 21
404.29747591816027
 31
0.0
  0
LINE
  5
9C1
  8
L1
 10
313.29542854270562
 20
290.7316176876962
 30
0.0
 11
315.3045713036783
 21
292.84881239806151
 31
0.0
  0
LINE
  5
9C2
  8
L1
 10
315.3045713036783
 20
292.84881239806151
 30
0.0
 11
338.10589573395413
 21
294.04377917616438
 31
0.0
  0
LINE
  5
9C4
  8
L1
 10
338.484961351457
 20
294.66364516338029
 30
0.0
 11
364.1761485120212
 21
296.01006322961052
 31
0.0
  0
LINE
  5
9CD
  8
L1
 10
364.1761485120212
 20
296.01006322961052
 30
0.0
 11
364.89542854270559
 21
295.29078319892619
 31
0.0
  0
LINE
  5
9CE
  8
L1
 10
364.89542854270559
 20
295.29078319892619
 30
0.0
 11
364.89542854270559
 21
294.44775909870162
 31
0.0
  0
ARC
  5
9CF
  8
L2
 10
365.59542854270552
 20
293.94775909870123
 30
0.0
 40
0.3708501521392529
 50
280.00000000001057
 51
328.77140596680852
  0
LINE
  5
9D1
  8
L2
 10
364.89542854270559
 20
278.94775909870128
 30
0.0
 11
340.49542854270561
 21
278.30882261241311
 31
0.0
  0
LINE
  5
9D2
  8
L2
 10
340.49542854270561
 20
278.30882261241311
 30
0.0
 11
317.31692460834108
 21
277.07312558239659
 31
0.0
  0
ARC
  5
9D6
  8
L1
 10
365.59542854270552
 20
118.04775909870131
 30
0.0
 40
0.3708501521392529
 50
279.99999999999278
 51
0.0
  0
LINE
  5
9D7
  8
L1
 10
365.65982599581201
 20
117.6825429936686
 30
0.0
 11
364.89542854270559
 21
117.54775909870099
 31
0.0
  0
LINE
  5
9DA
  8
L1
 10
364.17614851202109
 20
115.98545496779209
 30
0.0
 11
338.484961351457
 21
117.33187303402229
 31
0.0
  0
LINE
  5
9DB
  8
L1
 10
338.10589573395413
 20
117.9517390212381
 30
0.0
 11
315.3045713036783
 21
119.14670579934101
 31
0.0
  0
ARC
  5
9EB
  8
L1
 10
365.59542854270552
 20
293.94775909870123
 30
0.0
 40
0.3708501521392529
 50
0.0
 51
80.00000000001161
  0
LINE
  5
9F3
  8
L1
 10
338.29542854270551
 20
294.24350508311539
 30
0.0
 11
338.29542854270551
 21
294.46391925642951
 31
0.0
  0
LINE
  5
9F4
  8
L1
 10
365.6598259958119
 20
294.3129752037338
 30
0.0
 11
364.89542854270547
 21
294.44775909870128
 31
0.0
  0
LINE
  5
9F5
  8
L2
 10
338.29542854270562
 20
293.84515246187982
 30
0.0
 11
338.29542854270562
 21
293.97130326572977
 31
0.0
  0
LINE
  5
9F6
  8
L2
 10
364.89542854270559
 20
293.44775909870128
 30
0.0
 11
365.65982599581213
 21
293.58254299366882
 31
0.0
  0
LINE
  5
9F7
  8
L1
 10
338.29542854270551
 20
117.75201311428719
 30
0.0
 11
338.29542854270551
 21
117.531598940973
 31
0.0
  0
LINE
  5
9F8
  8
L2
 10
338.29542854270562
 20
118.1503657355227
 30
0.0
 11
338.29542854270562
 21
118.0242149316727
 31
0.0
  0
ARC
  5
9FA
  8
L1
 10
338.49542854270561
 20
117.531598940973
 30
0.0
 40
0.2
 50
180.0
 51
266.99999999999932
  0
ARC
  5
9FB
  8
L1
 10
338.09542854270552
 20
117.75201311428719
 30
0.0
 40
0.2
 50
0.0
 51
87.000000000000114
  0
ARC
  5
9FC
  8
L1
 10
338.09542854270552
 20
294.24350508311539
 30
0.0
 40
0.2
 50
273.0
 51
0.0
  0
LINE
  5
9FD
  8
L2
 10
364.89542854270559
 20
118.54775909870121
 30
0.0
 11
365.65982599581213
 21
118.41297520373369
 31
0.0
  0
ARC
  5
9FE
  8
L2
 10
365.59542854270552
 20
118.04775909870131
 30
0.0
 40
0.3708501521392529
 50
31.228594033191431
 51
79.99999999998937
  0
LINE
  5
A65
  8
L1
 10
315.3045713036783
 20
278.74281027244899
 30
0.0
 11
338.10589573395401
 21
279.93777705055192
 31
0.0
  0
LINE
  5
A6A
  8
L1
 10
313.29542854270551
 20
135.2444706502022
 30
0.0
 11
313.29542854270551
 21
276.75104754720041
 31
0.0
  0
LINE
  5
A91
  8
L1
 10
338.29542854270551
 20
294.46391925642951
 30
0.0
 11
338.29542854270551
 21
117.75201311428729
 31
0.0
  0
ARC
  5
AA7
  8
L1
 10
338.09542854270541
 20
280.13750295750282
 30
0.0
 40
0.2
 50
273.0
 51
0.0
  0
LINE
  5
AA8
  8
L1
 10
315.3045713036783
 20
292.84881239806151
 30
0.0
 11
315.3045713036783
 21
119.14670579934101
 31
0.0
  0
ARC
  5
AB7
  8
L1
 10
338.09542854270541
 20
131.85801523989969
 30
0.0
 40
0.2
 50
0.0
 51
86.999999999999986
  0
LINE
  5
AC4
  8
L2
 10
445.37681299967448
 20
402.87597985252461
 30
0.0
 11
444.14111596965807
 21
379.29747591816022
 31
0.0
  0
ARC
  5
AC5
  8
L2
 10
446.87475730180643
 20
402.79747591816022
 30
0.0
 40
1.5
 50
90.0
 51
176.9999999999998
  0
LINE
  5
AC6
  8
L2
 10
443.5021794833699
 20
354.89747591816018
 30
0.0
 11
444.1411159696579
 21
379.29747591816022
 31
0.0
  0
LINE
  5
AC8
  8
L2
 10
662.52754596706518
 20
402.87597985252461
 30
0.0
 11
663.76324299708176
 21
379.29747591816022
 31
0.0
  0
ARC
  5
AC9
  8
L2
 10
661.02960166493347
 20
402.79747591816022
 30
0.0
 40
1.5
 50
3.0000000000001692
 51
90.0
  0
LINE
  5
ACA
  8
L2
 10
664.40217948336988
 20
354.89747591816018
 30
0.0
 11
663.76324299708176
 21
379.29747591816022
 31
0.0
  0
LINE
  5
AE6
  8
L1
 10
313.29542854270551
 20
276.62561556208368
 30
0.0
 11
315.30457130367819
 21
278.74281027244899
 31
0.0
  0
LINE
  5
AE7
  8
L1
 10
313.29542854270551
 20
135.36990263531879
 30
0.0
 11
315.30457130367819
 21
133.2527079249536
 31
0.0
  0
LINE
  5
AE9
  8
L2
 10
313.79542854270562
 20
277.01006322961041
 30
0.0
 11
313.79542854270562
 21
136.42033691713769
 31
0.0
  0
LINE
  5
AEA
  8
L2
 10
313.79542854270562
 20
277.01006322961041
 30
0.0
 11
313.29542854270551
 21
277.01006322961052
 31
0.0
  0
LINE
  5
AEB
  8
L1
 10
315.3045713036783
 20
133.25270792495351
 30
0.0
 11
338.10589573395401
 21
132.05774114685059
 31
0.0
  0
LINE
  5
AEC
  8
L2
 10
313.79542854270562
 20
134.98545496779209
 30
0.0
 11
313.29542854270551
 21
134.98545496779201
 31
0.0
  0
LINE
  5
AED
  8
L2
 10
794.10893042403416
 20
277.01006322961041
 30
0.0
 11
794.10893042403416
 21
136.42033691713769
 31
0.0
  0
LINE
  5
AEE
  8
L2
 10
792.00893042403425
 20
275.57518128026459
 30
0.0
 11
792.00893042403425
 21
136.42033691713769
 31
0.0
  0
LINE
  5
AEF
  8
L1
 10
792.59978766306153
 20
292.84881239806151
 30
0.0
 11
792.59978766306153
 21
119.14670579934101
 31
0.0
  0
LINE
  5
AF0
  8
L1
 10
769.60893042403416
 20
294.46391925642951
 30
0.0
 11
769.60893042403416
 21
117.75201311428729
 31
0.0
  0
LINE
  5
AF1
  8
L1
 10
794.60893042403427
 20
135.2444706502022
 30
0.0
 11
794.60893042403427
 21
276.75104754720041
 31
0.0
  0
LINE
  5
AF2
  8
L1
 10
743.00893042403357
 20
205.99775909870129
 30
0.0
 11
743.00893042403425
 21
295.29078319892608
 31
0.0
  0
LINE
  5
AF3
  8
L1
 10
741.93808027189505
 20
293.94775909870123
 30
0.0
 11
741.93808027189505
 21
118.04775909870131
 31
0.0
  0
LINE
  5
AF4
  8
L1
 10
794.6089304240345
 20
121.42921481331339
 30
0.0
 11
794.60893042403416
 21
290.7316176876962
 31
0.0
  0
LINE
  5
AF5
  8
L1
 10
743.00893042403357
 20
205.99775909870129
 30
0.0
 11
743.00893042403425
 21
116.7047349984764
 31
0.0
  0
LINE
  5
AF6
  8
L1
 10
792.59978766306153
 20
133.25270792495351
 30
0.0
 11
769.79846323278582
 21
132.05774114685059
 31
0.0
  0
LINE
  5
AF7
  8
L2
 10
790.58743435839858
 20
134.92239261500589
 30
0.0
 11
767.40893042403422
 21
133.68669558498939
 31
0.0
  0
LINE
  5
AF8
  8
L1
 10
769.79846323278571
 20
117.9517390212381
 30
0.0
 11
792.59978766306153
 21
119.14670579934101
 31
0.0
  0
LINE
  5
AF9
  8
L1
 10
792.59978766306153
 20
119.14670579934101
 30
0.0
 11
794.6089304240345
 21
121.42921481331339
 31
0.0
  0
LINE
  5
AFA
  8
L1
 10
794.60893042403427
 20
135.36990263531879
 30
0.0
 11
792.59978766306165
 21
133.2527079249536
 31
0.0
  0
LINE
  5
AFB
  8
L2
 10
794.10893042403416
 20
134.98545496779209
 30
0.0
 11
794.60893042403416
 21
134.98545496779201
 31
0.0
  0
ARC
  5
AFC
  8
L2
 10
790.50893042403425
 20
136.42033691713769
 30
0.0
 40
1.5
 50
273.00000000000011
 51
0.000000000000007
  0
LINE
  5
AFD
  8
L1
 10
743.72821045471858
 20
115.98545496779209
 30
0.0
 11
769.41939761528283
 21
117.33187303402229
 31
0.0
  0
LINE
  5
AFE
  8
L1
 10
743.72821045471858
 20
115.98545496779199
 30
0.0
 11
769.41939761528283
 21
117.33187303402219
 31
0.0
  0
ARC
  5
AFF
  8
L1
 10
769.80893042403432
 20
117.75201311428719
 30
0.0
 40
0.2
 50
92.999999999999886
 51
180.0
  0
ARC
  5
B00
  8
L1
 10
769.40893042403422
 20
117.531598940973
 30
0.0
 40
0.2
 50
273.00000000000068
 51
0.000000000000007
  0
LINE
  5
B01
  8
L2
 10
769.60893042403416
 20
118.1503657355227
 30
0.0
 11
769.60893042403416
 21
118.0242149316727
 31
0.0
  0
LINE
  5
B02
  8
L1
 10
769.60893042403427
 20
117.75201311428719
 30
0.0
 11
769.60893042403427
 21
117.531598940973
 31
0.0
  0
ARC
  5
B03
  8
L1
 10
769.40893042403422
 20
117.531598940973
 30
0.0
 40
0.2
 50
273.00000000000068
 51
0.000000000000007
  0
ARC
  5
B04
  8
L2
 10
742.30893042403432
 20
118.04775909870131
 30
0.0
 40
0.3708501521392529
 50
100.0000000000106
 51
148.77140596680849
  0
LINE
  5
B05
  8
L2
 10
743.00893042403425
 20
118.54775909870121
 30
0.0
 11
742.24453297092771
 21
118.41297520373369
 31
0.0
  0
LINE
  5
B06
  8
L1
 10
742.24453297092782
 20
117.6825429936686
 30
0.0
 11
743.00893042403425
 21
117.54775909870099
 31
0.0
  0
ARC
  5
B07
  8
L1
 10
742.30893042403432
 20
118.04775909870131
 30
0.0
 40
0.3708501521392529
 50
180.0
 51
260.00000000000711
  0
LINE
  5
B08
  8
L1
 10
743.00893042403425
 20
116.7047349984764
 30
0.0
 11
743.72821045471858
 21
115.9854549677919
 31
0.0
  0
LINE
  5
B09
  8
L2
 10
743.00893042403425
 20
133.04775909870111
 30
0.0
 11
767.40893042403422
 21
133.68669558498931
 31
0.0
  0
ARC
  5
B0A
  8
L1
 10
769.80893042403443
 20
131.85801523989969
 30
0.0
 40
0.2
 50
93.0
 51
180.0
  0
LINE
  5
B0B
  8
L6
 10
737.56676522228167
 20
205.99775909870129
 30
0.0
 11
797.40792890013995
 21
205.99775909870129
 31
0.0
  0
LINE
  5
B0C
  8
L2
 10
767.40893042403422
 20
278.30882261241311
 30
0.0
 11
790.58743435839858
 21
277.07312558239659
 31
0.0
  0
LINE
  5
B0D
  8
L1
 10
792.59978766306153
 20
278.74281027244899
 30
0.0
 11
769.79846323278582
 21
279.93777705055192
 31
0.0
  0
LINE
  5
B0E
  8
L1
 10
792.59978766306153
 20
292.84881239806151
 30
0.0
 11
769.79846323278571
 21
294.04377917616438
 31
0.0
  0
LINE
  5
B0F
  8
L1
 10
794.60893042403427
 20
276.62561556208368
 30
0.0
 11
792.59978766306165
 21
278.74281027244899
 31
0.0
  0
LINE
  5
B10
  8
L2
 10
794.10893042403416
 20
277.01006322961041
 30
0.0
 11
794.60893042403416
 21
277.01006322961052
 31
0.0
  0
ARC
  5
B11
  8
L2
 10
790.50893042403425
 20
275.57518128026481
 30
0.0
 40
1.5
 50
0.000000000000007
 51
86.999999999999844
  0
LINE
  5
B12
  8
L1
 10
794.60893042403416
 20
290.7316176876962
 30
0.0
 11
792.59978766306153
 21
292.84881239806151
 31
0.0
  0
LINE
  5
B13
  8
L2
 10
743.00893042403425
 20
278.94775909870128
 30
0.0
 11
767.40893042403422
 21
278.30882261241311
 31
0.0
  0
ARC
  5
B14
  8
L1
 10
769.80893042403443
 20
280.13750295750282
 30
0.0
 40
0.2
 50
180.0
 51
267.0
  0
LINE
  5
B15
  8
L1
 10
769.41939761528283
 20
294.66364516338029
 30
0.0
 11
743.72821045471858
 21
296.01006322961052
 31
0.0
  0
LINE
  5
B16
  8
L1
 10
743.72821045471858
 20
296.01006322961052
 30
0.0
 11
769.41939761528283
 21
294.66364516338029
 31
0.0
  0
ARC
  5
B17
  8
L1
 10
769.80893042403432
 20
294.24350508311539
 30
0.0
 40
0.2
 50
180.0
 51
267.0
  0
LINE
  5
B18
  8
L2
 10
769.60893042403416
 20
293.84515246187982
 30
0.0
 11
769.60893042403416
 21
293.97130326572977
 31
0.0
  0
LINE
  5
B19
  8
L1
 10
769.60893042403416
 20
294.24350508311539
 30
0.0
 11
769.60893042403427
 21
294.46391925642951
 31
0.0
  0
ARC
  5
B1A
  8
L1
 10
769.40893042403422
 20
294.46391925642951
 30
0.0
 40
0.2
 50
0.000000000000007
 51
86.999999999999346
  0
LINE
  5
B1B
  8
L2
 10
743.00893042403425
 20
293.44775909870128
 30
0.0
 11
742.24453297092771
 21
293.58254299366882
 31
0.0
  0
LINE
  5
B1C
  8
L1
 10
742.24453297092793
 20
294.3129752037338
 30
0.0
 11
743.00893042403425
 21
294.44775909870128
 31
0.0
  0
ARC
  5
B1D
  8
L1
 10
742.30893042403432
 20
293.94775909870123
 30
0.0
 40
0.3708501521392529
 50
99.999999999988404
 51
180.0
  0
ARC
  5
B1E
  8
L2
 10
742.30893042403432
 20
293.94775909870123
 30
0.0
 40
0.3708501521392529
 50
211.2285940331914
 51
259.99999999998931
  0
LINE
  5
B1F
  8
L1
 10
743.00893042403425
 20
295.29078319892619
 30
0.0
 11
743.00893042403425
 21
294.44775909870162
 31
0.0
  0
LINE
  5
B20
  8
L1
 10
743.72821045471858
 20
296.01006322961052
 30
0.0
 11
743.00893042403425
 21
295.29078319892619
 31
0.0
  0
LINE
  5
B21
  8
L1
 10
743.00893042403425
 20
295.29078319892608
 30
0.0
 11
743.72821045471858
 21
296.01006322961052
 31
0.0
  0
LINE
  5
B22
  8
L2
 10
433.09139375163841
 20
7.6980422792422578
 30
0.0
 11
675.37639841232146
 21
7.698042279242201
 31
0.0
  0
LINE
  5
B23
  8
L1
 10
445.70433832458991
 20
7.5071850402149494
 30
0.0
 11
662.20002064214998
 21
7.5071850402149494
 31
0.0
  0
LINE
  5
B24
  8
L1
 10
426.44009104559581
 20
56.37897794169276
 30
0.0
 11
681.46426792114414
 21
56.37897794169276
 31
0.0
  0
LINE
  5
B25
  8
L1
 10
427.15915538314528
 20
57.098042279242229
 30
0.0
 11
680.74520358359473
 21
57.098042279242229
 31
0.0
  0
LINE
  5
B26
  8
L1
 10
428.50217948337013
 20
58.168892431381487
 30
0.0
 11
679.40217948336999
 21
58.168892431381487
 31
0.0
  0
LINE
  5
B27
  8
L1
 10
431.71832089437498
 20
5.4980422792422701
 30
0.0
 11
676.18603807236502
 21
5.4980422792422132
 31
0.0
  0
LINE
  5
B28
  8
L1
 10
427.98601932564179
 20
30.49804227924227
 30
0.0
 11
679.91833964109821
 21
30.49804227924232
 31
0.0
  0
LINE
  5
B29
  8
L2
 10
445.37681299967448
 20
9.1195383448779221
 30
0.0
 11
444.14111596965807
 21
32.698042279242372
 31
0.0
  0
LINE
  5
B2A
  8
L1
 10
443.72115220644088
 20
7.2386571317120447
 30
0.0
 11
442.5121124769779
 21
30.308509470490769
 31
0.0
  0
LINE
  5
B2B
  8
L1
 10
429.60112618400967
 20
7.5071850402149494
 30
0.0
 11
428.40615940590681
 21
30.308509470490829
 31
0.0
  0
LINE
  5
B2C
  8
L2
 10
443.5021794833699
 20
57.09804227924235
 30
0.0
 11
444.1411159696579
 21
32.698042279242372
 31
0.0
  0
LINE
  5
B2D
  8
L1
 10
427.78629341869089
 20
30.68757508799365
 30
0.0
 11
426.43987535246072
 21
56.378762248557791
 31
0.0
  0
LINE
  5
B2E
  8
L1
 10
426.44009104559581
 20
56.37897794169276
 30
0.0
 11
427.15915538314528
 21
57.098042279242229
 31
0.0
  0
ARC
  5
B2F
  8
L1
 10
428.50217948337013
 20
57.798042279242217
 30
0.0
 40
0.3708501521392529
 50
90.000000000000028
 51
170.00000000000711
  0
LINE
  5
B30
  8
L1
 10
428.13696337833761
 20
57.862439732348662
 30
0.0
 11
428.00274196230629
 21
57.101232255807133
 31
0.0
  0
ARC
  5
B31
  8
L1
 10
428.2064334989559
 20
30.298042279242221
 30
0.0
 40
0.1999999999999957
 50
2.999999999999674
 51
90.000000000000028
  0
ARC
  5
B32
  8
L1
 10
427.98601932564179
 20
30.698042279242259
 30
0.0
 40
0.1999999999999879
 50
182.9999999999996
 51
270.0
  0
ARC
  5
B33
  8
L1
 10
442.312386570027
 20
30.298042279242221
 30
0.0
 40
0.1999999999999957
 50
2.999999999999674
 51
90.000000000000028
  0
POLYLINE
  5
B34
  8
L1
 66
     1
 10
0.0
 20
0.0
 30
0.0
  0
VERTEX
  5
192E
  8
L1
 10
431.71832089437498
 20
5.4980422792422701
 30
0.0
  0
VERTEX
  5
192F
  8
L1
 10
431.66572540436761
 20
5.547953535628209
 30
0.0
  0
VERTEX
  5
1930
  8
L1
 10
431.66497698446801
 20
5.5486637595939783
 30
0.0
  0
VERTEX
  5
1931
  8
L1
 10
431.23285570406978
 20
5.9587315432152641
 30
0.0
  0
VERTEX
  5
1932
  8
L1
 10
431.0625522107328
 20
6.1203435239797841
 30
0.0
  0
VERTEX
  5
1933
  8
L1
 10
430.8915691991532
 20
6.2826003434790891
 30
0.0
  0
VERTEX
  5
1934
  8
L1
 10
430.72003726022552
 20
6.4453780755814023
 30
0.0
  0
VERTEX
  5
1935
  8
L1
 10
430.54808709453982
 20
6.608552690057877
 30
0.0
  0
VERTEX
  5
1936
  8
L1
 10
430.3758494806354
 20
6.7720000827086997
 30
0.0
  0
VERTEX
  5
1937
  8
L1
 10
430.203455272128
 20
6.935596078089076
 30
0.0
  0
VERTEX
  5
1938
  8
L1
 10
430.0310353946191
 20
7.0992164324422333
 30
0.0
  0
VERTEX
  5
1939
  8
L1
 10
429.86518297045609
 20
7.2566045062767444
 30
0.0
  0
VERTEX
  5
193A
  8
L1
 10
429.85872084173758
 20
7.2627368374561447
 30
0.0
  0
VERTEX
  5
193B
  8
L1
 10
429.7551063944228
 20
7.3610632765577293
 30
0.0
  0
SEQEND
  5
193C
  8
L1
  0
POLYLINE
  5
B35
  8
L1
 66
     1
 10
0.0
 20
0.0
 30
0.0
  0
VERTEX
  5
193D
  8
L1
 10
429.7551063944228
 20
7.3610632765577293
 30
0.0
  0
VERTEX
  5
193E
  8
L1
 10
430.00533636468668
 20
7.2146073931683636
 30
0.0
  0
VERTEX
  5
193F
  8
L1
 10
430.51698672231458
 20
7.1371913514034873
 30
0.0
  0
VERTEX
  5
1940
  8
L1
 10
431.18940778381602
 20
7.197409424531144
 30
0.0
  0
VERTEX
  5
1941
  8
L1
 10
431.24264695641631
 20
7.2065698166226753
 30
0.0
  0
SEQEND
  5
1942
  8
L1
  0
POLYLINE
  5
B36
  8
L1
 66
     1
 10
0.0
 20
0.0
 30
0.0
  0
VERTEX
  5
1943
  8
L1
 10
429.82716088463218
 20
7.3031094659549458
 30
0.0
  0
VERTEX
  5
1944
  8
L1
 10
429.75517489399789
 20
7.3609982728880254
 30
0.0
  0
SEQEND
  5
1945
  8
L1
  0
POLYLINE
  5
B37
  8
L1
 66
     1
 10
0.0
 20
0.0
 30
0.0
  0
VERTEX
  5
1946
  8
L1
 10
429.7551063944228
 20
7.3610632765577293
 30
0.0
  0
VERTEX
  5
1947
  8
L1
 10
429.63997936871408
 20
7.470314744626477
 30
0.0
  0
VERTEX
  5
1948
  8
L1
 10
429.60112618400967
 20
7.5071850402150062
 30
0.0
  0
SEQEND
  5
1949
  8
L1
  0
ARC
  5
B38
  8
L2
 10
446.87475730180643
 20
9.1980422792423724
 30
0.0
 40
1.5
 50
183.00000000000011
 51
270.0
  0
POLYLINE
  5
B39
  8
L1
 66
     1
 10
0.0
 20
0.0
 30
0.0
  0
VERTEX
  5
194A
  8
L1
 10
436.1313970984192
 20
7.2419132110439364
 30
0.0
  0
VERTEX
  5
194B
  8
L1
 10
436.1762744969094
 20
7.2419400816170869
 30
0.0
  0
VERTEX
  5
194C
  8
L1
 10
436.37032201436358
 20
7.2442791588152309
 30
0.0
  0
VERTEX
  5
194D
  8
L1
 10
436.82812554953648
 20
7.2618661312582162
 30
0.0
  0
VERTEX
  5
194E
  8
L1
 10
437.37146257505879
 20
7.2921618948985829
 30
0.0
  0
VERTEX
  5
194F
  8
L1
 10
438.09296825575763
 20
7.3291634095014038
 30
0.0
  0
VERTEX
  5
1950
  8
L1
 10
438.9739878526135
 20
7.3664638642150058
 30
0.0
  0
VERTEX
  5
1951
  8
L1
 10
439.8122216187362
 20
7.3962115519596523
 30
0.0
  0
VERTEX
  5
1952
  8
L1
 10
440.95386819017489
 20
7.4210827351064381
 30
0.0
  0
VERTEX
  5
1953
  8
L1
 10
442.01642697674743
 20
7.4221937608779172
 30
0.0
  0
VERTEX
  5
1954
  8
L1
 10
442.75640281733331
 20
7.4012690527607097
 30
0.0
  0
VERTEX
  5
1955
  8
L1
 10
443.30468305655052
 20
7.3554588039677347
 30
0.0
  0
VERTEX
  5
1956
  8
L1
 10
443.63691242005308
 20
7.2878927492683374
 30
0.0
  0
VERTEX
  5
1957
  8
L1
 10
443.71413513345749
 20
7.246376566276524
 30
0.0
  0
VERTEX
  5
1958
  8
L1
 10
443.7204447834626
 20
7.2419161866198456
 30
0.0
  0
VERTEX
  5
1959
  8
L1
 10
443.72099991439069
 20
7.2415222966217243
 30
0.0
  0
SEQEND
  5
195A
  8
L1
  0
POLYLINE
  5
B3A
  8
L1
 66
     1
 10
0.0
 20
0.0
 30
0.0
  0
VERTEX
  5
195B
  8
L1
 10
431.24264695641631
 20
7.2065698166226753
 30
0.0
  0
VERTEX
  5
195C
  8
L1
 10
431.3307898433531
 20
7.2202123391081718
 30
0.0
  0
VERTEX
  5
195D
  8
L1
 10
431.45011326999901
 20
7.2326787484248021
 30
0.0
  0
VERTEX
  5
195E
  8
L1
 10
431.54714428518571
 20
7.2378516918947184
 30
0.0
  0
VERTEX
  5
195F
  8
L1
 10
431.59046543493548
 20
7.2387453257478001
 30
0.0
  0
VERTEX
  5
1960
  8
L1
 10
431.61244722119523
 20
7.2388667128844304
 30
0.0
  0
SEQEND
  5
1961
  8
L1
  0
POLYLINE
  5
B3B
  8
L1
 66
     1
 10
0.0
 20
0.0
 30
0.0
  0
VERTEX
  5
1962
  8
L1
 10
431.61244722119523
 20
7.2388667128844304
 30
0.0
  0
VERTEX
  5
1963
  8
L1
 10
433.36820601390048
 20
7.2386568055938483
 30
0.0
  0
VERTEX
  5
1964
  8
L1
 10
433.8076830272563
 20
7.2381042767012209
 30
0.0
  0
VERTEX
  5
1965
  8
L1
 10
434.16352931914008
 20
7.2375780598105726
 30
0.0
  0
VERTEX
  5
1966
  8
L1
 10
434.81384963440638
 20
7.237517737584084
 30
0.0
  0
VERTEX
  5
1967
  8
L1
 10
435.22732489444348
 20
7.2386901185945467
 30
0.0
  0
VERTEX
  5
1968
  8
L1
 10
435.55881542615651
 20
7.2403082846061011
 30
0.0
  0
VERTEX
  5
1969
  8
L1
 10
436.1313970984192
 20
7.2419132110439364
 30
0.0
  0
SEQEND
  5
196A
  8
L1
  0
POLYLINE
  5
B3C
  8
L1
 66
     1
 10
0.0
 20
0.0
 30
0.0
  0
VERTEX
  5
196B
  8
L1
 10
443.72122304599372
 20
7.2373054325237831
 30
0.0
  0
VERTEX
  5
196C
  8
L1
 10
443.72122322063041
 20
7.237302100256727
 30
0.0
  0
SEQEND
  5
196D
  8
L1
  0
POLYLINE
  5
B3D
  8
L1
 66
     1
 10
0.0
 20
0.0
 30
0.0
  0
VERTEX
  5
196E
  8
L1
 10
443.72123674230329
 20
7.2370440913662151
 30
0.0
  0
VERTEX
  5
196F
  8
L1
 10
443.72119243780082
 20
7.2378894716351283
 30
0.0
  0
VERTEX
  5
1970
  8
L1
 10
443.72115830065007
 20
7.2385408472732129
 30
0.0
  0
VERTEX
  5
1971
  8
L1
 10
443.72113705701588
 20
7.2389461999611049
 30
0.0
  0
VERTEX
  5
1972
  8
L1
 10
443.72113501108549
 20
7.2389852386405664
 30
0.0
  0
SEQEND
  5
1973
  8
L1
  0
POLYLINE
  5
B3E
  8
L1
 66
     1
 10
0.0
 20
0.0
 30
0.0
  0
VERTEX
  5
1974
  8
L1
 10
443.72115220644099
 20
7.2386571317121016
 30
0.0
  0
VERTEX
  5
1975
  8
L1
 10
443.7211920690952
 20
7.238616331443211
 30
0.0
  0
VERTEX
  5
1976
  8
L1
 10
443.72181543250503
 20
7.2380495590520582
 30
0.0
  0
VERTEX
  5
1977
  8
L1
 10
443.72505440092777
 20
7.235162801440878
 30
0.0
  0
VERTEX
  5
1978
  8
L1
 10
443.74080660646831
 20
7.2212160761803821
 30
0.0
  0
VERTEX
  5
1979
  8
L1
 10
443.75760447070962
 20
7.2063746815932168
 30
0.0
  0
SEQEND
  5
197A
  8
L1
  0
POLYLINE
  5
B3F
  8
L1
 66
     1
 10
0.0
 20
0.0
 30
0.0
  0
VERTEX
  5
197B
  8
L1
 10
443.75760447070962
 20
7.2063746815932168
 30
0.0
  0
VERTEX
  5
197C
  8
L1
 10
443.82617149781743
 20
7.1673544262582141
 30
0.0
  0
VERTEX
  5
197D
  8
L1
 10
444.15878533847962
 20
7.1429172920451833
 30
0.0
  0
VERTEX
  5
197E
  8
L1
 10
444.6818982522895
 20
7.2582517604102463
 30
0.0
  0
VERTEX
  5
197F
  8
L1
 10
444.96078926471409
 20
7.3609982728880254
 30
0.0
  0
SEQEND
  5
1980
  8
L1
  0
POLYLINE
  5
B40
  8
L1
 66
     1
 10
0.0
 20
0.0
 30
0.0
  0
VERTEX
  5
1981
  8
L1
 10
445.70433832458991
 20
7.5071850402149494
 30
0.0
  0
VERTEX
  5
1982
  8
L1
 10
445.32350560291229
 20
7.470298188424465
 30
0.0
  0
VERTEX
  5
1983
  8
L1
 10
444.96078926471409
 20
7.3609982728880254
 30
0.0
  0
SEQEND
  5
1984
  8
L1
  0
POLYLINE
  5
B41
  8
L1
 66
     1
 10
0.0
 20
0.0
 30
0.0
  0
VERTEX
  5
1985
  8
L1
 10
445.69904735205819
 20
5.4980422795509858
 30
0.0
  0
VERTEX
  5
1986
  8
L1
 10
445.6609863051907
 20
5.5315156257739204
 30
0.0
  0
VERTEX
  5
1987
  8
L1
 10
445.58360819675408
 20
5.5995661859624297
 30
0.0
  0
VERTEX
  5
1988
  8
L1
 10
445.429631155447
 20
5.7349814602588927
 30
0.0
  0
VERTEX
  5
1989
  8
L1
 10
445.12239469654872
 20
6.0051805135905161
 30
0.0
  0
VERTEX
  5
198A
  8
L1
 10
444.50840608847142
 20
6.5451524776897818
 30
0.0
  0
VERTEX
  5
198B
  8
L1
 10
443.72121564577338
 20
7.2374466370636119
 30
0.0
  0
SEQEND
  5
198C
  8
L1
  0
LINE
  5
B42
  8
L6
 10
553.95217948336995
 20
1.7335246831524951
 30
0.0
 11
553.95217948336995
 21
62.963084639326439
 31
0.0
  0
LINE
  5
B43
  8
L2
 10
662.52754596706518
 20
9.1195383448779221
 30
0.0
 11
663.76324299708176
 21
32.698042279242372
 31
0.0
  0
LINE
  5
B44
  8
L1
 10
678.30323278273033
 20
7.5071850402149494
 30
0.0
 11
679.49819956083309
 21
30.308509470490829
 31
0.0
  0
LINE
  5
B45
  8
L1
 10
664.18320676029896
 20
7.2386571317120447
 30
0.0
 11
665.3922464897621
 21
30.308509470490769
 31
0.0
  0
LINE
  5
B46
  8
L2
 10
664.40217948336988
 20
57.09804227924235
 30
0.0
 11
663.76324299708176
 21
32.698042279242372
 31
0.0
  0
LINE
  5
B47
  8
L1
 10
680.11806554804912
 20
30.68757508799365
 30
0.0
 11
681.46448361427917
 21
56.378762248557791
 31
0.0
  0
LINE
  5
B48
  8
L1
 10
681.46426792114426
 20
56.37897794169276
 30
0.0
 11
680.74520358359473
 21
57.098042279242229
 31
0.0
  0
ARC
  5
B49
  8
L1
 10
679.40217948336999
 20
57.798042279242217
 30
0.0
 40
0.3708501521392529
 50
9.9999999999928786
 51
90.000000000000028
  0
LINE
  5
B4A
  8
L1
 10
679.76739558840245
 20
57.862439732348662
 30
0.0
 11
679.90161700443355
 21
57.101232255807133
 31
0.0
  0
ARC
  5
B4B
  8
L1
 10
665.59197239671312
 20
30.298042279242221
 30
0.0
 40
0.1999999999999957
 50
90.000000000000028
 51
177.00000000000031
  0
ARC
  5
B4C
  8
L1
 10
679.91833964109821
 20
30.698042279242259
 30
0.0
 40
0.1999999999999879
 50
270.0
 51
357.00000000000028
  0
ARC
  5
B4D
  8
L1
 10
679.69792546778399
 20
30.298042279242221
 30
0.0
 40
0.1999999999999957
 50
90.000000000000028
 51
177.00000000000031
  0
POLYLINE
  5
B4E
  8
L1
 66
     1
 10
0.0
 20
0.0
 30
0.0
  0
VERTEX
  5
198D
  8
L1
 10
671.77296186832075
 20
7.2419132110439364
 30
0.0
  0
VERTEX
  5
198E
  8
L1
 10
671.72808446983061
 20
7.2419400816170869
 30
0.0
  0
VERTEX
  5
198F
  8
L1
 10
671.53403695237637
 20
7.2442791588152309
 30
0.0
  0
VERTEX
  5
1990
  8
L1
 10
671.0762334172033
 20
7.2618661312582162
 30
0.0
  0
VERTEX
  5
1991
  8
L1
 10
670.53289639168099
 20
7.2921618948985829
 30
0.0
  0
VERTEX
  5
1992
  8
L1
 10
669.81139071098232
 20
7.3291634095014038
 30
0.0
  0
VERTEX
  5
1993
  8
L1
 10
668.93037111412639
 20
7.3664638642150058
 30
0.0
  0
VERTEX
  5
1994
  8
L1
 10
668.09213734800392
 20
7.3962115519596523
 30
0.0
  0
VERTEX
  5
1995
  8
L1
 10
666.95049077656495
 20
7.4210827351064381
 30
0.0
  0
VERTEX
  5
1996
  8
L1
 10
665.88793198999247
 20
7.4221937608779172
 30
0.0
  0
VERTEX
  5
1997
  8
L1
 10
665.14795614940681
 20
7.4012690527607097
 30
0.0
  0
VERTEX
  5
1998
  8
L1
 10
664.59967591018949
 20
7.3554588039677347
 30
0.0
  0
VERTEX
  5
1999
  8
L1
 10
664.26744654668687
 20
7.2878927492683374
 30
0.0
  0
VERTEX
  5
199A
  8
L1
 10
664.19022383328252
 20
7.246376566276524
 30
0.0
  0
VERTEX
  5
199B
  8
L1
 10
664.18391418327735
 20
7.2419161866198456
 30
0.0
  0
VERTEX
  5
199C
  8
L1
 10
664.18335905234915
 20
7.2415222966217243
 30
0.0
  0
SEQEND
  5
199D
  8
L1
  0
ARC
  5
B4F
  8
L2
 10
661.02960166493347
 20
9.1980422792423724
 30
0.0
 40
1.5
 50
270.0
 51
356.99999999999977
  0
POLYLINE
  5
B50
  8
L1
 66
     1
 10
0.0
 20
0.0
 30
0.0
  0
VERTEX
  5
199E
  8
L1
 10
662.20531161468159
 20
5.4980422795509858
 30
0.0
  0
VERTEX
  5
199F
  8
L1
 10
662.2433726615493
 20
5.5315156257739204
 30
0.0
  0
VERTEX
  5
19A0
  8
L1
 10
662.32075076998569
 20
5.5995661859624297
 30
0.0
  0
VERTEX
  5
19A1
  8
L1
 10
662.47472781129306
 20
5.7349814602588927
 30
0.0
  0
VERTEX
  5
19A2
  8
L1
 10
662.78196427019134
 20
6.0051805135905161
 30
0.0
  0
VERTEX
  5
19A3
  8
L1
 10
663.39595287826864
 20
6.5451524776897818
 30
0.0
  0
VERTEX
  5
19A4
  8
L1
 10
664.18314332096656
 20
7.2374466370636119
 30
0.0
  0
SEQEND
  5
19A5
  8
L1
  0
POLYLINE
  5
B51
  8
L1
 66
     1
 10
0.0
 20
0.0
 30
0.0
  0
VERTEX
  5
19A6
  8
L1
 10
662.20002064215009
 20
7.5071850402149494
 30
0.0
  0
VERTEX
  5
19A7
  8
L1
 10
662.58085336382749
 20
7.470298188424465
 30
0.0
  0
VERTEX
  5
19A8
  8
L1
 10
662.94356970202591
 20
7.3609982728880254
 30
0.0
  0
SEQEND
  5
19A9
  8
L1
  0
POLYLINE
  5
B52
  8
L1
 66
     1
 10
0.0
 20
0.0
 30
0.0
  0
VERTEX
  5
19AA
  8
L1
 10
664.14675449603044
 20
7.2063746815932168
 30
0.0
  0
VERTEX
  5
19AB
  8
L1
 10
664.07818746892247
 20
7.1673544262582141
 30
0.0
  0
VERTEX
  5
19AC
  8
L1
 10
663.74557362826044
 20
7.1429172920451833
 30
0.0
  0
VERTEX
  5
19AD
  8
L1
 10
663.22246071445056
 20
7.2582517604102463
 30
0.0
  0
VERTEX
  5
19AE
  8
L1
 10
662.94356970202591
 20
7.3609982728880254
 30
0.0
  0
SEQEND
  5
19AF
  8
L1
  0
POLYLINE
  5
B53
  8
L1
 66
     1
 10
0.0
 20
0.0
 30
0.0
  0
VERTEX
  5
19B0
  8
L1
 10
664.18320676029896
 20
7.2386571317121016
 30
0.0
  0
VERTEX
  5
19B1
  8
L1
 10
664.18316689764481
 20
7.238616331443211
 30
0.0
  0
VERTEX
  5
19B2
  8
L1
 10
664.18254353423504
 20
7.2380495590520582
 30
0.0
  0
VERTEX
  5
19B3
  8
L1
 10
664.17930456581234
 20
7.235162801440878
 30
0.0
  0
VERTEX
  5
19B4
  8
L1
 10
664.16355236027175
 20
7.2212160761803821
 30
0.0
  0
VERTEX
  5
19B5
  8
L1
 10
664.14675449603044
 20
7.2063746815932168
 30
0.0
  0
SEQEND
  5
19B6
  8
L1
  0
POLYLINE
  5
B54
  8
L1
 66
     1
 10
0.0
 20
0.0
 30
0.0
  0
VERTEX
  5
19B7
  8
L1
 10
664.18312222443649
 20
7.2370440913662151
 30
0.0
  0
VERTEX
  5
19B8
  8
L1
 10
664.18316652893918
 20
7.2378894716351283
 30
0.0
  0
VERTEX
  5
19B9
  8
L1
 10
664.18320066608999
 20
7.2385408472732129
 30
0.0
  0
VERTEX
  5
19BA
  8
L1
 10
664.18322190972412
 20
7.2389461999611049
 30
0.0
  0
VERTEX
  5
19BB
  8
L1
 10
664.18322395565451
 20
7.2389852386405664
 30
0.0
  0
SEQEND
  5
19BC
  8
L1
  0
POLYLINE
  5
B55
  8
L1
 66
     1
 10
0.0
 20
0.0
 30
0.0
  0
VERTEX
  5
19BD
  8
L1
 10
664.18313592074639
 20
7.2373054325237831
 30
0.0
  0
VERTEX
  5
19BE
  8
L1
 10
664.18313574610966
 20
7.237302100256727
 30
0.0
  0
SEQEND
  5
19BF
  8
L1
  0
POLYLINE
  5
B56
  8
L1
 66
     1
 10
0.0
 20
0.0
 30
0.0
  0
VERTEX
  5
19C0
  8
L1
 10
676.29191174554489
 20
7.2388667128844304
 30
0.0
  0
VERTEX
  5
19C1
  8
L1
 10
674.53615295283953
 20
7.2386568055938483
 30
0.0
  0
VERTEX
  5
19C2
  8
L1
 10
674.0966759394837
 20
7.2381042767012209
 30
0.0
  0
VERTEX
  5
19C3
  8
L1
 10
673.74082964759975
 20
7.2375780598105726
 30
0.0
  0
VERTEX
  5
19C4
  8
L1
 10
673.09050933233357
 20
7.237517737584084
 30
0.0
  0
VERTEX
  5
19C5
  8
L1
 10
672.67703407229635
 20
7.2386901185945467
 30
0.0
  0
VERTEX
  5
19C6
  8
L1
 10
672.34554354058355
 20
7.2403082846061011
 30
0.0
  0
VERTEX
  5
19C7
  8
L1
 10
671.77296186832075
 20
7.2419132110439364
 30
0.0
  0
SEQEND
  5
19C8
  8
L1
  0
POLYLINE
  5
B57
  8
L1
 66
     1
 10
0.0
 20
0.0
 30
0.0
  0
VERTEX
  5
19C9
  8
L1
 10
678.14925257231721
 20
7.3610632765577293
 30
0.0
  0
VERTEX
  5
19CA
  8
L1
 10
678.26437959802593
 20
7.470314744626477
 30
0.0
  0
VERTEX
  5
19CB
  8
L1
 10
678.30323278273033
 20
7.5071850402150062
 30
0.0
  0
SEQEND
  5
19CC
  8
L1
  0
POLYLINE
  5
B58
  8
L1
 66
     1
 10
0.0
 20
0.0
 30
0.0
  0
VERTEX
  5
19CD
  8
L1
 10
678.07719808210777
 20
7.3031094659549458
 30
0.0
  0
VERTEX
  5
19CE
  8
L1
 10
678.14918407274206
 20
7.3609982728880254
 30
0.0
  0
SEQEND
  5
19CF
  8
L1
  0
POLYLINE
  5
B59
  8
L1
 66
     1
 10
0.0
 20
0.0
 30
0.0
  0
VERTEX
  5
19D0
  8
L1
 10
676.66171201032375
 20
7.2065698166226753
 30
0.0
  0
VERTEX
  5
19D1
  8
L1
 10
676.57356912338685
 20
7.2202123391081718
 30
0.0
  0
VERTEX
  5
19D2
  8
L1
 10
676.45424569674105
 20
7.2326787484248021
 30
0.0
  0
VERTEX
  5
19D3
  8
L1
 10
676.35721468155418
 20
7.2378516918947184
 30
0.0
  0
VERTEX
  5
19D4
  8
L1
 10
676.31389353180452
 20
7.2387453257478001
 30
0.0
  0
VERTEX
  5
19D5
  8
L1
 10
676.29191174554489
 20
7.2388667128844304
 30
0.0
  0
SEQEND
  5
19D6
  8
L1
  0
POLYLINE
  5
B5A
  8
L1
 66
     1
 10
0.0
 20
0.0
 30
0.0
  0
VERTEX
  5
19D7
  8
L1
 10
678.14925257231721
 20
7.3610632765577293
 30
0.0
  0
VERTEX
  5
19D8
  8
L1
 10
677.89902260205315
 20
7.2146073931683636
 30
0.0
  0
VERTEX
  5
19D9
  8
L1
 10
677.38737224442525
 20
7.1371913514034873
 30
0.0
  0
VERTEX
  5
19DA
  8
L1
 10
676.7149511829241
 20
7.197409424531144
 30
0.0
  0
VERTEX
  5
19DB
  8
L1
 10
676.66171201032375
 20
7.2065698166226753
 30
0.0
  0
SEQEND
  5
19DC
  8
L1
  0
POLYLINE
  5
B5B
  8
L1
 66
     1
 10
0.0
 20
0.0
 30
0.0
  0
VERTEX
  5
19DD
  8
L1
 10
676.18603807236514
 20
5.4980422792422701
 30
0.0
  0
VERTEX
  5
19DE
  8
L1
 10
676.23863356237246
 20
5.547953535628209
 30
0.0
  0
VERTEX
  5
19DF
  8
L1
 10
676.23938198227211
 20
5.5486637595939783
 30
0.0
  0
VERTEX
  5
19E0
  8
L1
 10
676.67150326267006
 20
5.9587315432152641
 30
0.0
  0
VERTEX
  5
19E1
  8
L1
 10
676.84180675600714
 20
6.1203435239797841
 30
0.0
  0
VERTEX
  5
19E2
  8
L1
 10
677.01278976758681
 20
6.2826003434790891
 30
0.0
  0
VERTEX
  5
19E3
  8
L1
 10
677.18432170651454
 20
6.4453780755814023
 30
0.0
  0
VERTEX
  5
19E4
  8
L1
 10
677.35627187220018
 20
6.608552690057877
 30
0.0
  0
VERTEX
  5
19E5
  8
L1
 10
677.52850948610467
 20
6.7720000827086997
 30
0.0
  0
VERTEX
  5
19E6
  8
L1
 10
677.70090369461195
 20
6.935596078089076
 30
0.0
  0
VERTEX
  5
19E7
  8
L1
 10
677.87332357212085
 20
7.0992164324422333
 30
0.0
  0
VERTEX
  5
19E8
  8
L1
 10
678.03917599628392
 20
7.2566045062767444
 30
0.0
  0
VERTEX
  5
19E9
  8
L1
 10
678.04563812500226
 20
7.2627368374561447
 30
0.0
  0
VERTEX
  5
19EA
  8
L1
 10
678.14925257231721
 20
7.3610632765577293
 30
0.0
  0
SEQEND
  5
19EB
  8
L1
  0
ENDSEC
  0
EOF
